999
NT  : 16.0 - 919
  0
SECTION
  2
HEADER
  9
$ACADVER
  1
AC1006
  9
$INSBASE
 10
0.000000000
 20
0.000000000
  9
$EXTMIN
 10
-94.635155845
 20
-60.205109036
  9
$EXTMAX
 10
85.635157035
 20
19.784208858
  9
$LIMMIN
 10
-94.635155845
 20
-60.205109036
  9
$LIMMAX
 10
85.635157035
 20
19.784208858
  9
$AUNITS
 70
     2
  9
$ANGBASE
 50
0.000
  9
$ANGDIR
 70
     0
  0
ENDSEC
  0
SECTION
  2
TABLES
  0
TABLE
  2
LTYPE
 70
     8
  0
LTYPE
  2
PUNKT
 70
    64
  3
..............
 72
    65
 73
     2
 40
1.500
 49
0.700
 49
-0.800
  0
LTYPE
  2
GESTRICHELT
 70
    64
  3
-- -- -- -- --
 72
    65
 73
     7
 40
2.800
 49
0.900
 49
0.000
 49
0.900
 49
0.000
 49
0.200
 49
0.000
 49
-0.800
  0
LTYPE
  2
STRICHPUNKT
 70
    64
  3
--.--.--.--.--
 72
    65
 73
     4
 40
8.800
 49
5.500
 49
-1.300
 49
0.700
 49
-1.300
  0
LTYPE
  2
STRICHPUNKT
 70
    64
  3
--.--.--.--.--
 72
    65
 73
     4
 40
8.800
 49
5.500
 49
-1.300
 49
0.700
 49
-1.300
  0
LTYPE
  2
STRICHPUNKT
 70
    64
  3
--.--.--.--.--
 72
    65
 73
     4
 40
8.800
 49
5.500
 49
-1.300
 49
0.700
 49
-1.300
  0
LTYPE
  2
PHANTOM
 70
    64
  3
--..--..--..--
 72
    65
 73
     6
 40
14.200
 49
7.000
 49
-1.800
 49
0.900
 49
-1.800
 49
0.900
 49
-1.800
  0
LTYPE
  2
PHANTOM
 70
    64
  3
--..--..--..--
 72
    65
 73
     6
 40
14.200
 49
7.000
 49
-1.800
 49
0.900
 49
-1.800
 49
0.900
 49
-1.800
  0
LTYPE
  2
PHANTOM
 70
    64
  3
--..--..--..--
 72
    65
 73
     6
 40
14.200
 49
7.000
 49
-1.800
 49
0.900
 49
-1.800
 49
0.900
 49
-1.800
  0
ENDTAB
  0
ENDSEC
  0
SECTION
  2
BLOCKS
  0
ENDSEC
  0
SECTION
  2
ENTITIES
  0
LINE
  8
ZAPFEN
  6
STRICHPUNKT
 62
     4
 10
1.198000000
 20
-5.055000000
 11
-8.043000000
 21
-5.055000000
  0
LINE
  8
AUFNAHME
  6
CONTINUOUS
 62
     7
 10
-11.500000000
 20
-2.268000000
 11
-1.479000000
 21
-0.501000000
  0
CIRCLE
  8
EW
  6
CONTINUOUS
 10
-3.423000000
 20
-5.055000000
 40
2.120000000
  0
LINE
  8
AUFNAHME
  6
CONTINUOUS
 62
     7
 10
-20.684000000
 20
-12.000000000
 11
-20.184000000
 21
-12.500000000
  0
LINE
  8
AUFNAHME
  6
CONTINUOUS
 62
     7
 10
-28.316000000
 20
-12.000000000
 11
-28.816000000
 21
-12.500000000
  0
ARC
  8
AUFNAHME
  6
CONTINUOUS
 62
     7
 10
-24.500000000
 20
44.600000000
 40
50.654000000
 50
-103.978761435
 51
-75.965502262
  0
LINE
  8
AUFNAHME
  6
CONTINUOUS
 62
     7
 10
-39.000000000
 20
-12.500000000
 11
-28.816000000
 21
-12.500000000
  0
LINE
  8
AUFNAHME
  6
CONTINUOUS
 62
     7
 10
-36.000000000
 20
-3.000000000
 11
-31.500000000
 21
-3.000000000
  0
ARC
  8
AUFNAHME
  6
CONTINUOUS
 62
     7
 10
-36.000000000
 20
-6.000000000
 40
3.000000000
 50
90.000000000
 51
180.000000000
  0
ARC
  8
AUFNAHME
  6
CONTINUOUS
 62
     7
 10
-24.500000000
 20
57.453000000
 40
60.857000000
 50
-96.605046789
 51
-90.000000000
  0
ARC
  8
AUFNAHME
  6
CONTINUOUS
 62
     7
 10
-24.500000000
 20
57.453000000
 40
60.853000000
 50
-90.000000000
 51
-83.394931973
  0
LINE
  8
AUFNAHME
  6
CONTINUOUS
 62
     7
 10
-10.000000000
 20
-12.500000000
 11
-10.000000000
 21
-6.000000000
  0
LINE
  8
AUFNAHME
  6
CONTINUOUS
 62
     7
 10
-39.000000000
 20
-12.500000000
 11
-39.000000000
 21
-6.000000000
  0
LINE
  8
ZAPFEN
  6
STRICHPUNKT
 62
     4
 10
-24.500000000
 20
-14.500000000
 11
-24.500000000
 21
-1.000000000
  0
ARC
  8
AUFNAHME
  6
CONTINUOUS
 62
     7
 10
-13.000000000
 20
-6.000000000
 40
3.000000000
 50
0.000000000
 51
90.000000000
  0
LINE
  8
AUFNAHME
  6
CONTINUOUS
 62
     7
 10
-17.500000000
 20
-3.000000000
 11
-13.000000000
 21
-3.000000000
  0
LINE
  8
AUFNAHME
  6
CONTINUOUS
 62
     7
 10
-2.524000000
 20
-12.500000000
 11
-0.946000000
 21
-11.002000000
  0
LINE
  8
AUFNAHME
  6
CONTINUOUS
 62
     7
 10
-20.184000000
 20
-12.500000000
 11
-2.524000000
 21
-12.500000000
  0
LINE
  8
AUFNAHME
  6
CONTINUOUS
 62
     7
 10
-12.018000000
 20
-3.165000000
 11
-11.500000000
 21
-2.268000000
  0
ARC
  8
EW
  6
CONTINUOUS
 10
-0.903000000
 20
-10.000000000
 40
0.400000000
 50
-123.000108004
 51
-2.999997139
  0
LINE
  8
EW
  6
CONTINUOUS
 10
0.000551359
 20
-0.420992152
 11
-0.504000000
 21
-10.021000000
  0
ARC
  8
EW
  6
CONTINUOUS
 10
-0.400000000
 20
-0.400000000
 40
0.400000000
 50
-2.999997139
 51
117.000049353
  0
LINE
  8
EW
  6
CONTINUOUS
 10
-1.121000000
 20
-10.335000000
 11
-9.183000000
 21
-5.100000000
  0
LINE
  8
EW
  6
CONTINUOUS
 10
-9.147000000
 20
-4.408000000
 11
-0.582000000
 21
-0.044000000
  0
ARC
  8
EW
  6
CONTINUOUS
 10
-8.965000000
 20
-4.764000000
 40
0.400000000
 50
117.000017166
 51
-123.000011444
  0
ARC
  8
AUFNAHME
  6
CONTINUOUS
 62
     7
 10
-8.376000000
 20
-4.795000000
 40
1.600000000
 50
87.000003532
 51
-92.999997139
  0
LINE
  8
AUFNAHME
  6
CONTINUOUS
 62
     7
 10
-0.916000000
 20
-10.427000000
 11
-0.946000000
 21
-11.002000000
  0
LINE
  8
AUFNAHME
  6
CONTINUOUS
 62
     7
 10
-8.460000000
 20
-6.393000000
 11
-7.080000000
 21
-6.465000000
  0
LINE
  8
AUFNAHME
  6
CONTINUOUS
 62
     7
 10
-8.292000000
 20
-3.197000000
 11
-6.913000000
 21
-3.270000000
  0
LINE
  8
AUFNAHME
  6
CONTINUOUS
 62
     7
 10
-1.979000000
 20
-0.756000000
 11
-2.057000000
 21
-0.603000000
  0
LINE
  8
AUFNAHME
  6
CONTINUOUS
 62
     7
 10
-28.316000000
 20
-12.000000000
 11
-28.049000000
 21
-10.400000000
  0
LINE
  8
AUFNAHME
  6
CONTINUOUS
 62
     7
 10
-20.684000000
 20
-12.000000000
 11
-20.951000000
 21
-10.400000000
  0
LINE
  8
AUFNAHME
  6
CONTINUOUS
 62
     7
 10
-28.049000000
 20
-10.400000000
 11
-20.951000000
 21
-10.400000000
  0
LINE
  8
ZAPFEN
  6
STRICHPUNKT
 62
     4
 10
-3.423000000
 20
-9.675000000
 11
-3.423000000
 21
-5.055000000
  0
LINE
  8
ZAPFEN
  6
STRICHPUNKT
 62
     4
 10
-3.423000000
 20
-5.055000000
 11
-3.423000000
 21
-0.434000000
  0
LINE
  8
TEXT
  6
CONTINUOUS
 62
     4
 10
-1.592000000
 20
-7.378000000
 11
5.531000000
 21
8.563000000
  0
LINE
  8
TEXT
  6
CONTINUOUS
 62
     4
 10
5.531000000
 20
8.563000000
 11
27.397000000
 21
8.563000000
  0
LINE
  8
MASS
  6
CONTINUOUS
 62
     4
 10
-24.500000000
 20
16.000000000
 11
-24.500000000
 21
-1.000000000
  0
LINE
  8
MASS
  6
CONTINUOUS
 62
     4
 10
-24.500000000
 20
14.000000000
 11
-20.999999993
 21
14.449999946
  0
LINE
  8
MASS
  6
CONTINUOUS
 62
     4
 10
-20.999999993
 20
14.449999946
 11
-21.000000007
 21
13.549999946
  0
LINE
  8
MASS
  6
CONTINUOUS
 62
     4
 10
-21.000000007
 20
13.549999946
 11
-24.500000000
 21
14.000000000
  0
LINE
  8
MASS
  6
CONTINUOUS
 62
     4
 10
0.000000000
 20
15.999999619
 11
0.000000000
 21
-0.400000000
  0
LINE
  8
MASS
  6
CONTINUOUS
 62
     4
 10
0.000000000
 20
13.999999619
 11
-3.500000007
 21
13.549999673
  0
LINE
  8
MASS
  6
CONTINUOUS
 62
     4
 10
-3.500000007
 20
13.549999673
 11
-3.499999993
 21
14.449999673
  0
LINE
  8
MASS
  6
CONTINUOUS
 62
     4
 10
-3.499999993
 20
14.449999673
 11
0.000000000
 21
13.999999619
  0
LINE
  8
MASS
  6
CONTINUOUS
 62
     4
 10
-21.000000000
 20
13.999999946
 11
-3.500000000
 21
13.999999673
  0
TEXT
  8
MASS
  6
CONTINUOUS
 62
     4
 10
-15.418594000
 20
15.499999859
 40
3.500000000
  1
24.5
 50
359.999999108
 41
1.000
 51
0.000000000
  7
STANDARD
  0
LINE
  8
MASS
  6
CONTINUOUS
 62
     4
 10
19.999998724
 20
0.000000892
 11
-0.400000000
 21
0.000000000
  0
LINE
  8
MASS
  6
CONTINUOUS
 62
     4
 10
17.999998724
 20
0.000000804
 11
18.449998877
 21
-3.499999176
  0
LINE
  8
MASS
  6
CONTINUOUS
 62
     4
 10
18.449998877
 20
-3.499999176
 11
17.549998877
 21
-3.499999215
  0
LINE
  8
MASS
  6
CONTINUOUS
 62
     4
 10
17.549998877
 20
-3.499999215
 11
17.999998724
 21
0.000000804
  0
LINE
  8
MASS
  6
CONTINUOUS
 62
     4
 10
18.000001177
 20
-56.113199792
 11
17.999998877
 21
-3.499999196
  0
CIRCLE
  8
MASS
  6
CONTINUOUS
 62
     4
 10
15.250000554
 20
-41.869725241
 40
1.250000000
  0
LINE
  8
MASS
  6
CONTINUOUS
 62
     4
 10
16.500000609
 20
-43.119725187
 11
14.000000499
 21
-40.619725296
  0
TEXT
  8
MASS
  6
CONTINUOUS
 62
     4
 10
16.500000456
 20
-39.619725187
 40
3.500000000
  1
68-100  (EWN68)
 50
90.000002504
 41
1.000
 51
0.000000000
  7
STANDARD
  0
LINE
  8
MASS
  6
CONTINUOUS
 62
     4
 10
25.999998601
 20
0.000001154
 11
-0.400000000
 21
0.000000000
  0
LINE
  8
MASS
  6
CONTINUOUS
 62
     4
 10
23.999998601
 20
0.000001067
 11
24.449998754
 21
-3.499998914
  0
LINE
  8
MASS
  6
CONTINUOUS
 62
     4
 10
24.449998754
 20
-3.499998914
 11
23.549998754
 21
-3.499998953
  0
LINE
  8
MASS
  6
CONTINUOUS
 62
     4
 10
23.549998754
 20
-3.499998953
 11
23.999998601
 21
0.000001067
  0
LINE
  8
MASS
  6
CONTINUOUS
 62
     4
 10
24.000001189
 20
-59.211899914
 11
23.999998754
 21
-3.499998933
  0
CIRCLE
  8
MASS
  6
CONTINUOUS
 62
     4
 10
21.250000540
 20
-44.376106456
 40
1.250000000
  0
LINE
  8
MASS
  6
CONTINUOUS
 62
     4
 10
22.500000595
 20
-45.626106401
 11
20.000000486
 21
-43.126106510
  0
TEXT
  8
MASS
  6
CONTINUOUS
 62
     4
 10
22.500000442
 20
-42.126106401
 40
3.500000000
  1
100-153 (EWN100)
 50
90.000002504
 41
1.000
 51
0.000000000
  7
STANDARD
  0
LINE
  8
MASS
  6
CONTINUOUS
 62
     4
 10
31.999998592
 20
0.000001416
 11
-0.400000000
 21
0.000000000
  0
LINE
  8
MASS
  6
CONTINUOUS
 62
     4
 10
29.999998592
 20
0.000001329
 11
30.449998745
 21
-3.499998652
  0
LINE
  8
MASS
  6
CONTINUOUS
 62
     4
 10
30.449998745
 20
-3.499998652
 11
29.549998745
 21
-3.499998691
  0
LINE
  8
MASS
  6
CONTINUOUS
 62
     4
 10
29.549998745
 20
-3.499998691
 11
29.999998592
 21
0.000001329
  0
LINE
  8
MASS
  6
CONTINUOUS
 62
     4
 10
30.000001190
 20
-59.420900037
 11
29.999998745
 21
-3.499998671
  0
CIRCLE
  8
MASS
  6
CONTINUOUS
 62
     4
 10
27.250000587
 20
-45.629043888
 40
1.250000000
  0
LINE
  8
MASS
  6
CONTINUOUS
 62
     4
 10
28.500000642
 20
-46.879043834
 11
26.000000532
 21
-44.379043943
  0
TEXT
  8
MASS
  6
CONTINUOUS
 62
     4
 10
28.500000489
 20
-43.379043834
 40
3.500000000
  1
150-1180  (EWN150)
 50
90.000002504
 41
1.000
 51
0.000000000
  7
STANDARD
  0
TEXT
  8
TEXT
  6
CONTINUOUS
 62
     4
 10
6.044928097
 20
9.777493527
 40
3.500000000
  1
TCGW110204
 50
0.000000000
 41
1.000
 51
0.000000000
  7
STANDARD
  0
ENDSEC
  0
EOF
