ISO-10303-21;
HEADER;
FILE_DESCRIPTION((''),'1');
FILE_NAME('T:/02_3D_Field-HP\X2\FF71FF6FFF8CFF9F5916\X0\/02_Step_Field-HP\X2\FF71FF6FFF8CFF9F5916\X0\/71_\X2\5207524A5DE55177\X0\/09_\X2\FF8CFF99FF76FF6FFF84FF90FF99\X0\FCM/FMH27-FCM100116-50.stp','2021-01-08T01:23:35',(''),(''),'Spatial Interop R21 SP3','Kubotek KeyCreator 2011 V10.0.2 (22737)',' ');
FILE_SCHEMA(('automotive_design'));
ENDSEC;
DATA;
#1=MECHANICAL_DESIGN_GEOMETRIC_PRESENTATION_REPRESENTATION(' ',(#10,#11,#12,#13,#14,#15,#16,#17,#18,#19,#20,#21,#22,#23,#24,#25,#26,#27,#28,#29,#30,#31),#6);
#2=PRODUCT_DEFINITION_CONTEXT('',#32,'design');
#3=APPLICATION_PROTOCOL_DEFINITION('INTERNATIONAL STANDARD','automotive_design',1994,#32);
#4=PRODUCT_CATEGORY_RELATIONSHIP('NONE','NONE',#33,#34);
#5=SHAPE_DEFINITION_REPRESENTATION(#35,#36);
#6= (GEOMETRIC_REPRESENTATION_CONTEXT(3)GLOBAL_UNCERTAINTY_ASSIGNED_CONTEXT((#39))GLOBAL_UNIT_ASSIGNED_CONTEXT((#41,#42,#43))REPRESENTATION_CONTEXT('NONE','WORKSPACE'));
#10=STYLED_ITEM('',(#45,#46),#47);
#11=STYLED_ITEM('',(#48,#49),#50);
#12=STYLED_ITEM('',(#51,#52),#53);
#13=STYLED_ITEM('',(#54,#55),#56);
#14=STYLED_ITEM('',(#57,#58),#59);
#15=STYLED_ITEM('',(#60,#61),#62);
#16=STYLED_ITEM('',(#63),#64);
#17=STYLED_ITEM('',(#65),#66);
#18=STYLED_ITEM('',(#67),#68);
#19=STYLED_ITEM('',(#69),#70);
#20=STYLED_ITEM('',(#71,#72),#73);
#21=STYLED_ITEM('',(#74),#75);
#22=STYLED_ITEM('',(#76),#77);
#23=STYLED_ITEM('',(#78,#79),#80);
#24=STYLED_ITEM('',(#81,#82),#83);
#25=STYLED_ITEM('',(#84),#85);
#26=STYLED_ITEM('',(#86,#87),#88);
#27=STYLED_ITEM('',(#89),#90);
#28=STYLED_ITEM('',(#91),#92);
#29=STYLED_ITEM('',(#93),#94);
#30=STYLED_ITEM('',(#95,#96),#97);
#31=STYLED_ITEM('',(#98,#99),#100);
#32=APPLICATION_CONTEXT(' ');
#33=PRODUCT_CATEGORY('part','NONE');
#34=PRODUCT_RELATED_PRODUCT_CATEGORY('detail',' ',(#101));
#35=PRODUCT_DEFINITION_SHAPE('NONE','NONE',#102);
#36=ADVANCED_BREP_SHAPE_REPRESENTATION('240[2]',(#53,#103),#6);
#39=UNCERTAINTY_MEASURE_WITH_UNIT(LENGTH_MEASURE(1.0E-006),#41,'','');
#41= (CONVERSION_BASED_UNIT('MILLIMETRE',#106)LENGTH_UNIT()NAMED_UNIT(#109));
#42= (NAMED_UNIT(#111)PLANE_ANGLE_UNIT()SI_UNIT($,.RADIAN.));
#43= (NAMED_UNIT(#111)SOLID_ANGLE_UNIT()SI_UNIT($,.STERADIAN.));
#45=PRESENTATION_STYLE_ASSIGNMENT((#117));
#46=PRESENTATION_STYLE_ASSIGNMENT((#118));
#47=ADVANCED_FACE('240[2]',(#119),#120,.T.);
#48=PRESENTATION_STYLE_ASSIGNMENT((#121));
#49=PRESENTATION_STYLE_ASSIGNMENT((#122));
#50=ADVANCED_FACE('240[2]',(#123),#124,.T.);
#51=PRESENTATION_STYLE_ASSIGNMENT((#125));
#52=PRESENTATION_STYLE_ASSIGNMENT((#126));
#53=MANIFOLD_SOLID_BREP('240[2]',#127);
#54=PRESENTATION_STYLE_ASSIGNMENT((#128));
#55=PRESENTATION_STYLE_ASSIGNMENT((#129));
#56=ADVANCED_FACE('240[2]',(#130,#131),#132,.T.);
#57=PRESENTATION_STYLE_ASSIGNMENT((#133));
#58=PRESENTATION_STYLE_ASSIGNMENT((#134));
#59=ADVANCED_FACE('240[2]',(#135,#136),#137,.T.);
#60=PRESENTATION_STYLE_ASSIGNMENT((#138));
#61=PRESENTATION_STYLE_ASSIGNMENT((#139));
#62=ADVANCED_FACE('240[2]',(#140,#141),#142,.T.);
#63=PRESENTATION_STYLE_ASSIGNMENT((#143));
#64=EDGE_CURVE('240[2]',#144,#144,#145,.T.);
#65=PRESENTATION_STYLE_ASSIGNMENT((#146));
#66=EDGE_CURVE('240[2]',#147,#147,#148,.T.);
#67=PRESENTATION_STYLE_ASSIGNMENT((#149));
#68=EDGE_CURVE('240[2]',#150,#150,#151,.T.);
#69=PRESENTATION_STYLE_ASSIGNMENT((#152));
#70=EDGE_CURVE('240[2]',#153,#153,#154,.T.);
#71=PRESENTATION_STYLE_ASSIGNMENT((#155));
#72=PRESENTATION_STYLE_ASSIGNMENT((#156));
#73=ADVANCED_FACE('240[2]',(#157,#158),#159,.T.);
#74=PRESENTATION_STYLE_ASSIGNMENT((#160));
#75=EDGE_CURVE('240[2]',#161,#161,#162,.T.);
#76=PRESENTATION_STYLE_ASSIGNMENT((#163));
#77=EDGE_CURVE('240[2]',#164,#164,#165,.T.);
#78=PRESENTATION_STYLE_ASSIGNMENT((#166));
#79=PRESENTATION_STYLE_ASSIGNMENT((#167));
#80=ADVANCED_FACE('240[2]',(#168,#169),#170,.T.);
#81=PRESENTATION_STYLE_ASSIGNMENT((#171));
#82=PRESENTATION_STYLE_ASSIGNMENT((#172));
#83=ADVANCED_FACE('240[2]',(#173,#174),#175,.T.);
#84=PRESENTATION_STYLE_ASSIGNMENT((#176));
#85=EDGE_CURVE('240[2]',#177,#177,#178,.T.);
#86=PRESENTATION_STYLE_ASSIGNMENT((#179));
#87=PRESENTATION_STYLE_ASSIGNMENT((#180));
#88=ADVANCED_FACE('240[2]',(#181,#182),#183,.T.);
#89=PRESENTATION_STYLE_ASSIGNMENT((#184));
#90=EDGE_CURVE('240[2]',#185,#185,#186,.T.);
#91=PRESENTATION_STYLE_ASSIGNMENT((#187));
#92=EDGE_CURVE('240[2]',#188,#188,#189,.T.);
#93=PRESENTATION_STYLE_ASSIGNMENT((#190));
#94=EDGE_CURVE('240[2]',#191,#191,#192,.T.);
#95=PRESENTATION_STYLE_ASSIGNMENT((#193));
#96=PRESENTATION_STYLE_ASSIGNMENT((#194));
#97=ADVANCED_FACE('240[2]',(#195,#196),#197,.T.);
#98=PRESENTATION_STYLE_ASSIGNMENT((#198));
#99=PRESENTATION_STYLE_ASSIGNMENT((#199));
#100=ADVANCED_FACE('240[2]',(#200,#201),#202,.T.);
#101=PRODUCT('240[2]','240[2]','PART-240[2]-DESC',(#203));
#102=PRODUCT_DEFINITION('NONE','NONE',#204,#2);
#103=AXIS2_PLACEMENT_3D('',#205,#206,#207);
#106=LENGTH_MEASURE_WITH_UNIT(LENGTH_MEASURE(1.0),#208);
#109=DIMENSIONAL_EXPONENTS(1.0,0.0,0.0,0.0,0.0,0.0,0.0);
#111=DIMENSIONAL_EXPONENTS(0.0,0.0,0.0,0.0,0.0,0.0,0.0);
#117=SURFACE_STYLE_USAGE(.BOTH.,#209);
#118=CURVE_STYLE('',#210,POSITIVE_LENGTH_MEASURE(1000.0),#211);
#119=FACE_OUTER_BOUND('',#212,.T.);
#120=PLANE('',#213);
#121=SURFACE_STYLE_USAGE(.BOTH.,#214);
#122=CURVE_STYLE('',#215,POSITIVE_LENGTH_MEASURE(1000.0),#216);
#123=FACE_OUTER_BOUND('',#217,.T.);
#124=PLANE('',#218);
#125=SURFACE_STYLE_USAGE(.BOTH.,#219);
#126=CURVE_STYLE('',#220,POSITIVE_LENGTH_MEASURE(1000.0),#221);
#127=CLOSED_SHELL('',(#73,#56,#88,#47,#50,#59,#97,#62,#80,#83,#100));
#128=SURFACE_STYLE_USAGE(.BOTH.,#222);
#129=CURVE_STYLE('',#223,POSITIVE_LENGTH_MEASURE(1000.0),#224);
#130=FACE_OUTER_BOUND('',#225,.T.);
#131=FACE_BOUND('',#226,.T.);
#132=PLANE('',#227);
#133=SURFACE_STYLE_USAGE(.BOTH.,#228);
#134=CURVE_STYLE('',#229,POSITIVE_LENGTH_MEASURE(1000.0),#230);
#135=FACE_BOUND('',#231,.T.);
#136=FACE_BOUND('',#232,.T.);
#137=CYLINDRICAL_SURFACE('',#233,37.9999997358175);
#138=SURFACE_STYLE_USAGE(.BOTH.,#234);
#139=CURVE_STYLE('',#235,POSITIVE_LENGTH_MEASURE(1000.0),#236);
#140=FACE_BOUND('',#237,.T.);
#141=FACE_BOUND('',#238,.T.);
#142=CYLINDRICAL_SURFACE('',#239,40.9999997358175);
#143=CURVE_STYLE('',#240,POSITIVE_LENGTH_MEASURE(1000.0),#241);
#144=VERTEX_POINT('',#242);
#145=CIRCLE('',#243,49.5943233874);
#146=CURVE_STYLE('',#244,POSITIVE_LENGTH_MEASURE(1000.0),#245);
#147=VERTEX_POINT('',#246);
#148=CIRCLE('',#247,37.9999997358175);
#149=CURVE_STYLE('',#248,POSITIVE_LENGTH_MEASURE(1000.0),#249);
#150=VERTEX_POINT('',#250);
#151=CIRCLE('',#251,40.9999997358177);
#152=CURVE_STYLE('',#252,POSITIVE_LENGTH_MEASURE(1000.0),#253);
#153=VERTEX_POINT('',#254);
#154=CIRCLE('',#255,37.9999997358176);
#155=SURFACE_STYLE_USAGE(.BOTH.,#256);
#156=CURVE_STYLE('',#257,POSITIVE_LENGTH_MEASURE(1000.0),#258);
#157=FACE_BOUND('',#259,.T.);
#158=FACE_BOUND('',#260,.T.);
#159=CONICAL_SURFACE('',#261,49.2937096502087,1.34394707922112);
#160=CURVE_STYLE('',#262,POSITIVE_LENGTH_MEASURE(1000.0),#263);
#161=VERTEX_POINT('',#264);
#162=CIRCLE('',#265,49.9999997358176);
#163=CURVE_STYLE('',#266,POSITIVE_LENGTH_MEASURE(1000.0),#267);
#164=VERTEX_POINT('',#268);
#165=CIRCLE('',#269,40.9999997358173);
#166=SURFACE_STYLE_USAGE(.BOTH.,#270);
#167=CURVE_STYLE('',#271,POSITIVE_LENGTH_MEASURE(1000.0),#272);
#168=FACE_BOUND('',#273,.T.);
#169=FACE_BOUND('',#274,.T.);
#170=CONICAL_SURFACE('',#275,42.056252178916,0.371873451251404);
#171=SURFACE_STYLE_USAGE(.BOTH.,#276);
#172=CURVE_STYLE('',#277,POSITIVE_LENGTH_MEASURE(1000.0),#278);
#173=FACE_BOUND('',#279,.T.);
#174=FACE_BOUND('',#280,.T.);
#175=CONICAL_SURFACE('',#281,46.0528002675158,0.743746902502821);
#176=CURVE_STYLE('',#282,POSITIVE_LENGTH_MEASURE(1000.0),#283);
#177=VERTEX_POINT('',#284);
#178=CIRCLE('',#285,43.1125046220142);
#179=SURFACE_STYLE_USAGE(.BOTH.,#286);
#180=CURVE_STYLE('',#287,POSITIVE_LENGTH_MEASURE(1000.0),#288);
#181=FACE_BOUND('',#289,.T.);
#182=FACE_BOUND('',#290,.T.);
#183=CYLINDRICAL_SURFACE('',#291,49.9999997358176);
#184=CURVE_STYLE('',#292,POSITIVE_LENGTH_MEASURE(1000.0),#293);
#185=VERTEX_POINT('',#294);
#186=CIRCLE('',#295,48.9930959130173);
#187=CURVE_STYLE('',#296,POSITIVE_LENGTH_MEASURE(1000.0),#297);
#188=VERTEX_POINT('',#298);
#189=CIRCLE('',#299,48.9930959130173);
#190=CURVE_STYLE('',#300,POSITIVE_LENGTH_MEASURE(1000.0),#301);
#191=VERTEX_POINT('',#302);
#192=CIRCLE('',#303,49.9999997358176);
#193=SURFACE_STYLE_USAGE(.BOTH.,#304);
#194=CURVE_STYLE('',#305,POSITIVE_LENGTH_MEASURE(1000.0),#306);
#195=FACE_BOUND('',#307,.T.);
#196=FACE_BOUND('',#308,.T.);
#197=CONICAL_SURFACE('',#309,39.4999997358175,1.06225772265659);
#198=SURFACE_STYLE_USAGE(.BOTH.,#310);
#199=CURVE_STYLE('',#311,POSITIVE_LENGTH_MEASURE(1000.0),#312);
#200=FACE_BOUND('',#313,.T.);
#201=FACE_BOUND('',#314,.T.);
#202=CYLINDRICAL_SURFACE('',#315,48.9930959130173);
#203=PRODUCT_CONTEXT('',#32,'mechanical');
#204=PRODUCT_DEFINITION_FORMATION_WITH_SPECIFIED_SOURCE(' ','NONE',#101,.NOT_KNOWN.);
#205=CARTESIAN_POINT('',(0.0,0.0,0.0));
#206=DIRECTION('',(0.0,0.0,1.0));
#207=DIRECTION('',(1.0,0.0,0.0));
#208= (NAMED_UNIT(#109)LENGTH_UNIT()SI_UNIT(.MILLI.,.METRE.));
#209=SURFACE_SIDE_STYLE('',(#317));
#210=DRAUGHTING_PRE_DEFINED_CURVE_FONT('continuous');
#211=COLOUR_RGB('',0.752941191196442,0.752941191196442,0.752941191196442);
#212=EDGE_LOOP('',(#318));
#213=AXIS2_PLACEMENT_3D('',#319,#320,#321);
#214=SURFACE_SIDE_STYLE('',(#322));
#215=DRAUGHTING_PRE_DEFINED_CURVE_FONT('continuous');
#216=COLOUR_RGB('',0.752941191196442,0.752941191196442,0.752941191196442);
#217=EDGE_LOOP('',(#323));
#218=AXIS2_PLACEMENT_3D('',#324,#325,#326);
#219=SURFACE_SIDE_STYLE('',(#327));
#220=DRAUGHTING_PRE_DEFINED_CURVE_FONT('continuous');
#221=COLOUR_RGB('',0.752941191196442,0.752941191196442,0.752941191196442);
#222=SURFACE_SIDE_STYLE('',(#328));
#223=DRAUGHTING_PRE_DEFINED_CURVE_FONT('continuous');
#224=COLOUR_RGB('',0.752941191196442,0.752941191196442,0.752941191196442);
#225=EDGE_LOOP('',(#329));
#226=EDGE_LOOP('',(#330));
#227=AXIS2_PLACEMENT_3D('',#331,#332,#333);
#228=SURFACE_SIDE_STYLE('',(#334));
#229=DRAUGHTING_PRE_DEFINED_CURVE_FONT('continuous');
#230=COLOUR_RGB('',0.752941191196442,0.752941191196442,0.752941191196442);
#231=EDGE_LOOP('',(#335));
#232=EDGE_LOOP('',(#336));
#233=AXIS2_PLACEMENT_3D('',#337,#338,#339);
#234=SURFACE_SIDE_STYLE('',(#340));
#235=DRAUGHTING_PRE_DEFINED_CURVE_FONT('continuous');
#236=COLOUR_RGB('',0.752941191196442,0.752941191196442,0.752941191196442);
#237=EDGE_LOOP('',(#341));
#238=EDGE_LOOP('',(#342));
#239=AXIS2_PLACEMENT_3D('',#343,#344,#345);
#240=DRAUGHTING_PRE_DEFINED_CURVE_FONT('continuous');
#241=COLOUR_RGB('',0.752941191196442,0.752941191196442,0.752941191196442);
#242=CARTESIAN_POINT('',(2.28298624177147E-015,49.5943233874001,-37.2839947544218));
#243=AXIS2_PLACEMENT_3D('',#346,#347,#348);
#244=DRAUGHTING_PRE_DEFINED_CURVE_FONT('continuous');
#245=COLOUR_RGB('',0.752941191196442,0.752941191196442,0.752941191196442);
#246=CARTESIAN_POINT('',(-1.2705063099533E-029,37.9999997358175,2.04493757804407E-013));
#247=AXIS2_PLACEMENT_3D('',#349,#350,#351);
#248=DRAUGHTING_PRE_DEFINED_CURVE_FONT('continuous');
#249=COLOUR_RGB('',0.752941191196442,0.752941191196442,0.752941191196442);
#250=CARTESIAN_POINT('',(1.30301438676718E-015,40.9999997358177,-21.2798398309519));
#251=AXIS2_PLACEMENT_3D('',#352,#353,#354);
#252=DRAUGHTING_PRE_DEFINED_CURVE_FONT('continuous');
#253=COLOUR_RGB('',0.752941191196442,0.752941191196442,0.752941191196442);
#254=CARTESIAN_POINT('',(6.32387711611551E-016,37.9999997358176,-10.3276750823477));
#255=AXIS2_PLACEMENT_3D('',#355,#356,#357);
#256=SURFACE_SIDE_STYLE('',(#358));
#257=DRAUGHTING_PRE_DEFINED_CURVE_FONT('continuous');
#258=COLOUR_RGB('',0.752941191196442,0.752941191196442,0.752941191196442);
#259=EDGE_LOOP('',(#359));
#260=EDGE_LOOP('',(#360));
#261=AXIS2_PLACEMENT_3D('',#361,#362,#363);
#262=DRAUGHTING_PRE_DEFINED_CURVE_FONT('continuous');
#263=COLOUR_RGB('',0.752941191196442,0.752941191196442,0.752941191196442);
#264=CARTESIAN_POINT('',(3.0616222056789E-015,49.9999997358176,-50.0000850500001));
#265=AXIS2_PLACEMENT_3D('',#364,#365,#366);
#266=DRAUGHTING_PRE_DEFINED_CURVE_FONT('continuous');
#267=COLOUR_RGB('',0.752941191196442,0.752941191196442,0.752941191196442);
#268=CARTESIAN_POINT('',(7.34788079488387E-016,40.9999997358173,-11.9999999999996));
#269=AXIS2_PLACEMENT_3D('',#367,#368,#369);
#270=SURFACE_SIDE_STYLE('',(#370));
#271=DRAUGHTING_PRE_DEFINED_CURVE_FONT('continuous');
#272=COLOUR_RGB('',0.752941191196442,0.752941191196442,0.752941191196442);
#273=EDGE_LOOP('',(#371));
#274=EDGE_LOOP('',(#372));
#275=AXIS2_PLACEMENT_3D('',#373,#374,#375);
#276=SURFACE_SIDE_STYLE('',(#376));
#277=DRAUGHTING_PRE_DEFINED_CURVE_FONT('continuous');
#278=COLOUR_RGB('',0.752941191196442,0.752941191196442,0.752941191196442);
#279=EDGE_LOOP('',(#377));
#280=EDGE_LOOP('',(#378));
#281=AXIS2_PLACEMENT_3D('',#379,#380,#381);
#282=DRAUGHTING_PRE_DEFINED_CURVE_FONT('continuous');
#283=COLOUR_RGB('',0.752941191196442,0.752941191196442,0.752941191196442);
#284=CARTESIAN_POINT('',(1.6346733025789E-015,43.1125046220142,-26.6962409686944));
#285=AXIS2_PLACEMENT_3D('',#382,#383,#384);
#286=SURFACE_SIDE_STYLE('',(#385));
#287=DRAUGHTING_PRE_DEFINED_CURVE_FONT('continuous');
#288=COLOUR_RGB('',0.752941191196442,0.752941191196442,0.752941191196442);
#289=EDGE_LOOP('',(#386));
#290=EDGE_LOOP('',(#387));
#291=AXIS2_PLACEMENT_3D('',#388,#389,#390);
#292=DRAUGHTING_PRE_DEFINED_CURVE_FONT('continuous');
#293=COLOUR_RGB('',0.752941191196442,0.752941191196442,0.752941191196442);
#294=CARTESIAN_POINT('',(2.2744886186917E-015,48.9930959130173,-37.145218037973));
#295=AXIS2_PLACEMENT_3D('',#391,#392,#393);
#296=DRAUGHTING_PRE_DEFINED_CURVE_FONT('continuous');
#297=COLOUR_RGB('',0.752941191196442,0.752941191196442,0.752941191196442);
#298=CARTESIAN_POINT('',(2.02607399670562E-015,48.9930959130173,-33.0882993874846));
#299=AXIS2_PLACEMENT_3D('',#394,#395,#396);
#300=DRAUGHTING_PRE_DEFINED_CURVE_FONT('continuous');
#301=COLOUR_RGB('',0.752941191196442,0.752941191196442,0.752941191196442);
#302=CARTESIAN_POINT('',(2.28298624177147E-015,49.9999997358176,-37.2839947544218));
#303=AXIS2_PLACEMENT_3D('',#397,#398,#399);
#304=SURFACE_SIDE_STYLE('',(#400));
#305=DRAUGHTING_PRE_DEFINED_CURVE_FONT('continuous');
#306=COLOUR_RGB('',0.752941191196442,0.752941191196442,0.752941191196442);
#307=EDGE_LOOP('',(#401));
#308=EDGE_LOOP('',(#402));
#309=AXIS2_PLACEMENT_3D('',#403,#404,#405);
#310=SURFACE_SIDE_STYLE('',(#406));
#311=DRAUGHTING_PRE_DEFINED_CURVE_FONT('continuous');
#312=COLOUR_RGB('',0.752941191196442,0.752941191196442,0.752941191196442);
#313=EDGE_LOOP('',(#407));
#314=EDGE_LOOP('',(#408));
#315=AXIS2_PLACEMENT_3D('',#409,#410,#411);
#317=SURFACE_STYLE_FILL_AREA(#412);
#318=ORIENTED_EDGE('',*,*,#75,.T.);
#319=CARTESIAN_POINT('',(3.0616222056789E-015,24.9999998679088,-50.0000850500001));
#320=DIRECTION('',(6.12323399573677E-017,1.22464679914735E-016,-1.0));
#321=DIRECTION('',(-1.23259516440783E-032,1.0,1.22464679914735E-016));
#322=SURFACE_STYLE_FILL_AREA(#413);
#323=ORIENTED_EDGE('',*,*,#66,.F.);
#324=CARTESIAN_POINT('',(-6.35253277441331E-030,18.9999998679088,1.02246898902203E-013));
#325=DIRECTION('',(-6.12323399573677E-017,-1.22464679914735E-016,1.0));
#326=DIRECTION('',(1.0,4.82715273076902E-033,6.12323399573677E-017));
#327=SURFACE_STYLE_FILL_AREA(#414);
#328=SURFACE_STYLE_FILL_AREA(#415);
#329=ORIENTED_EDGE('',*,*,#94,.F.);
#330=ORIENTED_EDGE('',*,*,#64,.T.);
#331=CARTESIAN_POINT('',(2.28298624177147E-015,49.7971615616088,-37.2839947544218));
#332=DIRECTION('',(-6.12323399573677E-017,-1.22464679914735E-016,1.0));
#333=DIRECTION('',(1.0,4.82715273076902E-033,6.12323399573677E-017));
#334=SURFACE_STYLE_FILL_AREA(#416);
#335=ORIENTED_EDGE('',*,*,#70,.F.);
#336=ORIENTED_EDGE('',*,*,#66,.T.);
#337=CARTESIAN_POINT('',(3.16193855805769E-016,6.32387711611539E-016,-5.16383754117376));
#338=DIRECTION('',(-6.12323399573677E-017,-1.22464679914735E-016,1.0));
#339=DIRECTION('',(-1.23259516440783E-032,1.0,1.22464679914735E-016));
#340=SURFACE_STYLE_FILL_AREA(#417);
#341=ORIENTED_EDGE('',*,*,#68,.F.);
#342=ORIENTED_EDGE('',*,*,#77,.T.);
#343=CARTESIAN_POINT('',(1.01890123312779E-015,2.03780246625557E-015,-16.6399199154758));
#344=DIRECTION('',(-6.12323399573677E-017,-1.22464679914735E-016,1.0));
#345=DIRECTION('',(-1.23259516440783E-032,1.0,1.22464679914735E-016));
#346=CARTESIAN_POINT('',(2.28298624177147E-015,4.56597248354293E-015,-37.2839947544218));
#347=DIRECTION('',(6.12323399573677E-017,1.22464679914735E-016,-1.0));
#348=DIRECTION('',(-1.23259516440783E-032,1.0,1.22464679914735E-016));
#349=CARTESIAN_POINT('',(-1.22366769403143E-029,-2.44733538806287E-029,1.998401E-013));
#350=DIRECTION('',(6.12323399573677E-017,1.22464679914735E-016,-1.0));
#351=DIRECTION('',(-1.23259516440783E-032,1.0,1.22464679914735E-016));
#352=CARTESIAN_POINT('',(1.30301438676718E-015,2.60602877353437E-015,-21.279839830952));
#353=DIRECTION('',(6.12323399573677E-017,1.22464679914735E-016,-1.0));
#354=DIRECTION('',(-1.23259516440783E-032,1.0,1.22464679914735E-016));
#355=CARTESIAN_POINT('',(6.32387711611551E-016,1.2647754232231E-015,-10.3276750823477));
#356=DIRECTION('',(6.12323399573677E-017,1.22464679914735E-016,-1.0));
#357=DIRECTION('',(-1.23259516440783E-032,1.0,1.22464679914735E-016));
#358=SURFACE_STYLE_FILL_AREA(#418);
#359=ORIENTED_EDGE('',*,*,#64,.F.);
#360=ORIENTED_EDGE('',*,*,#90,.T.);
#361=CARTESIAN_POINT('',(2.27873743023159E-015,4.55747486046317E-015,-37.2146063961974));
#362=DIRECTION('',(6.12323399573677E-017,1.22464679914735E-016,-1.0));
#363=DIRECTION('',(-1.23259516440783E-032,1.0,1.22464679914735E-016));
#364=CARTESIAN_POINT('',(3.06162220567891E-015,6.12324441135781E-015,-50.0000850500001));
#365=DIRECTION('',(6.12323399573677E-017,1.22464679914735E-016,-1.0));
#366=DIRECTION('',(-1.23259516440783E-032,1.0,1.22464679914735E-016));
#367=CARTESIAN_POINT('',(7.34788079488388E-016,1.46957615897677E-015,-11.9999999999996));
#368=DIRECTION('',(6.12323399573677E-017,1.22464679914735E-016,-1.0));
#369=DIRECTION('',(-1.23259516440783E-032,1.0,1.22464679914735E-016));
#370=SURFACE_STYLE_FILL_AREA(#419);
#371=ORIENTED_EDGE('',*,*,#85,.F.);
#372=ORIENTED_EDGE('',*,*,#68,.T.);
#373=CARTESIAN_POINT('',(1.46884384467304E-015,2.93768768934608E-015,-23.9880403998232));
#374=DIRECTION('',(6.12323399573677E-017,1.22464679914735E-016,-1.0));
#375=DIRECTION('',(-1.23259516440783E-032,1.0,1.22464679914735E-016));
#376=SURFACE_STYLE_FILL_AREA(#420);
#377=ORIENTED_EDGE('',*,*,#92,.F.);
#378=ORIENTED_EDGE('',*,*,#85,.T.);
#379=CARTESIAN_POINT('',(1.83037364964226E-015,3.66074729928452E-015,-29.8922701780895));
#380=DIRECTION('',(6.12323399573677E-017,1.22464679914735E-016,-1.0));
#381=DIRECTION('',(-1.23259516440783E-032,1.0,1.22464679914735E-016));
#382=CARTESIAN_POINT('',(1.6346733025789E-015,3.2693466051578E-015,-26.6962409686944));
#383=DIRECTION('',(6.12323399573676E-017,1.22464679914735E-016,-1.0));
#384=DIRECTION('',(-1.23259516440783E-032,1.0,1.22464679914735E-016));
#385=SURFACE_STYLE_FILL_AREA(#421);
#386=ORIENTED_EDGE('',*,*,#75,.F.);
#387=ORIENTED_EDGE('',*,*,#94,.T.);
#388=CARTESIAN_POINT('',(2.67230422372519E-015,5.34460844745037E-015,-43.642039902211));
#389=DIRECTION('',(-6.12323399573677E-017,-1.22464679914735E-016,1.0));
#390=DIRECTION('',(-1.23259516440783E-032,1.0,1.22464679914735E-016));
#391=CARTESIAN_POINT('',(2.27448861869171E-015,4.54897723738341E-015,-37.145218037973));
#392=DIRECTION('',(6.12323399573677E-017,1.22464679914735E-016,-1.0));
#393=DIRECTION('',(-1.23259516440783E-032,1.0,1.22464679914735E-016));
#394=CARTESIAN_POINT('',(2.02607399670562E-015,4.05214799341124E-015,-33.0882993874847));
#395=DIRECTION('',(6.12323399573677E-017,1.22464679914735E-016,-1.0));
#396=DIRECTION('',(-1.23259516440783E-032,1.0,1.22464679914735E-016));
#397=CARTESIAN_POINT('',(2.28298624177147E-015,4.56597248354293E-015,-37.2839947544218));
#398=DIRECTION('',(6.12323399573677E-017,1.22464679914735E-016,-1.0));
#399=DIRECTION('',(-1.23259516440783E-032,1.0,1.22464679914735E-016));
#400=SURFACE_STYLE_FILL_AREA(#422);
#401=ORIENTED_EDGE('',*,*,#77,.F.);
#402=ORIENTED_EDGE('',*,*,#70,.T.);
#403=CARTESIAN_POINT('',(6.8358789554997E-016,1.36717579109994E-015,-11.1638375411737));
#404=DIRECTION('',(6.12323399573677E-017,1.22464679914735E-016,-1.0));
#405=DIRECTION('',(-1.23259516440783E-032,1.0,1.22464679914735E-016));
#406=SURFACE_STYLE_FILL_AREA(#423);
#407=ORIENTED_EDGE('',*,*,#90,.F.);
#408=ORIENTED_EDGE('',*,*,#92,.T.);
#409=CARTESIAN_POINT('',(2.15028130769866E-015,4.30056261539732E-015,-35.1167587127288));
#410=DIRECTION('',(-6.12323399573677E-017,-1.22464679914735E-016,1.0));
#411=DIRECTION('',(-1.23259516440783E-032,1.0,1.22464679914735E-016));
#412=FILL_AREA_STYLE('',(#424));
#413=FILL_AREA_STYLE('',(#425));
#414=FILL_AREA_STYLE('',(#426));
#415=FILL_AREA_STYLE('',(#427));
#416=FILL_AREA_STYLE('',(#428));
#417=FILL_AREA_STYLE('',(#429));
#418=FILL_AREA_STYLE('',(#430));
#419=FILL_AREA_STYLE('',(#431));
#420=FILL_AREA_STYLE('',(#432));
#421=FILL_AREA_STYLE('',(#433));
#422=FILL_AREA_STYLE('',(#434));
#423=FILL_AREA_STYLE('',(#435));
#424=FILL_AREA_STYLE_COLOUR('',#436);
#425=FILL_AREA_STYLE_COLOUR('',#437);
#426=FILL_AREA_STYLE_COLOUR('',#438);
#427=FILL_AREA_STYLE_COLOUR('',#439);
#428=FILL_AREA_STYLE_COLOUR('',#440);
#429=FILL_AREA_STYLE_COLOUR('',#441);
#430=FILL_AREA_STYLE_COLOUR('',#442);
#431=FILL_AREA_STYLE_COLOUR('',#443);
#432=FILL_AREA_STYLE_COLOUR('',#444);
#433=FILL_AREA_STYLE_COLOUR('',#445);
#434=FILL_AREA_STYLE_COLOUR('',#446);
#435=FILL_AREA_STYLE_COLOUR('',#447);
#436=COLOUR_RGB('',0.752941191196442,0.752941191196442,0.752941191196442);
#437=COLOUR_RGB('',0.752941191196442,0.752941191196442,0.752941191196442);
#438=COLOUR_RGB('',0.752941191196442,0.752941191196442,0.752941191196442);
#439=COLOUR_RGB('',0.752941191196442,0.752941191196442,0.752941191196442);
#440=COLOUR_RGB('',0.752941191196442,0.752941191196442,0.752941191196442);
#441=COLOUR_RGB('',0.752941191196442,0.752941191196442,0.752941191196442);
#442=COLOUR_RGB('',0.752941191196442,0.752941191196442,0.752941191196442);
#443=COLOUR_RGB('',0.752941191196442,0.752941191196442,0.752941191196442);
#444=COLOUR_RGB('',0.752941191196442,0.752941191196442,0.752941191196442);
#445=COLOUR_RGB('',0.752941191196442,0.752941191196442,0.752941191196442);
#446=COLOUR_RGB('',0.752941191196442,0.752941191196442,0.752941191196442);
#447=COLOUR_RGB('',0.752941191196442,0.752941191196442,0.752941191196442);
ENDSEC;
END-ISO-10303-21;
