ISO-10303-21;
HEADER;
FILE_DESCRIPTION((''),'1');
FILE_NAME('//Big_tech03/bigt/Translate/11_3D_Field/02_Step_Field/AG/AG35-NBS16.stp','2011-03-14T06:18:04',(''),(''),'Spatial Interop R18','Kubotek KeyCreator V8.5.1 (14335)',' ');
FILE_SCHEMA(('CONFIG_CONTROL_DESIGN'));
ENDSEC;
DATA;
#1=DESIGN_CONTEXT('',#27,'design');
#2=APPLICATION_PROTOCOL_DEFINITION('INTERNATIONAL STANDARD','config_control_design',1994,#27);
#3=PRODUCT_CATEGORY_RELATIONSHIP('NONE','NONE',#28,#29);
#4=DATE_AND_TIME(#30,#31);
#5=DATE_TIME_ROLE('creation_date');
#6=DATE_TIME_ROLE('classification_date');
#7=PERSON_AND_ORGANIZATION_ROLE('creator');
#8=PERSON_AND_ORGANIZATION_ROLE('design_supplier');
#9=PERSON_AND_ORGANIZATION_ROLE('classification_officer');
#10=PERSON_AND_ORGANIZATION_ROLE('design_owner');
#11=APPROVAL_PERSON_ORGANIZATION(#32,#33,#34);
#12=APPROVAL_DATE_TIME(#4,#33);
#13=CC_DESIGN_APPROVAL(#33,(#35,#36,#37));
#14=CC_DESIGN_DATE_AND_TIME_ASSIGNMENT(#4,#5,(#37));
#15=CC_DESIGN_DATE_AND_TIME_ASSIGNMENT(#4,#6,(#35));
#16=CC_DESIGN_PERSON_AND_ORGANIZATION_ASSIGNMENT(#32,#10,(#38));
#17=CC_DESIGN_PERSON_AND_ORGANIZATION_ASSIGNMENT(#32,#7,(#37));
#18=CC_DESIGN_PERSON_AND_ORGANIZATION_ASSIGNMENT(#32,#7,(#36));
#19=CC_DESIGN_PERSON_AND_ORGANIZATION_ASSIGNMENT(#32,#8,(#36));
#20=CC_DESIGN_SECURITY_CLASSIFICATION(#35,(#36));
#21=CC_DESIGN_PERSON_AND_ORGANIZATION_ASSIGNMENT(#32,#9,(#35));
#22=SHAPE_DEFINITION_REPRESENTATION(#39,#40);
#23= (GEOMETRIC_REPRESENTATION_CONTEXT(3)GLOBAL_UNCERTAINTY_ASSIGNED_CONTEXT((#43))GLOBAL_UNIT_ASSIGNED_CONTEXT((#45,#46,#47))REPRESENTATION_CONTEXT('NONE','WORKSPACE'));
#27=APPLICATION_CONTEXT('CONFIGURATION CONTROLLED 3D DESIGNS OF MECHANICAL PARTS AND ASSEMBLIES');
#28=PRODUCT_CATEGORY('part','NONE');
#29=PRODUCT_RELATED_PRODUCT_CATEGORY('detail',' ',(#38));
#30=CALENDAR_DATE(2011,14,2);
#31=LOCAL_TIME(15,18,4.0,#49);
#32=PERSON_AND_ORGANIZATION(#50,#51);
#33=APPROVAL(#52,'SOLID MODEL');
#34=APPROVAL_ROLE('APPROVED');
#35=SECURITY_CLASSIFICATION('','',#53);
#36=PRODUCT_DEFINITION_FORMATION_WITH_SPECIFIED_SOURCE(' ','NONE',#38,.NOT_KNOWN.);
#37=PRODUCT_DEFINITION('NONE','NONE',#36,#1);
#38=PRODUCT('1','1','PART-1-DESC',(#54));
#39=PRODUCT_DEFINITION_SHAPE('NONE','NONE',#37);
#40=ADVANCED_BREP_SHAPE_REPRESENTATION('1',(#55,#56),#23);
#43=UNCERTAINTY_MEASURE_WITH_UNIT(LENGTH_MEASURE(1.0E-006),#45,'','');
#45= (CONVERSION_BASED_UNIT('MILLIMETRE',#59)LENGTH_UNIT()NAMED_UNIT(#62));
#46= (NAMED_UNIT(#64)PLANE_ANGLE_UNIT()SI_UNIT($,.RADIAN.));
#47= (NAMED_UNIT(#64)SOLID_ANGLE_UNIT()SI_UNIT($,.STERADIAN.));
#49=COORDINATED_UNIVERSAL_TIME_OFFSET(9,0,.AHEAD.);
#50=PERSON('','UNSPECIFIED',$,$,$,$);
#51=ORGANIZATION('UNSPECIFIED','UNSPECIFIED','UNSPECIFIED');
#52=APPROVAL_STATUS('approved');
#53=SECURITY_CLASSIFICATION_LEVEL('unclassified');
#54=MECHANICAL_CONTEXT('',#27,'mechanical');
#55=MANIFOLD_SOLID_BREP('1',#70);
#56=AXIS2_PLACEMENT_3D('',#71,#72,#73);
#59=LENGTH_MEASURE_WITH_UNIT(LENGTH_MEASURE(1.0),#74);
#62=DIMENSIONAL_EXPONENTS(1.0,0.0,0.0,0.0,0.0,0.0,0.0);
#64=DIMENSIONAL_EXPONENTS(0.0,0.0,0.0,0.0,0.0,0.0,0.0);
#70=CLOSED_SHELL('',(#75,#76,#77,#78,#79,#80,#81,#82,#83,#84,#85,#86,#87,#88));
#71=CARTESIAN_POINT('',(0.0,0.0,0.0));
#72=DIRECTION('',(0.0,0.0,1.0));
#73=DIRECTION('',(1.0,0.0,0.0));
#74= (NAMED_UNIT(#62)LENGTH_UNIT()SI_UNIT(.MILLI.,.METRE.));
#75=ADVANCED_FACE('',(#90),#91,.T.);
#76=ADVANCED_FACE('',(#92,#93),#94,.T.);
#77=ADVANCED_FACE('',(#95,#96),#97,.T.);
#78=ADVANCED_FACE('',(#98,#99),#100,.T.);
#79=ADVANCED_FACE('',(#101,#102),#103,.T.);
#80=ADVANCED_FACE('',(#104,#105),#106,.T.);
#81=ADVANCED_FACE('',(#107,#108),#109,.T.);
#82=ADVANCED_FACE('',(#110,#111),#112,.T.);
#83=ADVANCED_FACE('',(#113,#114),#115,.T.);
#84=ADVANCED_FACE('',(#116,#117),#118,.T.);
#85=ADVANCED_FACE('',(#119,#120),#121,.T.);
#86=ADVANCED_FACE('',(#122,#123),#124,.T.);
#87=ADVANCED_FACE('',(#125,#126),#127,.T.);
#88=ADVANCED_FACE('',(#128),#129,.T.);
#90=FACE_OUTER_BOUND('',#130,.T.);
#91=PLANE('',#131);
#92=FACE_BOUND('',#132,.T.);
#93=FACE_BOUND('',#133,.T.);
#94=CYLINDRICAL_SURFACE('',#134,7.9999999999992);
#95=FACE_OUTER_BOUND('',#135,.T.);
#96=FACE_BOUND('',#136,.T.);
#97=PLANE('',#137);
#98=FACE_BOUND('',#138,.T.);
#99=FACE_BOUND('',#139,.T.);
#100=CONICAL_SURFACE('',#140,16.6437499999998,0.144812498238954);
#101=FACE_OUTER_BOUND('',#141,.T.);
#102=FACE_BOUND('',#142,.T.);
#103=PLANE('',#143);
#104=FACE_BOUND('',#144,.T.);
#105=FACE_BOUND('',#145,.T.);
#106=CYLINDRICAL_SURFACE('',#146,31.9999999999997);
#107=FACE_BOUND('',#147,.T.);
#108=FACE_OUTER_BOUND('',#148,.T.);
#109=PLANE('',#149);
#110=FACE_BOUND('',#150,.T.);
#111=FACE_BOUND('',#151,.T.);
#112=CONICAL_SURFACE('',#152,22.2500000000004,0.785398163398566);
#113=FACE_BOUND('',#153,.T.);
#114=FACE_BOUND('',#154,.T.);
#115=CYLINDRICAL_SURFACE('',#155,20.7500000000004);
#116=FACE_BOUND('',#156,.T.);
#117=FACE_OUTER_BOUND('',#157,.T.);
#118=PLANE('',#158);
#119=FACE_BOUND('',#159,.T.);
#120=FACE_BOUND('',#160,.T.);
#121=CYLINDRICAL_SURFACE('',#161,16.0000000000004);
#122=FACE_OUTER_BOUND('',#162,.T.);
#123=FACE_BOUND('',#163,.T.);
#124=PLANE('',#164);
#125=FACE_BOUND('',#165,.T.);
#126=FACE_BOUND('',#166,.T.);
#127=CYLINDRICAL_SURFACE('',#167,20.9999999999999);
#128=FACE_OUTER_BOUND('',#168,.T.);
#129=PLANE('',#169);
#130=EDGE_LOOP('',(#170));
#131=AXIS2_PLACEMENT_3D('',#171,#172,#173);
#132=EDGE_LOOP('',(#174));
#133=EDGE_LOOP('',(#175));
#134=AXIS2_PLACEMENT_3D('',#176,#177,#178);
#135=EDGE_LOOP('',(#179));
#136=EDGE_LOOP('',(#180));
#137=AXIS2_PLACEMENT_3D('',#181,#182,#183);
#138=EDGE_LOOP('',(#184));
#139=EDGE_LOOP('',(#185));
#140=AXIS2_PLACEMENT_3D('',#186,#187,#188);
#141=EDGE_LOOP('',(#189));
#142=EDGE_LOOP('',(#190));
#143=AXIS2_PLACEMENT_3D('',#191,#192,#193);
#144=EDGE_LOOP('',(#194));
#145=EDGE_LOOP('',(#195));
#146=AXIS2_PLACEMENT_3D('',#196,#197,#198);
#147=EDGE_LOOP('',(#199));
#148=EDGE_LOOP('',(#200));
#149=AXIS2_PLACEMENT_3D('',#201,#202,#203);
#150=EDGE_LOOP('',(#204));
#151=EDGE_LOOP('',(#205));
#152=AXIS2_PLACEMENT_3D('',#206,#207,#208);
#153=EDGE_LOOP('',(#209));
#154=EDGE_LOOP('',(#210));
#155=AXIS2_PLACEMENT_3D('',#211,#212,#213);
#156=EDGE_LOOP('',(#214));
#157=EDGE_LOOP('',(#215));
#158=AXIS2_PLACEMENT_3D('',#216,#217,#218);
#159=EDGE_LOOP('',(#219));
#160=EDGE_LOOP('',(#220));
#161=AXIS2_PLACEMENT_3D('',#221,#222,#223);
#162=EDGE_LOOP('',(#224));
#163=EDGE_LOOP('',(#225));
#164=AXIS2_PLACEMENT_3D('',#226,#227,#228);
#165=EDGE_LOOP('',(#229));
#166=EDGE_LOOP('',(#230));
#167=AXIS2_PLACEMENT_3D('',#231,#232,#233);
#168=EDGE_LOOP('',(#234));
#169=AXIS2_PLACEMENT_3D('',#235,#236,#237);
#170=ORIENTED_EDGE('',*,*,#238,.F.);
#171=CARTESIAN_POINT('',(3.99999999999961,49.9999999999933,0.0));
#172=DIRECTION('',(1.83697019872103E-016,1.0,0.0));
#173=DIRECTION('',(-1.0,1.83697019872103E-016,-0.0));
#174=ORIENTED_EDGE('',*,*,#239,.F.);
#175=ORIENTED_EDGE('',*,*,#238,.T.);
#176=CARTESIAN_POINT('',(7.62342632469105E-015,41.4999999999933,0.0));
#177=DIRECTION('',(1.83697019872103E-016,1.0,-0.0));
#178=DIRECTION('',(1.0,-1.83697019872103E-016,0.0));
#179=ORIENTED_EDGE('',*,*,#240,.F.);
#180=ORIENTED_EDGE('',*,*,#239,.T.);
#181=CARTESIAN_POINT('',(11.1187499999994,32.9999999999933,0.0));
#182=DIRECTION('',(1.83697019872103E-016,1.0,0.0));
#183=DIRECTION('',(-1.0,1.83697019872103E-016,-0.0));
#184=ORIENTED_EDGE('',*,*,#241,.F.);
#185=ORIENTED_EDGE('',*,*,#240,.T.);
#186=CARTESIAN_POINT('',(3.03100082788847E-015,16.4999999999933,0.0));
#187=DIRECTION('',(-1.83697019872103E-016,-1.0,0.0));
#188=DIRECTION('',(1.0,-1.83697019872103E-016,0.0));
#189=ORIENTED_EDGE('',*,*,#242,.F.);
#190=ORIENTED_EDGE('',*,*,#241,.T.);
#191=CARTESIAN_POINT('',(25.5249999999999,-6.69908705920332E-012,0.0));
#192=DIRECTION('',(2.37646810420962E-015,1.0,0.0));
#193=DIRECTION('',(-1.0,2.37646810420962E-015,0.0));
#194=ORIENTED_EDGE('',*,*,#243,.F.);
#195=ORIENTED_EDGE('',*,*,#242,.T.);
#196=CARTESIAN_POINT('',(-7.34788079489644E-016,-4.00000000000671,0.0));
#197=DIRECTION('',(1.83697019872103E-016,1.0,-0.0));
#198=DIRECTION('',(1.0,-1.83697019872103E-016,0.0));
#199=ORIENTED_EDGE('',*,*,#244,.F.);
#200=ORIENTED_EDGE('',*,*,#243,.T.);
#201=CARTESIAN_POINT('',(27.8750000000001,-8.00000000000671,0.0));
#202=DIRECTION('',(-1.83697019872103E-016,-1.0,0.0));
#203=DIRECTION('',(1.0,-1.83697019872103E-016,0.0));
#204=ORIENTED_EDGE('',*,*,#245,.F.);
#205=ORIENTED_EDGE('',*,*,#244,.T.);
#206=CARTESIAN_POINT('',(-1.74512168878559E-015,-9.50000000000335,0.0));
#207=DIRECTION('',(1.83697019872103E-016,1.0,-0.0));
#208=DIRECTION('',(1.0,-1.83697019872103E-016,0.0));
#209=ORIENTED_EDGE('',*,*,#246,.F.);
#210=ORIENTED_EDGE('',*,*,#245,.T.);
#211=CARTESIAN_POINT('',(-4.08725869215424E-015,-22.2499999999997,0.0));
#212=DIRECTION('',(1.83697019872103E-016,1.0,-0.0));
#213=DIRECTION('',(1.0,-1.83697019872103E-016,0.0));
#214=ORIENTED_EDGE('',*,*,#247,.F.);
#215=ORIENTED_EDGE('',*,*,#246,.T.);
#216=CARTESIAN_POINT('',(18.3750000000004,-33.4999999999994,0.0));
#217=DIRECTION('',(-1.83697019872103E-016,-1.0,0.0));
#218=DIRECTION('',(1.0,-1.83697019872103E-016,0.0));
#219=ORIENTED_EDGE('',*,*,#248,.F.);
#220=ORIENTED_EDGE('',*,*,#247,.T.);
#221=CARTESIAN_POINT('',(-6.56716846042758E-015,-35.7499999999994,0.0));
#222=DIRECTION('',(1.83697019872103E-016,1.0,-0.0));
#223=DIRECTION('',(1.0,-1.83697019872103E-016,0.0));
#224=ORIENTED_EDGE('',*,*,#249,.F.);
#225=ORIENTED_EDGE('',*,*,#248,.T.);
#226=CARTESIAN_POINT('',(18.5000000000001,-37.9999999999995,0.0));
#227=DIRECTION('',(1.83697019872103E-016,1.0,0.0));
#228=DIRECTION('',(-1.0,1.83697019872103E-016,0.0));
#229=ORIENTED_EDGE('',*,*,#250,.F.);
#230=ORIENTED_EDGE('',*,*,#249,.T.);
#231=CARTESIAN_POINT('',(-8.45006291411664E-015,-45.9999999999995,0.0));
#232=DIRECTION('',(1.83697019872103E-016,1.0,-0.0));
#233=DIRECTION('',(1.0,-1.83697019872103E-016,0.0));
#234=ORIENTED_EDGE('',*,*,#250,.T.);
#235=CARTESIAN_POINT('',(10.5,-53.9999999999995,0.0));
#236=DIRECTION('',(-2.55217280573911E-015,-1.0,0.0));
#237=DIRECTION('',(1.0,-2.55217280573911E-015,0.0));
#238=EDGE_CURVE('',#251,#251,#252,.T.);
#239=EDGE_CURVE('',#253,#253,#254,.T.);
#240=EDGE_CURVE('',#255,#255,#256,.T.);
#241=EDGE_CURVE('',#257,#257,#258,.T.);
#242=EDGE_CURVE('',#259,#259,#260,.T.);
#243=EDGE_CURVE('',#261,#261,#262,.T.);
#244=EDGE_CURVE('',#263,#263,#264,.T.);
#245=EDGE_CURVE('',#265,#265,#266,.T.);
#246=EDGE_CURVE('',#267,#267,#268,.T.);
#247=EDGE_CURVE('',#269,#269,#270,.T.);
#248=EDGE_CURVE('',#271,#271,#272,.T.);
#249=EDGE_CURVE('',#273,#273,#274,.T.);
#250=EDGE_CURVE('',#275,#275,#276,.T.);
#251=VERTEX_POINT('',#277);
#252=CIRCLE('',#278,7.9999999999992);
#253=VERTEX_POINT('',#279);
#254=CIRCLE('',#280,7.9999999999992);
#255=VERTEX_POINT('',#281);
#256=CIRCLE('',#282,14.2374999999995);
#257=VERTEX_POINT('',#283);
#258=CIRCLE('',#284,19.05);
#259=VERTEX_POINT('',#285);
#260=CIRCLE('',#286,31.9999999999997);
#261=VERTEX_POINT('',#287);
#262=CIRCLE('',#288,31.9999999999997);
#263=VERTEX_POINT('',#289);
#264=CIRCLE('',#290,23.7500000000004);
#265=VERTEX_POINT('',#291);
#266=CIRCLE('',#292,20.7500000000004);
#267=VERTEX_POINT('',#293);
#268=CIRCLE('',#294,20.7500000000004);
#269=VERTEX_POINT('',#295);
#270=CIRCLE('',#296,16.0000000000004);
#271=VERTEX_POINT('',#297);
#272=CIRCLE('',#298,16.0000000000004);
#273=VERTEX_POINT('',#299);
#274=CIRCLE('',#300,20.9999999999999);
#275=VERTEX_POINT('',#301);
#276=CIRCLE('',#302,20.9999999999999);
#277=CARTESIAN_POINT('',(7.99999999999921,49.9999999999933,0.0));
#278=AXIS2_PLACEMENT_3D('',#303,#304,#305);
#279=CARTESIAN_POINT('',(7.99999999999921,32.9999999999933,0.0));
#280=AXIS2_PLACEMENT_3D('',#306,#307,#308);
#281=CARTESIAN_POINT('',(14.2374999999995,32.9999999999933,0.0));
#282=AXIS2_PLACEMENT_3D('',#309,#310,#311);
#283=CARTESIAN_POINT('',(19.05,-6.68369942822856E-012,0.0));
#284=AXIS2_PLACEMENT_3D('',#312,#313,#314);
#285=CARTESIAN_POINT('',(31.9999999999997,-6.71447469017808E-012,0.0));
#286=AXIS2_PLACEMENT_3D('',#315,#316,#317);
#287=CARTESIAN_POINT('',(31.9999999999997,-8.00000000000671,0.0));
#288=AXIS2_PLACEMENT_3D('',#318,#319,#320);
#289=CARTESIAN_POINT('',(23.7500000000004,-8.00000000000671,0.0));
#290=AXIS2_PLACEMENT_3D('',#321,#322,#323);
#291=CARTESIAN_POINT('',(20.7500000000004,-11.0,0.0));
#292=AXIS2_PLACEMENT_3D('',#324,#325,#326);
#293=CARTESIAN_POINT('',(20.7500000000004,-33.4999999999994,0.0));
#294=AXIS2_PLACEMENT_3D('',#327,#328,#329);
#295=CARTESIAN_POINT('',(16.0000000000004,-33.4999999999994,0.0));
#296=AXIS2_PLACEMENT_3D('',#330,#331,#332);
#297=CARTESIAN_POINT('',(16.0000000000004,-37.9999999999995,0.0));
#298=AXIS2_PLACEMENT_3D('',#333,#334,#335);
#299=CARTESIAN_POINT('',(20.9999999999999,-37.9999999999995,0.0));
#300=AXIS2_PLACEMENT_3D('',#336,#337,#338);
#301=CARTESIAN_POINT('',(20.9999999999999,-53.9999999999995,0.0));
#302=AXIS2_PLACEMENT_3D('',#339,#340,#341);
#303=CARTESIAN_POINT('',(9.18485099360392E-015,49.9999999999933,0.0));
#304=DIRECTION('',(-1.83697019872103E-016,-1.0,0.0));
#305=DIRECTION('',(1.0,-1.83697019872103E-016,0.0));
#306=CARTESIAN_POINT('',(6.06200165577817E-015,32.9999999999933,0.0));
#307=DIRECTION('',(-1.83697019872103E-016,-1.0,0.0));
#308=DIRECTION('',(1.0,-1.83697019872103E-016,0.0));
#309=CARTESIAN_POINT('',(6.06200165577817E-015,32.9999999999933,0.0));
#310=DIRECTION('',(-1.83697019872103E-016,-1.0,0.0));
#311=DIRECTION('',(1.0,-1.83697019872103E-016,0.0));
#312=CARTESIAN_POINT('',(-1.22693108067847E-027,-6.67910171614494E-012,0.0));
#313=DIRECTION('',(-1.83697019872103E-016,-1.0,0.0));
#314=DIRECTION('',(1.0,-1.83697019872103E-016,0.0));
#315=CARTESIAN_POINT('',(-1.23215206400051E-027,-6.70752342557535E-012,0.0));
#316=DIRECTION('',(-1.83697019872103E-016,-1.0,0.0));
#317=DIRECTION('',(1.0,-1.83697019872103E-016,0.0));
#318=CARTESIAN_POINT('',(-1.46957615897806E-015,-8.00000000000671,0.0));
#319=DIRECTION('',(-1.83697019872103E-016,-1.0,0.0));
#320=DIRECTION('',(1.0,-1.83697019872103E-016,0.0));
#321=CARTESIAN_POINT('',(-1.46957615897806E-015,-8.00000000000671,0.0));
#322=DIRECTION('',(-1.83697019872103E-016,-1.0,0.0));
#323=DIRECTION('',(1.0,-1.83697019872103E-016,0.0));
#324=CARTESIAN_POINT('',(-2.02066721859313E-015,-11.0,0.0));
#325=DIRECTION('',(-1.83697019872103E-016,-1.0,0.0));
#326=DIRECTION('',(1.0,-1.83697019872103E-016,0.0));
#327=CARTESIAN_POINT('',(-6.15385016571535E-015,-33.4999999999994,0.0));
#328=DIRECTION('',(-1.83697019872103E-016,-1.0,0.0));
#329=DIRECTION('',(1.0,-1.83697019872103E-016,0.0));
#330=CARTESIAN_POINT('',(-6.15385016571535E-015,-33.4999999999994,0.0));
#331=DIRECTION('',(-1.83697019872103E-016,-1.0,0.0));
#332=DIRECTION('',(1.0,-1.83697019872103E-016,0.0));
#333=CARTESIAN_POINT('',(-6.98048675513982E-015,-37.9999999999995,0.0));
#334=DIRECTION('',(-1.83697019872103E-016,-1.0,0.0));
#335=DIRECTION('',(1.0,-1.83697019872103E-016,0.0));
#336=CARTESIAN_POINT('',(-6.98048675513982E-015,-37.9999999999995,0.0));
#337=DIRECTION('',(-1.83697019872103E-016,-1.0,0.0));
#338=DIRECTION('',(1.0,-1.83697019872103E-016,0.0));
#339=CARTESIAN_POINT('',(-9.91963907309347E-015,-53.9999999999995,0.0));
#340=DIRECTION('',(-1.83697019872103E-016,-1.0,0.0));
#341=DIRECTION('',(1.0,-1.83697019872103E-016,0.0));
ENDSEC;
END-ISO-10303-21;
