  0
SECTION
  2
HEADER
  9
$ACADVER
  1
AC1009
  9
$INSBASE
 10
0.0
 20
0.0
 30
0.0
  9
$EXTMIN
 10
-19.96927907915752
 20
-15.33373705482969
 30
0.0
  9
$EXTMAX
 10
151.06994075863579
 20
47.00000000000005
 30
0.0
  9
$LIMMIN
 10
0.0
 20
0.0
  9
$LIMMAX
 10
297.0
 20
210.0
  9
$ORTHOMODE
 70
     1
  9
$REGENMODE
 70
     1
  9
$FILLMODE
 70
     1
  9
$QTEXTMODE
 70
     0
  9
$MIRRTEXT
 70
     1
  9
$DRAGMODE
 70
     2
  9
$LTSCALE
 40
10.0
  9
$OSMODE
 70
    61
  9
$ATTMODE
 70
     1
  9
$TEXTSIZE
 40
3.0
  9
$TRACEWID
 40
1.0
  9
$TEXTSTYLE
  7
YOKO
  9
$CLAYER
  8
240
  9
$CELTYPE
  6
BYLAYER
  9
$CECOLOR
 62
   256
  9
$DIMSCALE
 40
1.0
  9
$DIMASZ
 40
2.2299999999999991
  9
$DIMEXO
 40
0.5
  9
$DIMDLI
 40
7.0
  9
$DIMRND
 40
0.0
  9
$DIMDLE
 40
0.0
  9
$DIMEXE
 40
1.0
  9
$DIMTP
 40
0.0
  9
$DIMTM
 40
0.01
  9
$DIMTXT
 40
2.7999999999999989
  9
$DIMCEN
 40
0.0
  9
$DIMTSZ
 40
0.0
  9
$DIMTOL
 70
     0
  9
$DIMLIM
 70
     0
  9
$DIMTIH
 70
     0
  9
$DIMTOH
 70
     0
  9
$DIMSE1
 70
     0
  9
$DIMSE2
 70
     0
  9
$DIMTAD
 70
     3
  9
$DIMZIN
 70
     9
  9
$DIMBLK
  1
OPEN
  9
$DIMASO
 70
     1
  9
$DIMSHO
 70
     1
  9
$DIMPOST
  1

  9
$DIMAPOST
  1

  9
$DIMALT
 70
     0
  9
$DIMALTD
 70
     2
  9
$DIMALTF
 40
25.399999999999999
  9
$DIMLFAC
 40
1.0
  9
$DIMTOFL
 70
     1
  9
$DIMTVP
 40
0.0
  9
$DIMTIX
 70
     1
  9
$DIMSOXD
 70
     0
  9
$DIMSAH
 70
     0
  9
$DIMBLK1
  1

  9
$DIMBLK2
  1

  9
$DIMSTYLE
  2
BIGT
  9
$DIMCLRD
 70
   256
  9
$DIMCLRE
 70
   256
  9
$DIMCLRT
 70
    40
  9
$DIMTFAC
 40
1.0
  9
$DIMGAP
 40
1.0
  9
$LUNITS
 70
     2
  9
$LUPREC
 70
     6
  9
$SKETCHINC
 40
1.0
  9
$FILLETRAD
 40
0.0
  9
$AUNITS
 70
     0
  9
$AUPREC
 70
     6
  9
$MENU
  1
.
  9
$ELEVATION
 40
0.0
  9
$PELEVATION
 40
0.0
  9
$THICKNESS
 40
0.0
  9
$LIMCHECK
 70
     0
  9
$BLIPMODE
 70
     0
  9
$CHAMFERA
 40
0.2
  9
$CHAMFERB
 40
0.2
  9
$SKPOLY
 70
     0
  9
$TDCREATE
 40
2459152.5565490508
  9
$TDUPDATE
 40
2459152.5751848491
  9
$TDINDWG
 40
0.0123804861
  9
$TDUSRTIMER
 40
0.0123804167
  9
$USRTIMER
 70
     1
  9
$ANGBASE
 50
0.0
  9
$ANGDIR
 70
     0
  9
$PDMODE
 70
     1
  9
$PDSIZE
 40
0.0
  9
$PLINEWID
 40
0.0
  9
$COORDS
 70
     1
  9
$SPLFRAME
 70
     0
  9
$SPLINETYPE
 70
     6
  9
$SPLINESEGS
 70
     4
  9
$ATTDIA
 70
     1
  9
$ATTREQ
 70
     1
  9
$HANDLING
 70
     1
  9
$HANDSEED
  5
4805
  9
$SURFTAB1
 70
     6
  9
$SURFTAB2
 70
     6
  9
$SURFTYPE
 70
     6
  9
$SURFU
 70
     6
  9
$SURFV
 70
     6
  9
$UCSNAME
  2

  9
$UCSORG
 10
0.0
 20
0.0
 30
0.0
  9
$UCSXDIR
 10
1.0
 20
0.0
 30
0.0
  9
$UCSYDIR
 10
0.0
 20
1.0
 30
0.0
  9
$PUCSNAME
  2

  9
$PUCSORG
 10
0.0
 20
0.0
 30
0.0
  9
$PUCSXDIR
 10
1.0
 20
0.0
 30
0.0
  9
$PUCSYDIR
 10
0.0
 20
1.0
 30
0.0
  9
$USERI1
 70
     1
  9
$USERI2
 70
     0
  9
$USERI3
 70
     0
  9
$USERI4
 70
     0
  9
$USERI5
 70
     0
  9
$USERR1
 40
0.0
  9
$USERR2
 40
0.0
  9
$USERR3
 40
0.0
  9
$USERR4
 40
0.0
  9
$USERR5
 40
0.0
  9
$WORLDVIEW
 70
     1
  9
$SHADEDGE
 70
     3
  9
$SHADEDIF
 70
    70
  9
$TILEMODE
 70
     1
  9
$MAXACTVP
 70
    16
  9
$PLIMCHECK
 70
     0
  9
$PEXTMIN
 10
1.0000000000000000E+020
 20
1.0000000000000000E+020
 30
1.0000000000000000E+020
  9
$PEXTMAX
 10
-1.0000000000000000E+020
 20
-1.0000000000000000E+020
 30
-1.0000000000000000E+020
  9
$PLIMMIN
 10
0.0
 20
0.0
  9
$PLIMMAX
 10
420.0
 20
297.0
  9
$UNITMODE
 70
     0
  9
$VISRETAIN
 70
     1
  9
$PLINEGEN
 70
     0
  9
$PSLTSCALE
 70
     1
  0
ENDSEC
  0
SECTION
  2
TABLES
  0
TABLE
  2
VPORT
 70
     1
  0
VPORT
  2
*ACTIVE
 70
     0
 10
0.0
 20
0.0
 11
1.0
 21
1.0
 12
82.249199305510643
 22
8.0950816091589815
 13
0.0
 23
0.0
 14
7.0
 24
7.0
 15
7.0
 25
7.0
 16
0.0
 26
0.0
 36
1.0
 17
0.0
 27
0.0
 37
0.0
 40
142.1085937418674
 41
1.65906362545018
 42
50.0
 43
0.0
 44
0.0
 50
0.0
 51
0.0
 71
     0
 72
  2000
 73
     1
 74
     0
 75
     1
 76
     1
 77
     0
 78
     0
  0
ENDTAB
  0
TABLE
  2
LTYPE
 70
    21
  0
LTYPE
  2
CONTINUOUS
 70
     0
  3
Solid line
 72
    65
 73
     0
 40
0.0
  0
LTYPE
  2
CENTER2
 70
     0
  3
___ _ ___ _ ___ _ ___ _ ___ _ ___ _ ___ _ ___ _
 72
    65
 73
     4
 40
1.125
 49
0.75
 49
-0.125
 49
0.125
 49
-0.125
  0
LTYPE
  2
HIDDEN2
 70
     0
  3
_ _ _ _ _ _ _ _ _ _ _ _ _ _ _ _ _ _ _ _ _ _ _ _
 72
    65
 73
     2
 40
0.1875
 49
0.125
 49
-0.0625
  0
LTYPE
  2
PHANTOM2
 70
     0
  3
___ _ _ ___ _ _ ___ _ _ ___ _ _ ___ _ _ ___ _ _
 72
    65
 73
     6
 40
1.25
 49
0.625
 49
-0.125
 49
0.125
 49
-0.125
 49
0.125
 49
-0.125
  0
LTYPE
  2
AM_ISO02W050
 70
     0
  3
__ __ __ __ __ __ __ __ __ __ __ __ __ __ __
 72
    65
 73
     2
 40
7.5
 49
6.0
 49
-1.5
  0
LTYPE
  2
AMCONSTR
 70
     0
  3
_______________________
 72
    65
 73
     2
 40
9999.0
 49
9999.0
 49
0.0
  0
LTYPE
  2
ACISOWELD
 70
     0
  3
_ _ _ _ _
 72
    65
 73
     2
 40
2.0
 49
2.0
 49
-1.0
  0
LTYPE
  2
ACISOTGB
 70
     0
  3
__ . . __ . .
 72
    65
 73
     6
 40
9.0
 49
4.0
 49
-1.0
 49
1.0
 49
-1.0
 49
1.0
 49
-1.0
  0
LTYPE
  2
ACISOTGL
 70
     0
  3
_ _ _ _ _
 72
    65
 73
     2
 40
3.0
 49
2.0
 49
-1.0
  0
LTYPE
  2
ACJISTGB
 70
     0
  3
__ . . __ . .
 72
    65
 73
     6
 40
9.0
 49
4.0
 49
-1.0
 49
1.0
 49
-1.0
 49
1.0
 49
-1.0
  0
LTYPE
  2
ACJISTGL
 70
     0
  3
_ _ _ _ _
 72
    65
 73
     2
 40
3.0
 49
2.0
 49
-1.0
  0
ENDTAB
  0
TABLE
  2
LAYER
 70
    15
  0
LAYER
  2
0
 70
     0
 62
     7
  6
CONTINUOUS
  0
LAYER
  2
DEFPOINTS
 70
     0
 62
     7
  6
CONTINUOUS
  0
LAYER
  2
245
 70
     0
 62
     2
  6
CENTER2
  0
LAYER
  2
240
 70
     0
 62
     4
  6
CONTINUOUS
  0
LAYER
  2
241
 70
     0
 62
   211
  6
CONTINUOUS
  0
LAYER
  2
242
 70
     0
 62
     3
  6
CONTINUOUS
  0
LAYER
  2
246
 70
     0
 62
     3
  6
PHANTOM2
  0
LAYER
  2
247
 70
     0
 62
    60
  6
CONTINUOUS
  0
LAYER
  2
250
 70
     0
 62
     3
  6
CONTINUOUS
  0
ENDTAB
  0
TABLE
  2
STYLE
 70
     8
  0
STYLE
  2
STANDARD
 70
     0
 40
0.0
 41
1.0
 50
0.0
 71
     0
 42
3.0
  3
romans.shx
  4
extfont.shx
  0
STYLE
  2
ACISOTS
 70
     0
 40
1.0
 41
1.0
 50
0.0
 71
     0
 42
3.0
  3
amgdt.shx
  4
extfont.shx
  0
STYLE
  2
ACISOGDT
 70
     0
 40
0.0
 41
1.0
 50
0.0
 71
     0
 42
3.0
  3
amgdt.shx
  4
extfont.shx
  0
STYLE
  2
ACJISTS
 70
     0
 40
1.0
 41
1.0
 50
0.0
 71
     0
 42
3.0
  3
amgdt.shx
  4
extfont.shx
  0
STYLE
  2
ACJISGDT
 70
     0
 40
0.0
 41
1.0
 50
0.0
 71
     0
 42
3.0
  3
amgdt.shx
  4
extfont.shx
  0
STYLE
  2
YOKO
 70
     0
 40
0.0
 41
1.0
 50
0.0
 71
     0
 42
3.0
  3
romans.shx
  4
extfont.shx
  0
ENDTAB
  0
TABLE
  2
VIEW
 70
     0
  0
ENDTAB
  0
TABLE
  2
UCS
 70
     0
  0
ENDTAB
  0
TABLE
  2
APPID
 70
    36
  0
APPID
  2
ACAD
 70
     0
  0
APPID
  2
GLOBAL
 70
     0
  0
APPID
  2
DETAIL
 70
     0
  0
APPID
  2
GRPNAME
 70
     0
  0
APPID
  2
GPARA
 70
     0
  0
APPID
  2
MCAD_NO_VIS
 70
     0
  0
APPID
  2
ACAD_TEMP_GRAPHIC
 70
     0
  0
APPID
  2
ACATTRIBSERVICES
 70
     0
  0
APPID
  2
GENIUS_GENSCREG_15
 70
     0
  0
APPID
  2
GENIUS_GENODEF_13
 70
     0
  0
APPID
  2
GENIUS_GENOBJ-N-SDF_13
 70
     0
  0
APPID
  2
GENIUS_GENREC_14
 70
     0
  0
APPID
  2
GENIUS_GENOBJ-N-REC_13
 70
     0
  0
APPID
  2
GENIUS_GENDIMSH_14
 70
     0
  0
APPID
  2
GENIUS_GENOBJ-N-DIM_13
 70
     0
  0
APPID
  2
GENIUS_GENDIM_13
 70
     0
  0
APPID
  2
GENIUS_GENDTOL_13
 70
     0
  0
APPID
  2
GENIUS_GENOLIS_13
 70
     0
  0
APPID
  2
GENIUS_GENOENT_13
 70
     0
  0
APPID
  2
GENIUS_GENOBJ-F-FEM_13
 70
     0
  0
APPID
  2
GENIUS_GENOREF_13
 70
     0
  0
APPID
  2
GENIUS_GEFFEM_13
 70
     0
  0
APPID
  2
GENIUS_GEFFEMP_13
 70
     0
  0
APPID
  2
AD_DRAW
 70
     0
  0
APPID
  2
DESIGNERASSEMBLIES
 70
     0
  0
APPID
  2
ACADM_DIM_EDIT
 70
     0
  0
APPID
  2
AMDT_DM_ADJ
 70
     0
  0
APPID
  2
ITEMNAME
 70
     0
  0
APPID
  2
GENIUS_GENOBJ-N-FIL_13
 70
     0
  0
APPID
  2
GENIUS_GENFIL_13
 70
     0
  0
APPID
  2
GENIUS_GENOBJ-N-CHA_13
 70
     0
  0
APPID
  2
ACAD_NAV_VCDISPLAY
 70
     0
  0
APPID
  2
ACAECLAYERSTANDARD
 70
     0
  0
APPID
  2
ACAD_EXEMPT_FROM_CAD_STANDARDS
 70
     0
  0
APPID
  2
ACAD_DSTYLE_DIMINSPECT
 70
     0
  0
APPID
  2
ACAD_MLEADERVER
 70
     0
  0
ENDTAB
  0
TABLE
  2
DIMSTYLE
 70
    32
  0
DIMSTYLE
  2
BIGT
 70
     0
  3

  4

  5
OPEN
  6

  7

 40
1.0
 41
2.2299999999999991
 42
0.5
 43
7.0
 44
1.0
 45
0.0
 46
0.0
 47
0.0
 48
0.01
140
2.7999999999999989
141
0.0
142
0.0
143
25.399999999999999
144
1.0
145
0.0
146
1.0
147
1.0
 71
     0
 72
     0
 73
     0
 74
     0
 75
     0
 76
     0
 77
     3
 78
     9
170
     0
171
     2
172
     1
173
     0
174
     1
175
     0
176
   256
177
   256
178
    40
  0
DIMSTYLE
  2
AM_ISO
 70
     0
  3

  4
"
  5

  6

  7

 40
1.0
 41
2.5
 42
1.0
 43
10.0
 44
1.0
 45
0.0
 46
0.0
 47
0.1
 48
0.1
140
3.5
141
0.0
142
0.0
143
0.0393701
144
1.0
145
0.0
146
0.71
147
1.5
 71
     0
 72
     0
 73
     0
 74
     0
 75
     0
 76
     0
 77
     1
 78
     8
170
     0
171
     2
172
     1
173
     0
174
     0
175
     0
176
   256
177
   256
178
     2
  0
DIMSTYLE
  2
AM_ISO$3
 70
     0
  3

  4
"
  5

  6

  7

 40
1.0
 41
2.5
 42
1.0
 43
10.0
 44
1.0
 45
0.0
 46
0.0
 47
0.1
 48
0.1
140
3.5
141
0.0
142
0.0
143
0.0393701
144
1.0
145
0.0
146
0.71
147
1.5
 71
     0
 72
     0
 73
     0
 74
     1
 75
     0
 76
     0
 77
     1
 78
     8
170
     0
171
     2
172
     0
173
     0
174
     0
175
     0
176
   256
177
   256
178
     2
  0
DIMSTYLE
  2
AM_ISO$4
 70
     0
  3

  4
"
  5

  6

  7

 40
1.0
 41
2.5
 42
1.0
 43
10.0
 44
1.0
 45
0.0
 46
0.0
 47
0.1
 48
0.1
140
3.5
141
0.0
142
0.0
143
0.0393701
144
1.0
145
0.0
146
0.71
147
1.5
 71
     0
 72
     0
 73
     0
 74
     1
 75
     0
 76
     0
 77
     1
 78
     8
170
     0
171
     2
172
     0
173
     0
174
     0
175
     0
176
   256
177
   256
178
     2
  0
DIMSTYLE
  2
AM_ISO$6
 70
     0
  3

  4
"
  5

  6

  7

 40
1.0
 41
2.5
 42
1.0
 43
10.0
 44
1.0
 45
0.0
 46
0.0
 47
0.1
 48
0.1
140
3.5
141
0.0
142
0.0
143
0.0393701
144
1.0
145
0.0
146
0.71
147
1.5
 71
     0
 72
     0
 73
     0
 74
     0
 75
     0
 76
     0
 77
     0
 78
     8
170
     0
171
     2
172
     1
173
     0
174
     0
175
     0
176
   256
177
   256
178
     2
  0
DIMSTYLE
  2
AM_ISO$7
 70
     0
  3

  4
"
  5

  6

  7

 40
1.0
 41
2.5
 42
1.0
 43
10.0
 44
1.0
 45
0.0
 46
0.0
 47
0.1
 48
0.1
140
5.0
141
0.0
142
0.0
143
0.0393701
144
1.0
145
0.0
146
0.71
147
1.5
 71
     0
 72
     0
 73
     0
 74
     0
 75
     0
 76
     0
 77
     1
 78
     8
170
     0
171
     2
172
     1
173
     0
174
     0
175
     0
176
   256
177
   256
178
     2
  0
DIMSTYLE
  2
AM_ISO$SF
 70
     0
  3

  4
"
  5

  6

  7

 40
1.0
 41
2.5
 42
1.0
 43
10.0
 44
1.0
 45
0.0
 46
0.0
 47
0.1
 48
0.1
140
3.5
141
0.0
142
0.0
143
0.0393701
144
1.0
145
0.0
146
0.71
147
1.5
 71
     0
 72
     0
 73
     0
 74
     0
 75
     1
 76
     1
 77
     1
 78
     8
170
     0
171
     2
172
     1
173
     0
174
     0
175
     0
176
   256
177
   256
178
     2
  0
DIMSTYLE
  2
AM_ISO$SH
 70
     0
  3

  4
"
  5

  6
GENAXEH
  7

 40
1.0
 41
2.5
 42
1.0
 43
10.0
 44
1.0
 45
0.0
 46
0.0
 47
0.1
 48
0.1
140
3.5
141
0.0
142
0.0
143
0.0393701
144
2.0
145
0.0
146
0.71
147
1.5
 71
     0
 72
     0
 73
     0
 74
     0
 75
     1
 76
     1
 77
     1
 78
     8
170
     0
171
     2
172
     1
173
     1
174
     0
175
     0
176
   256
177
   256
178
     2
  0
DIMSTYLE
  2
BIGT$2
 70
     0
  3

  4

  5
OPEN
  6

  7

 40
1.0
 41
2.2299999999999991
 42
0.5
 43
7.0
 44
1.0
 45
0.0
 46
0.0
 47
0.0
 48
0.01
140
2.7999999999999989
141
0.0
142
0.0
143
25.399999999999999
144
1.0
145
0.0
146
1.0
147
1.0
 71
     0
 72
     0
 73
     0
 74
     0
 75
     0
 76
     0
 77
     3
 78
     9
170
     0
171
     2
172
     1
173
     0
174
     0
175
     0
176
   256
177
   256
178
    40
  0
DIMSTYLE
  2
BIGT$3
 70
     0
  3

  4

  5
OPEN
  6

  7

 40
1.0
 41
2.2299999999999991
 42
0.5
 43
2.5
 44
1.0
 45
0.0
 46
0.0
 47
0.0
 48
0.01
140
2.7999999999999989
141
0.0
142
0.0
143
25.399999999999999
144
1.0
145
0.0
146
1.0
147
1.0
 71
     0
 72
     0
 73
     0
 74
     0
 75
     0
 76
     0
 77
     3
 78
     9
170
     0
171
     2
172
     1
173
     0
174
     0
175
     0
176
   256
177
   256
178
    40
  0
DIMSTYLE
  2
BIGT$7
 70
     0
  3

  4

  5
OPEN
  6

  7

 40
0.0
 41
2.2299999999999991
 42
0.5
 43
7.0
 44
1.0
 45
0.0
 46
0.0
 47
0.0
 48
0.01
140
2.7999999999999989
141
0.0
142
0.0
143
25.399999999999999
144
1.0
145
0.0
146
1.0
147
1.0
 71
     0
 72
     0
 73
     0
 74
     0
 75
     0
 76
     0
 77
     3
 78
     9
170
     0
171
     2
172
     0
173
     0
174
     0
175
     0
176
   256
177
   256
178
    40
  0
DIMSTYLE
  2
BIGT$6
 70
     0
  3

  4

  5
OPEN
  6

  7

 40
1.0
 41
2.2299999999999991
 42
0.5
 43
2.5
 44
1.0
 45
0.0
 46
0.0
 47
0.0
 48
0.01
140
2.7999999999999989
141
0.0
142
0.0
143
25.399999999999999
144
1.0
145
0.0
146
1.0
147
1.0
 71
     0
 72
     0
 73
     0
 74
     0
 75
     0
 76
     0
 77
     3
 78
     9
170
     0
171
     2
172
     1
173
     0
174
     0
175
     0
176
   256
177
   256
178
    40
  0
DIMSTYLE
  2
BIGT$0
 70
     0
  3

  4

  5
OPEN
  6

  7

 40
1.0
 41
2.2299999999999991
 42
0.5
 43
7.0
 44
1.0
 45
0.0
 46
0.0
 47
0.0
 48
0.01
140
2.7999999999999989
141
0.0
142
0.0
143
25.399999999999999
144
1.0
145
0.0
146
1.0
147
1.0
 71
     0
 72
     0
 73
     0
 74
     0
 75
     0
 76
     0
 77
     3
 78
     9
170
     0
171
     2
172
     1
173
     0
174
     1
175
     0
176
   256
177
   256
178
    40
  0
DIMSTYLE
  2
BIGT$4
 70
     0
  3

  4

  5
OPEN
  6

  7

 40
1.0
 41
2.2299999999999991
 42
0.5
 43
2.5
 44
1.0
 45
0.0
 46
0.0
 47
0.0
 48
0.01
140
2.7999999999999989
141
0.0
142
0.0
143
25.399999999999999
144
1.0
145
0.0
146
1.0
147
1.0
 71
     0
 72
     0
 73
     0
 74
     0
 75
     0
 76
     0
 77
     3
 78
     9
170
     0
171
     2
172
     1
173
     0
174
     0
175
     0
176
   256
177
   256
178
    40
  0
DIMSTYLE
  2
BIGT$SH
 70
     0
  3

  4

  5
OPEN
  6

  7

 40
1.0
 41
2.2299999999999991
 42
0.5
 43
7.0
 44
1.0
 45
0.0
 46
0.0
 47
0.0
 48
0.0
140
2.7999999999999989
141
0.0
142
0.0
143
25.399999999999999
144
1.0
145
0.0
146
1.0
147
1.0
 71
     0
 72
     0
 73
     0
 74
     0
 75
     0
 76
     0
 77
     3
 78
     9
170
     0
171
     2
172
     1
173
     0
174
     0
175
     0
176
   256
177
   256
178
    40
  0
DIMSTYLE
  2
BIGT$SF
 70
     0
  3

  4

  5
OPEN
  6

  7

 40
1.0
 41
2.2299999999999991
 42
0.5
 43
7.0
 44
1.0
 45
0.0
 46
0.0
 47
0.0
 48
0.0
140
2.7999999999999989
141
0.0
142
0.0
143
25.399999999999999
144
1.0
145
0.0
146
1.0
147
1.0
 71
     0
 72
     0
 73
     0
 74
     0
 75
     0
 76
     0
 77
     3
 78
     9
170
     0
171
     2
172
     1
173
     0
174
     0
175
     0
176
   256
177
   256
178
    40
  0
DIMSTYLE
  2
TECHNICAL_OSAKA
 70
     0
  3

  4
"
  5
OPEN30
  6

  7

 40
1.0
 41
2.5
 42
1.0
 43
10.0
 44
1.0
 45
0.0
 46
0.0
 47
0.1
 48
0.1
140
2.7999999999999989
141
0.0
142
0.0
143
0.0393701
144
1.0
145
0.0
146
0.71
147
1.5
 71
     0
 72
     0
 73
     0
 74
     0
 75
     0
 76
     0
 77
     3
 78
     8
170
     0
171
     2
172
     1
173
     0
174
     0
175
     0
176
   256
177
   256
178
    40
  0
DIMSTYLE
  2
TECHNICAL_OSAKA$3
 70
     0
  3

  4
"
  5
OPEN30
  6

  7

 40
1.0
 41
2.5
 42
1.0
 43
10.0
 44
1.0
 45
0.0
 46
0.0
 47
0.1
 48
0.1
140
2.7999999999999989
141
0.0
142
0.0
143
0.0393701
144
1.0
145
0.0
146
0.71
147
1.5
 71
     0
 72
     0
 73
     0
 74
     1
 75
     0
 76
     0
 77
     3
 78
     8
170
     0
171
     2
172
     0
173
     0
174
     0
175
     0
176
   256
177
   256
178
    40
  0
DIMSTYLE
  2
TECHNICAL_OSAKA$4
 70
     0
  3

  4
"
  5
OPEN30
  6

  7

 40
1.0
 41
2.5
 42
1.0
 43
10.0
 44
1.0
 45
0.0
 46
0.0
 47
0.1
 48
0.1
140
2.7999999999999989
141
0.0
142
0.0
143
0.0393701
144
1.0
145
0.0
146
0.71
147
1.5
 71
     0
 72
     0
 73
     0
 74
     1
 75
     0
 76
     0
 77
     3
 78
     8
170
     0
171
     2
172
     0
173
     0
174
     0
175
     0
176
   256
177
   256
178
    40
  0
DIMSTYLE
  2
TECHNICAL_OSAKA$6
 70
     0
  3

  4
"
  5
OPEN30
  6

  7

 40
1.0
 41
2.5
 42
1.0
 43
10.0
 44
1.0
 45
0.0
 46
0.0
 47
0.1
 48
0.1
140
2.7999999999999989
141
0.0
142
0.0
143
0.0393701
144
1.0
145
0.0
146
0.71
147
1.5
 71
     0
 72
     0
 73
     0
 74
     0
 75
     0
 76
     0
 77
     0
 78
     8
170
     0
171
     2
172
     1
173
     0
174
     0
175
     0
176
   256
177
   256
178
    40
  0
DIMSTYLE
  2
TECHNICAL_OSAKA$7
 70
     0
  3

  4
"
  5
OPEN30
  6

  7

 40
1.0
 41
2.5
 42
1.0
 43
10.0
 44
1.0
 45
0.0
 46
0.0
 47
0.1
 48
0.1
140
2.7999999999999989
141
0.0
142
0.0
143
0.0393701
144
1.0
145
0.0
146
0.71
147
1.5
 71
     0
 72
     0
 73
     0
 74
     0
 75
     0
 76
     0
 77
     3
 78
     8
170
     0
171
     2
172
     1
173
     0
174
     0
175
     0
176
   256
177
   256
178
    40
  0
DIMSTYLE
  2
TECHNICAL_OSAKA$SF
 70
     0
  3

  4
"
  5
OPEN30
  6
OPEN30
  7
OPEN30
 40
1.0
 41
2.5
 42
1.0
 43
10.0
 44
1.0
 45
0.0
 46
0.0
 47
0.1
 48
0.1
140
3.5
141
0.0
142
0.0
143
0.0393701
144
1.0
145
0.0
146
0.71
147
1.5
 71
     0
 72
     0
 73
     0
 74
     0
 75
     1
 76
     1
 77
     3
 78
     8
170
     0
171
     2
172
     1
173
     0
174
     0
175
     0
176
   256
177
   256
178
    40
  0
DIMSTYLE
  2
TECHNICAL_OSAKA$SH
 70
     0
  3

  4
"
  5
OPEN30
  6
GENAXEH
  7
OPEN30
 40
1.0
 41
2.5
 42
1.0
 43
10.0
 44
1.0
 45
0.0
 46
0.0
 47
0.1
 48
0.1
140
3.5
141
0.0
142
0.0
143
0.0393701
144
2.0
145
0.0
146
0.71
147
1.5
 71
     0
 72
     0
 73
     0
 74
     0
 75
     1
 76
     1
 77
     3
 78
     8
170
     0
171
     2
172
     1
173
     1
174
     0
175
     0
176
   256
177
   256
178
    40
  0
ENDTAB
  0
ENDSEC
  0
SECTION
  2
BLOCKS
  0
BLOCK
  8
0
  2
$MODEL_SPACE
 70
     0
 10
0.0
 20
0.0
 30
0.0
  3
$MODEL_SPACE
  1

  0
ENDBLK
  5
1C
  8
0
  0
BLOCK
 67
     1
  8
0
  2
$PAPER_SPACE
 70
     0
 10
0.0
 20
0.0
 30
0.0
  3
$PAPER_SPACE
  1

  0
ENDBLK
  5
19
 67
     1
  8
0
  0
BLOCK
  8
0
  2
_OPEN
 70
     0
 10
0.0
 20
0.0
 30
0.0
  3
_OPEN
  1

  0
LINE
  5
46F9
  8
0
  6
BYBLOCK
 62
     0
 10
-1.0
 20
0.1666666666666666
 30
0.0
 11
0.0
 21
0.0
 31
0.0
  0
LINE
  5
46FA
  8
0
  6
BYBLOCK
 62
     0
 10
-1.0
 20
-0.1666666666666666
 30
0.0
 11
0.0
 21
0.0
 31
0.0
  0
LINE
  5
46FB
  8
0
  6
BYBLOCK
 62
     0
 10
0.0
 20
0.0
 30
0.0
 11
-1.0
 21
0.0
 31
0.0
  0
ENDBLK
  5
46FC
  8
0
  0
BLOCK
  8
0
  2
GENAXEH
 70
     0
 10
0.0
 20
0.0
 30
0.0
  3
GENAXEH
  1

  0
LINE
  5
4734
  8
0
 10
-1.0
 20
0.0
 30
0.0
 11
1.0
 21
0.0
 31
0.0
  0
ENDBLK
  5
4735
  8
0
  0
BLOCK
  8
0
  2
_OPEN30
 70
     0
 10
0.0
 20
0.0
 30
0.0
  3
_OPEN30
  1

  0
LINE
  5
4770
  8
0
  6
BYBLOCK
 62
     0
 10
-1.0
 20
0.26794919
 30
0.0
 11
0.0
 21
0.0
 31
0.0
  0
LINE
  5
4771
  8
0
  6
BYBLOCK
 62
     0
 10
0.0
 20
0.0
 30
0.0
 11
-1.0
 21
-0.26794919
 31
0.0
  0
LINE
  5
4772
  8
0
  6
BYBLOCK
 62
     0
 10
0.0
 20
0.0
 30
0.0
 11
-1.0
 21
0.0
 31
0.0
  0
ENDBLK
  5
4773
  8
0
  0
BLOCK
  8
0
  2
*U20
 70
     1
 10
0.0
 20
0.0
 30
0.0
  3
*U20
  1

  0
TEXT
  5
4802
  8
240
 62
    40
 10
58.300002845496749
 20
29.0
 30
0.0
 40
2.7999999999999989
  1
125
  0
ENDBLK
  5
4804
  8
0
  0
ENDSEC
  0
SECTION
  2
ENTITIES
  0
LINE
  5
42B1
  8
240
  6
CONTINUOUS
 10
104.61756587028501
 20
12.000000081653351
 30
0.0
 11
0.0
 21
12.000000081653351
 31
0.0
  0
LINE
  5
42B2
  8
240
  6
CONTINUOUS
 10
0.0
 20
-12.000000010547581
 30
0.0
 11
104.25049066543581
 21
-12.000000010547581
 31
0.0
  0
LINE
  5
42EC
  8
240
  6
CONTINUOUS
 10
0.0
 20
-12.000000010547581
 30
0.0
 11
0.0
 21
-6.9999999999998979
 31
0.0
  0
LINE
  5
42ED
  8
241
  6
CONTINUOUS
 10
0.0
 20
-6.9999999999998979
 30
0.0
 11
0.0
 21
6.9999999999999138
 31
0.0
  0
LINE
  5
42EE
  8
240
  6
CONTINUOUS
 10
0.0
 20
6.9999999999999138
 30
0.0
 11
0.0
 21
12.000000081653351
 31
0.0
  0
LINE
  5
42F0
  8
241
  6
CONTINUOUS
 10
103.0000150203705
 20
11.90000025152659
 30
0.0
 11
103.0000150203705
 21
-11.90000000579783
 31
0.0
  0
POLYLINE
  5
42FF
  8
240
  6
CONTINUOUS
 66
     1
 10
0.0
 20
0.0
 30
0.0
 70
   128
  0
VERTEX
  5
47F2
  8
240
  6
CONTINUOUS
 10
104.61756587028501
 20
12.000000081653351
 30
0.0
  0
VERTEX
  5
47F3
  8
240
  6
CONTINUOUS
 10
104.62942719459529
 20
11.97769490599131
 30
0.0
  0
VERTEX
  5
47F4
  8
240
  6
CONTINUOUS
 10
104.7240197658539
 20
11.79975268959498
 30
0.0
  0
VERTEX
  5
47F5
  8
240
  6
CONTINUOUS
 10
104.9118638038635
 20
11.446513212914221
 30
0.0
  0
VERTEX
  5
47F6
  8
240
  6
CONTINUOUS
 10
105.19009828567501
 20
10.92322354733443
 30
0.0
  0
VERTEX
  5
47F7
  8
240
  6
CONTINUOUS
 10
105.55461049079889
 20
10.237658373708481
 30
0.0
  0
VERTEX
  5
47F8
  8
240
  6
CONTINUOUS
 10
106.000006198883
 20
9.4000007730672337
 30
0.0
  0
SEQEND
  5
47F9
  8
240
  6
CONTINUOUS
  0
POLYLINE
  5
4307
  8
240
  6
CONTINUOUS
 66
     1
 10
0.0
 20
0.0
 30
0.0
 70
   128
  0
VERTEX
  5
47FA
  8
240
  6
CONTINUOUS
 10
105.50001263618471
 20
-9.6500000444477223
 30
0.0
  0
VERTEX
  5
47FB
  8
240
  6
CONTINUOUS
 10
105.0600111484527
 20
-10.47750424996519
 30
0.0
  0
VERTEX
  5
47FC
  8
240
  6
CONTINUOUS
 10
104.71019148826601
 20
-11.13543370675796
 30
0.0
  0
VERTEX
  5
47FD
  8
240
  6
CONTINUOUS
 10
104.45618629455559
 20
-11.613140196376831
 30
0.0
  0
VERTEX
  5
47FE
  8
240
  6
CONTINUOUS
 10
104.30210828781129
 20
-11.902892140741811
 30
0.0
  0
VERTEX
  5
47FF
  8
240
  6
CONTINUOUS
 10
104.25049066543581
 20
-12.000000010547581
 30
0.0
  0
SEQEND
  5
4800
  8
240
  6
CONTINUOUS
  0
TEXT
  5
447B
  8
241
  6
CONTINUOUS
 10
-14.0
 20
42.000000000000021
 30
0.0
 40
5.0
  1
CK2-EWN25DP-125
  7
YOKO
 11
-14.0
 21
42.000000000000021
 31
0.0
 73
     1
  0
LINE
  5
447C
  8
245
  6
CENTER2
 10
123.8495855299399
 20
0.0000000000000284
 30
0.0
 11
-17.739975999999992
 21
0.0000000000000284
 31
0.0
  0
LINE
  5
447D
  8
240
  6
CONTINUOUS
 10
-16.0
 20
-6.999999999999976
 30
0.0
 11
-16.0
 21
7.0000000000000346
 31
0.0
  0
LINE
  5
447E
  8
240
  6
CONTINUOUS
 10
-16.0
 20
-6.999999999999976
 30
0.0
 11
0.0
 21
-6.9999999999998979
 31
0.0
  0
CIRCLE
  5
4484
  8
241
  6
CONTINUOUS
 10
-6.4999999999999432
 20
0.082460999999995
 30
0.0
 40
2.4954999999999981
  0
CIRCLE
  5
4485
  8
241
  6
CONTINUOUS
 10
-6.4999999999999432
 20
0.082460999999995
 30
0.0
 40
2.0
  0
LINE
  5
4486
  8
245
  6
CENTER2
 10
-6.4999999999999432
 20
-2.7520980000000148
 30
0.0
 11
-6.4999999999999432
 21
2.995757999999995
 31
0.0
  0
LINE
  5
448B
  8
240
  6
CONTINUOUS
 10
-16.0
 20
7.0000000000000346
 30
0.0
 11
0.0
 21
6.9999999999999138
 31
0.0
  0
LINE
  5
448D
  8
250
  6
CONTINUOUS
 10
-19.96927907915752
 20
-15.33373705482969
 30
0.0
 11
-11.180408596639269
 21
-15.33373705482969
 31
0.0
  0
LINE
  5
448E
  8
250
  6
CONTINUOUS
 10
-11.180408596639269
 20
-15.33373705482969
 30
0.0
 11
-9.4237583927216484
 21
-9.1452473344089622
 31
0.0
  0
LINE
  5
448F
  8
250
  6
CONTINUOUS
 10
-9.4237583927216484
 20
-9.1452473344089622
 30
0.0
 11
-8.8148135067007161
 21
-6.9999999999999538
 31
0.0
  0
LINE
  5
4490
  8
250
  6
CONTINUOUS
 10
-9.1413312244641087
 20
-9.2254164491889981
 30
0.0
 11
-8.8148135067007161
 21
-6.9999999999999538
 31
0.0
  0
LINE
  5
4491
  8
250
  6
CONTINUOUS
 10
-8.8148135067007161
 20
-6.9999999999999538
 30
0.0
 11
-9.7061855609791881
 21
-9.0650782196289228
 31
0.0
  0
TEXT
  5
4492
  8
250
  6
CONTINUOUS
 10
-20.369279079157518
 20
-13.933737054829701
 30
0.0
 40
2.799999999999998
  1
CK2
  7
YOKO
  0
LINE
  5
4493
  8
247
  6
CONTINUOUS
 10
3.9999999999997802
 20
-8.999999999999984
 30
0.0
 11
3.999999999999825
 21
-5.2923076925360029
 31
0.0
  0
LINE
  5
4494
  8
247
  6
CONTINUOUS
 10
1.999999999999825
 20
-8.3639147999903347
 30
0.0
 11
3.6799999999326309
 21
-8.8456470480458691
 31
0.0
  0
LINE
  5
4495
  8
247
  6
CONTINUOUS
 10
2.7969230768910198
 20
-7.8601211228152064
 30
0.0
 11
2.7969230768910198
 21
-8.5924288150936103
 31
0.0
  0
ARC
  5
4496
  8
247
  6
CONTINUOUS
 10
2.3077752538351071
 20
-7.6698107215574236
 30
0.0
 40
0.3101372647461394
 50
72.997889675292001
 51
172.92416621851231
  0
ARC
  5
4497
  8
247
  6
CONTINUOUS
 10
2.244178504822238
 20
-7.9059820454432668
 30
0.0
 40
0.5546438372287014
 50
4.7429368522013924
 51
73.849226273266339
1001
GENIUS_GENOBJ-N-FIL_13
1002
{
1000
OWNER
1000
GEN
1002
}
1001
GENIUS_GENODEF_13
1002
{
1000
HIER
1070
     0
1002
}
1002
{
1000
MANEDIT
1070
     0
1002
}
1002
{
1000
NOSEL
1070
     0
1002
}
1002
{
1000
BEHIND
1070
     0
1002
}
1002
{
1000
OTHER
1070
     0
1002
}
1002
{
1000
REACTOR
1002
}
  0
LINE
  5
4498
  8
247
  6
CONTINUOUS
 10
3.6799999999326309
 20
-8.1133393557674651
 30
0.0
 11
3.6799999999326309
 21
-8.8456470480458691
 31
0.0
  0
LINE
  5
4499
  8
247
  6
CONTINUOUS
 10
1.999999999999825
 20
-8.3639147999903418
 30
0.0
 11
1.999999999999825
 21
-7.631607107711937
 31
0.0
  0
ARC
  5
449A
  8
247
  6
CONTINUOUS
 10
3.1099335702141242
 20
-7.9026451810134439
 30
0.0
 40
0.3158858408603088
 50
65.990941652528889
 51
172.26344345906949
  0
ARC
  5
449B
  8
247
  6
CONTINUOUS
 10
3.112960261865878
 20
-8.1699572883415108
 30
0.0
 40
0.5698593289889349
 50
5.701985164258037
 51
77.277338436822262
1001
GENIUS_GENOBJ-N-FIL_13
1002
{
1000
OWNER
1000
GEN
1002
}
1001
GENIUS_GENODEF_13
1002
{
1000
HIER
1070
     0
1002
}
1002
{
1000
MANEDIT
1070
     0
1002
}
1002
{
1000
NOSEL
1070
     0
1002
}
1002
{
1000
BEHIND
1070
     0
1002
}
1002
{
1000
OTHER
1070
     0
1002
}
1002
{
1000
REACTOR
1002
}
  0
LINE
  5
449C
  8
247
  6
CONTINUOUS
 10
3.6799999999326309
 20
-7.3471855096506777
 30
0.0
 11
1.999999999999825
 21
-6.8654532615951478
 31
0.0
  0
LINE
  5
449D
  8
247
  6
CONTINUOUS
 10
1.999999999999825
 20
-5.6685301847263476
 30
0.0
 11
1.999999999999825
 21
-5.9853426914428427
 31
0.0
  0
LINE
  5
449E
  8
247
  6
CONTINUOUS
 10
3.6799999999326309
 20
-6.486991723155147
 30
0.0
 11
3.6799999999326309
 21
-6.1423763385535528
 31
0.0
  0
ARC
  5
449F
  8
247
  6
CONTINUOUS
 10
3.1666396760665152
 20
-5.5054532616559477
 30
0.0
 40
1.261484046111637
 50
202.35948814152729
 51
254.993248542846
  0
ARC
  5
44A0
  8
247
  6
CONTINUOUS
 10
2.4526550868303341
 20
-5.8780090929065567
 30
0.0
 40
0.4987765437607558
 50
94.994589319075374
 51
155.16632895730351
1001
GENIUS_GENOBJ-N-FIL_13
1002
{
1000
OWNER
1000
GEN
1002
}
1001
GENIUS_GENODEF_13
1002
{
1000
HIER
1070
     0
1002
}
1002
{
1000
MANEDIT
1070
     0
1002
}
1002
{
1000
NOSEL
1070
     0
1002
}
1002
{
1000
BEHIND
1070
     0
1002
}
1002
{
1000
OTHER
1070
     0
1002
}
1002
{
1000
REACTOR
1002
}
  0
ARC
  5
44A1
  8
247
  6
CONTINUOUS
 10
2.929681697575377
 20
-6.3553471608261978
 30
0.0
 40
0.7799577719285588
 50
15.846096555779971
 51
82.325137004169164
  0
ARC
  5
44A2
  8
247
  6
CONTINUOUS
 10
3.0971763215766801
 20
-6.028169311017753
 30
0.0
 40
0.7417556510953607
 50
249.71360167049701
 51
321.78874565640962
1001
GENIUS_GENOBJ-N-FIL_13
1002
{
1000
OWNER
1000
GEN
1002
}
1001
GENIUS_GENODEF_13
1002
{
1000
HIER
1070
     0
1002
}
1002
{
1000
MANEDIT
1070
     0
1002
}
1002
{
1000
NOSEL
1070
     0
1002
}
1002
{
1000
BEHIND
1070
     0
1002
}
1002
{
1000
OTHER
1070
     0
1002
}
1002
{
1000
REACTOR
1002
}
  0
LINE
  5
44A3
  8
247
  6
CONTINUOUS
 10
3.0338461538046042
 20
-5.9700686462527486
 30
0.0
 11
3.0338461538046042
 21
-5.5823763385759477
 31
0.0
  0
ARC
  5
44A4
  8
247
  6
CONTINUOUS
 10
2.999999999999825
 20
-8.999999999999984
 30
0.0
 40
1.0
 50
180.0
 51
0.0
  0
LINE
  5
44A5
  8
247
  6
CONTINUOUS
 10
1.999999999999825
 20
-8.999999999999984
 30
0.0
 11
1.999999999999825
 21
-8.6430769231311722
 31
0.0
  0
ARC
  5
44A6
  8
247
  6
CONTINUOUS
 10
2.999999999999825
 20
-5.2923076925359878
 30
0.0
 40
1.0
 50
0.0
 51
180.0
  0
LINE
  5
450F
  8
250
  6
CONTINUOUS
 10
138.49998773962159
 20
16.500000000000028
 30
0.0
 11
138.49998773962159
 21
14.27000000000004
 31
0.0
  0
LINE
  5
4510
  8
250
  6
CONTINUOUS
 10
138.8716544062882
 20
14.27000000000004
 30
0.0
 11
138.49998773962159
 21
16.500000000000028
 31
0.0
  0
LINE
  5
4511
  8
250
  6
CONTINUOUS
 10
138.12832107295489
 20
14.27000000000004
 30
0.0
 11
138.49998773962159
 21
16.500000000000028
 31
0.0
  0
LINE
  5
4512
  8
250
  6
CONTINUOUS
 10
121.6616095795178
 20
16.1988319999999
 30
0.0
 11
122.7766095795178
 21
18.130068650439171
 31
0.0
  0
LINE
  5
4513
  8
250
  6
CONTINUOUS
 10
122.45473680444459
 20
18.31590198377252
 30
0.0
 11
121.6616095795178
 21
16.1988319999999
 31
0.0
  0
LINE
  5
4514
  8
250
  6
CONTINUOUS
 10
123.098482354591
 20
17.944235317105861
 30
0.0
 11
121.6616095795178
 21
16.1988319999999
 31
0.0
  0
TEXT
  5
4515
  8
250
  6
CONTINUOUS
 10
136.21427345390731
 20
4.6538896635877487
 30
0.0
 40
3.0
  1
33)
 50
90.0
1001
ACAD
1000
MTEXTBEGIN
1070
    73
1070
     1
1070
    44
1040
1.0
1070
    74
1070
     0
1000
MTEXTEND
  0
TEXT
  5
4516
  8
250
  6
CONTINUOUS
 10
136.21427345390731
 20
1.9396039493020389
 30
0.0
 40
3.0
  1
\U+2205
 50
90.0
1001
ACAD
1000
MTEXTBEGIN
1070
    73
1070
     1
1070
    44
1040
1.0
1070
    74
1070
     0
1000
MTEXTEND
  0
TEXT
  5
4517
  8
250
  6
CONTINUOUS
 10
136.21427345390731
 20
-7.4889674792693848
 30
0.0
 40
3.0
  1
25~
 50
90.0
1001
ACAD
1000
MTEXTBEGIN
1070
    73
1070
     1
1070
    44
1040
1.0
1070
    74
1070
     0
1000
MTEXTEND
  0
TEXT
  5
4518
  8
250
  6
CONTINUOUS
 10
136.21427345390731
 20
-10.203253193555099
 30
0.0
 40
3.0
  1
\U+2205
 50
90.0
1001
ACAD
1000
MTEXTBEGIN
1070
    73
1070
     1
1070
    44
1040
1.0
1070
    74
1070
     0
1000
MTEXTEND
  0
TEXT
  5
4519
  8
250
  6
CONTINUOUS
 10
136.21427345390731
 20
-12.20325319355509
 30
0.0
 40
3.0
  1
(
 50
90.0
1001
ACAD
1000
MTEXTBEGIN
1070
    73
1070
     1
1070
    44
1040
1.0
1070
    74
1070
     0
1000
MTEXTEND
  0
LINE
  5
451A
  8
250
  6
CONTINUOUS
 10
122.7766095795178
 20
18.130068650439171
 30
0.0
 11
128.49851218720721
 21
28.040694682918001
 31
0.0
1001
ACAD
1000
DSTYLE
1002
{
1070
     5
1000
OPEN
1070
    41
1040
2.2299999999999991
1070
    78
1070
     8
1070
    79
1070
     2
1070
   140
1040
3.0
1070
   179
1070
     3
1070
   341
1005
0
1070
   371
1070
    -1
1070
   372
1070
    -1
1002
}
  0
TEXT
  5
451B
  8
250
  6
CONTINUOUS
 10
130.9270836157786
 20
29.040694682918001
 30
0.0
 40
3.0
  1
ENH2-1
  7
YOKO
1001
ITEMNAME
1000
LNSP3
1001
ACAD
1000
MTEXTBEGIN
1070
    73
1070
     1
1070
    44
1040
1.0
1070
    74
1070
     0
1000
MTEXTEND
  0
LINE
  5
451C
  8
250
  6
CONTINUOUS
 10
138.49998773962159
 20
14.352460999999821
 30
0.0
 11
138.49998773962159
 21
-12.653623622126601
 31
0.0
  0
LINE
  5
451D
  8
250
  6
CONTINUOUS
 10
125.2092075910455
 20
16.50000000000005
 30
0.0
 11
139.49998773962159
 21
16.500000000000028
 31
0.0
  0
LINE
  5
451E
  8
250
  6
CONTINUOUS
 10
124.2444726909935
 20
8.6242380000000693
 30
0.0
 11
124.24058269099341
 21
8.5500000000000327
 31
0.0
  0
LINE
  5
451F
  8
250
  6
CONTINUOUS
 10
128.49851218720721
 20
28.040694682918001
 30
0.0
 11
151.06994075863579
 21
28.040694682918001
 31
0.0
1001
ITEMNAME
1000
LNSP2
  0
LINE
  5
4520
  8
241
  6
CONTINUOUS
 10
118.20000569099339
 20
11.049999999999899
 30
0.0
 11
114.60000569099169
 21
11.049999999999709
 31
0.0
  0
LINE
  5
4521
  8
241
  6
CONTINUOUS
 10
113.0000056909934
 20
9.4000000000000021
 30
0.0
 11
118.5000056909935
 21
7.9262792777777777
 31
0.0
  0
LINE
  5
4522
  8
240
  6
CONTINUOUS
 10
115.20000569099339
 20
-10.788783999999991
 30
0.0
 11
119.45000569099339
 21
-9.6500000000000057
 31
0.0
  0
LINE
  5
4523
  8
241
  6
CONTINUOUS
 10
119.45000569099339
 20
-9.6500000000000057
 30
0.0
 11
106.5500056909934
 21
-9.6500000000000057
 31
0.0
  0
LINE
  5
4524
  8
245
  6
CENTER2
 10
113.0000056909934
 20
-13.39123399999996
 30
0.0
 11
113.0000056909934
 21
17.15506400000001
 31
0.0
  0
LINE
  5
4526
  8
240
  6
CONTINUOUS
 10
110.8000056909934
 20
-10.788783999999991
 30
0.0
 11
115.20000569099339
 21
-10.788783999999991
 31
0.0
  0
LINE
  5
4527
  8
240
  6
CONTINUOUS
 10
110.8000056909934
 20
-10.788783999999991
 30
0.0
 11
106.5500056909934
 21
-9.6500000000000057
 31
0.0
  0
LINE
  5
4528
  8
240
  6
CONTINUOUS
 10
106.5500056909934
 20
-9.6500000000000057
 30
0.0
 11
105.5000056909934
 21
-9.6500000000000057
 31
0.0
  0
CIRCLE
  5
4529
  8
241
  6
CONTINUOUS
 10
113.0000056909934
 20
0.0000000000000284
 30
0.0
 40
2.0
  0
LINE
  5
452A
  8
241
  6
CONTINUOUS
 10
113.0000056909934
 20
1.154700000000018
 30
0.0
 11
114.0000056909934
 21
0.5773499999999956
 31
0.0
  0
LINE
  5
452B
  8
241
  6
CONTINUOUS
 10
112.0000056909934
 20
0.5773499999999956
 30
0.0
 11
113.0000056909934
 21
1.154700000000018
 31
0.0
  0
CIRCLE
  5
452C
  8
242
  6
CONTINUOUS
 10
113.0000056909934
 20
0.0000000000000284
 30
0.0
 40
1.649999999999999
  0
LINE
  5
452D
  8
241
  6
CONTINUOUS
 10
114.0000056909934
 20
-0.5773499999999955
 30
0.0
 11
113.0000056909934
 21
-1.154701000000014
 31
0.0
  0
LINE
  5
452E
  8
241
  6
CONTINUOUS
 10
114.0000056909934
 20
0.5773499999999956
 30
0.0
 11
114.0000056909934
 21
-0.5773499999999955
 31
0.0
  0
LINE
  5
452F
  8
241
  6
CONTINUOUS
 10
112.0000056909934
 20
-0.5773499999999955
 30
0.0
 11
112.0000056909934
 21
0.5773499999999956
 31
0.0
  0
LINE
  5
4530
  8
241
  6
CONTINUOUS
 10
113.0000056909934
 20
-1.154701000000014
 30
0.0
 11
112.0000056909934
 21
-0.5773499999999955
 31
0.0
  0
LINE
  5
4531
  8
240
  6
CONTINUOUS
 10
107.5000056909936
 20
9.4000000000000021
 30
0.0
 11
106.000006609935
 21
9.4000000000000021
 31
0.0
  0
LINE
  5
4532
  8
241
  6
CONTINUOUS
 10
107.8000056909934
 20
11.049999999999899
 30
0.0
 11
111.4000056909934
 21
11.049999999999899
 31
0.0
  0
LINE
  5
4533
  8
241
  6
CONTINUOUS
 10
113.0000056909934
 20
9.4000000000000021
 30
0.0
 11
107.5000056909936
 21
9.4000000000000021
 31
0.0
  0
LINE
  5
4534
  8
240
  6
CONTINUOUS
 10
107.5000056909934
 20
10.74999999999994
 30
0.0
 11
107.5000056909939
 21
9.4000000000001052
 31
0.0
  0
LINE
  5
4535
  8
240
  6
CONTINUOUS
 10
107.8000056909934
 20
11.049999999999899
 30
0.0
 11
107.5000056909934
 21
10.74999999999994
 31
0.0
  0
LINE
  5
4536
  8
241
  6
CONTINUOUS
 10
114.21592969099341
 20
12.14999999999992
 30
0.0
 11
114.4489386909934
 21
11.95274199999994
 31
0.0
  0
LINE
  5
4537
  8
241
  6
CONTINUOUS
 10
111.55107369099341
 20
11.95274199999994
 30
0.0
 11
111.7840826909934
 21
12.14999999999992
 31
0.0
  0
LINE
  5
4538
  8
241
  6
CONTINUOUS
 10
111.4000056909934
 20
11.049999999999899
 30
0.0
 11
111.55107369099341
 21
11.95274199999994
 31
0.0
  0
LINE
  5
4539
  8
241
  6
CONTINUOUS
 10
114.21592969099341
 20
12.14999999999992
 30
0.0
 11
111.7840826909934
 21
12.14999999999992
 31
0.0
  0
LINE
  5
453A
  8
241
  6
CONTINUOUS
 10
114.6000056909934
 20
11.049999999999899
 30
0.0
 11
114.4489386909934
 21
11.95274199999994
 31
0.0
  0
LINE
  5
453B
  8
240
  6
CONTINUOUS
 10
122.0000056909934
 20
6.9884570000000039
 30
0.0
 11
122.0000056909934
 21
-8.9999999999999716
 31
0.0
  0
LINE
  5
453C
  8
240
  6
CONTINUOUS
 10
121.62472869099339
 20
-9.6500000000000057
 30
0.0
 11
119.45000569099339
 21
-9.6500000000000057
 31
0.0
  0
LINE
  5
453D
  8
240
  6
CONTINUOUS
 10
122.0000056909934
 20
-8.9999999999999716
 30
0.0
 11
121.62472869099339
 21
-9.6500000000000057
 31
0.0
  0
LINE
  5
453E
  8
240
  6
CONTINUOUS
 10
118.5000056909934
 20
7.9262789999999912
 30
0.0
 11
118.5000056909934
 21
10.74999999999994
 31
0.0
  0
LINE
  5
453F
  8
240
  6
CONTINUOUS
 10
118.5000056909935
 20
7.9262792777777777
 30
0.0
 11
122.0000056909934
 21
6.9884570000000039
 31
0.0
  0
LINE
  5
4540
  8
240
  6
CONTINUOUS
 10
118.5000056909934
 20
10.74999999999994
 30
0.0
 11
118.20000569099339
 21
11.049999999999899
 31
0.0
  0
ARC
  5
4541
  8
241
  6
CONTINUOUS
 10
117.20000569099351
 20
14.50000000000008
 30
0.0
 40
1.0
 50
0.0
 51
90.0
  0
LINE
  5
4542
  8
240
  6
CONTINUOUS
 10
115.7500056909934
 20
15.500000000000069
 30
0.0
 11
118.3000056909935
 21
15.500000000000069
 31
0.0
  0
LINE
  5
4543
  8
240
  6
CONTINUOUS
 10
118.20000569099351
 20
11.04999999999986
 30
0.0
 11
118.6366266909935
 21
11.050000000000029
 31
0.0
  0
LINE
  5
4544
  8
240
  6
CONTINUOUS
 10
111.8000056909935
 20
15.550000000000029
 30
0.0
 11
111.1508576909935
 21
15.313729000000039
 31
0.0
  0
LINE
  5
4545
  8
241
  6
CONTINUOUS
 10
111.150208473718
 20
11.04999999999983
 30
0.0
 11
111.45020847371789
 21
11.34999999999984
 31
0.0
1001
GRPNAME
1000
PASTMD2W
  0
LINE
  5
4546
  8
240
  6
CONTINUOUS
 10
107.8000056909935
 20
11.050000000000029
 30
0.0
 11
107.8000056909935
 21
14.50000000000008
 31
0.0
  0
ARC
  5
4547
  8
240
  6
CONTINUOUS
 10
108.8000056909935
 20
14.50000000000008
 30
0.0
 40
1.0
 50
90.0
 51
180.0
  0
LINE
  5
4548
  8
240
  6
CONTINUOUS
 10
108.8000056909935
 20
15.500000000000069
 30
0.0
 11
110.2500056909934
 21
15.500000000000069
 31
0.0
  0
LINE
  5
4549
  8
241
  6
CONTINUOUS
 10
111.5506140391668
 20
12.299999999999841
 30
0.0
 11
114.44939734282011
 21
12.299999999999841
 31
0.0
1001
GRPNAME
1000
PASTMD2W
  0
LINE
  5
454A
  8
241
  6
CONTINUOUS
 10
111.45020847371789
 20
11.34999999999984
 30
0.0
 11
111.5506140391668
 21
11.949999999999809
 31
0.0
1001
GRPNAME
1000
PASTMD2W
  0
LINE
  5
454B
  8
241
  6
CONTINUOUS
 10
111.5506140391668
 20
11.949999999999809
 30
0.0
 11
111.5506140391668
 21
12.299999999999841
 31
0.0
1001
GRPNAME
1000
PASTMD2W
  0
LINE
  5
454C
  8
241
  6
CONTINUOUS
 10
114.5498029082691
 20
11.34999999999984
 30
0.0
 11
114.44939734282011
 21
11.949999999999809
 31
0.0
1001
GRPNAME
1000
PASTMD2W
  0
LINE
  5
454D
  8
241
  6
CONTINUOUS
 10
114.44939734282011
 20
11.949999999999809
 30
0.0
 11
114.44939734282011
 21
12.299999999999841
 31
0.0
1001
GRPNAME
1000
PASTMD2W
  0
LINE
  5
454E
  8
241
  6
CONTINUOUS
 10
114.849802908263
 20
11.05000000000026
 30
0.0
 11
114.5498029082691
 21
11.34999999999984
 31
0.0
1001
GRPNAME
1000
PASTMD2W
  0
LINE
  5
454F
  8
240
  6
CONTINUOUS
 10
114.20000569099351
 20
15.550000000000029
 30
0.0
 11
114.8491546909935
 21
15.313729000000039
 31
0.0
  0
LINE
  5
4550
  8
240
  6
CONTINUOUS
 10
111.8000056909935
 20
15.550000000000029
 30
0.0
 11
114.20000569099351
 21
15.550000000000029
 31
0.0
  0
LINE
  5
4551
  8
241
  6
CONTINUOUS
 10
119.5169786909935
 20
11.6943090000001
 30
0.0
 11
124.2958506909935
 21
8.5908730000001281
 31
0.0
  0
LINE
  5
4552
  8
240
  6
CONTINUOUS
 10
123.99789369099349
 20
8.5500000000000327
 30
0.0
 11
118.6366266909935
 21
11.050000000000029
 31
0.0
  0
LINE
  5
4553
  8
241
  6
CONTINUOUS
 10
124.9997316909935
 20
16.28953200000009
 30
0.0
 11
124.60450469099349
 21
8.7481400000001148
 31
0.0
  0
LINE
  5
4554
  8
240
  6
CONTINUOUS
 10
123.99789369099349
 20
8.5500000000000327
 30
0.0
 11
124.24058269099341
 21
8.5500000000000327
 31
0.0
  0
ARC
  5
4555
  8
241
  6
CONTINUOUS
 10
124.4047786909935
 20
8.7586070000000653
 30
0.0
 40
0.2
 50
237.0000000000002
 51
357.0000000000008
  0
CIRCLE
  5
4556
  8
246
  6
PHANTOM2
 10
122.4253796909934
 20
12.643396000000079
 30
0.0
 40
2.379999999999999
  0
LINE
  5
4557
  8
241
  6
CONTINUOUS
 10
123.71374469099339
 20
15.97098700000006
 30
0.0
 11
124.7092076909934
 21
16.478201000000091
 31
0.0
  0
LINE
  5
4558
  8
241
  6
CONTINUOUS
 10
117.9805566909935
 20
13.04978200000007
 30
0.0
 11
119.6321176909935
 21
13.8912940000001
 31
0.0
  0
LINE
  5
4559
  8
241
  6
CONTINUOUS
 10
118.20000569099351
 20
14.50000000000008
 30
0.0
 11
118.2000056909974
 21
13.161596802414831
 31
0.0
  0
LINE
  5
455A
  8
241
  6
CONTINUOUS
 10
117.96242769099339
 20
12.703847000000071
 30
0.0
 11
119.5169786909935
 21
11.6943090000001
 31
0.0
  0
LINE
  5
455B
  8
241
  6
CONTINUOUS
 10
118.20000569099351
 20
11.050000000000029
 30
0.0
 11
118.20000569099381
 21
12.54956192413839
 31
0.0
  0
ARC
  5
455C
  8
241
  6
CONTINUOUS
 10
118.0713546909935
 20
12.87158100000007
 30
0.0
 40
0.2
 50
117.0
 51
237.0000000000002
  0
LINE
  5
455D
  8
240
  6
CONTINUOUS
 10
119.3675926909935
 20
16.1163710000001
 30
0.0
 11
123.9990766909935
 21
16.1163710000001
 31
0.0
  0
LINE
  5
455E
  8
241
  6
CONTINUOUS
 10
119.6321176909935
 20
13.8912940000001
 30
0.0
 11
123.71374469099339
 21
15.97098700000006
 31
0.0
  0
LINE
  5
455F
  8
240
  6
CONTINUOUS
 10
118.3000056909935
 20
15.500000000000069
 30
0.0
 11
119.3675926909935
 21
16.1163710000001
 31
0.0
  0
ARC
  5
4560
  8
241
  6
CONTINUOUS
 10
124.8000056909935
 20
16.300000000000029
 30
0.0
 40
0.2
 50
357.0000000000008
 51
117.0
  0
LINE
  5
4561
  8
240
  6
CONTINUOUS
 10
110.2500056909934
 20
15.500000000000069
 30
0.0
 11
110.4752186909935
 21
15.44659100000009
 31
0.0
  0
LINE
  5
4562
  8
240
  6
CONTINUOUS
 10
110.4752186909935
 20
15.44659100000009
 30
0.0
 11
110.7004316909935
 21
15.397743000000069
 31
0.0
  0
LINE
  5
4563
  8
240
  6
CONTINUOUS
 10
110.7004316909935
 20
15.397743000000069
 30
0.0
 11
110.92564469099339
 21
15.35345600000006
 31
0.0
  0
LINE
  5
4564
  8
240
  6
CONTINUOUS
 10
110.92564469099339
 20
15.35345600000006
 30
0.0
 11
111.1508576909935
 21
15.313729000000039
 31
0.0
  0
LINE
  5
4565
  8
240
  6
CONTINUOUS
 10
114.8491546909935
 20
15.313729000000039
 30
0.0
 11
115.0743676909935
 21
15.35345600000006
 31
0.0
  0
LINE
  5
4566
  8
240
  6
CONTINUOUS
 10
115.0743676909935
 20
15.35345600000006
 30
0.0
 11
115.29958069099349
 21
15.397743000000069
 31
0.0
  0
LINE
  5
4567
  8
240
  6
CONTINUOUS
 10
115.29958069099349
 20
15.397743000000069
 30
0.0
 11
115.52479269099339
 21
15.44659100000009
 31
0.0
  0
LINE
  5
4568
  8
240
  6
CONTINUOUS
 10
115.52479269099339
 20
15.44659100000009
 30
0.0
 11
115.7500056909934
 21
15.500000000000069
 31
0.0
  0
ARC
  5
4569
  8
241
  6
CONTINUOUS
 10
113.0000061909935
 20
26.358221482260969
 30
0.0
 40
11.19822148226093
 50
260.4952851463384
 51
279.5047148536608
  0
LINE
  5
4638
  8
250
  6
CONTINUOUS
 10
125.0000056909935
 20
16.800000000000029
 30
0.0
 11
125.0000056909935
 21
29.0
 31
0.0
  0
LINE
  5
4639
  8
250
  6
CONTINUOUS
 10
0.0
 20
12.500000081653351
 30
0.0
 11
0.000000000000001
 21
29.0
 31
0.0
  0
LINE
  5
463A
  8
250
  6
CONTINUOUS
 10
122.7700056909935
 20
28.0
 30
0.0
 11
2.23
 21
28.0
 31
0.0
  0
LINE
  5
463E
  8
250
  6
CONTINUOUS
 10
122.7700056909935
 20
28.371666666666659
 30
0.0
 11
125.0000056909935
 21
28.0
 31
0.0
  0
LINE
  5
463F
  8
250
  6
CONTINUOUS
 10
122.7700056909935
 20
27.62833333333333
 30
0.0
 11
125.0000056909935
 21
28.0
 31
0.0
  0
LINE
  5
4640
  8
250
  6
CONTINUOUS
 10
125.0000056909935
 20
28.0
 30
0.0
 11
122.7700056909935
 21
28.0
 31
0.0
  0
TEXT
  5
4641
  8
250
  6
CONTINUOUS
 10
58.300002845496749
 20
29.0
 30
0.0
 40
2.7999999999999989
  1
125
  0
LINE
  5
4642
  8
250
  6
CONTINUOUS
 10
2.23
 20
27.62833333333333
 30
0.0
 11
0.000000000000001
 21
28.0
 31
0.0
  0
LINE
  5
4643
  8
250
  6
CONTINUOUS
 10
2.23
 20
28.371666666666659
 30
0.0
 11
0.000000000000001
 21
28.0
 31
0.0
  0
LINE
  5
4644
  8
250
  6
CONTINUOUS
 10
0.000000000000001
 20
28.0
 30
0.0
 11
2.23
 21
28.0
 31
0.0
  0
VIEWPORT
  5
22
 67
     1
  8
0
 10
261.51769911504419
 20
148.5
 30
0.0
 40
523.0353982300885
 41
297.0
 68
     1
 69
     1
1001
ACAD
1000
MVIEW
1002
{
1070
    16
1010
0.0
1020
0.0
1030
0.0
1010
0.0
1020
0.0
1030
1.0
1040
0.0
1040
297.0
1040
261.51769911504419
1040
148.5
1040
50.0
1040
0.0
1040
0.0
1070
     0
1070
   100
1070
     1
1070
     1
1070
     0
1070
     0
1070
     0
1070
     0
1040
0.0
1040
0.0
1040
0.0
1040
1.0
1040
1.0
1040
10.0
1040
10.0
1070
     0
1002
{
1002
}
1002
}
1001
GENIUS_GENODEF_13
1002
{
1000
HIER
1070
     0
1002
}
1002
{
1000
MANEDIT
1070
     0
1002
}
1002
{
1000
NOSEL
1070
     0
1002
}
1002
{
1000
BEHIND
1070
     0
1002
}
1002
{
1000
OTHER
1070
     0
1002
}
1002
{
1000
REACTOR
1002
}
1001
GENIUS_GENOBJ-N-SDF_13
1002
{
1000
OWNER
1000
GEN
1002
}
1001
GENIUS_GENSCREG_15
1000
PF
1040
1.0
1000
DF
1040
1.0
1000
MIN
1011
0.0
1021
0.0
1031
0.0
1021
0.0
1031
0.0
1000
MAX
1011
523.0353982300885
1021
0.0
1031
0.0
1021
297.0
1031
0.0
1000
FLAGS
1070
     4
  0
ENDSEC
  0
EOF
