  0
SECTION
  2
HEADER
  9
$ACADVER
  1
AC1015
  9
$ACADMAINTVER
 70
     6
  9
$DWGCODEPAGE
  3
ANSI_1252
  9
$INSBASE
 10
0.0
 20
0.0
 30
0.0
  9
$EXTMIN
 10
-9.753816735
 20
-7.810012606
 30
0.0
  9
$EXTMAX
 10
17.66549023
 20
9.30477606
 30
0.0
  9
$LIMMIN
 10
-9.753816735
 20
-7.810012606
  9
$LIMMAX
 10
17.66549023
 20
9.30477606
  9
$ORTHOMODE
 70
     0
  9
$REGENMODE
 70
     1
  9
$FILLMODE
 70
     1
  9
$QTEXTMODE
 70
     0
  9
$MIRRTEXT
 70
     1
  9
$LTSCALE
 40
1.0
  9
$ATTMODE
 70
     1
  9
$TEXTSIZE
 40
0.2
  9
$TRACEWID
 40
0.05
  9
$TEXTSTYLE
  7
Standard
  9
$CLAYER
  8
0
  9
$CELTYPE
  6
ByBlock
  9
$CECOLOR
 62
   256
  9
$CELTSCALE
 40
1.0
  9
$DISPSILH
 70
     0
  9
$DIMSCALE
 40
1.0
  9
$DIMASZ
 40
0.18
  9
$DIMEXO
 40
0.0625
  9
$DIMDLI
 40
0.38
  9
$DIMRND
 40
0.0
  9
$DIMDLE
 40
0.0
  9
$DIMEXE
 40
0.18
  9
$DIMTP
 40
0.0
  9
$DIMTM
 40
0.0
  9
$DIMTXT
 40
0.18
  9
$DIMCEN
 40
0.09
  9
$DIMTSZ
 40
0.0
  9
$DIMTOL
 70
     0
  9
$DIMLIM
 70
     0
  9
$DIMTIH
 70
     1
  9
$DIMTOH
 70
     1
  9
$DIMSE1
 70
     0
  9
$DIMSE2
 70
     0
  9
$DIMTAD
 70
     0
  9
$DIMZIN
 70
     0
  9
$DIMBLK
  1

  9
$DIMASO
 70
     1
  9
$DIMSHO
 70
     1
  9
$DIMPOST
  1

  9
$DIMAPOST
  1

  9
$DIMALT
 70
     0
  9
$DIMALTD
 70
     2
  9
$DIMALTF
 40
25.4
  9
$DIMLFAC
 40
1.0
  9
$DIMTOFL
 70
     0
  9
$DIMTVP
 40
0.0
  9
$DIMTIX
 70
     0
  9
$DIMSOXD
 70
     0
  9
$DIMSAH
 70
     0
  9
$DIMBLK1
  1

  9
$DIMBLK2
  1

  9
$DIMSTYLE
  2
Standard
  9
$DIMCLRD
 70
     0
  9
$DIMCLRE
 70
     0
  9
$DIMCLRT
 70
     0
  9
$DIMTFAC
 40
1.0
  9
$DIMGAP
 40
0.09
  9
$DIMJUST
 70
     0
  9
$DIMSD1
 70
     0
  9
$DIMSD2
 70
     0
  9
$DIMTOLJ
 70
     1
  9
$DIMTZIN
 70
     0
  9
$DIMALTZ
 70
     0
  9
$DIMALTTZ
 70
     0
  9
$DIMUPT
 70
     0
  9
$DIMDEC
 70
     4
  9
$DIMTDEC
 70
     4
  9
$DIMALTU
 70
     2
  9
$DIMALTTD
 70
     2
  9
$DIMTXSTY
  7
Standard
  9
$DIMAUNIT
 70
     0
  9
$DIMADEC
 70
     0
  9
$DIMALTRND
 40
0.0
  9
$DIMAZIN
 70
     0
  9
$DIMDSEP
 70
    46
  9
$DIMATFIT
 70
     3
  9
$DIMFRAC
 70
     0
  9
$DIMLDRBLK
  1

  9
$DIMLUNIT
 70
     2
  9
$DIMLWD
 70
    -2
  9
$DIMLWE
 70
    -2
  9
$DIMTMOVE
 70
     2
  9
$LUNITS
 70
     2
  9
$LUPREC
 70
     4
  9
$SKETCHINC
 40
0.1
  9
$FILLETRAD
 40
0.5
  9
$AUNITS
 70
     2
  9
$AUPREC
 70
     0
  9
$MENU
  1
.
  9
$ELEVATION
 40
0.0
  9
$PELEVATION
 40
0.0
  9
$THICKNESS
 40
0.0
  9
$LIMCHECK
 70
     0
  9
$CHAMFERA
 40
0.5
  9
$CHAMFERB
 40
0.5
  9
$CHAMFERC
 40
1.0
  9
$CHAMFERD
 40
0.0
  9
$SKPOLY
 70
     0
  9
$TDCREATE
 40
2458327.545721458
  9
$TDUCREATE
 40
2458327.462388125
  9
$TDUPDATE
 40
2458327.54572162
  9
$TDUUPDATE
 40
2458327.462388287
  9
$TDINDWG
 40
0.0000000116
  9
$TDUSRTIMER
 40
0.0000000116
  9
$USRTIMER
 70
     1
  9
$ANGBASE
 50
0.0
  9
$ANGDIR
 70
     0
  9
$PDMODE
 70
     0
  9
$PDSIZE
 40
0.0
  9
$PLINEWID
 40
0.0
  9
$SPLFRAME
 70
     0
  9
$SPLINETYPE
 70
     6
  9
$SPLINESEGS
 70
     8
  9
$HANDSEED
  5
155
  9
$SURFTAB1
 70
     6
  9
$SURFTAB2
 70
     6
  9
$SURFTYPE
 70
     6
  9
$SURFU
 70
     6
  9
$SURFV
 70
     6
  9
$UCSBASE
  2

  9
$UCSNAME
  2

  9
$UCSORG
 10
0.0
 20
0.0
 30
0.0
  9
$UCSXDIR
 10
1.0
 20
0.0
 30
0.0
  9
$UCSYDIR
 10
0.0
 20
1.0
 30
0.0
  9
$UCSORTHOREF
  2

  9
$UCSORTHOVIEW
 70
     0
  9
$UCSORGTOP
 10
0.0
 20
0.0
 30
0.0
  9
$UCSORGBOTTOM
 10
0.0
 20
0.0
 30
0.0
  9
$UCSORGLEFT
 10
0.0
 20
0.0
 30
0.0
  9
$UCSORGRIGHT
 10
0.0
 20
0.0
 30
0.0
  9
$UCSORGFRONT
 10
0.0
 20
0.0
 30
0.0
  9
$UCSORGBACK
 10
0.0
 20
0.0
 30
0.0
  9
$PUCSBASE
  2

  9
$PUCSNAME
  2

  9
$PUCSORG
 10
0.0
 20
0.0
 30
0.0
  9
$PUCSXDIR
 10
1.0
 20
0.0
 30
0.0
  9
$PUCSYDIR
 10
0.0
 20
1.0
 30
0.0
  9
$PUCSORTHOREF
  2

  9
$PUCSORTHOVIEW
 70
     0
  9
$PUCSORGTOP
 10
0.0
 20
0.0
 30
0.0
  9
$PUCSORGBOTTOM
 10
0.0
 20
0.0
 30
0.0
  9
$PUCSORGLEFT
 10
0.0
 20
0.0
 30
0.0
  9
$PUCSORGRIGHT
 10
0.0
 20
0.0
 30
0.0
  9
$PUCSORGFRONT
 10
0.0
 20
0.0
 30
0.0
  9
$PUCSORGBACK
 10
0.0
 20
0.0
 30
0.0
  9
$USERI1
 70
     0
  9
$USERI2
 70
     0
  9
$USERI3
 70
     0
  9
$USERI4
 70
     0
  9
$USERI5
 70
     0
  9
$USERR1
 40
0.0
  9
$USERR2
 40
0.0
  9
$USERR3
 40
0.0
  9
$USERR4
 40
0.0
  9
$USERR5
 40
0.0
  9
$WORLDVIEW
 70
     1
  9
$SHADEDGE
 70
     3
  9
$SHADEDIF
 70
    70
  9
$TILEMODE
 70
     1
  9
$MAXACTVP
 70
    64
  9
$PINSBASE
 10
0.0
 20
0.0
 30
0.0
  9
$PLIMCHECK
 70
     0
  9
$PEXTMIN
 10
1.000000000000000E+20
 20
1.000000000000000E+20
 30
1.000000000000000E+20
  9
$PEXTMAX
 10
-1.000000000000000E+20
 20
-1.000000000000000E+20
 30
-1.000000000000000E+20
  9
$PLIMMIN
 10
0.0
 20
0.0
  9
$PLIMMAX
 10
12.0
 20
9.0
  9
$UNITMODE
 70
     0
  9
$VISRETAIN
 70
     1
  9
$PLINEGEN
 70
     0
  9
$PSLTSCALE
 70
     1
  9
$TREEDEPTH
 70
  3020
  9
$CMLSTYLE
  2
Standard
  9
$CMLJUST
 70
     0
  9
$CMLSCALE
 40
1.0
  9
$PROXYGRAPHICS
 70
     1
  9
$MEASUREMENT
 70
     0
  9
$CELWEIGHT
370
    -1
  9
$ENDCAPS
280
     0
  9
$JOINSTYLE
280
     0
  9
$LWDISPLAY
290
     0
  9
$INSUNITS
 70
     0
  9
$HYPERLINKBASE
  1

  9
$STYLESHEET
  1

  9
$XEDIT
290
     1
  9
$CEPSNTYPE
380
     0
  9
$PSTYLEMODE
290
     1
  9
$FINGERPRINTGUID
  2
{F8BE2557-CFFF-4706-9D5C-F1AD81DDB0E3}
  9
$VERSIONGUID
  2
{FAEB1C32-E019-11D5-929B-00C0DF256EC4}
  9
$EXTNAMES
290
     1
  9
$PSVPSCALE
 40
0.0
  9
$OLESTARTUP
290
     0
  0
ENDSEC
  0
SECTION
  2
CLASSES
  0
CLASS
  1
ACDBDICTIONARYWDFLT
  2
AcDbDictionaryWithDefault
  3
ObjectDBX Classes
 90
        0
280
     0
281
     0
  0
CLASS
  1
SCALE
  2
AcDbScale
  3
ObjectDBX Classes
 90
     1153
280
     0
281
     0
  0
CLASS
  1
VISUALSTYLE
  2
AcDbVisualStyle
  3
ObjectDBX Classes
 90
     4095
280
     0
281
     0
  0
CLASS
  1
MATERIAL
  2
AcDbMaterial
  3
ObjectDBX Classes
 90
     1153
280
     0
281
     0
  0
CLASS
  1
DICTIONARYVAR
  2
AcDbDictionaryVar
  3
ObjectDBX Classes
 90
        0
280
     0
281
     0
  0
CLASS
  1
ACDBPLACEHOLDER
  2
AcDbPlaceHolder
  3
ObjectDBX Classes
 90
        0
280
     0
281
     0
  0
CLASS
  1
LAYOUT
  2
AcDbLayout
  3
ObjectDBX Classes
 90
        0
280
     0
281
     0
  0
ENDSEC
  0
SECTION
  2
TABLES
  0
TABLE
  2
VPORT
  5
8
102
{ACAD_XDICTIONARY
360
11A
102
}
330
0
100
AcDbSymbolTable
 70
     1
  0
VPORT
  5
CE
330
8
100
AcDbSymbolTableRecord
100
AcDbViewportTableRecord
  2
*Active
 70
     0
 10
0.0
 20
0.0
 11
1.0
 21
1.0
 12
10.42990654205607
 22
4.5
 13
0.0
 23
0.0
 14
0.5
 24
0.5
 15
0.5
 25
0.5
 16
0.0
 26
0.0
 36
1.0
 17
0.0
 27
0.0
 37
0.0
 40
9.0
 41
1.972972972850329
 42
50.0
 43
0.0
 44
0.0
 50
0.0
 51
0.0
 71
     0
 72
   100
 73
     1
 74
     3
 75
     0
 76
     0
 77
     0
 78
     0
281
     0
 65
     1
110
0.0
120
0.0
130
0.0
111
1.0
121
0.0
131
0.0
112
0.0
122
1.0
132
0.0
 79
     0
146
0.0
  0
ENDTAB
  0
TABLE
  2
LTYPE
  5
5
330
0
100
AcDbSymbolTable
 70
     5
  0
LTYPE
  5
14
330
5
100
AcDbSymbolTableRecord
100
AcDbLinetypeTableRecord
  2
ByBlock
 70
     0
  3

 72
    65
 73
     0
 40
0.0
  0
LTYPE
  5
15
330
5
100
AcDbSymbolTableRecord
100
AcDbLinetypeTableRecord
  2
ByLayer
 70
     0
  3

 72
    65
 73
     0
 40
0.0
  0
LTYPE
  5
16
330
5
100
AcDbSymbolTableRecord
100
AcDbLinetypeTableRecord
  2
Continuous
 70
     0
  3
Solid line
 72
    65
 73
     0
 40
0.0
  0
LTYPE
  5
20
330
5
100
AcDbSymbolTableRecord
100
AcDbLinetypeTableRecord
  2
PUNKT
 70
     0
  3
..............
 72
    65
 73
     2
 40
1.5
 49
0.7
 74
     0
 49
-0.8
 74
     0
  0
LTYPE
  5
21
330
5
100
AcDbSymbolTableRecord
100
AcDbLinetypeTableRecord
  2
GESTRICHELT
 70
     0
  3
-- -- -- -- --
 72
    65
 73
     7
 40
2.8
 49
0.9
 74
     0
 49
0.0
 74
     0
 49
0.9
 74
     0
 49
0.0
 74
     0
 49
0.2
 74
     0
 49
0.0
 74
     0
 49
-0.8
 74
     0
  0
LTYPE
  5
22
330
5
100
AcDbSymbolTableRecord
100
AcDbLinetypeTableRecord
  2
STRICHPUNKT
 70
     0
  3
--.--.--.--.--
 72
    65
 73
     4
 40
8.8
 49
5.5
 74
     0
 49
-1.3
 74
     0
 49
0.7
 74
     0
 49
-1.3
 74
     0
  0
LTYPE
  5
25
330
5
100
AcDbSymbolTableRecord
100
AcDbLinetypeTableRecord
  2
PHANTOM
 70
     0
  3
--..--..--..--
 72
    65
 73
     6
 40
14.2
 49
7.0
 74
     0
 49
-1.8
 74
     0
 49
0.9
 74
     0
 49
-1.8
 74
     0
 49
0.9
 74
     0
 49
-1.8
 74
     0
  0
LTYPE
  5
144
330
5
100
AcDbSymbolTableRecord
100
AcDbLinetypeTableRecord
  2
DASH
 70
     0
  3
DASH _ _ _ _ _
 72
    65
 73
     2
 40
0.75
 49
0.40
 74
     0
 49
-0.35
 74
     0
  0
LTYPE
  5
145
330
5
100
AcDbSymbolTableRecord
100
AcDbLinetypeTableRecord
  2
LONGDASH_DASH
 70
     0
  3
LONGDASH_DASH __ . __ . __
 72
    65
 73
     4
 40
0.85
 49
0.40
 74
     0
 49
-0.20
 74
     0
 49
0.05
 74
     0
 49
-0.20
 74
     0
  0
LTYPE
  5
146
330
5
100
AcDbSymbolTableRecord
100
AcDbLinetypeTableRecord
  2
LONGDASH_DASH_DASH
 70
     0
  3
LONGDASH_DASH_DASH __ . . __ . . __
 72
    65
 73
     6
 40
1.10
 49
0.40
 74
     0
 49
-0.20
 74
     0
 49
0.05
 74
     0
 49
-0.20
 74
     0
 49
0.05
 74
     0
 49
-0.20
 74
     0
  0
ENDTAB
  0
TABLE
  2
LAYER
  5
2
330
0
100
AcDbSymbolTable
 70
    10
  0
LAYER
  5
10F
330
2
100
AcDbSymbolTableRecord
100
AcDbLayerTableRecord
  2
SK7
 70
     0
 62
     5
  6
CONTINUOUS
370
    25
390
F
  0
LAYER
  5
147
330
2
100
AcDbSymbolTableRecord
100
AcDbLayerTableRecord
  2
0
 70
     0
 62
     -1
  6
CONTINUOUS
370
    -3
390
F
  0
LAYER
  5
148
330
2
100
AcDbSymbolTableRecord
100
AcDbLayerTableRecord
  2
1
 70
     0
 62
     4
  6
CONTINUOUS
370
    50
390
F
  0
LAYER
  5
149
330
2
100
AcDbSymbolTableRecord
100
AcDbLayerTableRecord
  2
2
 70
     0
 62
     7
  6
CONTINUOUS
370
    25
390
F
  0
LAYER
  5
14A
330
2
100
AcDbSymbolTableRecord
100
AcDbLayerTableRecord
  2
3
 70
     0
 62
     1
  6
DASH
370
    35
390
F
  0
LAYER
  5
14B
330
2
100
AcDbSymbolTableRecord
100
AcDbLayerTableRecord
  2
4
 70
     0
 62
     2
  6
LONGDASH_DASH
370
    25
390
F
  0
LAYER
  5
14C
330
2
100
AcDbSymbolTableRecord
100
AcDbLayerTableRecord
  2
6
 70
     0
 62
     5
  6
CONTINUOUS
370
    -3
390
F
  0
LAYER
  5
14D
330
2
100
AcDbSymbolTableRecord
100
AcDbLayerTableRecord
  2
CUT
 70
     0
 62
     1
  6
CONTINUOUS
370
    25
390
F
  0
LAYER
  5
14E
330
2
100
AcDbSymbolTableRecord
100
AcDbLayerTableRecord
  2
NOCUT
 70
     0
 62
     7
  6
CONTINUOUS
370
    25
390
F
  0
LAYER
  5
14F
330
2
100
AcDbSymbolTableRecord
100
AcDbLayerTableRecord
  2
SK1
 70
     0
 62
     4
  6
CONTINUOUS
370
    50
390
F
  0
LAYER
  5
150
330
2
100
AcDbSymbolTableRecord
100
AcDbLayerTableRecord
  2
SK2
 70
     0
 62
     7
  6
CONTINUOUS
370
    25
390
F
  0
LAYER
  5
151
330
2
100
AcDbSymbolTableRecord
100
AcDbLayerTableRecord
  2
SK3
 70
     0
 62
     1
  6
DASH
370
    35
390
F
  0
LAYER
  5
152
330
2
100
AcDbSymbolTableRecord
100
AcDbLayerTableRecord
  2
SK4
 70
     0
 62
     2
  6
LONGDASH_DASH
370
    25
390
F
  0
LAYER
  5
153
330
2
100
AcDbSymbolTableRecord
100
AcDbLayerTableRecord
  2
SK6
 70
     0
 62
     5
  6
CONTINUOUS
370
    -3
390
F
  0
LAYER
  5
154
330
2
100
AcDbSymbolTableRecord
100
AcDbLayerTableRecord
  2
INFTOTAL
 70
     0
 62
     9
  6
CONTINUOUS
370
    18
390
F
  0
ENDTAB
  0
TABLE
  2
STYLE
  5
3
330
0
100
AcDbSymbolTable
 70
     2
  0
STYLE
  5
11
330
3
100
AcDbSymbolTableRecord
100
AcDbTextStyleTableRecord
  2
Standard
 70
     0
 40
0.0
 41
1.0
 50
0.0
 71
     0
 42
0.2
  3
txt
  4

  0
STYLE
  5
10E
330
3
100
AcDbSymbolTableRecord
100
AcDbTextStyleTableRecord
  2
BMG_Text
 70
     0
 40
3.5
 41
1.0
 50
0.0
 71
     0
 42
0.2
  3
monos.ttf
  4

1001
ACAD
1000
Monospac821 BT
1071
       49
  0
ENDTAB
  0
TABLE
  2
VIEW
  5
6
330
0
100
AcDbSymbolTable
 70
     0
  0
ENDTAB
  0
TABLE
  2
UCS
  5
7
330
0
100
AcDbSymbolTable
 70
     0
  0
ENDTAB
  0
TABLE
  2
APPID
  5
9
330
0
100
AcDbSymbolTable
 70
     1
  0
APPID
  5
12
330
9
100
AcDbSymbolTableRecord
100
AcDbRegAppTableRecord
  2
ACAD
 70
     0
  0
ENDTAB
  0
TABLE
  2
DIMSTYLE
  5
A
330
0
100
AcDbSymbolTable
 70
     1
100
AcDbDimStyleTable
  0
DIMSTYLE
105
28
330
A
100
AcDbSymbolTableRecord
100
AcDbDimStyleTableRecord
  2
Standard
 70
     0
178
     0
340
11
  0
ENDTAB
  0
TABLE
  2
BLOCK_RECORD
  5
1
330
0
100
AcDbSymbolTable
 70
     0
  0
BLOCK_RECORD
  5
1D
330
1
100
AcDbSymbolTableRecord
100
AcDbBlockTableRecord
  2
*Model_Space
340
1E
  0
BLOCK_RECORD
  5
1B
330
1
100
AcDbSymbolTableRecord
100
AcDbBlockTableRecord
  2
*Paper_Space
340
1C
  0
ENDTAB
  0
ENDSEC
  0
SECTION
  2
BLOCKS
  0
BLOCK
  5
F7
330
1D
100
AcDbEntity
  8
0
100
AcDbBlockBegin
  2
*Model_Space
 70
     0
 10
0.0
 20
0.0
 30
0.0
  3
*Model_Space
  1

  0
ENDBLK
  5
F8
330
1D
100
AcDbEntity
  8
0
100
AcDbBlockEnd
  0
BLOCK
  5
F5
330
1B
100
AcDbEntity
 67
     1
  8
0
100
AcDbBlockBegin
  2
*Paper_Space
 70
     0
 10
0.0
 20
0.0
 30
0.0
  3
*Paper_Space
  1

  0
ENDBLK
  5
F6
330
1B
100
AcDbEntity
 67
     1
  8
0
100
AcDbBlockEnd
  0
ENDSEC
  0
SECTION
  2
ENTITIES
  0
LINE
  5
29
330
1D
100
AcDbEntity
  8
SK7
  6
CONTINUOUS
370
    25
100
AcDbLine
 10
-0.132287566
 20
2.92696703
 30
0.0
 11
0.132287566
 21
2.92696703
 31
0.0
  0
LINE
  5
2A
330
1D
100
AcDbEntity
  8
SK7
  6
CONTINUOUS
370
    25
100
AcDbLine
 10
0.219126478
 20
2.826967029
 30
0.0
 11
-0.219126478
 21
2.826967029
 31
0.0
  0
LINE
  5
2B
330
1D
100
AcDbEntity
  8
SK7
  6
CONTINUOUS
370
    25
100
AcDbLine
 10
-0.303036443
 20
2.726967027
 30
0.0
 11
0.303036443
 21
2.726967027
 31
0.0
  0
LINE
  5
2C
330
1D
100
AcDbEntity
  8
SK7
  6
CONTINUOUS
370
    25
100
AcDbLine
 10
0.386946407
 20
2.626967026
 30
0.0
 11
-0.386946407
 21
2.626967026
 31
0.0
  0
LINE
  5
2D
330
1D
100
AcDbEntity
  8
SK7
  6
CONTINUOUS
370
    25
100
AcDbLine
 10
-0.470856371
 20
2.526967024
 30
0.0
 11
0.470856371
 21
2.526967024
 31
0.0
  0
LINE
  5
2E
330
1D
100
AcDbEntity
  8
SK7
  6
CONTINUOUS
370
    25
100
AcDbLine
 10
0.554766336
 20
2.426967023
 30
0.0
 11
-0.554766336
 21
2.426967023
 31
0.0
  0
LINE
  5
2F
330
1D
100
AcDbEntity
  8
SK7
  6
CONTINUOUS
370
    25
100
AcDbLine
 10
-0.6386763
 20
2.326967021
 30
0.0
 11
0.6386763
 21
2.326967021
 31
0.0
  0
LINE
  5
30
330
1D
100
AcDbEntity
  8
SK7
  6
CONTINUOUS
370
    25
100
AcDbLine
 10
0.722586264
 20
2.22696702
 30
0.0
 11
-0.722586264
 21
2.22696702
 31
0.0
  0
LINE
  5
31
330
1D
100
AcDbEntity
  8
SK7
  6
CONTINUOUS
370
    25
100
AcDbLine
 10
-0.806496229
 20
2.126967018
 30
0.0
 11
0.806496229
 21
2.126967018
 31
0.0
  0
LINE
  5
32
330
1D
100
AcDbEntity
  8
SK7
  6
CONTINUOUS
370
    25
100
AcDbLine
 10
0.890406193
 20
2.026967017
 30
0.0
 11
-0.890406193
 21
2.026967017
 31
0.0
  0
LINE
  5
33
330
1D
100
AcDbEntity
  8
SK7
  6
CONTINUOUS
370
    25
100
AcDbLine
 10
-0.974316157
 20
1.926967015
 30
0.0
 11
0.974316157
 21
1.926967015
 31
0.0
  0
LINE
  5
34
330
1D
100
AcDbEntity
  8
SK7
  6
CONTINUOUS
370
    25
100
AcDbLine
 10
1.058226122
 20
1.826967014
 30
0.0
 11
-1.058226122
 21
1.826967014
 31
0.0
  0
LINE
  5
35
330
1D
100
AcDbEntity
  8
SK7
  6
CONTINUOUS
370
    25
100
AcDbLine
 10
-1.142136086
 20
1.726967012
 30
0.0
 11
1.142136086
 21
1.726967012
 31
0.0
  0
LINE
  5
36
330
1D
100
AcDbEntity
  8
SK7
  6
CONTINUOUS
370
    25
100
AcDbLine
 10
1.226046051
 20
1.626967011
 30
0.0
 11
-1.226046051
 21
1.626967011
 31
0.0
  0
LINE
  5
37
330
1D
100
AcDbEntity
  8
SK7
  6
CONTINUOUS
370
    25
100
AcDbLine
 10
-1.309956015
 20
1.526967009
 30
0.0
 11
1.309956015
 21
1.526967009
 31
0.0
  0
LINE
  5
38
330
1D
100
AcDbEntity
  8
SK7
  6
CONTINUOUS
370
    25
100
AcDbLine
 10
1.393865979
 20
1.426967008
 30
0.0
 11
-1.393865979
 21
1.426967008
 31
0.0
  0
LINE
  5
39
330
1D
100
AcDbEntity
  8
SK7
  6
CONTINUOUS
370
    25
100
AcDbLine
 10
-1.477775944
 20
1.326967006
 30
0.0
 11
1.477775944
 21
1.326967006
 31
0.0
  0
LINE
  5
3A
330
1D
100
AcDbEntity
  8
SK7
  6
CONTINUOUS
370
    25
100
AcDbLine
 10
1.561685908
 20
1.226967005
 30
0.0
 11
-1.561685908
 21
1.226967005
 31
0.0
  0
LINE
  5
3B
330
1D
100
AcDbEntity
  8
SK7
  6
CONTINUOUS
370
    25
100
AcDbLine
 10
-1.645595872
 20
1.126967003
 30
0.0
 11
-0.280291033
 21
1.126967003
 31
0.0
  0
LINE
  5
3C
330
1D
100
AcDbEntity
  8
SK7
  6
CONTINUOUS
370
    25
100
AcDbLine
 10
0.280291033
 20
1.126967003
 30
0.0
 11
1.645595872
 21
1.126967003
 31
0.0
  0
LINE
  5
3D
330
1D
100
AcDbEntity
  8
SK7
  6
CONTINUOUS
370
    25
100
AcDbLine
 10
1.729505837
 20
1.026967002
 30
0.0
 11
0.542177524
 21
1.026967002
 31
0.0
  0
LINE
  5
3E
330
1D
100
AcDbEntity
  8
SK7
  6
CONTINUOUS
370
    25
100
AcDbLine
 10
-0.542177524
 20
1.026967002
 30
0.0
 11
-1.729505837
 21
1.026967002
 31
0.0
  0
LINE
  5
3F
330
1D
100
AcDbEntity
  8
SK7
  6
CONTINUOUS
370
    25
100
AcDbLine
 10
-1.775004482
 20
0.926967
 30
0.0
 11
-0.699535467
 21
0.926967
 31
0.0
  0
LINE
  5
40
330
1D
100
AcDbEntity
  8
SK7
  6
CONTINUOUS
370
    25
100
AcDbLine
 10
0.699535467
 20
0.926967
 30
0.0
 11
1.775004482
 21
0.926967
 31
0.0
  0
LINE
  5
41
330
1D
100
AcDbEntity
  8
SK7
  6
CONTINUOUS
370
    25
100
AcDbLine
 10
1.811401506
 20
0.826966999
 30
0.0
 11
0.815317897
 21
0.826966999
 31
0.0
  0
LINE
  5
42
330
1D
100
AcDbEntity
  8
SK7
  6
CONTINUOUS
370
    25
100
AcDbLine
 10
-0.815317897
 20
0.826966999
 30
0.0
 11
-1.811401506
 21
0.826966999
 31
0.0
  0
LINE
  5
43
330
1D
100
AcDbEntity
  8
SK7
  6
CONTINUOUS
370
    25
100
AcDbLine
 10
-1.84779853
 20
0.726966997
 30
0.0
 11
-0.905613977
 21
0.726966997
 31
0.0
  0
LINE
  5
44
330
1D
100
AcDbEntity
  8
SK7
  6
CONTINUOUS
370
    25
100
AcDbLine
 10
0.905613977
 20
0.726966997
 30
0.0
 11
1.84779853
 21
0.726966997
 31
0.0
  0
LINE
  5
45
330
1D
100
AcDbEntity
  8
SK7
  6
CONTINUOUS
370
    25
100
AcDbLine
 10
1.884195554
 20
0.626966996
 30
0.0
 11
0.977512187
 21
0.626966996
 31
0.0
  0
LINE
  5
46
330
1D
100
AcDbEntity
  8
SK7
  6
CONTINUOUS
370
    25
100
AcDbLine
 10
-0.977512187
 20
0.626966996
 30
0.0
 11
-1.884195554
 21
0.626966996
 31
0.0
  0
LINE
  5
47
330
1D
100
AcDbEntity
  8
SK7
  6
CONTINUOUS
370
    25
100
AcDbLine
 10
-1.920592578
 20
0.526966994
 30
0.0
 11
-1.034854326
 21
0.526966994
 31
0.0
  0
LINE
  5
48
330
1D
100
AcDbEntity
  8
SK7
  6
CONTINUOUS
370
    25
100
AcDbLine
 10
1.034854326
 20
0.526966994
 30
0.0
 11
1.920592578
 21
0.526966994
 31
0.0
  0
LINE
  5
49
330
1D
100
AcDbEntity
  8
SK7
  6
CONTINUOUS
370
    25
100
AcDbLine
 10
1.956989602
 20
0.426966993
 30
0.0
 11
1.079961516
 21
0.426966993
 31
0.0
  0
LINE
  5
4A
330
1D
100
AcDbEntity
  8
SK7
  6
CONTINUOUS
370
    25
100
AcDbLine
 10
-1.079961516
 20
0.426966993
 30
0.0
 11
-1.956989602
 21
0.426966993
 31
0.0
  0
LINE
  5
4B
330
1D
100
AcDbEntity
  8
SK7
  6
CONTINUOUS
370
    25
100
AcDbLine
 10
-1.993386626
 20
0.326966991
 30
0.0
 11
-1.114320545
 21
0.326966991
 31
0.0
  0
LINE
  5
4C
330
1D
100
AcDbEntity
  8
SK7
  6
CONTINUOUS
370
    25
100
AcDbLine
 10
1.114320545
 20
0.326966991
 30
0.0
 11
1.993386626
 21
0.326966991
 31
0.0
  0
LINE
  5
4D
330
1D
100
AcDbEntity
  8
SK7
  6
CONTINUOUS
370
    25
100
AcDbLine
 10
2.02978365
 20
0.22696699
 30
0.0
 11
1.138904595
 21
0.22696699
 31
0.0
  0
LINE
  5
4E
330
1D
100
AcDbEntity
  8
SK7
  6
CONTINUOUS
370
    25
100
AcDbLine
 10
-1.138904595
 20
0.22696699
 30
0.0
 11
-2.02978365
 21
0.22696699
 31
0.0
  0
LINE
  5
4F
330
1D
100
AcDbEntity
  8
SK7
  6
CONTINUOUS
370
    25
100
AcDbLine
 10
-2.066180674
 20
0.126966988
 30
0.0
 11
-1.154338371
 21
0.126966988
 31
0.0
  0
LINE
  5
50
330
1D
100
AcDbEntity
  8
SK7
  6
CONTINUOUS
370
    25
100
AcDbLine
 10
1.154338371
 20
0.126966988
 30
0.0
 11
2.066180674
 21
0.126966988
 31
0.0
  0
LINE
  5
51
330
1D
100
AcDbEntity
  8
SK7
  6
CONTINUOUS
370
    25
100
AcDbLine
 10
2.102577698
 20
0.026966987
 30
0.0
 11
1.160986852
 21
0.026966987
 31
0.0
  0
LINE
  5
52
330
1D
100
AcDbEntity
  8
SK7
  6
CONTINUOUS
370
    25
100
AcDbLine
 10
-1.160986852
 20
0.026966987
 30
0.0
 11
-2.102577698
 21
0.026966987
 31
0.0
  0
LINE
  5
53
330
1D
100
AcDbEntity
  8
SK7
  6
CONTINUOUS
370
    25
100
AcDbLine
 10
-2.138974722
 20
-0.073033015
 30
0.0
 11
-1.159001238
 21
-0.073033015
 31
0.0
  0
LINE
  5
54
330
1D
100
AcDbEntity
  8
SK7
  6
CONTINUOUS
370
    25
100
AcDbLine
 10
1.159001238
 20
-0.073033015
 30
0.0
 11
2.138974722
 21
-0.073033015
 31
0.0
  0
LINE
  5
55
330
1D
100
AcDbEntity
  8
SK7
  6
CONTINUOUS
370
    25
100
AcDbLine
 10
2.175371746
 20
-0.173033016
 30
0.0
 11
1.148336739
 21
-0.173033016
 31
0.0
  0
LINE
  5
56
330
1D
100
AcDbEntity
  8
SK7
  6
CONTINUOUS
370
    25
100
AcDbLine
 10
-1.148336739
 20
-0.173033016
 30
0.0
 11
-2.175371746
 21
-0.173033016
 31
0.0
  0
LINE
  5
57
330
1D
100
AcDbEntity
  8
SK7
  6
CONTINUOUS
370
    25
100
AcDbLine
 10
-2.21176877
 20
-0.273033017
 30
0.0
 11
-1.128747386
 21
-0.273033017
 31
0.0
  0
LINE
  5
58
330
1D
100
AcDbEntity
  8
SK7
  6
CONTINUOUS
370
    25
100
AcDbLine
 10
1.128747386
 20
-0.273033017
 30
0.0
 11
2.21176877
 21
-0.273033017
 31
0.0
  0
LINE
  5
59
330
1D
100
AcDbEntity
  8
SK7
  6
CONTINUOUS
370
    25
100
AcDbLine
 10
2.248165794
 20
-0.373033019
 30
0.0
 11
1.099756362
 21
-0.373033019
 31
0.0
  0
LINE
  5
5A
330
1D
100
AcDbEntity
  8
SK7
  6
CONTINUOUS
370
    25
100
AcDbLine
 10
-1.099756362
 20
-0.373033019
 30
0.0
 11
-2.248165794
 21
-0.373033019
 31
0.0
  0
LINE
  5
5B
330
1D
100
AcDbEntity
  8
SK7
  6
CONTINUOUS
370
    25
100
AcDbLine
 10
-2.284562818
 20
-0.47303302
 30
0.0
 11
-1.060592972
 21
-0.47303302
 31
0.0
  0
LINE
  5
5C
330
1D
100
AcDbEntity
  8
SK7
  6
CONTINUOUS
370
    25
100
AcDbLine
 10
1.060592972
 20
-0.47303302
 30
0.0
 11
2.284562818
 21
-0.47303302
 31
0.0
  0
LINE
  5
5D
330
1D
100
AcDbEntity
  8
SK7
  6
CONTINUOUS
370
    25
100
AcDbLine
 10
2.320959842
 20
-0.573033022
 30
0.0
 11
1.010074673
 21
-0.573033022
 31
0.0
  0
LINE
  5
5E
330
1D
100
AcDbEntity
  8
SK7
  6
CONTINUOUS
370
    25
100
AcDbLine
 10
-1.010074673
 20
-0.573033022
 30
0.0
 11
-2.320959842
 21
-0.573033022
 31
0.0
  0
LINE
  5
5F
330
1D
100
AcDbEntity
  8
SK7
  6
CONTINUOUS
370
    25
100
AcDbLine
 10
-2.357356866
 20
-0.673033023
 30
0.0
 11
-0.946384826
 21
-0.673033023
 31
0.0
  0
LINE
  5
60
330
1D
100
AcDbEntity
  8
SK7
  6
CONTINUOUS
370
    25
100
AcDbLine
 10
0.946384826
 20
-0.673033023
 30
0.0
 11
2.357356866
 21
-0.673033023
 31
0.0
  0
LINE
  5
61
330
1D
100
AcDbEntity
  8
SK7
  6
CONTINUOUS
370
    25
100
AcDbLine
 10
2.39375389
 20
-0.773033025
 30
0.0
 11
0.866624274
 21
-0.773033025
 31
0.0
  0
LINE
  5
62
330
1D
100
AcDbEntity
  8
SK7
  6
CONTINUOUS
370
    25
100
AcDbLine
 10
-0.866624274
 20
-0.773033025
 30
0.0
 11
-2.39375389
 21
-0.773033025
 31
0.0
  0
LINE
  5
63
330
1D
100
AcDbEntity
  8
SK7
  6
CONTINUOUS
370
    25
100
AcDbLine
 10
-2.430150914
 20
-0.873033026
 30
0.0
 11
-0.765787846
 21
-0.873033026
 31
0.0
  0
LINE
  5
64
330
1D
100
AcDbEntity
  8
SK7
  6
CONTINUOUS
370
    25
100
AcDbLine
 10
0.765787846
 20
-0.873033026
 30
0.0
 11
2.430150914
 21
-0.873033026
 31
0.0
  0
LINE
  5
65
330
1D
100
AcDbEntity
  8
SK7
  6
CONTINUOUS
370
    25
100
AcDbLine
 10
2.466547937
 20
-0.973033028
 30
0.0
 11
0.633896219
 21
-0.973033028
 31
0.0
  0
LINE
  5
66
330
1D
100
AcDbEntity
  8
SK7
  6
CONTINUOUS
370
    25
100
AcDbLine
 10
-0.633896219
 20
-0.973033028
 30
0.0
 11
-2.466547937
 21
-0.973033028
 31
0.0
  0
LINE
  5
67
330
1D
100
AcDbEntity
  8
SK7
  6
CONTINUOUS
370
    25
100
AcDbLine
 10
-2.502944961
 20
-1.073033029
 30
0.0
 11
-0.444092116
 21
-1.073033029
 31
0.0
  0
LINE
  5
68
330
1D
100
AcDbEntity
  8
SK7
  6
CONTINUOUS
370
    25
100
AcDbLine
 10
0.444092116
 20
-1.073033029
 30
0.0
 11
2.502944961
 21
-1.073033029
 31
0.0
  0
LINE
  5
69
330
1D
100
AcDbEntity
  8
SK7
  6
CONTINUOUS
370
    25
100
AcDbLine
 10
2.539341985
 20
-1.173033031
 30
0.0
 11
-2.539341985
 21
-1.173033031
 31
0.0
  0
LINE
  5
6A
330
1D
100
AcDbEntity
  8
SK7
  6
CONTINUOUS
370
    25
100
AcDbLine
 10
-2.575739009
 20
-1.273033032
 30
0.0
 11
2.575739009
 21
-1.273033032
 31
0.0
  0
LINE
  5
6B
330
1D
100
AcDbEntity
  8
SK7
  6
CONTINUOUS
370
    25
100
AcDbLine
 10
2.604326308
 20
-1.373033034
 30
0.0
 11
-2.604326308
 21
-1.373033034
 31
0.0
  0
LINE
  5
6C
330
1D
100
AcDbEntity
  8
SK7
  6
CONTINUOUS
370
    25
100
AcDbLine
 10
-2.586173487
 20
-1.473033035
 30
0.0
 11
2.586173487
 21
-1.473033035
 31
0.0
  0
LINE
  5
6D
330
1D
100
AcDbEntity
  8
SK7
  6
CONTINUOUS
370
    25
100
AcDbLine
 10
2.482004953
 20
-1.573033037
 30
0.0
 11
-2.482004953
 21
-1.573033037
 31
0.0
  0
LINE
  5
6E
330
1D
100
AcDbEntity
  8
SK7
  6
CONTINUOUS
370
    25
100
AcDbLine
 10
-1.942917555
 20
-1.673033038
 30
0.0
 11
1.942917555
 21
-1.673033038
 31
0.0
  0
LINE
  5
6F
330
1D
100
AcDbEntity
  8
SK7
  6
CONTINUOUS
370
    25
100
AcDbLine
 10
1.375789365
 20
-1.77303304
 30
0.0
 11
-1.375789365
 21
-1.77303304
 31
0.0
  0
LINE
  5
70
330
1D
100
AcDbEntity
  8
SK7
  6
CONTINUOUS
370
    25
100
AcDbLine
 10
-0.808661174
 20
-1.873033041
 30
0.0
 11
0.808661174
 21
-1.873033041
 31
0.0
  0
LINE
  5
71
330
1D
100
AcDbEntity
  8
SK7
  6
CONTINUOUS
370
    25
100
AcDbLine
 10
0.241532984
 20
-1.973033043
 30
0.0
 11
-0.241532984
 21
-1.973033043
 31
0.0
  0
LINE
  5
72
330
1D
100
AcDbEntity
  8
SK7
  6
CONTINUOUS
370
    25
100
AcDbLine
 10
-0.442718876
 20
1.934999999
 30
0.0
 11
0.442718876
 21
1.934999999
 31
0.0
  0
LINE
  5
73
330
1D
100
AcDbEntity
  8
SK7
  6
CONTINUOUS
370
    25
100
AcDbLine
 10
0.75696764
 20
1.834999998
 30
0.0
 11
-0.75696764
 21
1.834999998
 31
0.0
  0
LINE
  5
74
330
1D
100
AcDbEntity
  8
SK7
  6
CONTINUOUS
370
    25
100
AcDbLine
 10
-0.964365083
 20
1.734999996
 30
0.0
 11
0.964365083
 21
1.734999996
 31
0.0
  0
LINE
  5
75
330
1D
100
AcDbEntity
  8
SK7
  6
CONTINUOUS
370
    25
100
AcDbLine
 10
1.125610953
 20
1.634999995
 30
0.0
 11
-1.125610953
 21
1.634999995
 31
0.0
  0
LINE
  5
76
330
1D
100
AcDbEntity
  8
SK7
  6
CONTINUOUS
370
    25
100
AcDbLine
 10
-1.258570626
 20
1.534999993
 30
0.0
 11
1.258570626
 21
1.534999993
 31
0.0
  0
LINE
  5
77
330
1D
100
AcDbEntity
  8
SK7
  6
CONTINUOUS
370
    25
100
AcDbLine
 10
1.371495543
 20
1.434999992
 30
0.0
 11
-1.371495543
 21
1.434999992
 31
0.0
  0
LINE
  5
78
330
1D
100
AcDbEntity
  8
SK7
  6
CONTINUOUS
370
    25
100
AcDbLine
 10
-1.469013283
 20
1.33499999
 30
0.0
 11
1.469013283
 21
1.33499999
 31
0.0
  0
LINE
  5
79
330
1D
100
AcDbEntity
  8
SK7
  6
CONTINUOUS
370
    25
100
AcDbLine
 10
1.554027036
 20
1.234999989
 30
0.0
 11
-1.554027036
 21
1.234999989
 31
0.0
  0
LINE
  5
7A
330
1D
100
AcDbEntity
  8
SK7
  6
CONTINUOUS
370
    25
100
AcDbLine
 10
-1.628496248
 20
1.134999987
 30
0.0
 11
-0.245749301
 21
1.134999987
 31
0.0
  0
LINE
  5
7B
330
1D
100
AcDbEntity
  8
SK7
  6
CONTINUOUS
370
    25
100
AcDbLine
 10
0.245749301
 20
1.134999987
 30
0.0
 11
1.628496248
 21
1.134999987
 31
0.0
  0
LINE
  5
7C
330
1D
100
AcDbEntity
  8
SK7
  6
CONTINUOUS
370
    25
100
AcDbLine
 10
1.693812277
 20
1.034999986
 30
0.0
 11
0.526680851
 21
1.034999986
 31
0.0
  0
LINE
  5
7D
330
1D
100
AcDbEntity
  8
SK7
  6
CONTINUOUS
370
    25
100
AcDbLine
 10
-0.526680851
 20
1.034999986
 30
0.0
 11
-1.693812277
 21
1.034999986
 31
0.0
  0
LINE
  5
7E
330
1D
100
AcDbEntity
  8
SK7
  6
CONTINUOUS
370
    25
100
AcDbLine
 10
-1.750999723
 20
0.934999984
 30
0.0
 11
-0.688761729
 21
0.934999984
 31
0.0
  0
LINE
  5
7F
330
1D
100
AcDbEntity
  8
SK7
  6
CONTINUOUS
370
    25
100
AcDbLine
 10
0.688761729
 20
0.934999984
 30
0.0
 11
1.750999723
 21
0.934999984
 31
0.0
  0
LINE
  5
80
330
1D
100
AcDbEntity
  8
SK7
  6
CONTINUOUS
370
    25
100
AcDbLine
 10
1.800833148
 20
0.834999983
 30
0.0
 11
0.80708904
 21
0.834999983
 31
0.0
  0
LINE
  5
81
330
1D
100
AcDbEntity
  8
SK7
  6
CONTINUOUS
370
    25
100
AcDbLine
 10
-0.80708904
 20
0.834999983
 30
0.0
 11
-1.800833148
 21
0.834999983
 31
0.0
  0
LINE
  5
82
330
1D
100
AcDbEntity
  8
SK7
  6
CONTINUOUS
370
    25
100
AcDbLine
 10
-1.843908899
 20
0.734999981
 30
0.0
 11
-0.899106622
 21
0.734999981
 31
0.0
  0
LINE
  5
83
330
1D
100
AcDbEntity
  8
SK7
  6
CONTINUOUS
370
    25
100
AcDbLine
 10
0.899106622
 20
0.734999981
 30
0.0
 11
1.843908899
 21
0.734999981
 31
0.0
  0
LINE
  5
84
330
1D
100
AcDbEntity
  8
SK7
  6
CONTINUOUS
370
    25
100
AcDbLine
 10
1.880691369
 20
0.63499998
 30
0.0
 11
0.972313075
 21
0.63499998
 31
0.0
  0
LINE
  5
85
330
1D
100
AcDbEntity
  8
SK7
  6
CONTINUOUS
370
    25
100
AcDbLine
 10
-0.972313075
 20
0.63499998
 30
0.0
 11
-1.880691369
 21
0.63499998
 31
0.0
  0
LINE
  5
86
330
1D
100
AcDbEntity
  8
SK7
  6
CONTINUOUS
370
    25
100
AcDbLine
 10
-1.911543885
 20
0.534999978
 30
0.0
 11
-1.030724363
 21
0.534999978
 31
0.0
  0
LINE
  5
87
330
1D
100
AcDbEntity
  8
SK7
  6
CONTINUOUS
370
    25
100
AcDbLine
 10
1.030724363
 20
0.534999978
 30
0.0
 11
1.911543885
 21
0.534999978
 31
0.0
  0
LINE
  5
88
330
1D
100
AcDbEntity
  8
SK7
  6
CONTINUOUS
370
    25
100
AcDbLine
 10
1.93674986
 20
0.434999977
 30
0.0
 11
1.076750997
 21
0.434999977
 31
0.0
  0
LINE
  5
89
330
1D
100
AcDbEntity
  8
SK7
  6
CONTINUOUS
370
    25
100
AcDbLine
 10
-1.076750997
 20
0.434999977
 30
0.0
 11
-1.93674986
 21
0.434999977
 31
0.0
  0
LINE
  5
8A
330
1D
100
AcDbEntity
  8
SK7
  6
CONTINUOUS
370
    25
100
AcDbLine
 10
-1.95652754
 20
0.334999975
 30
0.0
 11
-1.11193197
 21
0.334999975
 31
0.0
  0
LINE
  5
8B
330
1D
100
AcDbEntity
  8
SK7
  6
CONTINUOUS
370
    25
100
AcDbLine
 10
1.11193197
 20
0.334999975
 30
0.0
 11
1.95652754
 21
0.334999975
 31
0.0
  0
LINE
  5
8C
330
1D
100
AcDbEntity
  8
SK7
  6
CONTINUOUS
370
    25
100
AcDbLine
 10
1.971040338
 20
0.234999974
 30
0.0
 11
1.137274242
 21
0.234999974
 31
0.0
  0
LINE
  5
8D
330
1D
100
AcDbEntity
  8
SK7
  6
CONTINUOUS
370
    25
100
AcDbLine
 10
-1.137274242
 20
0.234999974
 30
0.0
 11
-1.971040338
 21
0.234999974
 31
0.0
  0
LINE
  5
8E
330
1D
100
AcDbEntity
  8
SK7
  6
CONTINUOUS
370
    25
100
AcDbLine
 10
-1.980404001
 20
0.134999972
 30
0.0
 11
-1.153426503
 21
0.134999972
 31
0.0
  0
LINE
  5
8F
330
1D
100
AcDbEntity
  8
SK7
  6
CONTINUOUS
370
    25
100
AcDbLine
 10
1.153426503
 20
0.134999972
 30
0.0
 11
1.980404001
 21
0.134999972
 31
0.0
  0
LINE
  5
90
330
1D
100
AcDbEntity
  8
SK7
  6
CONTINUOUS
370
    25
100
AcDbLine
 10
1.984691412
 20
0.034999971
 30
0.0
 11
1.160772455
 21
0.034999971
 31
0.0
  0
LINE
  5
91
330
1D
100
AcDbEntity
  8
SK7
  6
CONTINUOUS
370
    25
100
AcDbLine
 10
-1.160772455
 20
0.034999971
 30
0.0
 11
-1.984691412
 21
0.034999971
 31
0.0
  0
LINE
  5
92
330
1D
100
AcDbEntity
  8
SK7
  6
CONTINUOUS
370
    25
100
AcDbLine
 10
-1.983935482
 20
-0.065000031
 30
0.0
 11
-1.159479489
 21
-0.065000031
 31
0.0
  0
LINE
  5
93
330
1D
100
AcDbEntity
  8
SK7
  6
CONTINUOUS
370
    25
100
AcDbLine
 10
1.159479489
 20
-0.065000031
 30
0.0
 11
1.983935482
 21
-0.065000031
 31
0.0
  0
LINE
  5
94
330
1D
100
AcDbEntity
  8
SK7
  6
CONTINUOUS
370
    25
100
AcDbLine
 10
1.978130428
 20
-0.165000032
 30
0.0
 11
1.149518455
 21
-0.165000032
 31
0.0
  0
LINE
  5
95
330
1D
100
AcDbEntity
  8
SK7
  6
CONTINUOUS
370
    25
100
AcDbLine
 10
-1.149518455
 20
-0.165000032
 30
0.0
 11
-1.978130428
 21
-0.165000032
 31
0.0
  0
LINE
  5
96
330
1D
100
AcDbEntity
  8
SK7
  6
CONTINUOUS
370
    25
100
AcDbLine
 10
-1.967231553
 20
-0.265000034
 30
0.0
 11
-1.130660282
 21
-0.265000034
 31
0.0
  0
LINE
  5
97
330
1D
100
AcDbEntity
  8
SK7
  6
CONTINUOUS
370
    25
100
AcDbLine
 10
1.130660282
 20
-0.265000034
 30
0.0
 11
1.967231553
 21
-0.265000034
 31
0.0
  0
LINE
  5
98
330
1D
100
AcDbEntity
  8
SK7
  6
CONTINUOUS
370
    25
100
AcDbLine
 10
1.951153498
 20
-0.365000035
 30
0.0
 11
1.102448486
 21
-0.365000035
 31
0.0
  0
LINE
  5
99
330
1D
100
AcDbEntity
  8
SK7
  6
CONTINUOUS
370
    25
100
AcDbLine
 10
-1.102448486
 20
-0.365000035
 30
0.0
 11
-1.951153498
 21
-0.365000035
 31
0.0
  0
LINE
  5
9A
330
1D
100
AcDbEntity
  8
SK7
  6
CONTINUOUS
370
    25
100
AcDbLine
 10
-1.929766816
 20
-0.465000037
 30
0.0
 11
-1.064139397
 21
-0.465000037
 31
0.0
  0
LINE
  5
9B
330
1D
100
AcDbEntity
  8
SK7
  6
CONTINUOUS
370
    25
100
AcDbLine
 10
1.064139397
 20
-0.465000037
 30
0.0
 11
1.929766816
 21
-0.465000037
 31
0.0
  0
LINE
  5
9C
330
1D
100
AcDbEntity
  8
SK7
  6
CONTINUOUS
370
    25
100
AcDbLine
 10
1.902892524
 20
-0.565000038
 30
0.0
 11
1.014589891
 21
-0.565000038
 31
0.0
  0
LINE
  5
9D
330
1D
100
AcDbEntity
  8
SK7
  6
CONTINUOUS
370
    25
100
AcDbLine
 10
-1.014589891
 20
-0.565000038
 30
0.0
 11
-1.902892524
 21
-0.565000038
 31
0.0
  0
LINE
  5
9E
330
1D
100
AcDbEntity
  8
SK7
  6
CONTINUOUS
370
    25
100
AcDbLine
 10
-1.87029408
 20
-0.665000039
 30
0.0
 11
-0.952046552
 21
-0.665000039
 31
0.0
  0
LINE
  5
9F
330
1D
100
AcDbEntity
  8
SK7
  6
CONTINUOUS
370
    25
100
AcDbLine
 10
0.952046552
 20
-0.665000039
 30
0.0
 11
1.87029408
 21
-0.665000039
 31
0.0
  0
LINE
  5
A0
330
1D
100
AcDbEntity
  8
SK7
  6
CONTINUOUS
370
    25
100
AcDbLine
 10
1.831665891
 20
-0.765000041
 30
0.0
 11
0.873723427
 21
-0.765000041
 31
0.0
  0
LINE
  5
A1
330
1D
100
AcDbEntity
  8
SK7
  6
CONTINUOUS
370
    25
100
AcDbLine
 10
-0.873723427
 20
-0.765000041
 30
0.0
 11
-1.831665891
 21
-0.765000041
 31
0.0
  0
LINE
  5
A2
330
1D
100
AcDbEntity
  8
SK7
  6
CONTINUOUS
370
    25
100
AcDbLine
 10
-1.786616894
 20
-0.865000042
 30
0.0
 11
-0.774850061
 21
-0.865000042
 31
0.0
  0
LINE
  5
A3
330
1D
100
AcDbEntity
  8
SK7
  6
CONTINUOUS
370
    25
100
AcDbLine
 10
0.774850061
 20
-0.865000042
 30
0.0
 11
1.786616894
 21
-0.865000042
 31
0.0
  0
LINE
  5
A4
330
1D
100
AcDbEntity
  8
SK7
  6
CONTINUOUS
370
    25
100
AcDbLine
 10
1.734646914
 20
-0.965000044
 30
0.0
 11
0.646059289
 21
-0.965000044
 31
0.0
  0
LINE
  5
A5
330
1D
100
AcDbEntity
  8
SK7
  6
CONTINUOUS
370
    25
100
AcDbLine
 10
-0.646059289
 20
-0.965000044
 30
0.0
 11
-1.734646914
 21
-0.965000044
 31
0.0
  0
LINE
  5
A6
330
1D
100
AcDbEntity
  8
SK7
  6
CONTINUOUS
370
    25
100
AcDbLine
 10
-1.675111908
 20
-1.065000045
 30
0.0
 11
-0.463025478
 21
-1.065000045
 31
0.0
  0
LINE
  5
A7
330
1D
100
AcDbEntity
  8
SK7
  6
CONTINUOUS
370
    25
100
AcDbLine
 10
0.463025478
 20
-1.065000045
 30
0.0
 11
1.675111908
 21
-1.065000045
 31
0.0
  0
LINE
  5
A8
330
1D
100
AcDbEntity
  8
SK7
  6
CONTINUOUS
370
    25
100
AcDbLine
 10
1.607171394
 20
-1.165000047
 30
0.0
 11
-1.607171394
 21
-1.165000047
 31
0.0
  0
LINE
  5
A9
330
1D
100
AcDbEntity
  8
SK7
  6
CONTINUOUS
370
    25
100
AcDbLine
 10
-1.529705814
 20
-1.265000048
 30
0.0
 11
1.529705814
 21
-1.265000048
 31
0.0
  0
LINE
  5
AA
330
1D
100
AcDbEntity
  8
SK7
  6
CONTINUOUS
370
    25
100
AcDbLine
 10
1.441180025
 20
-1.36500005
 30
0.0
 11
-1.441180025
 21
-1.36500005
 31
0.0
  0
LINE
  5
AB
330
1D
100
AcDbEntity
  8
SK7
  6
CONTINUOUS
370
    25
100
AcDbLine
 10
-1.339402796
 20
-1.465000051
 30
0.0
 11
1.339402796
 21
-1.465000051
 31
0.0
  0
LINE
  5
AC
330
1D
100
AcDbEntity
  8
SK7
  6
CONTINUOUS
370
    25
100
AcDbLine
 10
1.221065041
 20
-1.565000053
 30
0.0
 11
-1.221065041
 21
-1.565000053
 31
0.0
  0
LINE
  5
AD
330
1D
100
AcDbEntity
  8
SK7
  6
CONTINUOUS
370
    25
100
AcDbLine
 10
-1.080740403
 20
-1.665000054
 30
0.0
 11
1.080740403
 21
-1.665000054
 31
0.0
  0
LINE
  5
AE
330
1D
100
AcDbEntity
  8
SK7
  6
CONTINUOUS
370
    25
100
AcDbLine
 10
0.908294998
 20
-1.765000056
 30
0.0
 11
-0.908294998
 21
-1.765000056
 31
0.0
  0
LINE
  5
AF
330
1D
100
AcDbEntity
  8
SK7
  6
CONTINUOUS
370
    25
100
AcDbLine
 10
-0.679705661
 20
-1.865000057
 30
0.0
 11
0.679705661
 21
-1.865000057
 31
0.0
  0
LINE
  5
B0
330
1D
100
AcDbEntity
  8
SK7
  6
CONTINUOUS
370
    25
100
AcDbLine
 10
0.281068975
 20
-1.965000059
 30
0.0
 11
-0.281068975
 21
-1.965000059
 31
0.0
  0
LINE
  5
B1
330
1D
100
AcDbEntity
  8
1
  6
CONTINUOUS
370
    50
100
AcDbLine
 10
1.745579705
 20
1.007810912
 30
0.0
 11
2.592862518
 21
-1.320079487
 31
0.0
  0
ARC
  5
B2
330
1D
100
AcDbEntity
  8
1
  6
CONTINUOUS
370
    50
100
AcDbCircle
 10
2.404923994
 20
-1.388483515
 30
0.0
 40
0.2
100
AcDbArc
 50
280.0
 51
20.0
  0
LINE
  5
B3
330
1D
100
AcDbEntity
  8
1
  6
CONTINUOUS
370
    50
100
AcDbLine
 10
2.43965363
 20
-1.585445066
 30
0.0
 11
0.0
 21
-2.015621825
 31
0.0
  0
LINE
  5
B4
330
1D
100
AcDbEntity
  8
1
  6
CONTINUOUS
370
    50
100
AcDbLine
 10
0.0
 20
-2.015621825
 30
0.0
 11
-2.43965363
 21
-1.585445066
 31
0.0
  0
ARC
  5
B5
330
1D
100
AcDbEntity
  8
1
  6
CONTINUOUS
370
    50
100
AcDbCircle
 10
-2.404923994
 20
-1.388483515
 30
0.0
 40
0.2
100
AcDbArc
 50
160.0
 51
260.0
  0
LINE
  5
B6
330
1D
100
AcDbEntity
  8
1
  6
CONTINUOUS
370
    50
100
AcDbLine
 10
-2.592862518
 20
-1.320079487
 30
0.0
 11
-1.745579705
 21
1.007810912
 31
0.0
  0
LINE
  5
B7
330
1D
100
AcDbEntity
  8
1
  6
CONTINUOUS
370
    50
100
AcDbLine
 10
-1.745579705
 20
1.007810912
 30
0.0
 11
-0.153208889
 21
2.905524553
 31
0.0
  0
ARC
  5
B8
330
1D
100
AcDbEntity
  8
1
  6
CONTINUOUS
370
    50
100
AcDbCircle
 10
0.0
 20
2.776967031
 30
0.0
 40
0.2
100
AcDbArc
 50
40.0
 51
140.0
  0
LINE
  5
B9
330
1D
100
AcDbEntity
  8
1
  6
CONTINUOUS
370
    50
100
AcDbLine
 10
0.153208889
 20
2.905524553
 30
0.0
 11
1.745579705
 21
1.007810912
 31
0.0
  0
LINE
  5
BA
330
1D
100
AcDbEntity
  8
SK3
  6
DASH
370
    35
100
AcDbLine
 10
-2.9775
 20
0.0
 30
0.0
 11
2.9775
 21
0.0
 31
0.0
  0
LINE
  5
BB
330
1D
100
AcDbEntity
  8
SK3
  6
DASH
370
    35
100
AcDbLine
 10
0.0
 20
-2.9775
 30
0.0
 11
0.0
 21
2.330034798
 31
0.0
  0
CIRCLE
  5
BC
330
1D
100
AcDbEntity
  8
SK3
  6
DASH
370
    35
100
AcDbCircle
 10
0.0
 20
0.0
 30
0.0
 40
1.985
  0
LINE
  5
BD
330
1D
100
AcDbEntity
  8
2
  6
CONTINUOUS
370
    25
100
AcDbLine
 10
-1.985
 20
-7.810012606
 30
0.0
 11
-1.985
 21
0.0
 31
0.0
  0
LINE
  5
BE
330
1D
100
AcDbEntity
  8
2
  6
CONTINUOUS
370
    25
100
AcDbLine
 10
-1.985
 20
-7.15500021
 30
0.0
 11
-5.485
 21
-6.70500021
 31
0.0
  0
LINE
  5
BF
330
1D
100
AcDbEntity
  8
2
  6
CONTINUOUS
370
    25
100
AcDbLine
 10
-5.485
 20
-6.70500021
 30
0.0
 11
-5.485
 21
-7.60500021
 31
0.0
  0
LINE
  5
C0
330
1D
100
AcDbEntity
  8
2
  6
CONTINUOUS
370
    25
100
AcDbLine
 10
-5.485
 20
-7.60500021
 30
0.0
 11
-1.985
 21
-7.15500021
 31
0.0
  0
LINE
  5
C1
330
1D
100
AcDbEntity
  8
2
  6
CONTINUOUS
370
    25
100
AcDbLine
 10
-5.485
 20
-7.15500021
 30
0.0
 11
-9.485
 21
-7.15500021
 31
0.0
  0
LINE
  5
C2
330
1D
100
AcDbEntity
  8
2
  6
CONTINUOUS
370
    25
100
AcDbLine
 10
1.985
 20
-7.810012606
 30
0.0
 11
1.985
 21
0.0
 31
0.0
  0
LINE
  5
C3
330
1D
100
AcDbEntity
  8
2
  6
CONTINUOUS
370
    25
100
AcDbLine
 10
1.985
 20
-7.15500021
 30
0.0
 11
5.485
 21
-7.60500021
 31
0.0
  0
LINE
  5
C4
330
1D
100
AcDbEntity
  8
2
  6
CONTINUOUS
370
    25
100
AcDbLine
 10
5.485
 20
-7.60500021
 30
0.0
 11
5.485
 21
-6.70500021
 31
0.0
  0
LINE
  5
C5
330
1D
100
AcDbEntity
  8
2
  6
CONTINUOUS
370
    25
100
AcDbLine
 10
5.485
 20
-6.70500021
 30
0.0
 11
1.985
 21
-7.15500021
 31
0.0
  0
LINE
  5
C6
330
1D
100
AcDbEntity
  8
2
  6
CONTINUOUS
370
    25
100
AcDbLine
 10
5.485
 20
-7.15500021
 30
0.0
 11
12.576851921
 21
-7.15500021
 31
0.0
  0
LINE
  5
C7
330
1D
100
AcDbEntity
  8
2
  6
CONTINUOUS
370
    25
100
AcDbLine
 10
-1.985
 20
-7.15500021
 30
0.0
 11
1.985
 21
-7.15500021
 31
0.0
  0
TEXT
  5
C8
330
1D
100
AcDbEntity
  8
2
  6
CONTINUOUS
370
    25
100
AcDbText
 10
6.513101921
 20
-6.436811686
 30
0.0
 40
3.5
  1
3.97
  7
BMG_Text
100
AcDbText
  0
LINE
  5
C9
330
1D
100
AcDbEntity
  8
SK6
  6
CONTINUOUS
370
    35
100
AcDbLine
 10
0.438459919
 20
1.596980362
 30
0.0
 11
3.686479556
 21
4.845
 31
0.0
  0
LINE
  5
CA
330
1D
100
AcDbEntity
  8
SK6
  6
CONTINUOUS
370
    35
100
AcDbLine
 10
3.686479556
 20
4.845
 30
0.0
 11
17.059936123
 21
4.845
 31
0.0
  0
TEXT
  5
CB
330
1D
100
AcDbEntity
  8
SK6
  6
CONTINUOUS
370
    35
100
AcDbText
 10
3.834173495
 20
5.149763664
 30
0.0
 40
3.5
  1
938.884
  7
BMG_Text
100
AcDbText
  0
CIRCLE
  5
CC
330
1D
100
AcDbEntity
  8
1
  6
CONTINUOUS
370
    50
100
AcDbCircle
 10
0.0
 20
0.0
 30
0.0
 40
1.1613
  0
CIRCLE
  5
CD
330
1D
100
AcDbEntity
  8
1
  6
CONTINUOUS
370
    50
100
AcDbCircle
 10
0.0
 20
0.0
 30
0.0
 40
1.0
  0
ENDSEC
  0
SECTION
  2
OBJECTS
  0
DICTIONARY
  5
C
330
0
100
AcDbDictionary
281
     1
  3
ACAD_GROUP
350
D
  3
ACAD_LAYOUT
350
1A
  3
ACAD_MATERIAL
350
10A
  3
ACAD_MLEADERSTYLE
350
116
  3
ACAD_MLINESTYLE
350
17
  3
ACAD_PLOTSETTINGS
350
19
  3
ACAD_PLOTSTYLENAME
350
E
  3
ACAD_SCALELIST
350
D3
  3
ACAD_VISUALSTYLE
350
F9
  3
ACDB_RECOMPOSE_DATA
350
143
  3
AcDbVariableDictionary
350
114
  0
DICTIONARY
  5
11A
330
8
100
AcDbDictionary
280
     1
281
     1
  3
ACAD_XREC_ROUNDTRIP
360
11B
  0
DICTIONARY
  5
D
102
{ACAD_REACTORS
330
C
102
}
330
C
100
AcDbDictionary
281
     1
  0
DICTIONARY
  5
1A
102
{ACAD_REACTORS
330
C
102
}
330
C
100
AcDbDictionary
281
     1
  3
Layout1
350
1C
  3
Model
350
1E
  0
DICTIONARY
  5
10A
102
{ACAD_REACTORS
330
C
102
}
330
C
100
AcDbDictionary
281
     1
  3
ByBlock
350
10C
  3
ByLayer
350
10B
  3
Global
350
10D
  0
DICTIONARY
  5
116
102
{ACAD_REACTORS
330
C
102
}
330
C
100
AcDbDictionary
281
     1
  0
DICTIONARY
  5
17
102
{ACAD_REACTORS
330
C
102
}
330
C
100
AcDbDictionary
281
     1
  3
Standard
350
18
  0
DICTIONARY
  5
19
102
{ACAD_REACTORS
330
C
102
}
330
C
100
AcDbDictionary
281
     1
  0
ACDBDICTIONARYWDFLT
  5
E
102
{ACAD_REACTORS
330
C
102
}
330
C
100
AcDbDictionary
281
     1
  3
Normal
350
F
100
AcDbDictionaryWithDefault
340
F
  0
DICTIONARY
  5
D3
102
{ACAD_REACTORS
330
C
102
}
330
C
100
AcDbDictionary
281
     1
  3
A0
350
D4
  3
A1
350
D5
  3
A2
350
D6
  3
A3
350
D7
  3
A4
350
D8
  3
A5
350
D9
  3
A6
350
DA
  3
A7
350
DB
  3
A8
350
DC
  3
A9
350
DD
  3
B0
350
DE
  3
B1
350
DF
  3
B2
350
E0
  3
B3
350
E1
  3
B4
350
E2
  3
B5
350
E3
  3
B6
350
E4
  3
B7
350
E5
  3
B8
350
E6
  3
B9
350
E7
  3
C0
350
E8
  3
C1
350
E9
  3
C2
350
EA
  3
C3
350
EB
  3
C4
350
EC
  3
C5
350
ED
  3
C6
350
EE
  3
C7
350
EF
  3
C8
350
F0
  3
C9
350
F1
  3
D0
350
F2
  3
D1
350
F3
  3
D2
350
F4
  0
DICTIONARY
  5
F9
102
{ACAD_REACTORS
330
C
102
}
330
C
100
AcDbDictionary
281
     1
  3
2dWireframe
350
FE
  3
3D Hidden
350
100
  3
3dWireframe
350
FF
  3
Basic
350
101
  3
Brighten
350
105
  3
ColorChange
350
109
  3
Conceptual
350
103
  3
Dim
350
104
  3
Facepattern
350
108
  3
Flat
350
FA
  3
FlatWithEdges
350
FB
  3
Gouraud
350
FC
  3
GouraudWithEdges
350
FD
  3
Linepattern
350
107
  3
Realistic
350
102
  3
Thicken
350
106
  0
XRECORD
  5
143
102
{ACAD_REACTORS
330
C
102
}
330
C
100
AcDbXrecord
280
     1
  0
DICTIONARY
  5
114
102
{ACAD_REACTORS
330
C
102
}
330
C
100
AcDbDictionary
281
     1
  3
CANNOSCALE
350
11C
  3
DIMASSOC
350
118
  3
HIDETEXT
350
119
  3
MSLTSCALE
350
117
  0
XRECORD
  5
11B
102
{ACAD_REACTORS
330
11A
102
}
330
11A
100
AcDbXrecord
280
     1
102
VTR_0.000_0.000_1.000_1.000_VISUALSTYLE
340
FE
102
VTR_0.000_0.000_1.000_1.000_GRIDDISPLAY
 70
     3
102
VTR_0.000_0.000_1.000_1.000_GRIDMAJOR
 70
     5
102
VTR_0.000_0.000_1.000_1.000_DEFAULTLIGHTING
280
     1
102
VTR_0.000_0.000_1.000_1.000_DEFAULTLIGHTINGTYPE
 70
     1
102
VTR_0.000_0.000_1.000_1.000_BRIGHTNESS
141
0.0
102
VTR_0.000_0.000_1.000_1.000_CONTRAST
142
0.0
  0
LAYOUT
  5
1C
102
{ACAD_REACTORS
330
1A
102
}
330
1A
100
AcDbPlotSettings
  1

  2
none_device
  4

  6

 40
0.0
 41
0.0
 42
0.0
 43
0.0
 44
0.0
 45
0.0
 46
0.0
 47
0.0
 48
0.0
 49
0.0
140
0.0
141
0.0
142
1.0
143
1.0
 70
   688
 72
     0
 73
     0
 74
     5
  7

 75
    16
147
1.0
148
0.0
149
0.0
100
AcDbLayout
  1
Layout1
 70
     1
 71
     1
 10
0.0
 20
0.0
 11
12.0
 21
9.0
 12
0.0
 22
0.0
 32
0.0
 14
1.000000000000000E+20
 24
1.000000000000000E+20
 34
1.000000000000000E+20
 15
-1.000000000000000E+20
 25
-1.000000000000000E+20
 35
-1.000000000000000E+20
146
0.0
 13
0.0
 23
0.0
 33
0.0
 16
1.0
 26
0.0
 36
0.0
 17
0.0
 27
1.0
 37
0.0
 76
     0
330
1B
  0
LAYOUT
  5
1E
102
{ACAD_REACTORS
330
1A
102
}
330
1A
100
AcDbPlotSettings
  1

  2
none_device
  4

  6

 40
0.0
 41
0.0
 42
0.0
 43
0.0
 44
0.0
 45
0.0
 46
0.0
 47
0.0
 48
0.0
 49
0.0
140
0.0
141
0.0
142
1.0
143
1.0
 70
  1712
 72
     0
 73
     0
 74
     0
  7

 75
     0
147
1.0
148
0.0
149
0.0
100
AcDbLayout
  1
Model
 70
     1
 71
     0
 10
0.0
 20
0.0
 11
12.0
 21
9.0
 12
0.0
 22
0.0
 32
0.0
 14
-9.753816735
 24
-7.810012606
 34
0.0
 15
17.66549023
 25
9.30477606
 35
0.0
146
0.0
 13
0.0
 23
0.0
 33
0.0
 16
1.0
 26
0.0
 36
0.0
 17
0.0
 27
1.0
 37
0.0
 76
     0
330
1D
331
CE
  0
MATERIAL
  5
10C
102
{ACAD_REACTORS
330
10A
102
}
102
{ACAD_XDICTIONARY
360
13F
102
}
330
10A
100
AcDbMaterial
  1
ByBlock
  0
MATERIAL
  5
10B
102
{ACAD_REACTORS
330
10A
102
}
102
{ACAD_XDICTIONARY
360
13D
102
}
330
10A
100
AcDbMaterial
  1
ByLayer
  0
MATERIAL
  5
10D
102
{ACAD_REACTORS
330
10A
102
}
102
{ACAD_XDICTIONARY
360
141
102
}
330
10A
100
AcDbMaterial
  1
Global
  0
MLINESTYLE
  5
18
102
{ACAD_REACTORS
330
17
102
}
330
17
100
AcDbMlineStyle
  2
Standard
 70
     0
  3

 62
   256
 51
90.0
 52
90.0
 71
     2
 49
0.5
 62
   256
  6
BYLAYER
 49
-0.5
 62
   256
  6
BYLAYER
  0
ACDBPLACEHOLDER
  5
F
102
{ACAD_REACTORS
330
E
102
}
330
E
  0
SCALE
  5
D4
102
{ACAD_REACTORS
330
D3
102
}
330
D3
100
AcDbScale
 70
     0
300
1:1
140
1.0
141
1.0
290
     1
  0
SCALE
  5
D5
102
{ACAD_REACTORS
330
D3
102
}
330
D3
100
AcDbScale
 70
     0
300
1:2
140
1.0
141
2.0
290
     0
  0
SCALE
  5
D6
102
{ACAD_REACTORS
330
D3
102
}
330
D3
100
AcDbScale
 70
     0
300
1:4
140
1.0
141
4.0
290
     0
  0
SCALE
  5
D7
102
{ACAD_REACTORS
330
D3
102
}
330
D3
100
AcDbScale
 70
     0
300
1:5
140
1.0
141
5.0
290
     0
  0
SCALE
  5
D8
102
{ACAD_REACTORS
330
D3
102
}
330
D3
100
AcDbScale
 70
     0
300
1:8
140
1.0
141
8.0
290
     0
  0
SCALE
  5
D9
102
{ACAD_REACTORS
330
D3
102
}
330
D3
100
AcDbScale
 70
     0
300
1:10
140
1.0
141
10.0
290
     0
  0
SCALE
  5
DA
102
{ACAD_REACTORS
330
D3
102
}
330
D3
100
AcDbScale
 70
     0
300
1:16
140
1.0
141
16.0
290
     0
  0
SCALE
  5
DB
102
{ACAD_REACTORS
330
D3
102
}
330
D3
100
AcDbScale
 70
     0
300
1:20
140
1.0
141
20.0
290
     0
  0
SCALE
  5
DC
102
{ACAD_REACTORS
330
D3
102
}
330
D3
100
AcDbScale
 70
     0
300
1:30
140
1.0
141
30.0
290
     0
  0
SCALE
  5
DD
102
{ACAD_REACTORS
330
D3
102
}
330
D3
100
AcDbScale
 70
     0
300
1:40
140
1.0
141
40.0
290
     0
  0
SCALE
  5
DE
102
{ACAD_REACTORS
330
D3
102
}
330
D3
100
AcDbScale
 70
     0
300
1:50
140
1.0
141
50.0
290
     0
  0
SCALE
  5
DF
102
{ACAD_REACTORS
330
D3
102
}
330
D3
100
AcDbScale
 70
     0
300
1:100
140
1.0
141
100.0
290
     0
  0
SCALE
  5
E0
102
{ACAD_REACTORS
330
D3
102
}
330
D3
100
AcDbScale
 70
     0
300
2:1
140
2.0
141
1.0
290
     0
  0
SCALE
  5
E1
102
{ACAD_REACTORS
330
D3
102
}
330
D3
100
AcDbScale
 70
     0
300
4:1
140
4.0
141
1.0
290
     0
  0
SCALE
  5
E2
102
{ACAD_REACTORS
330
D3
102
}
330
D3
100
AcDbScale
 70
     0
300
8:1
140
8.0
141
1.0
290
     0
  0
SCALE
  5
E3
102
{ACAD_REACTORS
330
D3
102
}
330
D3
100
AcDbScale
 70
     0
300
10:1
140
10.0
141
1.0
290
     0
  0
SCALE
  5
E4
102
{ACAD_REACTORS
330
D3
102
}
330
D3
100
AcDbScale
 70
     0
300
100:1
140
100.0
141
1.0
290
     0
  0
SCALE
  5
E5
102
{ACAD_REACTORS
330
D3
102
}
330
D3
100
AcDbScale
 70
     0
300
1/128" = 1'-0"
140
0.0078125
141
12.0
290
     0
  0
SCALE
  5
E6
102
{ACAD_REACTORS
330
D3
102
}
330
D3
100
AcDbScale
 70
     0
300
1/64" = 1'-0"
140
0.015625
141
12.0
290
     0
  0
SCALE
  5
E7
102
{ACAD_REACTORS
330
D3
102
}
330
D3
100
AcDbScale
 70
     0
300
1/32" = 1'-0"
140
0.03125
141
12.0
290
     0
  0
SCALE
  5
E8
102
{ACAD_REACTORS
330
D3
102
}
330
D3
100
AcDbScale
 70
     0
300
1/16" = 1'-0"
140
0.0625
141
12.0
290
     0
  0
SCALE
  5
E9
102
{ACAD_REACTORS
330
D3
102
}
330
D3
100
AcDbScale
 70
     0
300
3/32" = 1'-0"
140
0.09375
141
12.0
290
     0
  0
SCALE
  5
EA
102
{ACAD_REACTORS
330
D3
102
}
330
D3
100
AcDbScale
 70
     0
300
1/8" = 1'-0"
140
0.125
141
12.0
290
     0
  0
SCALE
  5
EB
102
{ACAD_REACTORS
330
D3
102
}
330
D3
100
AcDbScale
 70
     0
300
3/16" = 1'-0"
140
0.1875
141
12.0
290
     0
  0
SCALE
  5
EC
102
{ACAD_REACTORS
330
D3
102
}
330
D3
100
AcDbScale
 70
     0
300
1/4" = 1'-0"
140
0.25
141
12.0
290
     0
  0
SCALE
  5
ED
102
{ACAD_REACTORS
330
D3
102
}
330
D3
100
AcDbScale
 70
     0
300
3/8" = 1'-0"
140
0.375
141
12.0
290
     0
  0
SCALE
  5
EE
102
{ACAD_REACTORS
330
D3
102
}
330
D3
100
AcDbScale
 70
     0
300
1/2" = 1'-0"
140
0.5
141
12.0
290
     0
  0
SCALE
  5
EF
102
{ACAD_REACTORS
330
D3
102
}
330
D3
100
AcDbScale
 70
     0
300
3/4" = 1'-0"
140
0.75
141
12.0
290
     0
  0
SCALE
  5
F0
102
{ACAD_REACTORS
330
D3
102
}
330
D3
100
AcDbScale
 70
     0
300
1" = 1'-0"
140
1.0
141
12.0
290
     0
  0
SCALE
  5
F1
102
{ACAD_REACTORS
330
D3
102
}
330
D3
100
AcDbScale
 70
     0
300
1-1/2" = 1'-0"
140
1.5
141
12.0
290
     0
  0
SCALE
  5
F2
102
{ACAD_REACTORS
330
D3
102
}
330
D3
100
AcDbScale
 70
     0
300
3" = 1'-0"
140
3.0
141
12.0
290
     0
  0
SCALE
  5
F3
102
{ACAD_REACTORS
330
D3
102
}
330
D3
100
AcDbScale
 70
     0
300
6" = 1'-0"
140
6.0
141
12.0
290
     0
  0
SCALE
  5
F4
102
{ACAD_REACTORS
330
D3
102
}
330
D3
100
AcDbScale
 70
     0
300
1'-0" = 1'-0"
140
12.0
141
12.0
290
     0
  0
VISUALSTYLE
  5
FE
102
{ACAD_REACTORS
330
F9
102
}
102
{ACAD_XDICTIONARY
360
125
102
}
330
F9
100
AcDbVisualStyle
  2
2dWireframe
 70
     4
 71
     0
 72
     2
 73
     0
 90
        0
 40
-0.6
 41
-30.0
 62
     5
 63
     7
 74
     1
 91
        4
 64
     7
 65
   257
 75
     1
175
     1
 42
1.0
 92
        0
 66
   257
 43
1.0
 76
     1
 77
     6
 78
     2
 67
     7
 79
     5
170
     0
171
     0
290
     0
174
     0
 93
        1
 44
0.0
173
     0
291
     0
 45
0.0
1001
ACAD
1000
AcDbSavedByObjectVersion
1070
     0
  0
VISUALSTYLE
  5
100
102
{ACAD_REACTORS
330
F9
102
}
102
{ACAD_XDICTIONARY
360
129
102
}
330
F9
100
AcDbVisualStyle
  2
3D Hidden
 70
     6
 71
     1
 72
     2
 73
     2
 90
        0
 40
-0.6
 41
-30.0
 62
     5
 63
     7
 74
     2
 91
        2
 64
     7
 65
   257
 75
     2
175
     1
 42
40.0
 92
        0
 66
   257
 43
1.0
 76
     1
 77
     6
 78
     2
 67
     7
 79
     3
170
     0
171
     0
290
     0
174
     0
 93
        1
 44
0.0
173
     0
291
     0
 45
0.0
1001
ACAD
1000
AcDbSavedByObjectVersion
1070
     0
  0
VISUALSTYLE
  5
FF
102
{ACAD_REACTORS
330
F9
102
}
102
{ACAD_XDICTIONARY
360
127
102
}
330
F9
100
AcDbVisualStyle
  2
3dWireframe
 70
     5
 71
     0
 72
     2
 73
     0
 90
        0
 40
-0.6
 41
-30.0
 62
     5
 63
     7
 74
     1
 91
        4
 64
     7
 65
   257
 75
     1
175
     1
 42
1.0
 92
        0
 66
   257
 43
1.0
 76
     1
 77
     6
 78
     2
 67
     7
 79
     5
170
     0
171
     0
290
     0
174
     0
 93
        1
 44
0.0
173
     0
291
     0
 45
0.0
1001
ACAD
1000
AcDbSavedByObjectVersion
1070
     0
  0
VISUALSTYLE
  5
101
102
{ACAD_REACTORS
330
F9
102
}
102
{ACAD_XDICTIONARY
360
12B
102
}
330
F9
100
AcDbVisualStyle
  2
Basic
 70
     7
 71
     1
 72
     0
 73
     1
 90
        0
 40
-0.6
 41
-30.0
 62
     5
 63
     7
 74
     0
 91
        4
 64
     7
 65
   257
 75
     1
175
     1
 42
1.0
 92
        8
 66
     7
 43
1.0
 76
     1
 77
     6
 78
     2
 67
     7
 79
     5
170
     0
171
     0
290
     0
174
     0
 93
        1
 44
0.0
173
     0
291
     1
 45
0.0
1001
ACAD
1000
AcDbSavedByObjectVersion
1070
     0
  0
VISUALSTYLE
  5
105
102
{ACAD_REACTORS
330
F9
102
}
102
{ACAD_XDICTIONARY
360
133
102
}
330
F9
100
AcDbVisualStyle
  2
Brighten
 70
    12
 71
     2
 72
     2
 73
     0
 90
        0
 40
-0.6
 41
-30.0
 62
     5
 63
     7
 74
     1
 91
        4
 64
     7
 65
   257
 75
     1
175
     1
 42
1.0
 92
        8
 66
     7
 43
1.0
 76
     1
 77
     6
 78
     2
 67
     7
 79
     5
170
     0
171
     0
290
     0
174
     0
 93
        1
 44
50.0
173
     0
291
     1
 45
0.0
1001
ACAD
1000
AcDbSavedByObjectVersion
1070
     0
  0
VISUALSTYLE
  5
109
102
{ACAD_REACTORS
330
F9
102
}
102
{ACAD_XDICTIONARY
360
13B
102
}
330
F9
100
AcDbVisualStyle
  2
ColorChange
 70
    16
 71
     2
 72
     2
 73
     3
 90
        0
 40
-0.6
 41
-30.0
 62
     5
 63
     8
 74
     1
 91
        4
 64
     7
 65
   257
 75
     1
175
     1
 42
1.0
 92
        8
 66
     8
 43
1.0
 76
     1
 77
     6
 78
     2
 67
     7
 79
     5
170
     0
171
     0
290
     0
174
     0
 93
        1
 44
0.0
173
     0
291
     1
 45
0.0
1001
ACAD
1000
AcDbSavedByObjectVersion
1070
     0
  0
VISUALSTYLE
  5
103
102
{ACAD_REACTORS
330
F9
102
}
102
{ACAD_XDICTIONARY
360
12F
102
}
330
F9
100
AcDbVisualStyle
  2
Conceptual
 70
     9
 71
     3
 72
     2
 73
     0
 90
        0
 40
-0.6
 41
-30.0
 62
     5
 63
     7
 74
     2
 91
        2
 64
     7
 65
   257
 75
     1
175
     1
 42
40.0
 92
        8
 66
     7
 43
1.0
 76
     1
 77
     6
 78
     2
 67
     7
 79
     3
170
     0
171
     0
290
     0
174
     0
 93
        1
 44
0.0
173
     0
291
     0
 45
0.0
1001
ACAD
1000
AcDbSavedByObjectVersion
1070
     0
  0
VISUALSTYLE
  5
104
102
{ACAD_REACTORS
330
F9
102
}
102
{ACAD_XDICTIONARY
360
131
102
}
330
F9
100
AcDbVisualStyle
  2
Dim
 70
    11
 71
     2
 72
     2
 73
     0
 90
        0
 40
-0.6
 41
-30.0
 62
     5
 63
     7
 74
     1
 91
        4
 64
     7
 65
   257
 75
     1
175
     1
 42
1.0
 92
        8
 66
     7
 43
1.0
 76
     1
 77
     6
 78
     2
 67
     7
 79
     5
170
     0
171
     0
290
     0
174
     0
 93
        1
 44
-50.0
173
     0
291
     1
 45
0.0
1001
ACAD
1000
AcDbSavedByObjectVersion
1070
     0
  0
VISUALSTYLE
  5
108
102
{ACAD_REACTORS
330
F9
102
}
102
{ACAD_XDICTIONARY
360
139
102
}
330
F9
100
AcDbVisualStyle
  2
Facepattern
 70
    15
 71
     2
 72
     2
 73
     0
 90
        0
 40
-0.6
 41
-30.0
 62
     5
 63
     7
 74
     1
 91
        4
 64
     7
 65
   257
 75
     1
175
     1
 42
1.0
 92
        8
 66
     7
 43
1.0
 76
     1
 77
     6
 78
     2
 67
     7
 79
     5
170
     0
171
     0
290
     0
174
     0
 93
        1
 44
0.0
173
     0
291
     1
 45
0.0
1001
ACAD
1000
AcDbSavedByObjectVersion
1070
     0
  0
VISUALSTYLE
  5
FA
102
{ACAD_REACTORS
330
F9
102
}
102
{ACAD_XDICTIONARY
360
11D
102
}
330
F9
100
AcDbVisualStyle
  2
Flat
 70
     0
 71
     2
 72
     1
 73
     1
 90
        2
 40
-0.6
 41
30.0
 62
     5
 63
     7
 74
     0
 91
        4
 64
     7
 65
   257
 75
     1
175
     1
 42
1.0
 92
        8
 66
     7
 43
1.0
 76
     1
 77
     6
 78
     2
 67
     7
 79
     5
170
     0
171
     0
290
     0
174
     0
 93
       13
 44
0.0
173
     0
291
     1
 45
0.0
1001
ACAD
1000
AcDbSavedByObjectVersion
1070
     0
  0
VISUALSTYLE
  5
FB
102
{ACAD_REACTORS
330
F9
102
}
102
{ACAD_XDICTIONARY
360
11F
102
}
330
F9
100
AcDbVisualStyle
  2
FlatWithEdges
 70
     1
 71
     2
 72
     1
 73
     1
 90
        2
 40
-0.6
 41
30.0
 62
     5
 63
     7
 74
     1
 91
        4
 64
     7
 65
   257
 75
     1
175
     1
 42
1.0
 92
        0
 66
   257
 43
1.0
 76
     1
 77
     6
 78
     2
 67
     7
 79
     5
170
     0
171
     0
290
     0
174
     0
 93
       13
 44
0.0
173
     0
291
     1
 45
0.0
1001
ACAD
1000
AcDbSavedByObjectVersion
1070
     0
  0
VISUALSTYLE
  5
FC
102
{ACAD_REACTORS
330
F9
102
}
102
{ACAD_XDICTIONARY
360
121
102
}
330
F9
100
AcDbVisualStyle
  2
Gouraud
 70
     2
 71
     2
 72
     2
 73
     1
 90
        2
 40
-0.6
 41
30.0
 62
     5
 63
     7
 74
     0
 91
        4
 64
     7
 65
   257
 75
     1
175
     1
 42
1.0
 92
        0
 66
     7
 43
1.0
 76
     1
 77
     6
 78
     2
 67
     7
 79
     5
170
     0
171
     0
290
     0
174
     0
 93
       13
 44
0.0
173
     0
291
     1
 45
0.0
1001
ACAD
1000
AcDbSavedByObjectVersion
1070
     0
  0
VISUALSTYLE
  5
FD
102
{ACAD_REACTORS
330
F9
102
}
102
{ACAD_XDICTIONARY
360
123
102
}
330
F9
100
AcDbVisualStyle
  2
GouraudWithEdges
 70
     3
 71
     2
 72
     2
 73
     1
 90
        2
 40
-0.6
 41
30.0
 62
     5
 63
     7
 74
     1
 91
        4
 64
     7
 65
   257
 75
     1
175
     1
 42
1.0
 92
        0
 66
   257
 43
1.0
 76
     1
 77
     6
 78
     2
 67
     7
 79
     5
170
     0
171
     0
290
     0
174
     0
 93
       13
 44
0.0
173
     0
291
     1
 45
0.0
1001
ACAD
1000
AcDbSavedByObjectVersion
1070
     0
  0
VISUALSTYLE
  5
107
102
{ACAD_REACTORS
330
F9
102
}
102
{ACAD_XDICTIONARY
360
137
102
}
330
F9
100
AcDbVisualStyle
  2
Linepattern
 70
    14
 71
     2
 72
     2
 73
     0
 90
        0
 40
-0.6
 41
-30.0
 62
     5
 63
     7
 74
     1
 91
        4
 64
     7
 65
   257
 75
     7
175
     7
 42
1.0
 92
        8
 66
     7
 43
1.0
 76
     1
 77
     6
 78
     2
 67
     7
 79
     5
170
     0
171
     0
290
     0
174
     0
 93
        1
 44
0.0
173
     0
291
     1
 45
0.0
1001
ACAD
1000
AcDbSavedByObjectVersion
1070
     0
  0
VISUALSTYLE
  5
102
102
{ACAD_REACTORS
330
F9
102
}
102
{ACAD_XDICTIONARY
360
12D
102
}
330
F9
100
AcDbVisualStyle
  2
Realistic
 70
     8
 71
     2
 72
     2
 73
     0
 90
        0
 40
-0.6
 41
-30.0
 62
     5
 63
     7
 74
     1
 91
        0
 64
     7
 65
   257
 75
     1
175
     1
 42
1.0
 92
        8
 66
     8
 43
1.0
 76
     1
 77
     6
 78
     2
 67
     7
 79
     5
170
     0
171
     0
290
     0
174
     0
 93
       13
 44
0.0
173
     0
291
     0
 45
0.0
1001
ACAD
1000
AcDbSavedByObjectVersion
1070
     0
  0
VISUALSTYLE
  5
106
102
{ACAD_REACTORS
330
F9
102
}
102
{ACAD_XDICTIONARY
360
135
102
}
330
F9
100
AcDbVisualStyle
  2
Thicken
 70
    13
 71
     2
 72
     2
 73
     0
 90
        0
 40
-0.6
 41
-30.0
 62
     5
 63
     7
 74
     1
 91
        4
 64
     7
 65
   257
 75
     1
175
     1
 42
1.0
 92
       12
 66
     7
 43
1.0
 76
     1
 77
     6
 78
     2
 67
     7
 79
     5
170
     0
171
     0
290
     0
174
     0
 93
        1
 44
0.0
173
     0
291
     1
 45
0.0
1001
ACAD
1000
AcDbSavedByObjectVersion
1070
     0
  0
DICTIONARYVAR
  5
11C
102
{ACAD_REACTORS
330
114
102
}
330
114
100
DictionaryVariables
280
     0
  1
1:1
  0
DICTIONARYVAR
  5
118
102
{ACAD_REACTORS
330
114
102
}
330
114
100
DictionaryVariables
280
     0
  1
2
  0
DICTIONARYVAR
  5
119
102
{ACAD_REACTORS
330
114
102
}
330
114
100
DictionaryVariables
280
     0
  1
1
  0
DICTIONARYVAR
  5
117
102
{ACAD_REACTORS
330
114
102
}
330
114
100
DictionaryVariables
280
     0
  1
0
  0
DICTIONARY
  5
13F
330
10C
100
AcDbDictionary
280
     1
281
     1
  3
ACAD_XREC_ROUNDTRIP
360
140
  0
DICTIONARY
  5
13D
330
10B
100
AcDbDictionary
280
     1
281
     1
  3
ACAD_XREC_ROUNDTRIP
360
13E
  0
DICTIONARY
  5
141
330
10D
100
AcDbDictionary
280
     1
281
     1
  3
ACAD_XREC_ROUNDTRIP
360
142
  0
DICTIONARY
  5
125
330
FE
100
AcDbDictionary
280
     1
281
     1
  3
ACAD_XREC_ROUNDTRIP
360
126
  0
DICTIONARY
  5
129
330
100
100
AcDbDictionary
280
     1
281
     1
  3
ACAD_XREC_ROUNDTRIP
360
12A
  0
DICTIONARY
  5
127
330
FF
100
AcDbDictionary
280
     1
281
     1
  3
ACAD_XREC_ROUNDTRIP
360
128
  0
DICTIONARY
  5
12B
330
101
100
AcDbDictionary
280
     1
281
     1
  3
ACAD_XREC_ROUNDTRIP
360
12C
  0
DICTIONARY
  5
133
330
105
100
AcDbDictionary
280
     1
281
     1
  3
ACAD_XREC_ROUNDTRIP
360
134
  0
DICTIONARY
  5
13B
330
109
100
AcDbDictionary
280
     1
281
     1
  3
ACAD_XREC_ROUNDTRIP
360
13C
  0
DICTIONARY
  5
12F
330
103
100
AcDbDictionary
280
     1
281
     1
  3
ACAD_XREC_ROUNDTRIP
360
130
  0
DICTIONARY
  5
131
330
104
100
AcDbDictionary
280
     1
281
     1
  3
ACAD_XREC_ROUNDTRIP
360
132
  0
DICTIONARY
  5
139
330
108
100
AcDbDictionary
280
     1
281
     1
  3
ACAD_XREC_ROUNDTRIP
360
13A
  0
DICTIONARY
  5
11D
330
FA
100
AcDbDictionary
280
     1
281
     1
  3
ACAD_XREC_ROUNDTRIP
360
11E
  0
DICTIONARY
  5
11F
330
FB
100
AcDbDictionary
280
     1
281
     1
  3
ACAD_XREC_ROUNDTRIP
360
120
  0
DICTIONARY
  5
121
330
FC
100
AcDbDictionary
280
     1
281
     1
  3
ACAD_XREC_ROUNDTRIP
360
122
  0
DICTIONARY
  5
123
330
FD
100
AcDbDictionary
280
     1
281
     1
  3
ACAD_XREC_ROUNDTRIP
360
124
  0
DICTIONARY
  5
137
330
107
100
AcDbDictionary
280
     1
281
     1
  3
ACAD_XREC_ROUNDTRIP
360
138
  0
DICTIONARY
  5
12D
330
102
100
AcDbDictionary
280
     1
281
     1
  3
ACAD_XREC_ROUNDTRIP
360
12E
  0
DICTIONARY
  5
135
330
106
100
AcDbDictionary
280
     1
281
     1
  3
ACAD_XREC_ROUNDTRIP
360
136
  0
XRECORD
  5
140
102
{ACAD_REACTORS
330
13F
102
}
330
13F
100
AcDbXrecord
280
     1
102
MATERIAL
148
0.0
149
0.0
149
0.0
 93
        0
 94
      127
282
     0
 72
     1
 77
     1
171
     1
175
     1
179
     1
273
     0
  0
XRECORD
  5
13E
102
{ACAD_REACTORS
330
13D
102
}
330
13D
100
AcDbXrecord
280
     1
102
MATERIAL
148
0.0
149
0.0
149
0.0
 93
        0
 94
      127
282
     0
 72
     1
 77
     1
171
     1
175
     1
179
     1
273
     0
  0
XRECORD
  5
142
102
{ACAD_REACTORS
330
141
102
}
330
141
100
AcDbXrecord
280
     1
102
MATERIAL
148
0.0
149
0.0
149
0.0
 93
        0
 94
      127
282
     0
 72
     1
 77
     1
171
     1
175
     1
179
     1
273
     0
  0
XRECORD
  5
126
102
{ACAD_REACTORS
330
125
102
}
330
125
100
AcDbXrecord
280
     1
102
RTVSPropertyOp0
 70
     1
102
RTVSPropertyOp1
 70
     1
102
RTVSPropertyOp2
 70
     1
102
RTVSPropertyOp3
 70
     1
102
RTVSPropertyOp4
 70
     1
102
RTVSPropertyOp5
 70
     1
102
RTVSPropertyOp6
 70
     1
102
RTVSPropertyOp7
 70
     1
102
RTVSPropertyOp8
 70
     1
102
RTVSPropertyOp9
 70
     1
102
RTVSPropertyOp10
 70
     1
102
RTVSPropertyOp11
 70
     1
102
RTVSPropertyOp12
 70
     1
102
RTVSPropertyOp13
 70
     1
102
RTVSPropertyOp14
 70
     1
102
RTVSPropertyOp15
 70
     1
102
RTVSPropertyOp16
 70
     1
102
RTVSPropertyOp17
 70
     1
102
RTVSPropertyOp18
 70
     1
102
RTVSPropertyOp19
 70
     1
102
RTVSPropertyOp20
 70
     1
102
RTVSPropertyOp21
 70
     1
102
RTVSPropertyOp22
 70
     1
102
RTVSPropertyOp23
 70
     1
102
RTVSPropertyOp24
 70
     1
102
RTVSPropertyOp25
 70
     1
102
RTVSPropertyOp26
 70
     1
102
RTVSPropertyOp27
 70
     1
102
RTVSPropertyOp28
 70
     1
102
RTVSPropertyOp29
 70
     1
102
RTVSPropertyOp30
 70
     1
102
RTVSPropertyOp31
 70
     1
102
RTVSPropertyOp32
 70
     1
  0
XRECORD
  5
12A
102
{ACAD_REACTORS
330
129
102
}
330
129
100
AcDbXrecord
280
     1
102
RTVSPropertyOp0
 70
     1
102
RTVSPropertyOp1
 70
     1
102
RTVSPropertyOp2
 70
     1
102
RTVSPropertyOp3
 70
     1
102
RTVSPropertyOp4
 70
     1
102
RTVSPropertyOp5
 70
     1
102
RTVSPropertyOp6
 70
     1
102
RTVSPropertyOp7
 70
     1
102
RTVSPropertyOp8
 70
     1
102
RTVSPropertyOp9
 70
     1
102
RTVSPropertyOp10
 70
     1
102
RTVSPropertyOp11
 70
     1
102
RTVSPropertyOp12
 70
     1
102
RTVSPropertyOp13
 70
     1
102
RTVSPropertyOp14
 70
     1
102
RTVSPropertyOp15
 70
     1
102
RTVSPropertyOp16
 70
     1
102
RTVSPropertyOp17
 70
     1
102
RTVSPropertyOp18
 70
     1
102
RTVSPropertyOp19
 70
     1
102
RTVSPropertyOp20
 70
     1
102
RTVSPropertyOp21
 70
     1
102
RTVSPropertyOp22
 70
     1
102
RTVSPropertyOp23
 70
     1
102
RTVSPropertyOp24
 70
     1
102
RTVSPropertyOp25
 70
     1
102
RTVSPropertyOp26
 70
     1
102
RTVSPropertyOp27
 70
     1
102
RTVSPropertyOp28
 70
     1
102
RTVSPropertyOp29
 70
     1
102
RTVSPropertyOp30
 70
     1
102
RTVSPropertyOp31
 70
     1
102
RTVSPropertyOp32
 70
     1
  0
XRECORD
  5
128
102
{ACAD_REACTORS
330
127
102
}
330
127
100
AcDbXrecord
280
     1
102
RTVSPropertyOp0
 70
     1
102
RTVSPropertyOp1
 70
     1
102
RTVSPropertyOp2
 70
     1
102
RTVSPropertyOp3
 70
     1
102
RTVSPropertyOp4
 70
     1
102
RTVSPropertyOp5
 70
     1
102
RTVSPropertyOp6
 70
     1
102
RTVSPropertyOp7
 70
     1
102
RTVSPropertyOp8
 70
     1
102
RTVSPropertyOp9
 70
     1
102
RTVSPropertyOp10
 70
     1
102
RTVSPropertyOp11
 70
     1
102
RTVSPropertyOp12
 70
     1
102
RTVSPropertyOp13
 70
     1
102
RTVSPropertyOp14
 70
     1
102
RTVSPropertyOp15
 70
     1
102
RTVSPropertyOp16
 70
     1
102
RTVSPropertyOp17
 70
     1
102
RTVSPropertyOp18
 70
     1
102
RTVSPropertyOp19
 70
     1
102
RTVSPropertyOp20
 70
     1
102
RTVSPropertyOp21
 70
     1
102
RTVSPropertyOp22
 70
     1
102
RTVSPropertyOp23
 70
     1
102
RTVSPropertyOp24
 70
     1
102
RTVSPropertyOp25
 70
     1
102
RTVSPropertyOp26
 70
     1
102
RTVSPropertyOp27
 70
     1
102
RTVSPropertyOp28
 70
     1
102
RTVSPropertyOp29
 70
     1
102
RTVSPropertyOp30
 70
     1
102
RTVSPropertyOp31
 70
     1
102
RTVSPropertyOp32
 70
     1
  0
XRECORD
  5
12C
102
{ACAD_REACTORS
330
12B
102
}
330
12B
100
AcDbXrecord
280
     1
102
RTVSPropertyOp0
 70
     1
102
RTVSPropertyOp1
 70
     1
102
RTVSPropertyOp2
 70
     1
102
RTVSPropertyOp3
 70
     1
102
RTVSPropertyOp4
 70
     1
102
RTVSPropertyOp5
 70
     1
102
RTVSPropertyOp6
 70
     1
102
RTVSPropertyOp7
 70
     1
102
RTVSPropertyOp8
 70
     1
102
RTVSPropertyOp9
 70
     1
102
RTVSPropertyOp10
 70
     1
102
RTVSPropertyOp11
 70
     1
102
RTVSPropertyOp12
 70
     1
102
RTVSPropertyOp13
 70
     1
102
RTVSPropertyOp14
 70
     1
102
RTVSPropertyOp15
 70
     1
102
RTVSPropertyOp16
 70
     1
102
RTVSPropertyOp17
 70
     1
102
RTVSPropertyOp18
 70
     1
102
RTVSPropertyOp19
 70
     1
102
RTVSPropertyOp20
 70
     1
102
RTVSPropertyOp21
 70
     1
102
RTVSPropertyOp22
 70
     1
102
RTVSPropertyOp23
 70
     1
102
RTVSPropertyOp24
 70
     1
102
RTVSPropertyOp25
 70
     1
102
RTVSPropertyOp26
 70
     1
102
RTVSPropertyOp27
 70
     1
102
RTVSPropertyOp28
 70
     1
102
RTVSPropertyOp29
 70
     1
102
RTVSPropertyOp30
 70
     1
102
RTVSPropertyOp31
 70
     1
102
RTVSPropertyOp32
 70
     1
  0
XRECORD
  5
134
102
{ACAD_REACTORS
330
133
102
}
330
133
100
AcDbXrecord
280
     1
102
RTVSPropertyOp0
 70
     1
102
RTVSPropertyOp1
 70
     1
102
RTVSPropertyOp2
 70
     1
102
RTVSPropertyOp3
 70
     1
102
RTVSPropertyOp4
 70
     1
102
RTVSPropertyOp5
 70
     1
102
RTVSPropertyOp6
 70
     1
102
RTVSPropertyOp7
 70
     1
102
RTVSPropertyOp8
 70
     1
102
RTVSPropertyOp9
 70
     1
102
RTVSPropertyOp10
 70
     1
102
RTVSPropertyOp11
 70
     1
102
RTVSPropertyOp12
 70
     1
102
RTVSPropertyOp13
 70
     1
102
RTVSPropertyOp14
 70
     1
102
RTVSPropertyOp15
 70
     1
102
RTVSPropertyOp16
 70
     1
102
RTVSPropertyOp17
 70
     1
102
RTVSPropertyOp18
 70
     1
102
RTVSPropertyOp19
 70
     1
102
RTVSPropertyOp20
 70
     1
102
RTVSPropertyOp21
 70
     1
102
RTVSPropertyOp22
 70
     1
102
RTVSPropertyOp23
 70
     1
102
RTVSPropertyOp24
 70
     1
102
RTVSPropertyOp25
 70
     1
102
RTVSPropertyOp26
 70
     1
102
RTVSPropertyOp27
 70
     1
102
RTVSPropertyOp28
 70
     1
102
RTVSPropertyOp29
 70
     1
102
RTVSPropertyOp30
 70
     1
102
RTVSPropertyOp31
 70
     1
102
RTVSPropertyOp32
 70
     1
  0
XRECORD
  5
13C
102
{ACAD_REACTORS
330
13B
102
}
330
13B
100
AcDbXrecord
280
     1
102
RTVSPropertyOp0
 70
     1
102
RTVSPropertyOp1
 70
     1
102
RTVSPropertyOp2
 70
     1
102
RTVSPropertyOp3
 70
     1
102
RTVSPropertyOp4
 70
     1
102
RTVSPropertyOp5
 70
     1
102
RTVSPropertyOp6
 70
     1
102
RTVSPropertyOp7
 70
     1
102
RTVSPropertyOp8
 70
     1
102
RTVSPropertyOp9
 70
     1
102
RTVSPropertyOp10
 70
     1
102
RTVSPropertyOp11
 70
     1
102
RTVSPropertyOp12
 70
     1
102
RTVSPropertyOp13
 70
     1
102
RTVSPropertyOp14
 70
     1
102
RTVSPropertyOp15
 70
     1
102
RTVSPropertyOp16
 70
     1
102
RTVSPropertyOp17
 70
     1
102
RTVSPropertyOp18
 70
     1
102
RTVSPropertyOp19
 70
     1
102
RTVSPropertyOp20
 70
     1
102
RTVSPropertyOp21
 70
     1
102
RTVSPropertyOp22
 70
     1
102
RTVSPropertyOp23
 70
     1
102
RTVSPropertyOp24
 70
     1
102
RTVSPropertyOp25
 70
     1
102
RTVSPropertyOp26
 70
     1
102
RTVSPropertyOp27
 70
     1
102
RTVSPropertyOp28
 70
     1
102
RTVSPropertyOp29
 70
     1
102
RTVSPropertyOp30
 70
     1
102
RTVSPropertyOp31
 70
     1
102
RTVSPropertyOp32
 70
     1
  0
XRECORD
  5
130
102
{ACAD_REACTORS
330
12F
102
}
330
12F
100
AcDbXrecord
280
     1
102
RTVSPropertyOp0
 70
     1
102
RTVSPropertyOp1
 70
     1
102
RTVSPropertyOp2
 70
     1
102
RTVSPropertyOp3
 70
     1
102
RTVSPropertyOp4
 70
     1
102
RTVSPropertyOp5
 70
     1
102
RTVSPropertyOp6
 70
     1
102
RTVSPropertyOp7
 70
     1
102
RTVSPropertyOp8
 70
     1
102
RTVSPropertyOp9
 70
     1
102
RTVSPropertyOp10
 70
     1
102
RTVSPropertyOp11
 70
     1
102
RTVSPropertyOp12
 70
     1
102
RTVSPropertyOp13
 70
     1
102
RTVSPropertyOp14
 70
     1
102
RTVSPropertyOp15
 70
     1
102
RTVSPropertyOp16
 70
     1
102
RTVSPropertyOp17
 70
     1
102
RTVSPropertyOp18
 70
     1
102
RTVSPropertyOp19
 70
     1
102
RTVSPropertyOp20
 70
     1
102
RTVSPropertyOp21
 70
     1
102
RTVSPropertyOp22
 70
     1
102
RTVSPropertyOp23
 70
     1
102
RTVSPropertyOp24
 70
     1
102
RTVSPropertyOp25
 70
     1
102
RTVSPropertyOp26
 70
     1
102
RTVSPropertyOp27
 70
     1
102
RTVSPropertyOp28
 70
     1
102
RTVSPropertyOp29
 70
     1
102
RTVSPropertyOp30
 70
     1
102
RTVSPropertyOp31
 70
     1
102
RTVSPropertyOp32
 70
     1
  0
XRECORD
  5
132
102
{ACAD_REACTORS
330
131
102
}
330
131
100
AcDbXrecord
280
     1
102
RTVSPropertyOp0
 70
     1
102
RTVSPropertyOp1
 70
     1
102
RTVSPropertyOp2
 70
     1
102
RTVSPropertyOp3
 70
     1
102
RTVSPropertyOp4
 70
     1
102
RTVSPropertyOp5
 70
     1
102
RTVSPropertyOp6
 70
     1
102
RTVSPropertyOp7
 70
     1
102
RTVSPropertyOp8
 70
     1
102
RTVSPropertyOp9
 70
     1
102
RTVSPropertyOp10
 70
     1
102
RTVSPropertyOp11
 70
     1
102
RTVSPropertyOp12
 70
     1
102
RTVSPropertyOp13
 70
     1
102
RTVSPropertyOp14
 70
     1
102
RTVSPropertyOp15
 70
     1
102
RTVSPropertyOp16
 70
     1
102
RTVSPropertyOp17
 70
     1
102
RTVSPropertyOp18
 70
     1
102
RTVSPropertyOp19
 70
     1
102
RTVSPropertyOp20
 70
     1
102
RTVSPropertyOp21
 70
     1
102
RTVSPropertyOp22
 70
     1
102
RTVSPropertyOp23
 70
     1
102
RTVSPropertyOp24
 70
     1
102
RTVSPropertyOp25
 70
     1
102
RTVSPropertyOp26
 70
     1
102
RTVSPropertyOp27
 70
     1
102
RTVSPropertyOp28
 70
     1
102
RTVSPropertyOp29
 70
     1
102
RTVSPropertyOp30
 70
     1
102
RTVSPropertyOp31
 70
     1
102
RTVSPropertyOp32
 70
     1
  0
XRECORD
  5
13A
102
{ACAD_REACTORS
330
139
102
}
330
139
100
AcDbXrecord
280
     1
102
RTVSPropertyOp0
 70
     1
102
RTVSPropertyOp1
 70
     1
102
RTVSPropertyOp2
 70
     1
102
RTVSPropertyOp3
 70
     1
102
RTVSPropertyOp4
 70
     1
102
RTVSPropertyOp5
 70
     1
102
RTVSPropertyOp6
 70
     1
102
RTVSPropertyOp7
 70
     1
102
RTVSPropertyOp8
 70
     1
102
RTVSPropertyOp9
 70
     1
102
RTVSPropertyOp10
 70
     1
102
RTVSPropertyOp11
 70
     1
102
RTVSPropertyOp12
 70
     1
102
RTVSPropertyOp13
 70
     1
102
RTVSPropertyOp14
 70
     1
102
RTVSPropertyOp15
 70
     1
102
RTVSPropertyOp16
 70
     1
102
RTVSPropertyOp17
 70
     1
102
RTVSPropertyOp18
 70
     1
102
RTVSPropertyOp19
 70
     1
102
RTVSPropertyOp20
 70
     1
102
RTVSPropertyOp21
 70
     1
102
RTVSPropertyOp22
 70
     1
102
RTVSPropertyOp23
 70
     1
102
RTVSPropertyOp24
 70
     1
102
RTVSPropertyOp25
 70
     1
102
RTVSPropertyOp26
 70
     1
102
RTVSPropertyOp27
 70
     1
102
RTVSPropertyOp28
 70
     1
102
RTVSPropertyOp29
 70
     1
102
RTVSPropertyOp30
 70
     1
102
RTVSPropertyOp31
 70
     1
102
RTVSPropertyOp32
 70
     1
  0
XRECORD
  5
11E
102
{ACAD_REACTORS
330
11D
102
}
330
11D
100
AcDbXrecord
280
     1
102
RTVSPropertyOp0
 70
     1
102
RTVSPropertyOp1
 70
     1
102
RTVSPropertyOp2
 70
     1
102
RTVSPropertyOp3
 70
     1
102
RTVSPropertyOp4
 70
     1
102
RTVSPropertyOp5
 70
     1
102
RTVSPropertyOp6
 70
     1
102
RTVSPropertyOp7
 70
     1
102
RTVSPropertyOp8
 70
     1
102
RTVSPropertyOp9
 70
     1
102
RTVSPropertyOp10
 70
     1
102
RTVSPropertyOp11
 70
     1
102
RTVSPropertyOp12
 70
     1
102
RTVSPropertyOp13
 70
     1
102
RTVSPropertyOp14
 70
     1
102
RTVSPropertyOp15
 70
     1
102
RTVSPropertyOp16
 70
     1
102
RTVSPropertyOp17
 70
     1
102
RTVSPropertyOp18
 70
     1
102
RTVSPropertyOp19
 70
     1
102
RTVSPropertyOp20
 70
     1
102
RTVSPropertyOp21
 70
     1
102
RTVSPropertyOp22
 70
     1
102
RTVSPropertyOp23
 70
     1
102
RTVSPropertyOp24
 70
     1
102
RTVSPropertyOp25
 70
     1
102
RTVSPropertyOp26
 70
     1
102
RTVSPropertyOp27
 70
     1
102
RTVSPropertyOp28
 70
     1
102
RTVSPropertyOp29
 70
     1
102
RTVSPropertyOp30
 70
     1
102
RTVSPropertyOp31
 70
     1
102
RTVSPropertyOp32
 70
     1
  0
XRECORD
  5
120
102
{ACAD_REACTORS
330
11F
102
}
330
11F
100
AcDbXrecord
280
     1
102
RTVSPropertyOp0
 70
     1
102
RTVSPropertyOp1
 70
     1
102
RTVSPropertyOp2
 70
     1
102
RTVSPropertyOp3
 70
     1
102
RTVSPropertyOp4
 70
     1
102
RTVSPropertyOp5
 70
     1
102
RTVSPropertyOp6
 70
     1
102
RTVSPropertyOp7
 70
     1
102
RTVSPropertyOp8
 70
     1
102
RTVSPropertyOp9
 70
     1
102
RTVSPropertyOp10
 70
     1
102
RTVSPropertyOp11
 70
     1
102
RTVSPropertyOp12
 70
     1
102
RTVSPropertyOp13
 70
     1
102
RTVSPropertyOp14
 70
     1
102
RTVSPropertyOp15
 70
     1
102
RTVSPropertyOp16
 70
     1
102
RTVSPropertyOp17
 70
     1
102
RTVSPropertyOp18
 70
     1
102
RTVSPropertyOp19
 70
     1
102
RTVSPropertyOp20
 70
     1
102
RTVSPropertyOp21
 70
     1
102
RTVSPropertyOp22
 70
     1
102
RTVSPropertyOp23
 70
     1
102
RTVSPropertyOp24
 70
     1
102
RTVSPropertyOp25
 70
     1
102
RTVSPropertyOp26
 70
     1
102
RTVSPropertyOp27
 70
     1
102
RTVSPropertyOp28
 70
     1
102
RTVSPropertyOp29
 70
     1
102
RTVSPropertyOp30
 70
     1
102
RTVSPropertyOp31
 70
     1
102
RTVSPropertyOp32
 70
     1
  0
XRECORD
  5
122
102
{ACAD_REACTORS
330
121
102
}
330
121
100
AcDbXrecord
280
     1
102
RTVSPropertyOp0
 70
     1
102
RTVSPropertyOp1
 70
     1
102
RTVSPropertyOp2
 70
     1
102
RTVSPropertyOp3
 70
     1
102
RTVSPropertyOp4
 70
     1
102
RTVSPropertyOp5
 70
     1
102
RTVSPropertyOp6
 70
     1
102
RTVSPropertyOp7
 70
     1
102
RTVSPropertyOp8
 70
     1
102
RTVSPropertyOp9
 70
     1
102
RTVSPropertyOp10
 70
     1
102
RTVSPropertyOp11
 70
     1
102
RTVSPropertyOp12
 70
     1
102
RTVSPropertyOp13
 70
     1
102
RTVSPropertyOp14
 70
     1
102
RTVSPropertyOp15
 70
     1
102
RTVSPropertyOp16
 70
     1
102
RTVSPropertyOp17
 70
     1
102
RTVSPropertyOp18
 70
     1
102
RTVSPropertyOp19
 70
     1
102
RTVSPropertyOp20
 70
     1
102
RTVSPropertyOp21
 70
     1
102
RTVSPropertyOp22
 70
     1
102
RTVSPropertyOp23
 70
     1
102
RTVSPropertyOp24
 70
     1
102
RTVSPropertyOp25
 70
     1
102
RTVSPropertyOp26
 70
     1
102
RTVSPropertyOp27
 70
     1
102
RTVSPropertyOp28
 70
     1
102
RTVSPropertyOp29
 70
     1
102
RTVSPropertyOp30
 70
     1
102
RTVSPropertyOp31
 70
     1
102
RTVSPropertyOp32
 70
     1
  0
XRECORD
  5
124
102
{ACAD_REACTORS
330
123
102
}
330
123
100
AcDbXrecord
280
     1
102
RTVSPropertyOp0
 70
     1
102
RTVSPropertyOp1
 70
     1
102
RTVSPropertyOp2
 70
     1
102
RTVSPropertyOp3
 70
     1
102
RTVSPropertyOp4
 70
     1
102
RTVSPropertyOp5
 70
     1
102
RTVSPropertyOp6
 70
     1
102
RTVSPropertyOp7
 70
     1
102
RTVSPropertyOp8
 70
     1
102
RTVSPropertyOp9
 70
     1
102
RTVSPropertyOp10
 70
     1
102
RTVSPropertyOp11
 70
     1
102
RTVSPropertyOp12
 70
     1
102
RTVSPropertyOp13
 70
     1
102
RTVSPropertyOp14
 70
     1
102
RTVSPropertyOp15
 70
     1
102
RTVSPropertyOp16
 70
     1
102
RTVSPropertyOp17
 70
     1
102
RTVSPropertyOp18
 70
     1
102
RTVSPropertyOp19
 70
     1
102
RTVSPropertyOp20
 70
     1
102
RTVSPropertyOp21
 70
     1
102
RTVSPropertyOp22
 70
     1
102
RTVSPropertyOp23
 70
     1
102
RTVSPropertyOp24
 70
     1
102
RTVSPropertyOp25
 70
     1
102
RTVSPropertyOp26
 70
     1
102
RTVSPropertyOp27
 70
     1
102
RTVSPropertyOp28
 70
     1
102
RTVSPropertyOp29
 70
     1
102
RTVSPropertyOp30
 70
     1
102
RTVSPropertyOp31
 70
     1
102
RTVSPropertyOp32
 70
     1
  0
XRECORD
  5
138
102
{ACAD_REACTORS
330
137
102
}
330
137
100
AcDbXrecord
280
     1
102
RTVSPropertyOp0
 70
     1
102
RTVSPropertyOp1
 70
     1
102
RTVSPropertyOp2
 70
     1
102
RTVSPropertyOp3
 70
     1
102
RTVSPropertyOp4
 70
     1
102
RTVSPropertyOp5
 70
     1
102
RTVSPropertyOp6
 70
     1
102
RTVSPropertyOp7
 70
     1
102
RTVSPropertyOp8
 70
     1
102
RTVSPropertyOp9
 70
     1
102
RTVSPropertyOp10
 70
     1
102
RTVSPropertyOp11
 70
     1
102
RTVSPropertyOp12
 70
     1
102
RTVSPropertyOp13
 70
     1
102
RTVSPropertyOp14
 70
     1
102
RTVSPropertyOp15
 70
     1
102
RTVSPropertyOp16
 70
     1
102
RTVSPropertyOp17
 70
     1
102
RTVSPropertyOp18
 70
     1
102
RTVSPropertyOp19
 70
     1
102
RTVSPropertyOp20
 70
     1
102
RTVSPropertyOp21
 70
     1
102
RTVSPropertyOp22
 70
     1
102
RTVSPropertyOp23
 70
     1
102
RTVSPropertyOp24
 70
     1
102
RTVSPropertyOp25
 70
     1
102
RTVSPropertyOp26
 70
     1
102
RTVSPropertyOp27
 70
     1
102
RTVSPropertyOp28
 70
     1
102
RTVSPropertyOp29
 70
     1
102
RTVSPropertyOp30
 70
     1
102
RTVSPropertyOp31
 70
     1
102
RTVSPropertyOp32
 70
     1
  0
XRECORD
  5
12E
102
{ACAD_REACTORS
330
12D
102
}
330
12D
100
AcDbXrecord
280
     1
102
RTVSPropertyOp0
 70
     1
102
RTVSPropertyOp1
 70
     1
102
RTVSPropertyOp2
 70
     1
102
RTVSPropertyOp3
 70
     1
102
RTVSPropertyOp4
 70
     1
102
RTVSPropertyOp5
 70
     1
102
RTVSPropertyOp6
 70
     1
102
RTVSPropertyOp7
 70
     1
102
RTVSPropertyOp8
 70
     1
102
RTVSPropertyOp9
 70
     1
102
RTVSPropertyOp10
 70
     1
102
RTVSPropertyOp11
 70
     1
102
RTVSPropertyOp12
 70
     1
102
RTVSPropertyOp13
 70
     1
102
RTVSPropertyOp14
 70
     1
102
RTVSPropertyOp15
 70
     1
102
RTVSPropertyOp16
 70
     1
102
RTVSPropertyOp17
 70
     1
102
RTVSPropertyOp18
 70
     1
102
RTVSPropertyOp19
 70
     1
102
RTVSPropertyOp20
 70
     1
102
RTVSPropertyOp21
 70
     1
102
RTVSPropertyOp22
 70
     1
102
RTVSPropertyOp23
 70
     1
102
RTVSPropertyOp24
 70
     1
102
RTVSPropertyOp25
 70
     1
102
RTVSPropertyOp26
 70
     1
102
RTVSPropertyOp27
 70
     1
102
RTVSPropertyOp28
 70
     1
102
RTVSPropertyOp29
 70
     1
102
RTVSPropertyOp30
 70
     1
102
RTVSPropertyOp31
 70
     1
102
RTVSPropertyOp32
 70
     1
  0
XRECORD
  5
136
102
{ACAD_REACTORS
330
135
102
}
330
135
100
AcDbXrecord
280
     1
102
RTVSPropertyOp0
 70
     1
102
RTVSPropertyOp1
 70
     1
102
RTVSPropertyOp2
 70
     1
102
RTVSPropertyOp3
 70
     1
102
RTVSPropertyOp4
 70
     1
102
RTVSPropertyOp5
 70
     1
102
RTVSPropertyOp6
 70
     1
102
RTVSPropertyOp7
 70
     1
102
RTVSPropertyOp8
 70
     1
102
RTVSPropertyOp9
 70
     1
102
RTVSPropertyOp10
 70
     1
102
RTVSPropertyOp11
 70
     1
102
RTVSPropertyOp12
 70
     1
102
RTVSPropertyOp13
 70
     1
102
RTVSPropertyOp14
 70
     1
102
RTVSPropertyOp15
 70
     1
102
RTVSPropertyOp16
 70
     1
102
RTVSPropertyOp17
 70
     1
102
RTVSPropertyOp18
 70
     1
102
RTVSPropertyOp19
 70
     1
102
RTVSPropertyOp20
 70
     1
102
RTVSPropertyOp21
 70
     1
102
RTVSPropertyOp22
 70
     1
102
RTVSPropertyOp23
 70
     1
102
RTVSPropertyOp24
 70
     1
102
RTVSPropertyOp25
 70
     1
102
RTVSPropertyOp26
 70
     1
102
RTVSPropertyOp27
 70
     1
102
RTVSPropertyOp28
 70
     1
102
RTVSPropertyOp29
 70
     1
102
RTVSPropertyOp30
 70
     1
102
RTVSPropertyOp31
 70
     1
102
RTVSPropertyOp32
 70
     1
  0
ENDSEC
  0
EOF
