  0
SECTION
  2
HEADER
  9
$ACADVER
  1
AC1027
  9
$ACADMAINTVER
 70
   105
  9
$DWGCODEPAGE
  3
ANSI_1252
  9
$REQUIREDVERSIONS
160
                 0
  9
$LASTSAVEDBY
  1
matthias.ochs
  9
$INSBASE
 10
0.0
 20
0.0
 30
0.0
  9
$EXTMIN
 10
-33.89828084740995
 20
-78.33148927424804
 30
0.0
  9
$EXTMAX
 10
74.41616057943443
 20
71.14243989479732
 30
0.0
  9
$LIMMIN
 10
-73.366918062
 20
-34.813121686
  9
$LIMMAX
 10
110.074413696
 20
48.125290435
  9
$ORTHOMODE
 70
     0
  9
$REGENMODE
 70
     1
  9
$FILLMODE
 70
     1
  9
$QTEXTMODE
 70
     0
  9
$MIRRTEXT
 70
     1
  9
$LTSCALE
 40
1.0
  9
$ATTMODE
 70
     1
  9
$TEXTSIZE
 40
0.2
  9
$TRACEWID
 40
0.05
  9
$TEXTSTYLE
  7
Standard
  9
$CLAYER
  8
1
  9
$CELTYPE
  6
ByLayer
  9
$CECOLOR
 62
   256
  9
$CELTSCALE
 40
1.0
  9
$DISPSILH
 70
     0
  9
$DIMSCALE
 40
1.0
  9
$DIMASZ
 40
0.18
  9
$DIMEXO
 40
0.0625
  9
$DIMDLI
 40
0.38
  9
$DIMRND
 40
0.0
  9
$DIMDLE
 40
0.0
  9
$DIMEXE
 40
0.18
  9
$DIMTP
 40
0.0
  9
$DIMTM
 40
0.0
  9
$DIMTXT
 40
0.18
  9
$DIMCEN
 40
0.09
  9
$DIMTSZ
 40
0.0
  9
$DIMTOL
 70
     0
  9
$DIMLIM
 70
     0
  9
$DIMTIH
 70
     1
  9
$DIMTOH
 70
     1
  9
$DIMSE1
 70
     0
  9
$DIMSE2
 70
     0
  9
$DIMTAD
 70
     0
  9
$DIMZIN
 70
     0
  9
$DIMBLK
  1

  9
$DIMASO
 70
     1
  9
$DIMSHO
 70
     1
  9
$DIMPOST
  1

  9
$DIMAPOST
  1

  9
$DIMALT
 70
     0
  9
$DIMALTD
 70
     2
  9
$DIMALTF
 40
25.4
  9
$DIMLFAC
 40
1.0
  9
$DIMTOFL
 70
     0
  9
$DIMTVP
 40
0.0
  9
$DIMTIX
 70
     0
  9
$DIMSOXD
 70
     0
  9
$DIMSAH
 70
     0
  9
$DIMBLK1
  1

  9
$DIMBLK2
  1

  9
$DIMSTYLE
  2
Standard
  9
$DIMCLRD
 70
     0
  9
$DIMCLRE
 70
     0
  9
$DIMCLRT
 70
     0
  9
$DIMTFAC
 40
1.0
  9
$DIMGAP
 40
0.09
  9
$DIMJUST
 70
     0
  9
$DIMSD1
 70
     0
  9
$DIMSD2
 70
     0
  9
$DIMTOLJ
 70
     1
  9
$DIMTZIN
 70
     0
  9
$DIMALTZ
 70
     0
  9
$DIMALTTZ
 70
     0
  9
$DIMUPT
 70
     0
  9
$DIMDEC
 70
     4
  9
$DIMTDEC
 70
     4
  9
$DIMALTU
 70
     2
  9
$DIMALTTD
 70
     2
  9
$DIMTXSTY
  7
Standard
  9
$DIMAUNIT
 70
     0
  9
$DIMADEC
 70
     0
  9
$DIMALTRND
 40
0.0
  9
$DIMAZIN
 70
     0
  9
$DIMDSEP
 70
    46
  9
$DIMATFIT
 70
     3
  9
$DIMFRAC
 70
     0
  9
$DIMLDRBLK
  1

  9
$DIMLUNIT
 70
     2
  9
$DIMLWD
 70
    -2
  9
$DIMLWE
 70
    -2
  9
$DIMTMOVE
 70
     2
  9
$DIMFXL
 40
1.0
  9
$DIMFXLON
 70
     0
  9
$DIMJOGANG
 40
0.7853981633974483
  9
$DIMTFILL
 70
     0
  9
$DIMTFILLCLR
 70
     0
  9
$DIMARCSYM
 70
     0
  9
$DIMLTYPE
  6

  9
$DIMLTEX1
  6

  9
$DIMLTEX2
  6

  9
$DIMTXTDIRECTION
 70
     0
  9
$LUNITS
 70
     2
  9
$LUPREC
 70
     4
  9
$SKETCHINC
 40
0.1
  9
$FILLETRAD
 40
0.5
  9
$AUNITS
 70
     2
  9
$AUPREC
 70
     0
  9
$MENU
  1
.
  9
$ELEVATION
 40
0.0
  9
$PELEVATION
 40
0.0
  9
$THICKNESS
 40
0.0
  9
$LIMCHECK
 70
     0
  9
$CHAMFERA
 40
0.5
  9
$CHAMFERB
 40
0.5
  9
$CHAMFERC
 40
1.0
  9
$CHAMFERD
 40
0.0
  9
$SKPOLY
 70
     0
  9
$TDCREATE
 40
2458327.549564699
  9
$TDUCREATE
 40
2458327.466231366
  9
$TDUPDATE
 40
2458677.577839676
  9
$TDUUPDATE
 40
2458677.494506343
  9
$TDINDWG
 40
0.0087427546
  9
$TDUSRTIMER
 40
0.0051404977
  9
$USRTIMER
 70
     1
  9
$ANGBASE
 50
0.0
  9
$ANGDIR
 70
     0
  9
$PDMODE
 70
     0
  9
$PDSIZE
 40
0.0
  9
$PLINEWID
 40
0.0
  9
$SPLFRAME
 70
     0
  9
$SPLINETYPE
 70
     6
  9
$SPLINESEGS
 70
     8
  9
$HANDSEED
  5
247
  9
$SURFTAB1
 70
     6
  9
$SURFTAB2
 70
     6
  9
$SURFTYPE
 70
     6
  9
$SURFU
 70
     6
  9
$SURFV
 70
     6
  9
$UCSBASE
  2

  9
$UCSNAME
  2

  9
$UCSORG
 10
0.0
 20
0.0
 30
0.0
  9
$UCSXDIR
 10
1.0
 20
0.0
 30
0.0
  9
$UCSYDIR
 10
0.0
 20
1.0
 30
0.0
  9
$UCSORTHOREF
  2

  9
$UCSORTHOVIEW
 70
     0
  9
$UCSORGTOP
 10
0.0
 20
0.0
 30
0.0
  9
$UCSORGBOTTOM
 10
0.0
 20
0.0
 30
0.0
  9
$UCSORGLEFT
 10
0.0
 20
0.0
 30
0.0
  9
$UCSORGRIGHT
 10
0.0
 20
0.0
 30
0.0
  9
$UCSORGFRONT
 10
0.0
 20
0.0
 30
0.0
  9
$UCSORGBACK
 10
0.0
 20
0.0
 30
0.0
  9
$PUCSBASE
  2

  9
$PUCSNAME
  2

  9
$PUCSORG
 10
0.0
 20
0.0
 30
0.0
  9
$PUCSXDIR
 10
1.0
 20
0.0
 30
0.0
  9
$PUCSYDIR
 10
0.0
 20
1.0
 30
0.0
  9
$PUCSORTHOREF
  2

  9
$PUCSORTHOVIEW
 70
     0
  9
$PUCSORGTOP
 10
0.0
 20
0.0
 30
0.0
  9
$PUCSORGBOTTOM
 10
0.0
 20
0.0
 30
0.0
  9
$PUCSORGLEFT
 10
0.0
 20
0.0
 30
0.0
  9
$PUCSORGRIGHT
 10
0.0
 20
0.0
 30
0.0
  9
$PUCSORGFRONT
 10
0.0
 20
0.0
 30
0.0
  9
$PUCSORGBACK
 10
0.0
 20
0.0
 30
0.0
  9
$USERI1
 70
     0
  9
$USERI2
 70
     0
  9
$USERI3
 70
     0
  9
$USERI4
 70
     0
  9
$USERI5
 70
     0
  9
$USERR1
 40
0.0
  9
$USERR2
 40
0.0
  9
$USERR3
 40
0.0
  9
$USERR4
 40
0.0
  9
$USERR5
 40
0.0
  9
$WORLDVIEW
 70
     1
  9
$SHADEDGE
 70
     3
  9
$SHADEDIF
 70
    70
  9
$TILEMODE
 70
     1
  9
$MAXACTVP
 70
    64
  9
$PINSBASE
 10
0.0
 20
0.0
 30
0.0
  9
$PLIMCHECK
 70
     0
  9
$PEXTMIN
 10
1.000000000000000E+20
 20
1.000000000000000E+20
 30
1.000000000000000E+20
  9
$PEXTMAX
 10
-1.000000000000000E+20
 20
-1.000000000000000E+20
 30
-1.000000000000000E+20
  9
$PLIMMIN
 10
0.0
 20
0.0
  9
$PLIMMAX
 10
0.0
 20
0.0
  9
$UNITMODE
 70
     0
  9
$VISRETAIN
 70
     1
  9
$PLINEGEN
 70
     0
  9
$PSLTSCALE
 70
     1
  9
$TREEDEPTH
 70
  3020
  9
$CMLSTYLE
  2
Standard
  9
$CMLJUST
 70
     0
  9
$CMLSCALE
 40
1.0
  9
$PROXYGRAPHICS
 70
     1
  9
$MEASUREMENT
 70
     0
  9
$CELWEIGHT
370
    -1
  9
$ENDCAPS
280
     0
  9
$JOINSTYLE
280
     0
  9
$LWDISPLAY
290
     0
  9
$INSUNITS
 70
     0
  9
$HYPERLINKBASE
  1

  9
$STYLESHEET
  1

  9
$XEDIT
290
     1
  9
$CEPSNTYPE
380
     0
  9
$PSTYLEMODE
290
     1
  9
$FINGERPRINTGUID
  2
{FF630160-2C83-47DA-BBFD-7D526E191EB2}
  9
$VERSIONGUID
  2
{FAEB1C32-E019-11D5-929B-00C0DF256EC4}
  9
$EXTNAMES
290
     1
  9
$PSVPSCALE
 40
0.0
  9
$OLESTARTUP
290
     0
  9
$SORTENTS
280
   127
  9
$INDEXCTL
280
     0
  9
$HIDETEXT
280
     1
  9
$XCLIPFRAME
280
     2
  9
$HALOGAP
280
     0
  9
$OBSCOLOR
 70
   257
  9
$OBSLTYPE
280
     0
  9
$INTERSECTIONDISPLAY
280
     0
  9
$INTERSECTIONCOLOR
 70
   257
  9
$DIMASSOC
280
     2
  9
$PROJECTNAME
  1

  9
$CAMERADISPLAY
290
     0
  9
$LENSLENGTH
 40
50.0
  9
$CAMERAHEIGHT
 40
0.0
  9
$STEPSPERSEC
 40
2.0
  9
$STEPSIZE
 40
6.0
  9
$3DDWFPREC
 40
2.0
  9
$PSOLWIDTH
 40
0.25
  9
$PSOLHEIGHT
 40
4.0
  9
$LOFTANG1
 40
1.570796326794897
  9
$LOFTANG2
 40
1.570796326794897
  9
$LOFTMAG1
 40
0.0
  9
$LOFTMAG2
 40
0.0
  9
$LOFTPARAM
 70
     7
  9
$LOFTNORMALS
280
     1
  9
$LATITUDE
 40
37.795
  9
$LONGITUDE
 40
-122.394
  9
$NORTHDIRECTION
 40
0.0
  9
$TIMEZONE
 70
 -8000
  9
$LIGHTGLYPHDISPLAY
280
     1
  9
$TILEMODELIGHTSYNCH
280
     1
  9
$SOLIDHIST
280
     0
  9
$SHOWHIST
280
     1
  9
$DWFFRAME
280
     2
  9
$DGNFRAME
280
     2
  9
$REALWORLDSCALE
290
     1
  9
$INTERFERECOLOR
 62
   256
  9
$CSHADOW
280
     0
  9
$SHADOWPLANELOCATION
 40
0.0
  0
ENDSEC
  0
SECTION
  2
CLASSES
  0
CLASS
  1
ACDBDICTIONARYWDFLT
  2
AcDbDictionaryWithDefault
  3
ObjectDBX Classes
 90
        0
 91
       21
280
     0
281
     0
  0
CLASS
  1
SCALE
  2
AcDbScale
  3
ObjectDBX Classes
 90
     1153
 91
       21
280
     0
281
     0
  0
CLASS
  1
VISUALSTYLE
  2
AcDbVisualStyle
  3
ObjectDBX Classes
 90
     4095
 91
       21
280
     0
281
     0
  0
CLASS
  1
MATERIAL
  2
AcDbMaterial
  3
ObjectDBX Classes
 90
     1153
 91
       21
280
     0
281
     0
  0
CLASS
  1
DICTIONARYVAR
  2
AcDbDictionaryVar
  3
ObjectDBX Classes
 90
        0
 91
       19
280
     0
281
     0
  0
CLASS
  1
ACDBPLACEHOLDER
  2
AcDbPlaceHolder
  3
ObjectDBX Classes
 90
        0
 91
        1
280
     0
281
     0
  0
CLASS
  1
LAYOUT
  2
AcDbLayout
  3
ObjectDBX Classes
 90
        0
 91
        1
280
     0
281
     0
  0
CLASS
  1
TABLESTYLE
  2
AcDbTableStyle
  3
ObjectDBX Classes
 90
     4095
 91
       20
280
     0
281
     0
  0
CLASS
  1
MLEADERSTYLE
  2
AcDbMLeaderStyle
  3
ACDB_MLEADERSTYLE_CLASS
 90
     4095
 91
       20
280
     0
281
     0
  0
CLASS
  1
SUN
  2
AcDbSun
  3
SCENEOE
 90
     1153
 91
       21
280
     0
281
     0
  0
CLASS
  1
SORTENTSTABLE
  2
AcDbSortentsTable
  3
ObjectDBX Classes
 90
        0
 91
       16
280
     0
281
     0
  0
CLASS
  1
CELLSTYLEMAP
  2
AcDbCellStyleMap
  3
ObjectDBX Classes
 90
     1152
 91
       12
280
     0
281
     0
  0
ENDSEC
  0
SECTION
  2
TABLES
  0
TABLE
  2
VPORT
  5
8
330
0
100
AcDbSymbolTable
 70
     1
  0
VPORT
  5
119
330
8
100
AcDbSymbolTableRecord
100
AcDbViewportTableRecord
  2
*Active
 70
     0
 10
0.0
 20
0.0
 11
1.0
 21
1.0
 12
-65.67821779804868
 22
66.47442680910706
 13
0.0
 23
0.0
 14
0.5
 24
0.5
 15
0.5
 25
0.5
 16
0.0
 26
0.0
 36
1.0
 17
0.0
 27
0.0
 37
0.0
 40
458.4575927866221
 41
1.831002331002331
 42
50.0
 43
0.0
 44
0.0
 50
0.0
 51
0.0
 71
    16
 72
   100
 73
     1
 74
     3
 75
     0
 76
     0
 77
     0
 78
     0
281
     0
 65
     1
110
0.0
120
0.0
130
0.0
111
1.0
121
0.0
131
0.0
112
0.0
122
1.0
132
0.0
 79
     0
146
0.0
348
14A
 60
     3
 61
     5
292
     1
282
     1
141
0.0
142
0.0
 63
   256
361
1DB
  0
ENDTAB
  0
TABLE
  2
LTYPE
  5
5
330
0
100
AcDbSymbolTable
 70
     8
  0
LTYPE
  5
14
330
5
100
AcDbSymbolTableRecord
100
AcDbLinetypeTableRecord
  2
ByBlock
 70
     0
  3

 72
    65
 73
     0
 40
0.0
  0
LTYPE
  5
15
330
5
100
AcDbSymbolTableRecord
100
AcDbLinetypeTableRecord
  2
ByLayer
 70
     0
  3

 72
    65
 73
     0
 40
0.0
  0
LTYPE
  5
16
330
5
100
AcDbSymbolTableRecord
100
AcDbLinetypeTableRecord
  2
Continuous
 70
     0
  3
Solid line
 72
    65
 73
     0
 40
0.0
  0
LTYPE
  5
20
330
5
100
AcDbSymbolTableRecord
100
AcDbLinetypeTableRecord
  2
PUNKT
 70
     0
  3
..............
 72
    65
 73
     2
 40
1.5
 49
0.7
 74
     0
 49
-0.8
 74
     0
  0
LTYPE
  5
21
330
5
100
AcDbSymbolTableRecord
100
AcDbLinetypeTableRecord
  2
GESTRICHELT
 70
     0
  3
-- -- -- -- --
 72
    65
 73
     7
 40
2.8
 49
0.9
 74
     0
 49
0.0
 74
     0
 49
0.9
 74
     0
 49
0.0
 74
     0
 49
0.2
 74
     0
 49
0.0
 74
     0
 49
-0.8
 74
     0
  0
LTYPE
  5
22
330
5
100
AcDbSymbolTableRecord
100
AcDbLinetypeTableRecord
  2
STRICHPUNKT
 70
     0
  3
--.--.--.--.--
 72
    65
 73
     4
 40
8.8
 49
5.5
 74
     0
 49
-1.3
 74
     0
 49
0.7
 74
     0
 49
-1.3
 74
     0
  0
LTYPE
  5
25
330
5
100
AcDbSymbolTableRecord
100
AcDbLinetypeTableRecord
  2
PHANTOM
 70
     0
  3
--..--..--..--
 72
    65
 73
     6
 40
14.2
 49
7.0
 74
     0
 49
-1.8
 74
     0
 49
0.9
 74
     0
 49
-1.8
 74
     0
 49
0.9
 74
     0
 49
-1.8
 74
     0
  0
LTYPE
  5
191
330
5
100
AcDbSymbolTableRecord
100
AcDbLinetypeTableRecord
  2
DASH
 70
     0
  3
DASH _ _ _ _ _
 72
    65
 73
     2
 40
0.75
 49
0.4
 74
     0
 49
-0.35
 74
     0
  0
LTYPE
  5
192
330
5
100
AcDbSymbolTableRecord
100
AcDbLinetypeTableRecord
  2
LONGDASH_DASH
 70
     0
  3
LONGDASH_DASH __ . __ . __
 72
    65
 73
     4
 40
0.85
 49
0.4
 74
     0
 49
-0.2
 74
     0
 49
0.05
 74
     0
 49
-0.2
 74
     0
  0
LTYPE
  5
193
330
5
100
AcDbSymbolTableRecord
100
AcDbLinetypeTableRecord
  2
LONGDASH_DASH_DASH
 70
     0
  3
LONGDASH_DASH_DASH __ . . __ . . __
 72
    65
 73
     6
 40
1.1
 49
0.4
 74
     0
 49
-0.2
 74
     0
 49
0.05
 74
     0
 49
-0.2
 74
     0
 49
0.05
 74
     0
 49
-0.2
 74
     0
  0
ENDTAB
  0
TABLE
  2
LAYER
  5
2
102
{ACAD_XDICTIONARY
360
1B5
102
}
330
0
100
AcDbSymbolTable
 70
    17
  0
LAYER
  5
15B
330
2
100
AcDbSymbolTableRecord
100
AcDbLayerTableRecord
  2
200
 70
     0
 62
     2
  6
Continuous
370
    50
390
F
347
159
348
0
  0
LAYER
  5
194
330
2
100
AcDbSymbolTableRecord
100
AcDbLayerTableRecord
  2
0
 70
     0
 62
     1
  6
Continuous
370
    -3
390
F
347
159
348
0
  0
LAYER
  5
195
330
2
100
AcDbSymbolTableRecord
100
AcDbLayerTableRecord
  2
1
 70
     0
 62
     4
  6
Continuous
370
    50
390
F
347
159
348
0
  0
LAYER
  5
196
330
2
100
AcDbSymbolTableRecord
100
AcDbLayerTableRecord
  2
2
 70
     0
 62
     7
  6
Continuous
370
    25
390
F
347
159
348
0
  0
LAYER
  5
197
330
2
100
AcDbSymbolTableRecord
100
AcDbLayerTableRecord
  2
3
 70
     0
 62
     1
  6
DASH
370
    35
390
F
347
159
348
0
  0
LAYER
  5
198
330
2
100
AcDbSymbolTableRecord
100
AcDbLayerTableRecord
  2
4
 70
     0
 62
     2
  6
LONGDASH_DASH
370
    25
390
F
347
159
348
0
  0
LAYER
  5
199
330
2
100
AcDbSymbolTableRecord
100
AcDbLayerTableRecord
  2
6
 70
     0
 62
     5
  6
Continuous
370
    -3
390
F
347
159
348
0
  0
LAYER
  5
19A
330
2
100
AcDbSymbolTableRecord
100
AcDbLayerTableRecord
  2
CUT
 70
     0
 62
     1
  6
Continuous
370
    25
390
F
347
159
348
0
  0
LAYER
  5
19B
330
2
100
AcDbSymbolTableRecord
100
AcDbLayerTableRecord
  2
NOCUT
 70
     0
 62
     7
  6
Continuous
370
    25
390
F
347
159
348
0
  0
LAYER
  5
19C
330
2
100
AcDbSymbolTableRecord
100
AcDbLayerTableRecord
  2
SK1
 70
     0
 62
     4
  6
Continuous
370
    50
390
F
347
159
348
0
  0
LAYER
  5
19D
330
2
100
AcDbSymbolTableRecord
100
AcDbLayerTableRecord
  2
SK2
 70
     0
 62
     7
  6
Continuous
370
    25
390
F
347
159
348
0
  0
LAYER
  5
19E
330
2
100
AcDbSymbolTableRecord
100
AcDbLayerTableRecord
  2
SK3
 70
     0
 62
     1
  6
DASH
370
    35
390
F
347
159
348
0
  0
LAYER
  5
19F
330
2
100
AcDbSymbolTableRecord
100
AcDbLayerTableRecord
  2
SK4
 70
     0
 62
     2
  6
LONGDASH_DASH
370
    25
390
F
347
159
348
0
  0
LAYER
  5
1A0
330
2
100
AcDbSymbolTableRecord
100
AcDbLayerTableRecord
  2
SK6
 70
     0
 62
     5
  6
Continuous
370
    -3
390
F
347
159
348
0
  0
LAYER
  5
1A1
330
2
100
AcDbSymbolTableRecord
100
AcDbLayerTableRecord
  2
INFTOTAL
 70
     0
 62
     9
  6
Continuous
370
    18
390
F
347
159
348
0
  0
LAYER
  5
1DF
330
2
100
AcDbSymbolTableRecord
100
AcDbLayerTableRecord
  2
7
 70
     0
 62
     5
  6
Continuous
370
    18
390
F
347
159
348
0
1001
AcAecLayerStandard
1000

1000

  0
LAYER
  5
1E1
330
2
100
AcDbSymbolTableRecord
100
AcDbLayerTableRecord
  2
11
 70
     0
 62
     4
  6
Continuous
370
    50
390
F
347
159
348
0
1001
AcAecLayerStandard
1000

1000

  0
ENDTAB
  0
TABLE
  2
STYLE
  5
3
330
0
100
AcDbSymbolTable
 70
     3
  0
STYLE
  5
11
330
3
100
AcDbSymbolTableRecord
100
AcDbTextStyleTableRecord
  2
Standard
 70
     0
 40
0.0
 41
1.0
 50
0.0
 71
     0
 42
0.2
  3
txt
  4

  0
STYLE
  5
15A
330
3
100
AcDbSymbolTableRecord
100
AcDbTextStyleTableRecord
  2
BMG_Text
 70
     0
 40
3.5
 41
1.0
 50
0.0
 71
     0
 42
0.2
  3
monos.ttf
  4

1001
ACAD
1000
Monospac821 BT
1071
       49
  0
STYLE
  5
1E6
330
3
100
AcDbSymbolTableRecord
100
AcDbTextStyleTableRecord
  2
SLDTEXTSTYLE0
 70
     0
 40
0.0
 41
0.605
 50
0.0
 71
     0
 42
0.2
  3
TXT
  4

  0
ENDTAB
  0
TABLE
  2
VIEW
  5
6
330
0
100
AcDbSymbolTable
 70
     0
  0
ENDTAB
  0
TABLE
  2
UCS
  5
7
330
0
100
AcDbSymbolTable
 70
     0
  0
ENDTAB
  0
TABLE
  2
APPID
  5
9
330
0
100
AcDbSymbolTable
 70
     3
  0
APPID
  5
12
330
9
100
AcDbSymbolTableRecord
100
AcDbRegAppTableRecord
  2
ACAD
 70
     0
  0
APPID
  5
1E0
330
9
100
AcDbSymbolTableRecord
100
AcDbRegAppTableRecord
  2
AcAecLayerStandard
 70
     0
  0
APPID
  5
1E9
330
9
100
AcDbSymbolTableRecord
100
AcDbRegAppTableRecord
  2
PE_URL
 70
     0
  0
ENDTAB
  0
TABLE
  2
DIMSTYLE
  5
A
330
0
100
AcDbSymbolTable
 70
     6
100
AcDbDimStyleTable
  0
DIMSTYLE
105
28
330
A
100
AcDbSymbolTableRecord
100
AcDbDimStyleTableRecord
  2
Standard
 70
     0
178
     0
340
11
  0
DIMSTYLE
105
1E2
330
A
100
AcDbSymbolTableRecord
100
AcDbDimStyleTableRecord
  2
Matthias
 70
     0
 41
3.0
 44
2.0
 73
     0
 77
     1
140
3.0
147
2.0
178
     0
340
11
  0
DIMSTYLE
105
1E4
102
{ACAD_REACTORS
102
}
330
A
100
AcDbSymbolTableRecord
100
AcDbDimStyleTableRecord
  2
ISO-25
 70
     0
 41
2.5
 42
0.625
 43
3.75
 44
1.25
 73
     0
 74
     0
 77
     1
 78
     8
140
2.5
141
2.5
143
0.0393700787
147
0.625
171
     3
172
     1
178
     0
271
     2
272
     2
274
     3
278
    44
283
     0
284
     8
340
11
  0
DIMSTYLE
105
1E5
330
A
100
AcDbSymbolTableRecord
100
AcDbDimStyleTableRecord
  2
SLDDIMSTYLE0
 70
     0
 41
3.5
 44
0.0
 45
0.000000001
 73
     0
 74
     0
 77
     1
 78
    12
 79
     3
140
3.5
144
0.5
147
0.875
173
     1
178
     0
271
     2
272
     1
276
     2
284
    12
340
1E6
  0
DIMSTYLE
105
1E7
330
A
100
AcDbSymbolTableRecord
100
AcDbDimStyleTableRecord
  2
SLDDIMSTYLE1
 70
     0
 41
3.5
 44
0.0
 45
0.000000001
 73
     0
 74
     0
 77
     1
 78
    12
 79
     3
140
3.5
144
0.5
147
0.875
173
     1
178
     0
271
     2
272
     3
276
     2
284
    12
340
1E6
  0
DIMSTYLE
105
1E8
330
A
100
AcDbSymbolTableRecord
100
AcDbDimStyleTableRecord
  2
SLDDIMSTYLE2
 70
     0
 41
3.5
 44
0.0
 45
0.000000001
 73
     0
 74
     0
 77
     1
 78
    12
 79
     3
140
3.5
147
0.875
173
     1
178
     0
271
     2
272
     0
276
     2
284
    12
340
1E6
  0
ENDTAB
  0
TABLE
  2
BLOCK_RECORD
  5
1
330
0
100
AcDbSymbolTable
 70
     1
  0
BLOCK_RECORD
  5
1D
102
{ACAD_XDICTIONARY
360
240
102
}
330
1
100
AcDbSymbolTableRecord
100
AcDbBlockTableRecord
  2
*Model_Space
340
1E
 70
     0
280
     1
281
     0
  0
BLOCK_RECORD
  5
1B
330
1
100
AcDbSymbolTableRecord
100
AcDbBlockTableRecord
  2
*Paper_Space
340
1C
 70
     0
280
     1
281
     0
  0
ENDTAB
  0
ENDSEC
  0
SECTION
  2
BLOCKS
  0
BLOCK
  5
143
330
1D
100
AcDbEntity
  8
0
100
AcDbBlockBegin
  2
*Model_Space
 70
     0
 10
0.0
 20
0.0
 30
0.0
  3
*Model_Space
  1

  0
ENDBLK
  5
144
330
1D
100
AcDbEntity
  8
0
100
AcDbBlockEnd
  0
BLOCK
  5
141
330
1B
100
AcDbEntity
 67
     1
  8
0
100
AcDbBlockBegin
  2
*Paper_Space
 70
     0
 10
0.0
 20
0.0
 30
0.0
  3
*Paper_Space
  1

  0
ENDBLK
  5
142
330
1B
100
AcDbEntity
 67
     1
  8
0
100
AcDbBlockEnd
  0
ENDSEC
  0
SECTION
  2
ENTITIES
  0
ARC
  5
29
330
1D
100
AcDbEntity
  8
1
100
AcDbCircle
 10
31.798517353
 20
-26.812953319
 30
0.0
 40
56.959784574
100
AcDbArc
 50
124.239375938
 51
125.494703262
  0
ARC
  5
2A
330
1D
100
AcDbEntity
  8
1
100
AcDbCircle
 10
17.864709846
 20
-7.274562877
 30
0.0
 40
32.94508342
100
AcDbArc
 50
125.494796581
 51
130.458684161
  0
ARC
  5
2B
330
1D
100
AcDbEntity
  8
1
100
AcDbCircle
 10
-0.610874091
 20
20.775580779
 30
0.0
 40
0.616803754
100
AcDbArc
 50
305.8079595679999
 51
54.19204043200008
  0
ARC
  5
2C
330
1D
100
AcDbEntity
  8
1
100
AcDbCircle
 10
-30.798515937
 20
-26.812953319
 30
0.0
 40
56.971395793
100
AcDbArc
 50
57.57412970800001
 51
61.70642850500001
  0
ARC
  5
2D
330
1D
100
AcDbEntity
  8
1
100
AcDbCircle
 10
21.406212507
 20
-26.812953319
 30
0.0
 40
56.9465551
100
AcDbArc
 50
114.515053517
 51
115.930651407
  0
LINE
  5
2F
330
1D
100
AcDbEntity
  8
1
100
AcDbLine
 10
14.601923525
 20
24.000000209
 30
0.0
 11
14.094404876
 21
24.50752072
 31
0.0
  0
LINE
  5
30
330
1D
100
AcDbEntity
  8
1
100
AcDbLine
 10
14.094404876
 20
24.50752072
 30
0.0
 11
13.601925224
 21
25.000000373
 31
0.0
  0
LINE
  5
31
330
1D
100
AcDbEntity
  8
1
100
AcDbLine
 10
14.601923525
 20
13.171067461
 30
0.0
 11
14.601923525
 21
24.000000209
 31
0.0
  0
ARC
  5
32
330
1D
100
AcDbEntity
  8
1
100
AcDbCircle
 10
19.601956901
 20
13.171077489
 30
0.0
 40
5.000033376
100
AcDbArc
 50
180.000114906
 51
213.721008589
  0
LINE
  5
33
330
1D
100
AcDbEntity
  8
1
100
AcDbLine
 10
15.443176031
 20
10.39531175
 30
0.0
 11
0.0
 21
10.39531175
 31
0.0
  0
ARC
  5
34
330
1D
100
AcDbEntity
  8
1
100
AcDbCircle
 10
-2.220731469
 20
10.536289031
 30
0.0
 40
2.225201754
100
AcDbArc
 50
356.367602855
 51
27.66943504699999
  0
ARC
  5
35
330
1D
100
AcDbEntity
  8
1
100
AcDbCircle
 10
-21.954519557
 20
-3.013080007
 30
0.0
 40
26.148439815
100
AcDbArc
 50
33.896094817
 51
38.787977819
  0
ARC
  5
36
330
1D
100
AcDbEntity
  8
1
100
AcDbCircle
 10
-27.257013276
 20
-7.274562877
 30
0.0
 40
32.94508342
100
AcDbArc
 50
38.787977819
 51
44.57212358999998
  0
LINE
  5
37
330
1D
100
AcDbEntity
  8
1
100
AcDbLine
 10
0.0
 20
10.39531175
 30
0.0
 11
0.0
 21
-10.39531175
 31
0.0
  0
ARC
  5
38
330
1D
100
AcDbEntity
  8
1
100
AcDbCircle
 10
-2.298321195
 20
-10.519770612
 30
0.0
 40
2.30168858
100
AcDbArc
 50
332.86330425
 51
3.099657848999986
  0
ARC
  5
39
330
1D
100
AcDbEntity
  8
1
100
AcDbCircle
 10
-25.605531864
 20
39.341599494
 30
0.0
 40
70.498892291
100
AcDbArc
 50
288.275465054
 51
291.0770138930001
  0
LINE
  5
3A
330
1D
100
AcDbEntity
  8
1
100
AcDbLine
 10
-0.250000507
 20
-26.447370648
 30
0.0
 11
-0.119246543
 21
-26.374692097
 31
0.0
  0
LINE
  5
3B
330
1D
100
AcDbEntity
  8
1
100
AcDbLine
 10
-0.119246543
 20
-26.374692097
 30
0.0
 11
-0.036552549
 21
-26.282755658
 31
0.0
  0
LINE
  5
3C
330
1D
100
AcDbEntity
  8
1
100
AcDbLine
 10
-0.036552549
 20
-26.282755658
 30
0.0
 11
-0.000234694
 21
-26.165170595
 31
0.0
  0
LINE
  5
3D
330
1D
100
AcDbEntity
  8
1
100
AcDbLine
 10
-0.000234694
 20
-26.165170595
 30
0.0
 11
-0.03322959
 21
-26.030324399
 31
0.0
  0
LINE
  5
3E
330
1D
100
AcDbEntity
  8
1
100
AcDbLine
 10
-0.03322959
 20
-26.030324399
 30
0.0
 11
-0.14872849
 21
-25.906106457
 31
0.0
  0
LINE
  5
3F
330
1D
100
AcDbEntity
  8
1
100
AcDbLine
 10
-0.14872849
 20
-25.906106457
 30
0.0
 11
-0.250000507
 21
-25.851238519
 31
0.0
  0
ARC
  5
40
330
1D
100
AcDbEntity
  8
1
100
AcDbCircle
 10
21.406212507
 20
26.812953319
 30
0.0
 40
56.952340394
100
AcDbArc
 50
244.069348593
 51
247.461812867
  0
ARC
  5
41
330
1D
100
AcDbEntity
  8
1
100
AcDbCircle
 10
26.60553328
 20
39.341599494
 30
0.0
 40
70.507650296
100
AcDbArc
 50
247.461812867
 51
247.611281796
  0
ARC
  5
42
330
1D
100
AcDbEntity
  8
1
100
AcDbCircle
 10
-30.798515937
 20
26.812953319
 30
0.0
 40
56.964049744
100
AcDbArc
 50
298.293571495
 51
302.425870292
  0
ARC
  5
43
330
1D
100
AcDbEntity
  8
1
100
AcDbCircle
 10
-0.613896513
 20
-20.775580779
 30
0.0
 40
0.61857694
100
AcDbArc
 50
306.0349966270001
 51
53.9650033729999
  0
ARC
  5
44
330
1D
100
AcDbEntity
  8
1
100
AcDbCircle
 10
17.864709846
 20
7.274562877
 30
0.0
 40
32.921559676
100
AcDbArc
 50
229.541315839
 51
234.505203419
  0
ARC
  5
45
330
1D
100
AcDbEntity
  8
1
100
AcDbCircle
 10
31.798517353
 20
26.812953319
 30
0.0
 40
56.942993593
100
AcDbArc
 50
234.505296738
 51
235.760624062
  0
ARC
  5
46
330
1D
100
AcDbEntity
  8
1
100
AcDbCircle
 10
-27.257013276
 20
7.274562877
 30
0.0
 40
32.930874384
100
AcDbArc
 50
315.42787641
 51
321.212022181
  0
ARC
  5
47
330
1D
100
AcDbEntity
  8
1
100
AcDbCircle
 10
-21.954519557
 20
3.013080007
 30
0.0
 40
26.142387197
100
AcDbArc
 50
321.212022181
 51
326.103905183
  0
ARC
  5
48
330
1D
100
AcDbEntity
  8
1
100
AcDbCircle
 10
-0.505564262
 20
-63.990949671
 30
0.0
 40
32.244915591
100
AcDbArc
 50
89.119583458
 51
89.545885683
  0
ARC
  5
49
330
1D
100
AcDbEntity
  8
1
100
AcDbCircle
 10
0.500000708
 20
61.07115944
 30
0.0
 40
92.823281902
100
AcDbArc
 50
267.531397549
 51
269.537042343
  0
ARC
  5
4A
330
1D
100
AcDbEntity
  8
1
100
AcDbCircle
 10
-9.892304138
 20
61.07115944
 30
0.0
 40
92.82629484
100
AcDbArc
 50
273.949879345
 51
275.962007349
  0
LINE
  5
4B
330
1D
100
AcDbEntity
  8
1
100
AcDbLine
 10
-0.250000507
 20
-31.258136034
 30
0.0
 11
-0.120695681
 21
-31.238848343
 31
0.0
  0
LINE
  5
4C
330
1D
100
AcDbEntity
  8
1
100
AcDbLine
 10
-0.120695681
 20
-31.238848343
 30
0.0
 11
-0.034589321
 21
-31.212529167
 31
0.0
  0
LINE
  5
4D
330
1D
100
AcDbEntity
  8
1
100
AcDbLine
 10
-0.034589321
 20
-31.212529167
 30
0.0
 11
-0.000327826
 21
-31.181396916
 31
0.0
  0
LINE
  5
4E
330
1D
100
AcDbEntity
  8
1
100
AcDbLine
 10
-0.000327826
 20
-31.181396916
 30
0.0
 11
-0.023186207
 21
-31.148577109
 31
0.0
  0
LINE
  5
4F
330
1D
100
AcDbEntity
  8
1
100
AcDbLine
 10
-0.023186207
 20
-31.148577109
 30
0.0
 11
-0.102017075
 21
-31.11814335
 31
0.0
  0
LINE
  5
50
330
1D
100
AcDbEntity
  8
1
100
AcDbLine
 10
-0.102017075
 20
-31.11814335
 30
0.0
 11
-0.227306039
 21
-31.094336882
 31
0.0
  0
LINE
  5
51
330
1D
100
AcDbEntity
  8
1
100
AcDbLine
 10
-0.227306039
 20
-31.094336882
 30
0.0
 11
-0.250000507
 21
-31.091459095
 31
0.0
  0
ARC
  5
52
330
1D
100
AcDbEntity
  8
1
100
AcDbCircle
 10
10.892305553
 20
61.07115944
 30
0.0
 40
92.836921017
100
AcDbArc
 50
261.082792497
 51
263.106493269
  0
ARC
  5
53
330
1D
100
AcDbEntity
  8
1
100
AcDbCircle
 10
-20.284608983
 20
61.07115944
 30
0.0
 40
92.836071329
100
AcDbArc
 50
280.4174728199998
 51
282.464078495
  0
LINE
  5
54
330
1D
100
AcDbEntity
  8
1
100
AcDbLine
 10
-0.250000507
 20
-29.568010941
 30
0.0
 11
-0.120248646
 21
-29.525630176
 31
0.0
  0
LINE
  5
55
330
1D
100
AcDbEntity
  8
1
100
AcDbLine
 10
-0.120248646
 20
-29.525630176
 30
0.0
 11
-0.035338104
 21
-29.469640925
 31
0.0
  0
LINE
  5
56
330
1D
100
AcDbEntity
  8
1
100
AcDbLine
 10
-0.035338104
 20
-29.469640925
 30
0.0
 11
-0.000327826
 21
-29.402326792
 31
0.0
  0
LINE
  5
57
330
1D
100
AcDbEntity
  8
1
100
AcDbLine
 10
-0.000327826
 20
-29.402326792
 30
0.0
 11
-0.025842339
 21
-29.329665005
 31
0.0
  0
LINE
  5
58
330
1D
100
AcDbEntity
  8
1
100
AcDbLine
 10
-0.025842339
 20
-29.329665005
 30
0.0
 11
-0.114984811
 21
-29.262684286
 31
0.0
  0
LINE
  5
59
330
1D
100
AcDbEntity
  8
1
100
AcDbLine
 10
-0.114984811
 20
-29.262684286
 30
0.0
 11
-0.250000507
 21
-29.214426875
 31
0.0
  0
ARC
  5
5A
330
1D
100
AcDbEntity
  8
1
100
AcDbCircle
 10
16.213228435
 20
39.341599494
 30
0.0
 40
70.496550426
100
AcDbArc
 50
253.763270546
 51
256.496537241
  0
LINE
  5
5B
330
1D
100
AcDbEntity
  8
1
100
AcDbLine
 10
25.701921433
 20
0.0
 30
0.0
 11
16.066391021
 21
9.635534138
 31
0.0
  0
LINE
  5
5C
330
1D
100
AcDbEntity
  8
1
100
AcDbLine
 10
25.701921433
 20
-4.00000019
 30
0.0
 11
25.701921433
 21
4.00000019
 31
0.0
  0
ARC
  5
5D
330
1D
100
AcDbEntity
  8
1
100
AcDbCircle
 10
40.701924497
 20
-4.0
 30
0.0
 40
15.0
100
AcDbArc
 50
180.0
 51
210.706121621
  0
ARC
  5
5E
330
1D
100
AcDbEntity
  8
1
100
AcDbCircle
 10
19.601924497
 20
13.171067812
 30
0.0
 40
5.0
100
AcDbArc
 50
213.721134772
 51
225.0
  0
LINE
  5
5F
330
1D
100
AcDbEntity
  8
1
100
AcDbLine
 10
-3.798075021
 20
24.700000882
 30
0.0
 11
-3.798075021
 21
-31.32776171
 31
0.0
  0
ARC
  5
60
330
1D
100
AcDbEntity
  8
1
100
AcDbCircle
 10
-0.296996961
 20
16.331095479
 30
0.0
 40
3.505462987
100
AcDbArc
 50
158.037941297
 51
177.133899549
  0
LINE
  5
61
330
1D
100
AcDbEntity
  8
1
100
AcDbLine
 10
-3.498073668
 20
17.774598673
 30
0.0
 11
-3.548074514
 21
17.642112449
 31
0.0
  0
LINE
  5
62
330
1D
100
AcDbEntity
  8
1
100
AcDbLine
 10
-3.548074514
 20
-17.642112449
 30
0.0
 11
-3.498073668
 21
-17.774598673
 31
0.0
  0
LINE
  5
63
330
1D
100
AcDbEntity
  8
1
100
AcDbLine
 10
-3.798075021
 20
-16.506375745
 30
0.0
 11
-3.763712943
 21
-16.862472519
 31
0.0
  0
LINE
  5
64
330
1D
100
AcDbEntity
  8
1
100
AcDbLine
 10
-3.763712943
 20
-16.862472519
 30
0.0
 11
-3.548074514
 21
-17.642112449
 31
0.0
  0
ARC
  5
65
330
1D
100
AcDbEntity
  8
1
100
AcDbCircle
 10
-2.287698352
 20
23.471828491
 30
0.0
 40
1.517215866
100
AcDbArc
 50
146.172404143
 51
174.557733757
  0
LINE
  5
66
330
1D
100
AcDbEntity
  8
1
100
AcDbLine
 10
-3.498073668
 20
24.405652657
 30
0.0
 11
-3.548074514
 21
24.316456169
 31
0.0
  0
LINE
  5
67
330
1D
100
AcDbEntity
  8
1
100
AcDbLine
 10
-3.548074514
 20
-24.316456169
 30
0.0
 11
-3.498073668
 21
-24.405652657
 31
0.0
  0
ARC
  5
68
330
1D
100
AcDbEntity
  8
1
100
AcDbCircle
 10
-2.11076897
 20
-23.408705201
 30
0.0
 40
1.699958543
100
AcDbArc
 50
186.994814938
 51
212.275047162
  0
LINE
  5
69
330
1D
100
AcDbEntity
  8
1
100
AcDbLine
 10
-3.548074514
 20
24.949999526
 30
0.0
 11
-3.498073668
 21
25.000000373
 31
0.0
  0
LINE
  5
6A
330
1D
100
AcDbEntity
  8
1
100
AcDbLine
 10
13.601925224
 20
25.000000373
 30
0.0
 11
-3.498073668000002
 21
25.000000373
 31
0.0
  0
LINE
  5
6B
330
1D
100
AcDbEntity
  8
1
100
AcDbLine
 10
-3.498073668
 20
-27.601318434
 30
0.0
 11
-3.548074514
 21
-27.560213581
 31
0.0
  0
LINE
  5
6C
330
1D
100
AcDbEntity
  8
1
100
AcDbLine
 10
-3.548074514
 20
-27.560213581
 30
0.0
 11
-3.62694636
 21
-27.501536533
 31
0.0
  0
LINE
  5
6D
330
1D
100
AcDbEntity
  8
1
100
AcDbLine
 10
-3.62694636
 20
-27.501536533
 30
0.0
 11
-3.703657538
 21
-27.461070567
 31
0.0
  0
LINE
  5
6E
330
1D
100
AcDbEntity
  8
1
100
AcDbLine
 10
-3.703657538
 20
-27.461070567
 30
0.0
 11
-3.762189299
 21
-27.453834191
 31
0.0
  0
LINE
  5
6F
330
1D
100
AcDbEntity
  8
1
100
AcDbLine
 10
-3.762189299
 20
-27.453834191
 30
0.0
 11
-3.790464253
 21
-27.476878837
 31
0.0
  0
LINE
  5
70
330
1D
100
AcDbEntity
  8
1
100
AcDbLine
 10
-3.790464253
 20
-27.476878837
 30
0.0
 11
-3.798075021
 21
-27.516445145
 31
0.0
  0
LINE
  5
71
330
1D
100
AcDbEntity
  8
1
100
AcDbLine
 10
-3.548074514
 20
-28.272530064
 30
0.0
 11
-3.498073668
 21
-28.343170881
 31
0.0
  0
ARC
  5
72
330
1D
100
AcDbEntity
  8
1
100
AcDbCircle
 10
-2.732817886
 20
-27.555242722
 30
0.0
 40
1.085884202
100
AcDbArc
 50
191.1854766289999
 51
221.342291459
  0
LINE
  5
73
330
1D
100
AcDbEntity
  8
1
100
AcDbLine
 10
-3.798075021
 20
24.700000882
 30
0.0
 11
-3.787148744
 21
24.710925296
 31
0.0
  0
LINE
  5
74
330
1D
100
AcDbEntity
  8
1
100
AcDbLine
 10
-3.787148744
 20
24.710925296
 30
0.0
 11
-3.754846752
 21
24.743227288
 31
0.0
  0
LINE
  5
75
330
1D
100
AcDbEntity
  8
1
100
AcDbLine
 10
-3.754846752
 20
24.743227288
 30
0.0
 11
-3.702584655
 21
24.795491248
 31
0.0
  0
LINE
  5
76
330
1D
100
AcDbEntity
  8
1
100
AcDbLine
 10
-3.702584655
 20
24.795491248
 30
0.0
 11
-3.632642329
 21
24.865435436
 31
0.0
  0
LINE
  5
77
330
1D
100
AcDbEntity
  8
1
100
AcDbLine
 10
-3.632642329
 20
24.865435436
 30
0.0
 11
-3.548074514
 21
24.949999526
 31
0.0
  0
LINE
  5
78
330
1D
100
AcDbEntity
  8
1
100
AcDbLine
 10
-3.498073668
 20
-30.234636739
 30
0.0
 11
-3.548074514
 21
-30.191380531
 31
0.0
  0
LINE
  5
79
330
1D
100
AcDbEntity
  8
1
100
AcDbLine
 10
-3.548074514
 20
-30.584011227
 30
0.0
 11
-3.498073668
 21
-30.643675476
 31
0.0
  0
ARC
  5
7A
330
1D
100
AcDbEntity
  8
1
100
AcDbCircle
 10
-2.732002385
 20
-29.776660749
 30
0.0
 40
1.1479497
100
AcDbArc
 50
201.7707348500001
 51
224.692187953
  0
LINE
  5
7B
330
1D
100
AcDbEntity
  8
1
100
AcDbLine
 10
-3.548074514
 20
-30.191380531
 30
0.0
 11
-3.645788879
 21
-30.112342909
 31
0.0
  0
LINE
  5
7C
330
1D
100
AcDbEntity
  8
1
100
AcDbLine
 10
-3.645788879
 20
-30.112342909
 30
0.0
 11
-3.725267947
 21
-30.060503632
 31
0.0
  0
LINE
  5
7D
330
1D
100
AcDbEntity
  8
1
100
AcDbLine
 10
-3.725267947
 20
-30.060503632
 30
0.0
 11
-3.779839725
 21
-30.042840168
 31
0.0
  0
LINE
  5
7E
330
1D
100
AcDbEntity
  8
1
100
AcDbLine
 10
-3.779839725
 20
-30.042840168
 30
0.0
 11
-3.797739745
 21
-30.059853569
 31
0.0
  0
LINE
  5
7F
330
1D
100
AcDbEntity
  8
1
100
AcDbLine
 10
-3.797739745
 20
-30.059853569
 30
0.0
 11
-3.798075021
 21
-30.065141618
 31
0.0
  0
LINE
  5
80
330
1D
100
AcDbEntity
  8
1
100
AcDbLine
 10
-3.498073668
 20
-31.534645706
 30
0.0
 11
-3.548074514
 21
-31.487673521
 31
0.0
  0
ARC
  5
81
330
1D
100
AcDbEntity
  8
1
100
AcDbCircle
 10
-4.089582918
 20
-31.896222383
 30
0.0
 40
0.678338797
100
AcDbArc
 50
37.03325689199994
 51
64.54907160600006
  0
LINE
  5
82
330
1D
100
AcDbEntity
  8
1
100
AcDbLine
 10
-3.548074514
 20
-31.613726169
 30
0.0
 11
-3.498073668
 21
-31.665980816
 31
0.0
  0
ARC
  5
83
330
1D
100
AcDbEntity
  8
1
100
AcDbCircle
 10
-2.382776595
 20
-30.342718458
 30
0.0
 40
1.724349107
100
AcDbArc
 50
214.837795385
 51
227.484470045
  0
ARC
  5
84
330
1D
100
AcDbEntity
  8
1
100
AcDbCircle
 10
-0.305744737
 20
64.007077456
 30
0.0
 40
32.261044297
100
AcDbArc
 50
270.454207213
 51
270.880302925
  0
LINE
  5
85
330
1D
100
AcDbEntity
  8
1
100
AcDbLine
 10
15.490728437
 20
31.749840826
 30
0.0
 11
0.189900398
 21
31.749840826
 31
0.0
  0
LINE
  5
86
330
1D
100
AcDbEntity
  8
1
100
AcDbLine
 10
30.951920896
 20
15.399012715
 30
0.0
 11
30.951920896
 21
18.043344837
 31
0.0
  0
ARC
  5
87
330
1D
100
AcDbEntity
  8
1
100
AcDbCircle
 10
40.701924497
 20
4.0
 30
0.0
 40
15.0
100
AcDbArc
 50
130.541601874
 51
180.0
  0
LINE
  5
89
330
1D
100
AcDbEntity
  8
1
100
AcDbLine
 10
-3.348074854
 20
31.613726169
 30
0.0
 11
-3.298074007
 21
31.665980816
 31
0.0
  0
ARC
  5
8A
330
1D
100
AcDbEntity
  8
1
100
AcDbCircle
 10
0.700000708
 20
-61.07115944
 30
0.0
 40
92.821236614
100
AcDbArc
 50
90.462957657
 51
92.46860245100001
  0
LINE
  5
8B
330
1D
100
AcDbEntity
  8
1
100
AcDbLine
 10
-3.59807536
 20
24.900000542
 30
0.0
 11
-3.59807536
 21
31.32776171
 31
0.0
  0
ARC
  5
8C
330
1D
100
AcDbEntity
  8
1
100
AcDbCircle
 10
-2.182776935
 20
30.342718458
 30
0.0
 40
1.724349107
100
AcDbArc
 50
132.515529955
 51
145.162204615
  0
LINE
  5
8D
330
1D
100
AcDbEntity
  8
SK2
100
AcDbLine
 10
47.704030019
 20
-33.999999999
 30
0.0
 11
30.501924497
 21
-33.999999999
 31
0.0
  0
LINE
  5
8E
330
1D
100
AcDbEntity
  8
SK2
100
AcDbLine
 10
45.704030019
 20
-33.999999999
 30
0.0
 11
45.25403001900001
 21
-30.499999999
 31
0.0
  0
LINE
  5
8F
330
1D
100
AcDbEntity
  8
SK2
100
AcDbLine
 10
45.25403001900001
 20
-30.499999999
 30
0.0
 11
46.154030019
 21
-30.499999999
 31
0.0
  0
LINE
  5
90
330
1D
100
AcDbEntity
  8
SK2
100
AcDbLine
 10
46.154030019
 20
-30.499999999
 30
0.0
 11
45.704030019
 21
-33.999999999
 31
0.0
  0
LINE
  5
91
330
1D
100
AcDbEntity
  8
SK2
100
AcDbLine
 10
47.704030019
 20
33.999999999
 30
0.0
 11
30.501924497
 21
33.999999999
 31
0.0
  0
LINE
  5
92
330
1D
100
AcDbEntity
  8
SK2
100
AcDbLine
 10
45.704030019
 20
33.999999999
 30
0.0
 11
46.154030019
 21
30.499999999
 31
0.0
  0
LINE
  5
93
330
1D
100
AcDbEntity
  8
SK2
100
AcDbLine
 10
46.154030019
 20
30.499999999
 30
0.0
 11
45.25403001900001
 21
30.499999999
 31
0.0
  0
LINE
  5
94
330
1D
100
AcDbEntity
  8
SK2
100
AcDbLine
 10
45.25403001900001
 20
30.499999999
 30
0.0
 11
45.704030019
 21
33.999999999
 31
0.0
  0
LINE
  5
95
330
1D
100
AcDbEntity
  8
SK2
100
AcDbLine
 10
45.704030019
 20
-30.499999999
 30
0.0
 11
45.704030019
 21
30.499999999
 31
0.0
  0
TEXT
  5
96
330
1D
100
AcDbEntity
  8
SK2
100
AcDbText
 10
44.204030019
 20
-3.23171951
 30
0.0
 40
3.5
  1
68
 50
90.0
  7
BMG_Text
100
AcDbText
  0
CIRCLE
  5
97
330
1D
100
AcDbEntity
  8
SK2
100
AcDbCircle
 10
42.954030019
 20
-5.48171951
 30
0.0
 40
1.25
  0
LINE
  5
98
330
1D
100
AcDbEntity
  8
SK2
100
AcDbLine
 10
44.204030019
 20
-6.73171951
 30
0.0
 11
41.704030019
 21
-4.23171951
 31
0.0
  0
TEXT
  5
99
330
1D
100
AcDbEntity
  8
SK2
100
AcDbText
 10
44.204030019
 20
1.48828049
 30
0.0
 40
3.5
  1
-90
 50
90.0
  7
BMG_Text
100
AcDbText
  0
LINE
  5
9A
330
1D
100
AcDbEntity
  8
SK4
100
AcDbLine
 10
36.002853559
 20
0.0
 30
0.0
 11
-9.392680742
 21
0.0
 31
0.0
  0
TEXT
  5
9B
330
1D
100
AcDbEntity
  8
SK6
100
AcDbText
 10
-0.8104288916356296
 20
-48.84401626993969
 30
0.0
 40
3.5
  1
639.563
  7
BMG_Text
100
AcDbText
  0
LINE
  5
9C
330
1D
100
AcDbEntity
  8
2
100
AcDbLine
 10
31.301926821
 20
44.312168747
 30
0.0
 11
31.301926821
 21
33.199999482
 31
0.0
  0
LINE
  5
9D
330
1D
100
AcDbEntity
  8
2
100
AcDbLine
 10
31.301926821
 20
42.312168747
 30
0.0
 11
27.801926821
 21
41.862168747
 31
0.0
  0
LINE
  5
9E
330
1D
100
AcDbEntity
  8
2
100
AcDbLine
 10
27.801926821
 20
41.862168747
 30
0.0
 11
27.801926821
 21
42.762168747
 31
0.0
  0
LINE
  5
9F
330
1D
100
AcDbEntity
  8
2
100
AcDbLine
 10
27.801926821
 20
42.762168747
 30
0.0
 11
31.301926821
 21
42.312168747
 31
0.0
  0
LINE
  5
A0
330
1D
100
AcDbEntity
  8
2
100
AcDbLine
 10
-7.308075205
 20
42.312168747
 30
0.0
 11
27.801926821
 21
42.312168747
 31
0.0
  0
TEXT
  5
A1
330
1D
100
AcDbEntity
  8
2
100
AcDbText
 10
10.715050377
 20
43.812168747
 30
0.0
 40
3.5
  1
71
  7
BMG_Text
100
AcDbText
  0
LINE
  5
A2
330
1D
100
AcDbEntity
  8
3
100
AcDbLine
 10
16.066390559
 20
-9.63553226
 30
0.0
 11
25.701924696
 21
-0.000001848
 31
0.0
  0
ARC
  5
A3
330
1D
100
AcDbEntity
  8
3
100
AcDbCircle
 10
19.601924497
 20
-13.171067812
 30
0.0
 40
5.0
100
AcDbArc
 50
135.0
 51
180.0
  0
LINE
  5
A4
330
1D
100
AcDbEntity
  8
3
100
AcDbLine
 10
14.601924926
 20
-23.999998331
 30
0.0
 11
14.601924926
 21
-13.171067446
 31
0.0
  0
LINE
  5
A5
330
1D
100
AcDbEntity
  8
3
100
AcDbLine
 10
13.601924762
 20
-25.000000358
 30
0.0
 11
14.601924926
 21
-23.999998331
 31
0.0
  0
LINE
  5
A6
330
1D
100
AcDbEntity
  8
3
100
AcDbLine
 10
-3.798075021
 20
-25.000000358
 30
0.0
 11
13.601924762
 21
-25.000000358
 31
0.0
  0
ARC
  5
A9
330
1D
100
AcDbEntity
  8
1
100
AcDbCircle
 10
30.501924497
 20
18.704785114
 30
0.0
 40
0.8
100
AcDbArc
 50
280.0000000000001
 51
0.0
  0
LINE
  5
AA
330
1D
100
AcDbEntity
  8
1
100
AcDbLine
 10
31.301924497
 20
18.704785051
 30
0.0
 11
31.301924497
 21
33.200000022
 31
0.0
  0
ARC
  5
AB
330
1D
100
AcDbEntity
  8
1
100
AcDbCircle
 10
30.501924497
 20
33.199999999
 30
0.0
 40
0.8
100
AcDbArc
 50
0.0
 51
100.0000000000001
  0
LINE
  5
AC
330
1D
100
AcDbEntity
  8
1
100
AcDbLine
 10
30.363005939
 20
33.987846201
 30
0.0
 11
16.088005624
 21
31.470778648
 31
0.0
  0
ARC
  5
AF
330
1D
100
AcDbEntity
  8
1
100
AcDbCircle
 10
16.226924497
 20
16.187717465
 30
0.0
 40
0.8
100
AcDbArc
 50
180.0
 51
280.0000000000001
  0
ARC
  5
B1
330
1D
100
AcDbEntity
  8
1
100
AcDbCircle
 10
24.11168068
 20
22.665828303
 30
0.0
 40
0.7
100
AcDbArc
 50
63.38416180599991
 51
176.6158381940001
  0
ARC
  5
B2
330
1D
100
AcDbEntity
  8
1
100
AcDbCircle
 10
24.559686921
 20
23.559858732
 30
0.0
 40
0.3
100
AcDbArc
 50
243.3841618059997
 51
56.61583819399986
  0
ARC
  5
B4
330
1D
100
AcDbEntity
  8
1
100
AcDbCircle
 10
22.115168313
 20
22.665828303
 30
0.0
 40
0.7
100
AcDbArc
 50
3.384161805999937
 51
116.6158381940001
  0
ARC
  5
B5
330
1D
100
AcDbEntity
  8
1
100
AcDbCircle
 10
23.113424497
 20
22.724858732
 30
0.0
 40
0.3
100
AcDbArc
 50
183.3841618059998
 51
356.6158381940003
  0
ARC
  5
B7
330
1D
100
AcDbEntity
  8
1
100
AcDbCircle
 10
21.116912129
 20
24.394858732
 30
0.0
 40
0.7
100
AcDbArc
 50
303.3841618060001
 51
56.61583819399996
  0
ARC
  5
B8
330
1D
100
AcDbEntity
  8
1
100
AcDbCircle
 10
21.667162072
 20
23.559858732
 30
0.0
 40
0.3
100
AcDbArc
 50
123.3841618060001
 51
296.6158381940003
  0
ARC
  5
BA
330
1D
100
AcDbEntity
  8
1
100
AcDbCircle
 10
25.109936864
 20
24.394858732
 30
0.0
 40
0.7
100
AcDbArc
 50
123.384161806
 51
236.615838194
  0
ARC
  5
BB
330
1D
100
AcDbEntity
  8
1
100
AcDbCircle
 10
24.559686921
 20
25.229858732
 30
0.0
 40
0.3
100
AcDbArc
 50
303.3841618060001
 51
116.6158381940002
  0
ARC
  5
BD
330
1D
100
AcDbEntity
  8
1
100
AcDbCircle
 10
22.115168313
 20
26.123889161
 30
0.0
 40
0.7
100
AcDbArc
 50
243.3841618059999
 51
356.6158381940001
  0
ARC
  5
BE
330
1D
100
AcDbEntity
  8
1
100
AcDbCircle
 10
21.667162072
 20
25.229858732
 30
0.0
 40
0.3
100
AcDbArc
 50
63.38416180599975
 51
236.6158381939999
  0
ARC
  5
BF
330
1D
100
AcDbEntity
  8
1
100
AcDbCircle
 10
23.113424497
 20
26.064858732
 30
0.0
 40
0.3
100
AcDbArc
 50
3.38416180599976
 51
176.6158381940002
  0
ARC
  5
C0
330
1D
100
AcDbEntity
  8
1
100
AcDbCircle
 10
24.11168068
 20
26.123889161
 30
0.0
 40
0.7
100
AcDbArc
 50
183.3841618059999
 51
296.6158381939998
  0
ARC
  5
C2
330
1D
100
AcDbEntity
  8
1
100
AcDbCircle
 10
23.113424497
 20
24.394858732
 30
0.0
 40
8.0
100
AcDbArc
 50
163.906890996
 51
196.093109004
  0
LINE
  5
C3
330
1D
100
AcDbEntity
  8
1
100
AcDbLine
 10
14.601923525
 20
18.426614701
 30
0.0
 11
15.42692399
 21
19.393912533
 31
0.0
  0
LINE
  5
C4
330
1D
100
AcDbEntity
  8
1
100
AcDbLine
 10
19.295456357
 20
15.916440652
 30
0.0
 11
18.34978117
 21
14.807654561
 31
0.0
  0
ARC
  5
C5
330
1D
100
AcDbEntity
  8
1
100
AcDbCircle
 10
23.113424497
 20
24.394858732
 30
0.0
 40
8.0
100
AcDbArc
 50
263.9102029609999
 51
296.089797039
  0
LINE
  5
C6
330
1D
100
AcDbEntity
  8
1
100
AcDbLine
 10
30.951924509
 20
18.042173253
 30
0.0
 11
30.949580312
 21
18.041757883
 31
0.0
  0
ARC
  5
C7
330
1D
100
AcDbEntity
  8
3
100
AcDbCircle
 10
16.371564913
 20
16.494858732
 30
0.0
 40
2.6
100
AcDbArc
 50
139.539411353
 51
227.107004999
  0
ARC
  5
C8
330
1D
100
AcDbEntity
  8
1
100
AcDbCircle
 10
16.371564913
 20
16.494858732
 30
0.0
 40
2.6
100
AcDbArc
 50
227.107004999
 51
319.5394113529999
  0
ARC
  5
C9
330
1D
100
AcDbEntity
  8
1
100
AcDbCircle
 10
15.479334876
 20
31.252880363
 30
0.0
 40
0.491812248
100
AcDbArc
 50
68.243441594
 51
88.68664324100007
  0
LINE
  5
CA
330
1D
100
AcDbEntity
  8
1
100
AcDbLine
 10
15.66163218
 20
31.709659396
 30
0.0
 11
15.66163218
 21
31.249010253
 31
0.0
  0
LINE
  5
CB
330
1D
100
AcDbEntity
  8
1
100
AcDbLine
 10
30.951924509
 20
18.042173253
 30
0.0
 11
30.951192635
 21
18.042849393
 31
0.0
  0
LINE
  5
CC
330
1D
100
AcDbEntity
  8
1
100
AcDbLine
 10
15.66163218
 20
31.337716866
 30
0.0
 11
15.767297245
 21
31.337716866
 31
0.0
  0
LINE
  5
CD
330
1D
100
AcDbEntity
  8
3
100
AcDbLine
 10
14.393348377
 20
18.182063325
 30
0.0
 11
14.601923525
 21
18.426614701
 31
0.0
  0
LINE
  5
CE
330
1D
100
AcDbEntity
  8
1
100
AcDbLine
 10
0.0000014
 20
-10.395310836
 30
0.0
 11
21.049489736
 21
-10.395310836
 31
0.0
  0
LINE
  5
CF
330
1D
100
AcDbEntity
  8
1
100
AcDbLine
 10
21.049489736
 20
-10.395310836
 30
0.0
 11
21.049489736
 21
-31.337716866
 31
0.0
  0
LINE
  5
D0
330
1D
100
AcDbEntity
  8
1
100
AcDbLine
 10
15.66163218
 20
-31.337716866
 30
0.0
 11
21.049489736
 21
-31.337716866
 31
0.0
  0
LINE
  5
D1
330
1D
100
AcDbEntity
  8
1
100
AcDbLine
 10
15.66163218
 20
-31.709659396
 30
0.0
 11
15.66163218
 21
-31.337716866
 31
0.0
  0
ARC
  5
D2
330
1D
100
AcDbEntity
  8
1
100
AcDbCircle
 10
15.479334876
 20
-31.252880363
 30
0.0
 40
0.497092748
100
AcDbArc
 50
271.3133567589999
 51
291.7565584060002
  0
LINE
  5
D3
330
1D
100
AcDbEntity
  8
1
100
AcDbLine
 10
15.4907289
 20
-31.749842472
 30
0.0
 11
-0.010101587
 21
-31.749842472
 31
0.0
  0
LINE
  5
D4
330
1D
100
AcDbEntity
  8
1
100
AcDbLine
 10
27.800845451
 20
-11.652592586
 30
0.0
 11
27.765980692
 21
-12.039391341
 31
0.0
  0
LINE
  5
D5
330
1D
100
AcDbEntity
  8
1
100
AcDbLine
 10
27.765980692
 20
-12.039391341
 30
0.0
 11
27.696112407
 21
-12.42108831
 31
0.0
  0
LINE
  5
D6
330
1D
100
AcDbEntity
  8
1
100
AcDbLine
 10
27.696112407
 20
-12.42108831
 30
0.0
 11
27.600397592
 21
-12.733047845
 31
0.0
  0
LINE
  5
D7
330
1D
100
AcDbEntity
  8
1
100
AcDbLine
 10
27.600397592
 20
-12.733047845
 30
0.0
 11
27.419538939
 21
-13.066438975
 31
0.0
  0
LINE
  5
D8
330
1D
100
AcDbEntity
  8
1
100
AcDbLine
 10
27.419538939
 20
-13.066438975
 30
0.0
 11
27.313518341
 21
-13.175122456
 31
0.0
  0
LINE
  5
D9
330
1D
100
AcDbEntity
  8
1
100
AcDbLine
 10
27.313518341
 20
-13.175122456
 30
0.0
 11
27.179137807
 21
-13.24876027
 31
0.0
  0
LINE
  5
DA
330
1D
100
AcDbEntity
  8
1
100
AcDbLine
 10
27.179137807
 20
-13.24876027
 30
0.0
 11
27.071048975
 21
-13.263592513
 31
0.0
  0
LINE
  5
DB
330
1D
100
AcDbEntity
  8
1
100
AcDbLine
 10
27.071048975
 20
-13.263592513
 30
0.0
 11
26.964132212
 21
-13.242140429
 31
0.0
  0
LINE
  5
DC
330
1D
100
AcDbEntity
  8
1
100
AcDbLine
 10
26.964132212
 20
-13.242140429
 30
0.0
 11
26.941745545
 21
-13.233145716
 31
0.0
  0
ARC
  5
DD
330
1D
100
AcDbEntity
  8
1
100
AcDbCircle
 10
58.043935934
 20
58.881005856
 30
0.0
 40
78.535323924
100
AcDbArc
 50
241.897208262
 51
246.669894294
  0
LINE
  5
DE
330
1D
100
AcDbEntity
  8
1
100
AcDbLine
 10
21.049489736
 20
-31.337716866
 30
0.0
 11
23.28336472
 21
-31.736726656
 31
0.0
  0
LINE
  5
DF
330
1D
100
AcDbEntity
  8
1
100
AcDbLine
 10
23.28336472
 20
-31.736726656
 30
0.0
 11
29.48748472
 21
-32.844244868
 31
0.0
  0
ARC
  5
E0
330
1D
100
AcDbEntity
  8
1
100
AcDbCircle
 10
29.621196349
 20
-32.037339573
 30
0.0
 40
0.805421362
100
AcDbArc
 50
260.443825805
 51
358.3519198830001
  0
LINE
  5
E1
330
1D
100
AcDbEntity
  8
1
100
AcDbLine
 10
27.800845451
 20
-11.652592586
 30
0.0
 11
27.823730375
 21
-11.691041307
 31
0.0
  0
ARC
  5
E2
330
1D
100
AcDbEntity
  8
1
100
AcDbCircle
 10
40.701924497
 20
-4.000000002
 30
0.0
 40
15.0
100
AcDbArc
 50
226.236978409
 51
229.458398127
  0
LINE
  5
E3
330
1D
100
AcDbEntity
  8
1
100
AcDbLine
 10
30.951924509
 20
-15.399012731
 30
0.0
 11
30.951924509
 21
-18.042173253
 31
0.0
  0
LINE
  5
E4
330
1D
100
AcDbEntity
  8
1
100
AcDbLine
 10
30.951924509
 20
-18.042173253
 30
0.0
 11
30.794268128
 21
-18.187800439
 31
0.0
  0
LINE
  5
E5
330
1D
100
AcDbEntity
  8
1
100
AcDbLine
 10
30.426403336
 20
-18.122604133
 30
0.0
 11
30.794268128
 21
-18.187800439
 31
0.0
  0
LINE
  5
E6
330
1D
100
AcDbEntity
  8
1
100
AcDbLine
 10
30.426403336
 20
-32.046723662
 30
0.0
 11
30.426403336
 21
-18.122604133
 31
0.0
  0
LINE
  5
E7
330
1D
100
AcDbEntity
  8
1
100
AcDbLine
 10
30.426403336
 20
-32.046723662
 30
0.0
 11
30.426401939
 21
-32.048226351
 31
0.0
  0
LINE
  5
E8
330
1D
100
AcDbEntity
  8
1
100
AcDbLine
 10
30.426401939
 20
-32.048226351
 30
0.0
 11
30.426284535
 21
-32.06050386
 31
0.0
  0
ARC
  5
E9
330
1D
100
AcDbEntity
  8
1
100
AcDbCircle
 10
100.919279401
 20
-9.000000002
 30
0.0
 40
72.290320398
100
AcDbArc
 50
183.2149218909999
 51
185.344722231
  0
ARC
  5
EA
330
1D
100
AcDbEntity
  8
1
100
AcDbCircle
 10
40.74137159
 20
-14.629852624
 30
0.0
 40
11.836340225
100
AcDbArc
 50
185.345024151
 51
192.606993773
  0
ARC
  5
EB
330
1D
100
AcDbEntity
  8
1
100
AcDbCircle
 10
32.446828773
 20
-16.484965691
 30
0.0
 40
3.336876416
100
AcDbArc
 50
192.6069937729999
 51
207.0028841099999
  0
ARC
  5
EC
330
1D
100
AcDbEntity
  8
1
100
AcDbCircle
 10
29.596079862
 20
-17.93767627
 30
0.0
 40
0.137323732
100
AcDbArc
 50
207.0026238010002
 51
332.9973761989998
  0
ARC
  5
EE
330
1D
100
AcDbEntity
  8
1
100
AcDbCircle
 10
26.74533095
 20
-16.484965691
 30
0.0
 40
3.336876416
100
AcDbArc
 50
332.9971158899999
 51
347.3930062269999
  0
ARC
  5
EF
330
1D
100
AcDbEntity
  8
1
100
AcDbCircle
 10
18.450788133
 20
-14.629852624
 30
0.0
 40
11.836340225
100
AcDbArc
 50
347.393006227
 51
354.654975849
  0
ARC
  5
F0
330
1D
100
AcDbEntity
  8
1
100
AcDbCircle
 10
-41.727119678
 20
-9.000000002
 30
0.0
 40
72.277020475
100
AcDbArc
 50
354.655277769
 51
355.371729646
  0
ARC
  5
F1
330
1D
100
AcDbEntity
  8
1
100
AcDbCircle
 10
40.701924497
 20
-4.000000002
 30
0.0
 40
15.0
100
AcDbArc
 50
210.846252105
 51
217.128894313
  0
ARC
  5
F2
330
1D
100
AcDbEntity
  8
1
100
AcDbCircle
 10
39.792922202
 20
-4.864958622
 30
0.0
 40
13.746708295
100
AcDbArc
 50
216.595829842
 51
226.479619859
  0
ARC
  5
F3
330
1D
100
AcDbEntity
  8
1
100
AcDbCircle
 10
29.644960042
 20
-32.128258754
 30
0.0
 40
0.733099306
100
AcDbArc
 50
257.5957586139999
 51
326.6455734549999
  0
ARC
  5
F4
330
1D
100
AcDbEntity
  8
CUT
100
AcDbCircle
 10
30.501924497
 20
-33.199999999
 30
0.0
 40
0.8
100
AcDbArc
 50
259.9999999999999
 51
0.0
  0
ARC
  5
F5
330
1D
100
AcDbEntity
  8
CUT
100
AcDbCircle
 10
30.501924497
 20
-33.199999999
 30
0.0
 40
0.117317841
100
AcDbArc
 50
259.9999999999999
 51
0.0
  0
LINE
  5
F6
330
1D
100
AcDbEntity
  8
CUT
100
AcDbLine
 10
31.301924497
 20
-18.704785051
 30
0.0
 11
31.301924497
 21
-33.200000022
 31
0.0
  0
LINE
  5
F7
330
1D
100
AcDbEntity
  8
CUT
100
AcDbLine
 10
30.619242348
 20
-33.200000022
 30
0.0
 11
30.619242348
 21
-18.704785051
 31
0.0
  0
LINE
  5
F8
330
1D
100
AcDbEntity
  8
CUT
100
AcDbLine
 10
30.5222965
 20
-18.589249829
 30
0.0
 11
30.426403336
 21
-18.572340736
 31
0.0
  0
ARC
  5
F9
330
1D
100
AcDbEntity
  8
CUT
100
AcDbCircle
 10
30.501924497
 20
-18.704785114
 30
0.0
 40
0.117317841
100
AcDbArc
 50
0.0
 51
79.99999999999963
  0
LINE
  5
FA
330
1D
100
AcDbEntity
  8
CUT
100
AcDbLine
 10
19.264786042
 20
-31.337716866
 30
0.0
 11
30.481552476
 21
-33.315535535
 31
0.0
  0
LINE
  5
FB
330
1D
100
AcDbEntity
  8
CUT
100
AcDbLine
 10
30.363005939
 20
-33.987846201
 30
0.0
 11
16.088005624
 21
-31.470778648
 31
0.0
  0
ARC
  5
FC
330
1D
100
AcDbEntity
  8
1
100
AcDbCircle
 10
16.226924497
 20
-30.682932349
 30
0.0
 40
0.8
100
AcDbArc
 50
234.9329919790001
 51
259.9999999999999
  0
ARC
  5
FD
330
1D
100
AcDbEntity
  8
CUT
100
AcDbCircle
 10
30.501924497
 20
-18.704785114
 30
0.0
 40
0.8
100
AcDbArc
 50
0.0
 51
55.83450545799995
  0
LINE
  5
FE
330
1D
100
AcDbEntity
  8
1
100
AcDbLine
 10
29.48748472
 20
-32.831584353
 30
0.0
 11
29.335516276
 21
-32.536005385
 31
0.0
  0
LINE
  5
FF
330
1D
100
AcDbEntity
  8
1
100
AcDbLine
 10
29.335516276
 20
-32.536005385
 30
0.0
 11
29.123393822
 21
-32.004195981
 31
0.0
  0
LINE
  5
100
330
1D
100
AcDbEntity
  8
1
100
AcDbLine
 10
29.123393822
 20
-32.004195981
 30
0.0
 11
28.914952887
 21
-31.340578122
 31
0.0
  0
LINE
  5
101
330
1D
100
AcDbEntity
  8
1
100
AcDbLine
 10
28.914952887
 20
-31.340578122
 30
0.0
 11
28.711464492
 21
-30.549112258
 31
0.0
  0
LINE
  5
102
330
1D
100
AcDbEntity
  8
1
100
AcDbLine
 10
28.711464492
 20
-30.549112258
 30
0.0
 11
28.503265002
 21
-29.57828624
 31
0.0
  0
LINE
  5
103
330
1D
100
AcDbEntity
  8
1
100
AcDbLine
 10
28.503265002
 20
-29.57828624
 30
0.0
 11
28.301550777
 21
-28.468146937
 31
0.0
  0
LINE
  5
104
330
1D
100
AcDbEntity
  8
1
100
AcDbLine
 10
28.301550777
 20
-28.468146937
 30
0.0
 11
28.107644062
 21
-27.226986846
 31
0.0
  0
LINE
  5
105
330
1D
100
AcDbEntity
  8
1
100
AcDbLine
 10
28.107644062
 20
-27.226986846
 30
0.0
 11
27.922866869
 21
-25.863098929
 31
0.0
  0
LINE
  5
106
330
1D
100
AcDbEntity
  8
1
100
AcDbLine
 10
27.922866869
 20
-25.863098929
 30
0.0
 11
27.748541211
 21
-24.384776147
 31
0.0
  0
LINE
  5
107
330
1D
100
AcDbEntity
  8
1
100
AcDbLine
 10
27.748541211
 20
-24.384776147
 30
0.0
 11
27.585146021
 21
-22.793968225
 31
0.0
  0
LINE
  5
108
330
1D
100
AcDbEntity
  8
1
100
AcDbLine
 10
27.585146021
 20
-22.793968225
 30
0.0
 11
27.432611681
 21
-21.092370169
 31
0.0
  0
LINE
  5
109
330
1D
100
AcDbEntity
  8
1
100
AcDbLine
 10
27.432611681
 20
-21.092370169
 30
0.0
 11
27.291912589
 21
-19.292202795
 31
0.0
  0
LINE
  5
10A
330
1D
100
AcDbEntity
  8
1
100
AcDbLine
 10
27.291912589
 20
-19.292202795
 30
0.0
 11
27.164021976
 21
-17.405683191
 31
0.0
  0
LINE
  5
10B
330
1D
100
AcDbEntity
  8
1
100
AcDbLine
 10
27.164021976
 20
-17.405683191
 30
0.0
 11
27.049914006
 21
-15.445031242
 31
0.0
  0
LINE
  5
10C
330
1D
100
AcDbEntity
  8
1
100
AcDbLine
 10
27.049914006
 20
-15.445031242
 30
0.0
 11
26.993749201
 21
-14.348864572
 31
0.0
  0
LINE
  5
10D
330
1D
100
AcDbEntity
  8
1
100
AcDbLine
 10
26.993749201
 20
-14.348864572
 30
0.0
 11
26.941745545
 21
-13.233145716
 31
0.0
  0
LINE
  5
10E
330
1D
100
AcDbEntity
  8
1
100
AcDbLine
 10
29.48748472
 20
-32.831584353
 30
0.0
 11
29.48748472
 21
-32.844244868
 31
0.0
  0
ARC
  5
10F
330
1D
100
AcDbEntity
  8
1
100
AcDbCircle
 10
311.108586625
 20
-0.000000002
 30
0.0
 40
283.525995609
100
AcDbArc
 50
182.3632305629999
 51
183.67733647
  0
ARC
  5
110
330
1D
100
AcDbEntity
  8
1
100
AcDbCircle
 10
140.496443082
 20
-10.965159902
 30
0.0
 40
112.549045075
100
AcDbArc
 50
183.677369918
 51
187.095933649
  0
ARC
  5
111
330
1D
100
AcDbEntity
  8
1
100
AcDbCircle
 10
84.532806795
 20
-17.931765896
 30
0.0
 40
56.153458498
100
AcDbArc
 50
187.095933649
 51
192.4748840009999
  0
ARC
  5
112
330
1D
100
AcDbEntity
  8
1
100
AcDbCircle
 10
38.329025855
 20
-28.153582379
 30
0.0
 40
8.832481063
100
AcDbArc
 50
192.4753148389999
 51
202.812008309
  0
ARC
  5
113
330
1D
100
AcDbEntity
  8
1
100
AcDbCircle
 10
33.189799494
 20
-30.31518176
 30
0.0
 40
3.257164079
100
AcDbArc
 50
202.812008309
 51
212.2748182289999
  0
LINE
  5
114
330
1D
100
AcDbEntity
  8
CUT
100
AcDbLine
 10
30.619242348
 20
-33.200000022
 30
0.0
 11
31.301924497
 21
-33.200000022
 31
0.0
  0
LINE
  5
115
330
1D
100
AcDbEntity
  8
CUT
100
AcDbLine
 10
30.481552476
 20
-33.315535535
 30
0.0
 11
30.363005939
 21
-33.987846201
 31
0.0
  0
LINE
  5
116
330
1D
100
AcDbEntity
  8
CUT
100
AcDbLine
 10
30.619242348
 20
-18.704785051
 30
0.0
 11
31.301924497
 21
-18.704785051
 31
0.0
  0
LINE
  5
117
330
1D
100
AcDbEntity
  8
1
100
AcDbLine
 10
16.111468434
 20
-31.337716866
 30
0.0
 11
16.088005624
 21
-31.470778648
 31
0.0
  0
LINE
  5
118
330
1D
100
AcDbEntity
  8
CUT
100
AcDbLine
 10
30.5222965
 20
-18.589249829
 30
0.0
 11
30.599179506
 21
-18.153224157
 31
0.0
  0
LINE
  5
1BE
330
1D
100
AcDbEntity
  8
1
100
AcDbLine
 10
30.64084303913354
 20
17.91693891159023
 30
0.0
 11
30.951920896
 21
17.91693891159023
 31
0.0
  0
LINE
  5
1BF
330
1D
100
AcDbEntity
  8
3
100
AcDbLine
 10
30.64084303913354
 20
17.91693891159023
 30
0.0
 11
30.501924497
 21
33.199999999
 31
0.0
  0
LINE
  5
1C0
330
1D
100
AcDbEntity
  8
3
100
AcDbLine
 10
30.501924497
 20
33.199999999
 30
0.0
 11
16.226924497
 21
30.682932349
 31
0.0
  0
LINE
  5
1C1
330
1D
100
AcDbEntity
  8
3
100
AcDbLine
 10
16.226924497
 20
30.682932349
 30
0.0
 11
15.7144647125
 21
31.337716866
 31
0.0
  0
ARC
  5
1C3
330
1D
100
AcDbEntity
  8
1
100
AcDbCircle
 10
16.226924497
 20
30.682932349
 30
0.0
 40
0.7999999999999995
100
AcDbArc
 50
100.0000000000001
 51
180.0
  0
LINE
  5
1C4
330
1D
100
AcDbEntity
  8
1
100
AcDbLine
 10
15.426924497
 20
30.682932349
 30
0.0
 11
15.426924497
 21
16.05930727422293
 31
0.0
  0
LINE
  5
1C5
330
1D
100
AcDbEntity
  8
1
100
AcDbLine
 10
16.36584303913354
 20
15.39987126259023
 30
0.0
 11
30.64084303913354
 21
17.91693891159023
 31
0.0
  0
LINE
  5
1CA
330
1D
100
AcDbEntity
  8
NOCUT
100
AcDbLine
 10
0.0
 20
0.0
 30
0.0
 11
0.0000000000000018
 21
31.74748199528796
 31
0.0
  0
LINE
  5
1CB
330
1D
100
AcDbEntity
  8
NOCUT
100
AcDbLine
 10
0.0000000000000018
 20
31.74748199528796
 30
0.0
 11
15.49434425178451
 21
31.74748199528796
 31
0.0
  0
LINE
  5
1CC
330
1D
100
AcDbEntity
  8
NOCUT
100
AcDbLine
 10
15.49434425178451
 20
31.74748199528796
 30
0.0
 11
15.66163218
 21
31.709659396
 31
0.0
  0
LINE
  5
1CD
330
1D
100
AcDbEntity
  8
NOCUT
100
AcDbLine
 10
15.66163218
 20
31.709659396
 30
0.0
 11
15.66163218
 21
31.337716866
 31
0.0
  0
LINE
  5
1D5
330
1D
100
AcDbEntity
  8
NOCUT
100
AcDbLine
 10
30.951920896
 20
18.043344837
 30
0.0
 11
30.95192449690142
 21
15.39901311509368
 31
0.0
  0
ARC
  5
1D6
330
1D
100
AcDbEntity
  8
NOCUT
100
AcDbCircle
 10
40.70194924259335
 20
3.999987250980395
 30
0.0
 40
15.00002780959893
100
AcDbArc
 50
130.5416534961381
 51
179.9999505766773
  0
LINE
  5
1D7
330
1D
100
AcDbEntity
  8
NOCUT
100
AcDbLine
 10
25.701924497
 20
4.000000000000002
 30
0.0
 11
25.701921433
 21
0.0
 31
0.0
  0
LINE
  5
1D8
330
1D
100
AcDbEntity
  8
NOCUT
100
AcDbLine
 10
25.701921433
 20
0.0
 30
0.0
 11
0.0
 21
0.0
 31
0.0
  0
LWPOLYLINE
  5
1DA
330
1D
100
AcDbEntity
  8
INFTOTAL
100
AcDbPolyline
 90
        4
 70
     1
 43
0.0
 10
-33.89828084740994
 20
71.14243989479732
 10
-33.89828084740994
 20
-78.33148927424804
 10
74.41616057943442
 20
-78.33148927424804
 10
74.41616057943442
 20
71.14243989479732
  0
LINE
  5
1FC
330
1D
100
AcDbEntity
  8
4
100
AcDbLine
 10
36.002853559
 20
0.0
 30
0.0
 11
0.0
 21
0.0
 31
0.0
  0
ARC
  5
212
330
1D
100
AcDbEntity
  8
CUT
100
AcDbCircle
 10
30.50192449700003
 20
18.704785114
 30
0.0
 40
0.8
100
AcDbArc
 50
279.9999999999986
 51
0.0
  0
LINE
  5
213
330
1D
100
AcDbEntity
  8
CUT
100
AcDbLine
 10
31.30192449700004
 20
18.704785051
 30
0.0
 11
31.30192449700004
 21
33.200000022
 31
0.0
  0
ARC
  5
214
330
1D
100
AcDbEntity
  8
CUT
100
AcDbCircle
 10
30.50192449700003
 20
33.199999999
 30
0.0
 40
0.8
100
AcDbArc
 50
0.0
 51
100.0000000000027
  0
LINE
  5
215
330
1D
100
AcDbEntity
  8
CUT
100
AcDbLine
 10
30.36300593900003
 20
33.987846201
 30
0.0
 11
16.08800562400003
 21
31.470778648
 31
0.0
  0
ARC
  5
216
330
1D
100
AcDbEntity
  8
CUT
100
AcDbCircle
 10
16.226924497
 20
16.187717465
 30
0.0
 40
0.8
100
AcDbArc
 50
180.0
 51
280.0000000000026
  0
ARC
  5
217
330
1D
100
AcDbEntity
  8
CUT
100
AcDbCircle
 10
16.226924497
 20
30.682932349
 30
0.0
 40
0.7999999999999995
100
AcDbArc
 50
99.99999999999858
 51
180.0
  0
LINE
  5
218
330
1D
100
AcDbEntity
  8
CUT
100
AcDbLine
 10
15.42692449700004
 20
30.682932349
 30
0.0
 11
15.42692449700004
 21
16.05930727422293
 31
0.0
  0
LINE
  5
219
330
1D
100
AcDbEntity
  8
CUT
100
AcDbLine
 10
16.36584303913358
 20
15.39987126259023
 30
0.0
 11
30.64084303913356
 21
17.91693891159023
 31
0.0
  0
CIRCLE
  5
21A
330
1D
100
AcDbEntity
  8
1
100
AcDbCircle
 10
23.11342449700001
 20
24.394858732
 30
0.0
 40
3.797167001000002
  0
LINE
  5
23A
330
1D
100
AcDbEntity
  8
NOCUT
100
AcDbLine
 10
15.66163218
 20
31.337716866
 30
0.0
 11
15.7144647125
 21
31.337716866
 31
0.0
  0
LINE
  5
23B
330
1D
100
AcDbEntity
  8
NOCUT
100
AcDbLine
 10
15.7144647125
 20
31.337716866
 30
0.0
 11
16.226924497
 21
30.682932349
 31
0.0
  0
LINE
  5
23C
330
1D
100
AcDbEntity
  8
NOCUT
100
AcDbLine
 10
16.226924497
 20
30.682932349
 30
0.0
 11
30.501924497
 21
33.199999999
 31
0.0
  0
LINE
  5
23D
330
1D
100
AcDbEntity
  8
NOCUT
100
AcDbLine
 10
30.501924497
 20
33.199999999
 30
0.0
 11
30.64084303913354
 21
17.91693891159023
 31
0.0
  0
ARC
  5
23E
330
1D
100
AcDbEntity
  8
NOCUT
100
AcDbCircle
 10
30.501924497
 20
18.704785114
 30
0.0
 40
0.8000000000000009
100
AcDbArc
 50
280.0000000000001
 51
304.2285544245526
  0
HATCH
  5
242
330
1D
100
AcDbEntity
  8
7
100
AcDbHatch
 10
0.0
 20
0.0
 30
0.0
210
0.0
220
0.0
230
1.0
  2
ANSI37
 70
     0
 71
     0
 91
        2
 92
        7
 72
     1
 73
     1
 93
        8
 10
31.30192449700004
 20
18.70478510350001
 42
0.0
 10
31.30192449700004
 20
33.20000000475
 42
0.4663076569807148
 10
30.3630059508998
 20
33.98784620130732
 42
0.0
 10
16.08800587214986
 20
31.47077857555733
 42
0.3639701698328506
 10
15.42692449700004
 20
30.68293234899999
 42
0.0
 10
15.42692449700004
 20
16.187717465
 42
0.4663076581550333
 10
16.36584303913352
 20
15.39987126259023
 42
0.0
 10
30.64084303911167
 20
17.91693891158637
 42
0.3639702305581539
 97
        0
 92
       22
 72
     1
 73
     1
 93
        2
 10
19.31625749600002
 20
24.394858732
 42
-0.9999999999999999
 10
26.910591498
 20
24.394858732
 42
-0.9999999999999999
 97
        0
 75
     0
 76
     1
 52
90.0
 41
5.0
 77
     0
 78
     2
 53
135.0
 43
-255.6279259209549
 44
-26.48080123643089
 45
-0.4419417382415922
 46
-0.4419417382415922
 79
     0
 53
225.0
 43
-255.6279259209549
 44
-26.48080123643089
 45
0.4419417382415922
 46
-0.4419417382415923
 79
     0
 47
0.0
 98
        2
 10
26.35349598108778
 20
32.58044665503058
 10
26.35349598108778
 20
32.58044665503058
1001
ACAD
1010
0.0
1020
0.0
1030
0.0
1001
PE_URL
1000

  0
ENDSEC
  0
SECTION
  2
OBJECTS
  0
DICTIONARY
  5
C
330
0
100
AcDbDictionary
281
     1
  3
ACAD_COLOR
350
1EB
  3
ACAD_DETAILVIEWSTYLE
350
1B3
  3
ACAD_GROUP
350
D
  3
ACAD_LAYOUT
350
1A
  3
ACAD_MATERIAL
350
156
  3
ACAD_MLEADERSTYLE
350
163
  3
ACAD_MLINESTYLE
350
17
  3
ACAD_PLOTSETTINGS
350
19
  3
ACAD_PLOTSTYLENAME
350
E
  3
ACAD_SCALELIST
350
11F
  3
ACAD_SECTIONVIEWSTYLE
350
1B4
  3
ACAD_TABLESTYLE
350
1AC
  3
ACAD_VISUALSTYLE
350
145
  3
ACDB_RECOMPOSE_DATA
350
246
  3
AcDbVariableDictionary
350
161
  3
APPDATA
350
1AF
  0
SUN
  5
1DB
330
119
100
AcDbSun
 90
        1
290
     0
 63
     7
421
 16777215
 40
1.0
291
     1
 91
  2455826
 92
 54000000
292
     0
 70
     2
 71
   256
280
     1
  0
DICTIONARY
  5
1B5
330
2
100
AcDbDictionary
280
     1
281
     1
  3
ACAD_LAYERSTATES
360
1B6
  0
DICTIONARY
  5
240
330
1D
100
AcDbDictionary
280
     1
281
     1
  3
ACAD_SORTENTS
360
241
  0
DICTIONARY
  5
1EB
102
{ACAD_REACTORS
330
C
102
}
330
C
100
AcDbDictionary
281
     1
  0
DICTIONARY
  5
1B3
102
{ACAD_REACTORS
330
C
102
}
330
C
100
AcDbDictionary
281
     1
  0
DICTIONARY
  5
D
102
{ACAD_REACTORS
330
C
102
}
330
C
100
AcDbDictionary
281
     1
  0
DICTIONARY
  5
1A
102
{ACAD_REACTORS
330
C
102
}
330
C
100
AcDbDictionary
281
     1
  3
Layout1
350
1C
  3
Model
350
1E
  0
DICTIONARY
  5
156
102
{ACAD_REACTORS
330
C
102
}
330
C
100
AcDbDictionary
281
     1
  3
ByBlock
350
158
  3
ByLayer
350
157
  3
Global
350
159
  0
DICTIONARY
  5
163
102
{ACAD_REACTORS
330
C
102
}
330
C
100
AcDbDictionary
281
     1
  3
Standard
350
1AE
  0
DICTIONARY
  5
17
102
{ACAD_REACTORS
330
C
102
}
330
C
100
AcDbDictionary
281
     1
  3
Standard
350
18
  0
DICTIONARY
  5
19
102
{ACAD_REACTORS
330
C
102
}
330
C
100
AcDbDictionary
281
     1
  0
ACDBDICTIONARYWDFLT
  5
E
102
{ACAD_REACTORS
330
C
102
}
330
C
100
AcDbDictionary
281
     1
  3
Normal
350
F
100
AcDbDictionaryWithDefault
340
F
  0
DICTIONARY
  5
11F
102
{ACAD_REACTORS
330
C
102
}
330
C
100
AcDbDictionary
281
     1
  3
A0
350
120
  3
A1
350
121
  3
A2
350
122
  3
A3
350
123
  3
A4
350
124
  3
A5
350
125
  3
A6
350
126
  3
A7
350
127
  3
A8
350
128
  3
A9
350
129
  3
B0
350
12A
  3
B1
350
12B
  3
B2
350
12C
  3
B3
350
12D
  3
B4
350
12E
  3
B5
350
12F
  3
B6
350
130
  3
B7
350
131
  3
B8
350
132
  3
B9
350
133
  3
C0
350
134
  3
C1
350
135
  3
C2
350
136
  3
C3
350
137
  3
C4
350
138
  3
C5
350
139
  3
C6
350
13A
  3
C7
350
13B
  3
C8
350
13C
  3
C9
350
13D
  3
D0
350
13E
  3
D1
350
13F
  3
D2
350
140
  0
DICTIONARY
  5
1B4
102
{ACAD_REACTORS
330
C
102
}
330
C
100
AcDbDictionary
281
     1
  0
DICTIONARY
  5
1AC
102
{ACAD_REACTORS
330
C
102
}
330
C
100
AcDbDictionary
281
     1
  3
Standard
350
1AD
  0
DICTIONARY
  5
145
102
{ACAD_REACTORS
330
C
102
}
330
C
100
AcDbDictionary
281
     1
  3
2dWireframe
350
14A
  3
3D Hidden
350
14C
  3
3dWireframe
350
14B
  3
Basic
350
14D
  3
Brighten
350
151
  3
ColorChange
350
155
  3
Conceptual
350
14F
  3
Dim
350
150
  3
EdgeColorOff
350
1A6
  3
Facepattern
350
154
  3
Flat
350
146
  3
FlatWithEdges
350
147
  3
Gouraud
350
148
  3
GouraudWithEdges
350
149
  3
Hidden
350
1A3
  3
JitterOff
350
1A4
  3
Linepattern
350
153
  3
OverhangOff
350
1A5
  3
Realistic
350
14E
  3
Shaded
350
1AB
  3
Shaded with edges
350
1AA
  3
Shades of Gray
350
1A7
  3
Sketchy
350
1A8
  3
Thicken
350
152
  3
Wireframe
350
1A2
  3
X-Ray
350
1A9
  0
XRECORD
  5
246
102
{ACAD_REACTORS
330
C
102
}
330
C
100
AcDbXrecord
280
     1
 90
        1
330
1AD
  0
DICTIONARY
  5
161
102
{ACAD_REACTORS
330
C
102
}
330
C
100
AcDbDictionary
281
     1
  3
CANNOSCALE
350
1B0
  3
CMLEADERSTYLE
350
1B2
  3
CTABLESTYLE
350
1B1
  3
DIMASSOC
350
165
  3
HIDETEXT
350
166
  3
MSLTSCALE
350
164
  0
DICTIONARY
  5
1AF
102
{ACAD_REACTORS
330
C
102
}
330
C
100
AcDbDictionary
281
     1
  0
DICTIONARY
  5
1B6
102
{ACAD_REACTORS
330
1B5
102
}
330
1B5
100
AcDbDictionary
281
     1
  0
SORTENTSTABLE
  5
241
102
{ACAD_REACTORS
330
240
102
}
330
240
100
AcDbSortentsTable
330
1D
331
212
  5
214
331
213
  5
215
331
214
  5
216
331
215
  5
217
331
216
  5
218
331
217
  5
219
331
218
  5
21A
331
219
  5
23A
331
21A
  5
23B
331
23A
  5
23C
331
23B
  5
23D
331
23C
  5
23E
331
23D
  5
23F
331
23E
  5
242
331
0
  5
212
331
242
  5
213
  0
LAYOUT
  5
1C
102
{ACAD_REACTORS
330
1A
102
}
330
1A
100
AcDbPlotSettings
  1

  2
none_device
  4

  6

 40
0.0
 41
0.0
 42
0.0
 43
0.0
 44
0.0
 45
0.0
 46
0.0
 47
0.0
 48
0.0
 49
0.0
140
0.0
141
0.0
142
1.0
143
1.0
 70
   688
 72
     0
 73
     0
 74
     5
  7

 75
    16
 76
     0
 77
     2
 78
   300
147
1.0
148
0.0
149
0.0
100
AcDbLayout
  1
Layout1
 70
     1
 71
     1
 10
0.0
 20
0.0
 11
12.0
 21
9.0
 12
0.0
 22
0.0
 32
0.0
 14
1.000000000000000E+20
 24
1.000000000000000E+20
 34
1.000000000000000E+20
 15
-1.000000000000000E+20
 25
-1.000000000000000E+20
 35
-1.000000000000000E+20
146
0.0
 13
0.0
 23
0.0
 33
0.0
 16
1.0
 26
0.0
 36
0.0
 17
0.0
 27
1.0
 37
0.0
 76
     0
330
1B
  0
LAYOUT
  5
1E
102
{ACAD_REACTORS
330
1A
102
}
330
1A
100
AcDbPlotSettings
  1

  2
none_device
  4

  6

 40
0.0
 41
0.0
 42
0.0
 43
0.0
 44
0.0
 45
0.0
 46
0.0
 47
0.0
 48
0.0
 49
0.0
140
0.0
141
0.0
142
1.0
143
1.0
 70
  1712
 72
     0
 73
     0
 74
     0
  7

 75
     0
 76
     0
 77
     2
 78
   300
147
1.0
148
0.0
149
0.0
100
AcDbLayout
  1
Model
 70
     1
 71
     0
 10
0.0
 20
0.0
 11
12.0
 21
9.0
 12
0.0
 22
0.0
 32
0.0
 14
-33.89828084740995
 24
-78.33148927424804
 34
0.0
 15
74.41616057943443
 25
71.14243989479732
 35
0.0
146
0.0
 13
0.0
 23
0.0
 33
0.0
 16
1.0
 26
0.0
 36
0.0
 17
0.0
 27
1.0
 37
0.0
 76
     0
330
1D
331
119
  0
MATERIAL
  5
158
102
{ACAD_REACTORS
330
156
102
}
330
156
100
AcDbMaterial
  1
ByBlock
 72
     1
 94
      127
  0
MATERIAL
  5
157
102
{ACAD_REACTORS
330
156
102
}
330
156
100
AcDbMaterial
  1
ByLayer
 72
     1
 94
      127
  0
MATERIAL
  5
159
102
{ACAD_REACTORS
330
156
102
}
330
156
100
AcDbMaterial
  1
Global
 72
     1
 94
      127
  0
MLEADERSTYLE
  5
1AE
102
{ACAD_REACTORS
330
163
102
}
330
163
100
AcDbMLeaderStyle
179
     2
170
     2
171
     1
172
     0
 90
        2
 40
0.0
 41
0.0
173
     1
 91
-1056964608
340
14
 92
       -2
290
     1
 42
0.09
291
     1
 43
0.36
  3
Standard
341
0
 44
0.18
300

342
11
174
     1
178
     1
175
     1
176
     0
 93
-1056964608
 45
0.18
292
     0
297
     0
 46
0.18
343
0
 94
-1056964608
 47
1.0
 49
1.0
140
1.0
293
     1
141
0.0
294
     1
177
     0
142
1.0
295
     0
296
     0
143
0.125
271
     0
272
     9
273
     9
298
     0
  0
MLINESTYLE
  5
18
102
{ACAD_REACTORS
330
17
102
}
330
17
100
AcDbMlineStyle
  2
Standard
 70
     0
  3

 62
   256
 51
90.0
 52
90.0
 71
     2
 49
0.5
 62
   256
  6
BYLAYER
 49
-0.5
 62
   256
  6
BYLAYER
  0
ACDBPLACEHOLDER
  5
F
102
{ACAD_REACTORS
330
E
102
}
330
E
  0
SCALE
  5
120
102
{ACAD_REACTORS
330
11F
102
}
330
11F
100
AcDbScale
 70
     0
300
1:1
140
1.0
141
1.0
290
     1
  0
SCALE
  5
121
102
{ACAD_REACTORS
330
11F
102
}
330
11F
100
AcDbScale
 70
     0
300
1:2
140
1.0
141
2.0
290
     0
  0
SCALE
  5
122
102
{ACAD_REACTORS
330
11F
102
}
330
11F
100
AcDbScale
 70
     0
300
1:4
140
1.0
141
4.0
290
     0
  0
SCALE
  5
123
102
{ACAD_REACTORS
330
11F
102
}
330
11F
100
AcDbScale
 70
     0
300
1:5
140
1.0
141
5.0
290
     0
  0
SCALE
  5
124
102
{ACAD_REACTORS
330
11F
102
}
330
11F
100
AcDbScale
 70
     0
300
1:8
140
1.0
141
8.0
290
     0
  0
SCALE
  5
125
102
{ACAD_REACTORS
330
11F
102
}
330
11F
100
AcDbScale
 70
     0
300
1:10
140
1.0
141
10.0
290
     0
  0
SCALE
  5
126
102
{ACAD_REACTORS
330
11F
102
}
330
11F
100
AcDbScale
 70
     0
300
1:16
140
1.0
141
16.0
290
     0
  0
SCALE
  5
127
102
{ACAD_REACTORS
330
11F
102
}
330
11F
100
AcDbScale
 70
     0
300
1:20
140
1.0
141
20.0
290
     0
  0
SCALE
  5
128
102
{ACAD_REACTORS
330
11F
102
}
330
11F
100
AcDbScale
 70
     0
300
1:30
140
1.0
141
30.0
290
     0
  0
SCALE
  5
129
102
{ACAD_REACTORS
330
11F
102
}
330
11F
100
AcDbScale
 70
     0
300
1:40
140
1.0
141
40.0
290
     0
  0
SCALE
  5
12A
102
{ACAD_REACTORS
330
11F
102
}
330
11F
100
AcDbScale
 70
     0
300
1:50
140
1.0
141
50.0
290
     0
  0
SCALE
  5
12B
102
{ACAD_REACTORS
330
11F
102
}
330
11F
100
AcDbScale
 70
     0
300
1:100
140
1.0
141
100.0
290
     0
  0
SCALE
  5
12C
102
{ACAD_REACTORS
330
11F
102
}
330
11F
100
AcDbScale
 70
     0
300
2:1
140
2.0
141
1.0
290
     0
  0
SCALE
  5
12D
102
{ACAD_REACTORS
330
11F
102
}
330
11F
100
AcDbScale
 70
     0
300
4:1
140
4.0
141
1.0
290
     0
  0
SCALE
  5
12E
102
{ACAD_REACTORS
330
11F
102
}
330
11F
100
AcDbScale
 70
     0
300
8:1
140
8.0
141
1.0
290
     0
  0
SCALE
  5
12F
102
{ACAD_REACTORS
330
11F
102
}
330
11F
100
AcDbScale
 70
     0
300
10:1
140
10.0
141
1.0
290
     0
  0
SCALE
  5
130
102
{ACAD_REACTORS
330
11F
102
}
330
11F
100
AcDbScale
 70
     0
300
100:1
140
100.0
141
1.0
290
     0
  0
SCALE
  5
131
102
{ACAD_REACTORS
330
11F
102
}
330
11F
100
AcDbScale
 70
     0
300
1/128" = 1'-0"
140
0.0078125
141
12.0
290
     0
  0
SCALE
  5
132
102
{ACAD_REACTORS
330
11F
102
}
330
11F
100
AcDbScale
 70
     0
300
1/64" = 1'-0"
140
0.015625
141
12.0
290
     0
  0
SCALE
  5
133
102
{ACAD_REACTORS
330
11F
102
}
330
11F
100
AcDbScale
 70
     0
300
1/32" = 1'-0"
140
0.03125
141
12.0
290
     0
  0
SCALE
  5
134
102
{ACAD_REACTORS
330
11F
102
}
330
11F
100
AcDbScale
 70
     0
300
1/16" = 1'-0"
140
0.0625
141
12.0
290
     0
  0
SCALE
  5
135
102
{ACAD_REACTORS
330
11F
102
}
330
11F
100
AcDbScale
 70
     0
300
3/32" = 1'-0"
140
0.09375
141
12.0
290
     0
  0
SCALE
  5
136
102
{ACAD_REACTORS
330
11F
102
}
330
11F
100
AcDbScale
 70
     0
300
1/8" = 1'-0"
140
0.125
141
12.0
290
     0
  0
SCALE
  5
137
102
{ACAD_REACTORS
330
11F
102
}
330
11F
100
AcDbScale
 70
     0
300
3/16" = 1'-0"
140
0.1875
141
12.0
290
     0
  0
SCALE
  5
138
102
{ACAD_REACTORS
330
11F
102
}
330
11F
100
AcDbScale
 70
     0
300
1/4" = 1'-0"
140
0.25
141
12.0
290
     0
  0
SCALE
  5
139
102
{ACAD_REACTORS
330
11F
102
}
330
11F
100
AcDbScale
 70
     0
300
3/8" = 1'-0"
140
0.375
141
12.0
290
     0
  0
SCALE
  5
13A
102
{ACAD_REACTORS
330
11F
102
}
330
11F
100
AcDbScale
 70
     0
300
1/2" = 1'-0"
140
0.5
141
12.0
290
     0
  0
SCALE
  5
13B
102
{ACAD_REACTORS
330
11F
102
}
330
11F
100
AcDbScale
 70
     0
300
3/4" = 1'-0"
140
0.75
141
12.0
290
     0
  0
SCALE
  5
13C
102
{ACAD_REACTORS
330
11F
102
}
330
11F
100
AcDbScale
 70
     0
300
1" = 1'-0"
140
1.0
141
12.0
290
     0
  0
SCALE
  5
13D
102
{ACAD_REACTORS
330
11F
102
}
330
11F
100
AcDbScale
 70
     0
300
1-1/2" = 1'-0"
140
1.5
141
12.0
290
     0
  0
SCALE
  5
13E
102
{ACAD_REACTORS
330
11F
102
}
330
11F
100
AcDbScale
 70
     0
300
3" = 1'-0"
140
3.0
141
12.0
290
     0
  0
SCALE
  5
13F
102
{ACAD_REACTORS
330
11F
102
}
330
11F
100
AcDbScale
 70
     0
300
6" = 1'-0"
140
6.0
141
12.0
290
     0
  0
SCALE
  5
140
102
{ACAD_REACTORS
330
11F
102
}
330
11F
100
AcDbScale
 70
     0
300
1'-0" = 1'-0"
140
12.0
141
12.0
290
     0
  0
TABLESTYLE
  5
1AD
102
{ACAD_REACTORS
330
1AC
102
}
102
{ACAD_XDICTIONARY
360
244
102
}
330
1AC
100
AcDbTableStyle
  3
Standard
 70
     0
 71
     0
 40
0.06
 41
0.06
280
     0
281
     0
  7
Standard
140
0.18
170
     2
 62
     0
 63
   257
283
     0
 90
        4
 91
        0
  1

274
    -2
284
     1
 64
     0
275
    -2
285
     1
 65
     0
276
    -2
286
     1
 66
     0
277
    -2
287
     1
 67
     0
278
    -2
288
     1
 68
     0
279
    -2
289
     1
 69
     0
  7
Standard
140
0.25
170
     5
 62
     0
 63
   257
283
     0
 90
        4
 91
        0
  1

274
    -2
284
     1
 64
     0
275
    -2
285
     1
 65
     0
276
    -2
286
     1
 66
     0
277
    -2
287
     1
 67
     0
278
    -2
288
     1
 68
     0
279
    -2
289
     1
 69
     0
  7
Standard
140
0.18
170
     5
 62
     0
 63
   257
283
     0
 90
        4
 91
        0
  1

274
    -2
284
     1
 64
     0
275
    -2
285
     1
 65
     0
276
    -2
286
     1
 66
     0
277
    -2
287
     1
 67
     0
278
    -2
288
     1
 68
     0
279
    -2
289
     1
 69
     0
  0
VISUALSTYLE
  5
14A
102
{ACAD_REACTORS
330
145
102
}
330
145
100
AcDbVisualStyle
  2
2dWireframe
 70
     4
177
     3
291
     0
 70
    58
 90
        0
176
     1
 90
        2
176
     1
 90
        0
176
     1
 90
        0
176
     1
 40
-0.6
176
     1
 40
-30.0
176
     1
 62
     7
176
     1
 90
        1
176
     1
 90
        4
176
     1
 62
     7
176
     1
 62
   257
176
     1
 90
        1
176
     1
 90
        1
176
     1
 40
1.0
176
     1
 90
        0
176
     1
 62
   257
176
     1
 40
1.0
176
     1
 90
        1
176
     1
 90
        6
176
     1
 90
        2
176
     1
 62
     7
176
     1
 90
        5
176
     1
 90
        0
176
     1
 90
        0
176
     1
290
     0
176
     1
 90
        1
176
     1
 40
0.0
176
     1
 90
        0
176
     1
290
     1
176
     1
290
     1
176
     1
290
     0
176
     1
290
     0
176
     1
290
     0
176
     1
290
     0
176
     1
290
     0
176
     1
290
     0
176
     1
290
     0
176
     1
 90
       50
176
     1
 40
0.0
176
     1
 40
1.0
176
     1
 90
        0
176
     1
 62
    18
420
        0
176
     1
 90
       50
176
     1
 90
        3
176
     1
 62
     5
420
      255
176
     1
290
     0
176
     1
 90
       50
176
     1
 90
       50
176
     1
 90
       50
176
     1
290
     0
176
     1
 90
       50
176
     1
 62
   256
176
     0
 40
1.0
176
     0
 90
        2
176
     1
  1
strokes_ogs.tif
176
     1
290
     0
176
     1
 40
1.0
176
     1
 40
1.0
176
     1
  0
VISUALSTYLE
  5
14C
102
{ACAD_REACTORS
330
145
102
}
330
145
100
AcDbVisualStyle
  2
3D Hidden
 70
     6
177
     3
291
     0
 70
    58
 90
        1
176
     1
 90
        2
176
     1
 90
        2
176
     1
 90
        0
176
     1
 40
-0.6
176
     1
 40
-30.0
176
     1
 62
     7
176
     1
 90
        2
176
     1
 90
        2
176
     1
 62
     7
176
     1
 62
   257
176
     1
 90
        2
176
     1
 90
        1
176
     1
 40
40.0
176
     1
 90
        0
176
     1
 62
   257
176
     1
 40
1.0
176
     1
 90
        1
176
     1
 90
        6
176
     1
 90
        2
176
     1
 62
     7
176
     1
 90
        3
176
     1
 90
        0
176
     1
 90
        0
176
     1
290
     0
176
     1
 90
        1
176
     1
 40
0.0
176
     1
 90
        0
176
     1
290
     0
176
     1
290
     1
176
     1
290
     1
176
     1
290
     0
176
     1
290
     0
176
     1
290
     0
176
     1
290
     0
176
     1
290
     0
176
     1
290
     0
176
     1
 90
       50
176
     1
 40
0.0
176
     1
 40
1.0
176
     1
 90
        0
176
     1
 62
    18
420
        0
176
     1
 90
       50
176
     1
 90
        3
176
     1
 62
     5
420
      255
176
     1
290
     0
176
     1
 90
       50
176
     1
 90
       50
176
     1
 90
       50
176
     1
290
     0
176
     1
 90
       50
176
     1
 62
   256
176
     0
 40
1.0
176
     0
 90
        2
176
     1
  1
strokes_ogs.tif
176
     1
290
     0
176
     1
 40
1.0
176
     1
 40
1.0
176
     1
  0
VISUALSTYLE
  5
14B
102
{ACAD_REACTORS
330
145
102
}
330
145
100
AcDbVisualStyle
  2
3dWireframe
 70
     5
177
     3
291
     0
 70
    58
 90
        0
176
     1
 90
        2
176
     1
 90
        0
176
     1
 90
        0
176
     1
 40
-0.6
176
     1
 40
-30.0
176
     1
 62
     7
176
     1
 90
        1
176
     1
 90
        4
176
     1
 62
     7
176
     1
 62
   257
176
     1
 90
        1
176
     1
 90
        1
176
     1
 40
1.0
176
     1
 90
        0
176
     1
 62
   257
176
     1
 40
1.0
176
     1
 90
        1
176
     1
 90
        6
176
     1
 90
        2
176
     1
 62
     7
176
     1
 90
        5
176
     1
 90
        0
176
     1
 90
        0
176
     1
290
     0
176
     1
 90
        1
176
     1
 40
0.0
176
     1
 90
        0
176
     1
290
     0
176
     1
290
     1
176
     1
290
     1
176
     1
290
     0
176
     1
290
     0
176
     1
290
     0
176
     1
290
     0
176
     1
290
     0
176
     1
290
     0
176
     1
 90
       50
176
     1
 40
0.0
176
     1
 40
1.0
176
     1
 90
        0
176
     1
 62
    18
420
        0
176
     1
 90
       50
176
     1
 90
        3
176
     1
 62
     5
420
      255
176
     1
290
     0
176
     1
 90
       50
176
     1
 90
       50
176
     1
 90
       50
176
     1
290
     0
176
     1
 90
       50
176
     1
 62
   256
176
     0
 40
1.0
176
     0
 90
        2
176
     1
  1
strokes_ogs.tif
176
     1
290
     0
176
     1
 40
1.0
176
     1
 40
1.0
176
     1
  0
VISUALSTYLE
  5
14D
102
{ACAD_REACTORS
330
145
102
}
330
145
100
AcDbVisualStyle
  2
Basic
 70
     7
177
     3
291
     1
 70
    58
 90
        1
176
     1
 90
        0
176
     1
 90
        1
176
     1
 90
        0
176
     1
 40
-0.6
176
     1
 40
-30.0
176
     1
 62
     7
176
     1
 90
        0
176
     1
 90
        4
176
     1
 62
     7
176
     1
 62
   257
176
     1
 90
        1
176
     1
 90
        1
176
     1
 40
1.0
176
     1
 90
        8
176
     1
 62
     7
176
     1
 40
1.0
176
     1
 90
        1
176
     1
 90
        6
176
     1
 90
        2
176
     1
 62
     7
176
     1
 90
        5
176
     1
 90
        0
176
     1
 90
        0
176
     1
290
     0
176
     1
 90
        1
176
     1
 40
0.0
176
     1
 90
        0
176
     1
290
     0
176
     1
290
     1
176
     1
290
     1
176
     1
290
     0
176
     1
290
     0
176
     1
290
     0
176
     1
290
     0
176
     1
290
     0
176
     1
290
     0
176
     1
 90
       50
176
     1
 40
0.0
176
     1
 40
1.0
176
     1
 90
        0
176
     1
 62
    18
420
        0
176
     1
 90
       50
176
     1
 90
        3
176
     1
 62
     5
420
      255
176
     1
290
     0
176
     1
 90
       50
176
     1
 90
       50
176
     1
 90
       50
176
     1
290
     0
176
     1
 90
       50
176
     1
 62
   256
176
     0
 40
1.0
176
     0
 90
        2
176
     1
  1
strokes_ogs.tif
176
     1
290
     0
176
     1
 40
1.0
176
     1
 40
1.0
176
     1
  0
VISUALSTYLE
  5
151
102
{ACAD_REACTORS
330
145
102
}
330
145
100
AcDbVisualStyle
  2
Brighten
 70
    12
177
     3
291
     1
 70
    58
 90
        2
176
     1
 90
        2
176
     1
 90
        0
176
     1
 90
        0
176
     1
 40
-0.6
176
     1
 40
-30.0
176
     1
 62
     7
176
     1
 90
        1
176
     1
 90
        4
176
     1
 62
     7
176
     1
 62
   257
176
     1
 90
        1
176
     1
 90
        1
176
     1
 40
1.0
176
     1
 90
        8
176
     1
 62
     7
176
     1
 40
1.0
176
     1
 90
        1
176
     1
 90
        6
176
     1
 90
        2
176
     1
 62
     7
176
     1
 90
        5
176
     1
 90
        0
176
     1
 90
        0
176
     1
290
     0
176
     1
 90
        1
176
     1
 40
50.0
176
     1
 90
        0
176
     1
290
     0
176
     1
290
     1
176
     1
290
     1
176
     1
290
     0
176
     1
290
     0
176
     1
290
     0
176
     1
290
     0
176
     1
290
     0
176
     1
290
     0
176
     1
 90
       50
176
     1
 40
0.0
176
     1
 40
1.0
176
     1
 90
        0
176
     1
 62
    18
420
        0
176
     1
 90
       50
176
     1
 90
        3
176
     1
 62
     5
420
      255
176
     1
290
     0
176
     1
 90
       50
176
     1
 90
       50
176
     1
 90
       50
176
     1
290
     0
176
     1
 90
       50
176
     1
 62
   256
176
     0
 40
1.0
176
     0
 90
        2
176
     1
  1
strokes_ogs.tif
176
     1
290
     0
176
     1
 40
1.0
176
     1
 40
1.0
176
     1
  0
VISUALSTYLE
  5
155
102
{ACAD_REACTORS
330
145
102
}
330
145
100
AcDbVisualStyle
  2
ColorChange
 70
    16
177
     3
291
     1
 70
    58
 90
        2
176
     1
 90
        2
176
     1
 90
        3
176
     1
 90
        0
176
     1
 40
-0.6
176
     1
 40
-30.0
176
     1
 62
     8
176
     1
 90
        1
176
     1
 90
        4
176
     1
 62
     7
176
     1
 62
   257
176
     1
 90
        1
176
     1
 90
        1
176
     1
 40
1.0
176
     1
 90
        8
176
     1
 62
     8
176
     1
 40
1.0
176
     1
 90
        1
176
     1
 90
        6
176
     1
 90
        2
176
     1
 62
     7
176
     1
 90
        5
176
     1
 90
        0
176
     1
 90
        0
176
     1
290
     0
176
     1
 90
        1
176
     1
 40
0.0
176
     1
 90
        0
176
     1
290
     0
176
     1
290
     1
176
     1
290
     1
176
     1
290
     0
176
     1
290
     0
176
     1
290
     0
176
     1
290
     0
176
     1
290
     0
176
     1
290
     0
176
     1
 90
       50
176
     1
 40
0.0
176
     1
 40
1.0
176
     1
 90
        0
176
     1
 62
    18
420
        0
176
     1
 90
       50
176
     1
 90
        3
176
     1
 62
     5
420
      255
176
     1
290
     0
176
     1
 90
       50
176
     1
 90
       50
176
     1
 90
       50
176
     1
290
     0
176
     1
 90
       50
176
     1
 62
   256
176
     0
 40
1.0
176
     0
 90
        2
176
     1
  1
strokes_ogs.tif
176
     1
290
     0
176
     1
 40
1.0
176
     1
 40
1.0
176
     1
  0
VISUALSTYLE
  5
14F
102
{ACAD_REACTORS
330
145
102
}
330
145
100
AcDbVisualStyle
  2
Conceptual
 70
     9
177
     3
291
     0
 70
    58
 90
        3
176
     1
 90
        2
176
     1
 90
        0
176
     1
 90
        0
176
     1
 40
-0.6
176
     1
 40
-30.0
176
     1
 62
     7
176
     1
 90
        2
176
     1
 90
        2
176
     1
 62
     7
176
     1
 62
   257
176
     1
 90
        1
176
     1
 90
        1
176
     1
 40
40.0
176
     1
 90
        8
176
     1
 62
     7
176
     1
 40
1.0
176
     1
 90
        1
176
     1
 90
        6
176
     1
 90
        2
176
     1
 62
     7
176
     1
 90
        3
176
     1
 90
        0
176
     1
 90
        0
176
     1
290
     0
176
     1
 90
        1
176
     1
 40
0.0
176
     1
 90
        0
176
     1
290
     0
176
     1
290
     1
176
     1
290
     1
176
     1
290
     0
176
     1
290
     0
176
     1
290
     0
176
     1
290
     0
176
     1
290
     0
176
     1
290
     0
176
     1
 90
       50
176
     1
 40
0.0
176
     1
 40
1.0
176
     1
 90
        0
176
     1
 62
    18
420
        0
176
     1
 90
       50
176
     1
 90
        3
176
     1
 62
     5
420
      255
176
     1
290
     0
176
     1
 90
       50
176
     1
 90
       50
176
     1
 90
       50
176
     1
290
     0
176
     1
 90
       50
176
     1
 62
   256
176
     0
 40
1.0
176
     0
 90
        2
176
     1
  1
strokes_ogs.tif
176
     1
290
     0
176
     1
 40
1.0
176
     1
 40
1.0
176
     1
  0
VISUALSTYLE
  5
150
102
{ACAD_REACTORS
330
145
102
}
330
145
100
AcDbVisualStyle
  2
Dim
 70
    11
177
     3
291
     1
 70
    58
 90
        2
176
     1
 90
        2
176
     1
 90
        0
176
     1
 90
        0
176
     1
 40
-0.6
176
     1
 40
-30.0
176
     1
 62
     7
176
     1
 90
        1
176
     1
 90
        4
176
     1
 62
     7
176
     1
 62
   257
176
     1
 90
        1
176
     1
 90
        1
176
     1
 40
1.0
176
     1
 90
        8
176
     1
 62
     7
176
     1
 40
1.0
176
     1
 90
        1
176
     1
 90
        6
176
     1
 90
        2
176
     1
 62
     7
176
     1
 90
        5
176
     1
 90
        0
176
     1
 90
        0
176
     1
290
     0
176
     1
 90
        1
176
     1
 40
-50.0
176
     1
 90
        0
176
     1
290
     0
176
     1
290
     1
176
     1
290
     1
176
     1
290
     0
176
     1
290
     0
176
     1
290
     0
176
     1
290
     0
176
     1
290
     0
176
     1
290
     0
176
     1
 90
       50
176
     1
 40
0.0
176
     1
 40
1.0
176
     1
 90
        0
176
     1
 62
    18
420
        0
176
     1
 90
       50
176
     1
 90
        3
176
     1
 62
     5
420
      255
176
     1
290
     0
176
     1
 90
       50
176
     1
 90
       50
176
     1
 90
       50
176
     1
290
     0
176
     1
 90
       50
176
     1
 62
   256
176
     0
 40
1.0
176
     0
 90
        2
176
     1
  1
strokes_ogs.tif
176
     1
290
     0
176
     1
 40
1.0
176
     1
 40
1.0
176
     1
  0
VISUALSTYLE
  5
1A6
102
{ACAD_REACTORS
330
145
102
}
330
145
100
AcDbVisualStyle
  2
EdgeColorOff
 70
    22
177
     3
291
     1
 70
    58
 90
        2
176
     0
 90
        2
176
     0
 90
        0
176
     0
 90
        0
176
     0
 40
0.6
176
     0
 40
30.0
176
     0
 62
     7
420
 16777215
176
     0
 90
        1
176
     0
 90
        4
176
     0
 62
     7
176
     0
 62
   257
176
     0
 90
        1
176
     0
 90
        1
176
     0
 40
1.0
176
     0
 90
        8
176
     2
 62
     7
176
     0
 40
1.0
176
     0
 90
        1
176
     0
 90
        6
176
     0
 90
        2
176
     0
 62
     7
176
     0
 90
        5
176
     0
 90
        0
176
     0
 90
        0
176
     0
290
     0
176
     0
 90
        1
176
     0
 40
0.0
176
     0
 90
        0
176
     0
290
     0
176
     0
290
     1
176
     0
290
     1
176
     0
290
     0
176
     0
290
     0
176
     0
290
     0
176
     0
290
     0
176
     0
290
     0
176
     0
290
     0
176
     0
 90
       50
176
     0
 40
0.0
176
     0
 40
1.0
176
     0
 90
        0
176
     0
 62
    18
420
        0
176
     0
 90
       50
176
     0
 90
        3
176
     0
 62
     5
420
      255
176
     0
290
     0
176
     0
 90
       50
176
     0
 90
       50
176
     0
 90
       50
176
     0
290
     0
176
     0
 90
       50
176
     0
 62
   256
176
     0
 40
1.0
176
     0
 90
        2
176
     0
  1
strokes_ogs.tif
176
     0
290
     0
176
     0
 40
1.0
176
     0
 40
1.0
176
     0
  0
VISUALSTYLE
  5
154
102
{ACAD_REACTORS
330
145
102
}
330
145
100
AcDbVisualStyle
  2
Facepattern
 70
    15
177
     3
291
     1
 70
    58
 90
        2
176
     1
 90
        2
176
     1
 90
        0
176
     1
 90
        0
176
     1
 40
-0.6
176
     1
 40
-30.0
176
     1
 62
     7
176
     1
 90
        1
176
     1
 90
        4
176
     1
 62
     7
176
     1
 62
   257
176
     1
 90
        1
176
     1
 90
        1
176
     1
 40
1.0
176
     1
 90
        8
176
     1
 62
     7
176
     1
 40
1.0
176
     1
 90
        1
176
     1
 90
        6
176
     1
 90
        2
176
     1
 62
     7
176
     1
 90
        5
176
     1
 90
        0
176
     1
 90
        0
176
     1
290
     0
176
     1
 90
        1
176
     1
 40
0.0
176
     1
 90
        0
176
     1
290
     0
176
     1
290
     1
176
     1
290
     1
176
     1
290
     0
176
     1
290
     0
176
     1
290
     0
176
     1
290
     0
176
     1
290
     0
176
     1
290
     0
176
     1
 90
       50
176
     1
 40
0.0
176
     1
 40
1.0
176
     1
 90
        0
176
     1
 62
    18
420
        0
176
     1
 90
       50
176
     1
 90
        3
176
     1
 62
     5
420
      255
176
     1
290
     0
176
     1
 90
       50
176
     1
 90
       50
176
     1
 90
       50
176
     1
290
     0
176
     1
 90
       50
176
     1
 62
   256
176
     0
 40
1.0
176
     0
 90
        2
176
     1
  1
strokes_ogs.tif
176
     1
290
     0
176
     1
 40
1.0
176
     1
 40
1.0
176
     1
  0
VISUALSTYLE
  5
146
102
{ACAD_REACTORS
330
145
102
}
330
145
100
AcDbVisualStyle
  2
Flat
 70
     0
177
     3
291
     1
 70
    58
 90
        2
176
     1
 90
        1
176
     1
 90
        1
176
     1
 90
        2
176
     1
 40
-0.6
176
     1
 40
30.0
176
     1
 62
     7
176
     1
 90
        0
176
     1
 90
        4
176
     1
 62
     7
176
     1
 62
   257
176
     1
 90
        1
176
     1
 90
        1
176
     1
 40
1.0
176
     1
 90
        8
176
     1
 62
     7
176
     1
 40
1.0
176
     1
 90
        1
176
     1
 90
        6
176
     1
 90
        2
176
     1
 62
     7
176
     1
 90
        5
176
     1
 90
        0
176
     1
 90
        0
176
     1
290
     0
176
     1
 90
       13
176
     1
 40
0.0
176
     1
 90
        0
176
     1
290
     0
176
     1
290
     1
176
     1
290
     1
176
     1
290
     0
176
     1
290
     0
176
     1
290
     0
176
     1
290
     0
176
     1
290
     0
176
     1
290
     0
176
     1
 90
       50
176
     1
 40
0.0
176
     1
 40
1.0
176
     1
 90
        0
176
     1
 62
    18
420
        0
176
     1
 90
       50
176
     1
 90
        3
176
     1
 62
     5
420
      255
176
     1
290
     0
176
     1
 90
       50
176
     1
 90
       50
176
     1
 90
       50
176
     1
290
     0
176
     1
 90
       50
176
     1
 62
   256
176
     0
 40
1.0
176
     0
 90
        2
176
     1
  1
strokes_ogs.tif
176
     1
290
     0
176
     1
 40
1.0
176
     1
 40
1.0
176
     1
  0
VISUALSTYLE
  5
147
102
{ACAD_REACTORS
330
145
102
}
330
145
100
AcDbVisualStyle
  2
FlatWithEdges
 70
     1
177
     3
291
     1
 70
    58
 90
        2
176
     1
 90
        1
176
     1
 90
        1
176
     1
 90
        2
176
     1
 40
-0.6
176
     1
 40
30.0
176
     1
 62
     7
176
     1
 90
        1
176
     1
 90
        4
176
     1
 62
     7
176
     1
 62
   257
176
     1
 90
        1
176
     1
 90
        1
176
     1
 40
1.0
176
     1
 90
        0
176
     1
 62
   257
176
     1
 40
1.0
176
     1
 90
        1
176
     1
 90
        6
176
     1
 90
        2
176
     1
 62
     7
176
     1
 90
        5
176
     1
 90
        0
176
     1
 90
        0
176
     1
290
     0
176
     1
 90
       13
176
     1
 40
0.0
176
     1
 90
        0
176
     1
290
     0
176
     1
290
     1
176
     1
290
     1
176
     1
290
     0
176
     1
290
     0
176
     1
290
     0
176
     1
290
     0
176
     1
290
     0
176
     1
290
     0
176
     1
 90
       50
176
     1
 40
0.0
176
     1
 40
1.0
176
     1
 90
        0
176
     1
 62
    18
420
        0
176
     1
 90
       50
176
     1
 90
        3
176
     1
 62
     5
420
      255
176
     1
290
     0
176
     1
 90
       50
176
     1
 90
       50
176
     1
 90
       50
176
     1
290
     0
176
     1
 90
       50
176
     1
 62
   256
176
     0
 40
1.0
176
     0
 90
        2
176
     1
  1
strokes_ogs.tif
176
     1
290
     0
176
     1
 40
1.0
176
     1
 40
1.0
176
     1
  0
VISUALSTYLE
  5
148
102
{ACAD_REACTORS
330
145
102
}
330
145
100
AcDbVisualStyle
  2
Gouraud
 70
     2
177
     3
291
     1
 70
    58
 90
        2
176
     1
 90
        2
176
     1
 90
        1
176
     1
 90
        2
176
     1
 40
-0.6
176
     1
 40
30.0
176
     1
 62
     7
176
     1
 90
        0
176
     1
 90
        4
176
     1
 62
     7
176
     1
 62
   257
176
     1
 90
        1
176
     1
 90
        1
176
     1
 40
1.0
176
     1
 90
        0
176
     1
 62
     7
176
     1
 40
1.0
176
     1
 90
        1
176
     1
 90
        6
176
     1
 90
        2
176
     1
 62
     7
176
     1
 90
        5
176
     1
 90
        0
176
     1
 90
        0
176
     1
290
     0
176
     1
 90
       13
176
     1
 40
0.0
176
     1
 90
        0
176
     1
290
     0
176
     1
290
     1
176
     1
290
     1
176
     1
290
     0
176
     1
290
     0
176
     1
290
     0
176
     1
290
     0
176
     1
290
     0
176
     1
290
     0
176
     1
 90
       50
176
     1
 40
0.0
176
     1
 40
1.0
176
     1
 90
        0
176
     1
 62
    18
420
        0
176
     1
 90
       50
176
     1
 90
        3
176
     1
 62
     5
420
      255
176
     1
290
     0
176
     1
 90
       50
176
     1
 90
       50
176
     1
 90
       50
176
     1
290
     0
176
     1
 90
       50
176
     1
 62
   256
176
     0
 40
1.0
176
     0
 90
        2
176
     1
  1
strokes_ogs.tif
176
     1
290
     0
176
     1
 40
1.0
176
     1
 40
1.0
176
     1
  0
VISUALSTYLE
  5
149
102
{ACAD_REACTORS
330
145
102
}
330
145
100
AcDbVisualStyle
  2
GouraudWithEdges
 70
     3
177
     3
291
     1
 70
    58
 90
        2
176
     1
 90
        2
176
     1
 90
        1
176
     1
 90
        2
176
     1
 40
-0.6
176
     1
 40
30.0
176
     1
 62
     7
176
     1
 90
        1
176
     1
 90
        4
176
     1
 62
     7
176
     1
 62
   257
176
     1
 90
        1
176
     1
 90
        1
176
     1
 40
1.0
176
     1
 90
        0
176
     1
 62
   257
176
     1
 40
1.0
176
     1
 90
        1
176
     1
 90
        6
176
     1
 90
        2
176
     1
 62
     7
176
     1
 90
        5
176
     1
 90
        0
176
     1
 90
        0
176
     1
290
     0
176
     1
 90
       13
176
     1
 40
0.0
176
     1
 90
        0
176
     1
290
     0
176
     1
290
     1
176
     1
290
     1
176
     1
290
     0
176
     1
290
     0
176
     1
290
     0
176
     1
290
     0
176
     1
290
     0
176
     1
290
     0
176
     1
 90
       50
176
     1
 40
0.0
176
     1
 40
1.0
176
     1
 90
        0
176
     1
 62
    18
420
        0
176
     1
 90
       50
176
     1
 90
        3
176
     1
 62
     5
420
      255
176
     1
290
     0
176
     1
 90
       50
176
     1
 90
       50
176
     1
 90
       50
176
     1
290
     0
176
     1
 90
       50
176
     1
 62
   256
176
     0
 40
1.0
176
     0
 90
        2
176
     1
  1
strokes_ogs.tif
176
     1
290
     0
176
     1
 40
1.0
176
     1
 40
1.0
176
     1
  0
VISUALSTYLE
  5
1A3
102
{ACAD_REACTORS
330
145
102
}
330
145
100
AcDbVisualStyle
  2
Hidden
 70
     6
177
     3
291
     0
 70
    58
 90
        1
176
     1
 90
        2
176
     1
 90
        2
176
     1
 90
        0
176
     1
 40
0.6
176
     1
 40
30.0
176
     1
 62
     7
420
 16777215
176
     1
 90
        2
176
     1
 90
        2
176
     1
 62
     7
176
     1
 62
   257
176
     1
 90
        2
176
     1
 90
        1
176
     1
 40
40.0
176
     1
 90
        0
176
     1
 62
   257
176
     1
 40
1.0
176
     1
 90
        1
176
     1
 90
        6
176
     1
 90
        2
176
     1
 62
     7
176
     1
 90
        3
176
     1
 90
        0
176
     1
 90
        0
176
     1
290
     0
176
     1
 90
        1
176
     1
 40
0.0
176
     1
 90
        0
176
     1
290
     0
176
     1
290
     1
176
     1
290
     1
176
     1
290
     0
176
     1
290
     0
176
     1
290
     0
176
     1
290
     0
176
     1
290
     0
176
     1
290
     0
176
     1
 90
       50
176
     1
 40
0.0
176
     1
 40
1.0
176
     1
 90
        0
176
     1
 62
    18
420
        0
176
     1
 90
       50
176
     1
 90
        3
176
     1
 62
     5
420
      255
176
     1
290
     0
176
     1
 90
       50
176
     1
 90
       50
176
     1
 90
       50
176
     1
290
     0
176
     1
 90
       50
176
     1
 62
   256
176
     0
 40
1.0
176
     0
 90
        2
176
     1
  1
strokes_ogs.tif
176
     1
290
     0
176
     1
 40
1.0
176
     1
 40
1.0
176
     1
  0
VISUALSTYLE
  5
1A4
102
{ACAD_REACTORS
330
145
102
}
330
145
100
AcDbVisualStyle
  2
JitterOff
 70
    20
177
     3
291
     1
 70
    58
 90
        2
176
     0
 90
        2
176
     0
 90
        0
176
     0
 90
        0
176
     0
 40
0.6
176
     0
 40
30.0
176
     0
 62
     7
420
 16777215
176
     0
 90
        1
176
     0
 90
        4
176
     0
 62
     7
176
     0
 62
   257
176
     0
 90
        1
176
     0
 90
        1
176
     0
 40
1.0
176
     0
 90
       10
176
     2
 62
     7
176
     0
 40
1.0
176
     0
 90
        1
176
     0
 90
        6
176
     0
 90
        2
176
     0
 62
     7
176
     0
 90
        5
176
     0
 90
        0
176
     0
 90
        0
176
     0
290
     0
176
     0
 90
        1
176
     0
 40
0.0
176
     0
 90
        0
176
     0
290
     0
176
     0
290
     1
176
     0
290
     1
176
     0
290
     0
176
     0
290
     0
176
     0
290
     0
176
     0
290
     0
176
     0
290
     0
176
     0
290
     0
176
     0
 90
       50
176
     0
 40
0.0
176
     0
 40
1.0
176
     0
 90
        0
176
     0
 62
    18
420
        0
176
     0
 90
       50
176
     0
 90
        3
176
     0
 62
     5
420
      255
176
     0
290
     0
176
     0
 90
       50
176
     0
 90
       50
176
     0
 90
       50
176
     0
290
     0
176
     0
 90
       50
176
     0
 62
   256
176
     0
 40
1.0
176
     0
 90
        2
176
     0
  1
strokes_ogs.tif
176
     0
290
     0
176
     0
 40
1.0
176
     0
 40
1.0
176
     0
  0
VISUALSTYLE
  5
153
102
{ACAD_REACTORS
330
145
102
}
330
145
100
AcDbVisualStyle
  2
Linepattern
 70
    14
177
     3
291
     1
 70
    58
 90
        2
176
     1
 90
        2
176
     1
 90
        0
176
     1
 90
        0
176
     1
 40
-0.6
176
     1
 40
-30.0
176
     1
 62
     7
176
     1
 90
        1
176
     1
 90
        4
176
     1
 62
     7
176
     1
 62
   257
176
     1
 90
        7
176
     1
 90
        7
176
     1
 40
1.0
176
     1
 90
        8
176
     1
 62
     7
176
     1
 40
1.0
176
     1
 90
        1
176
     1
 90
        6
176
     1
 90
        2
176
     1
 62
     7
176
     1
 90
        5
176
     1
 90
        0
176
     1
 90
        0
176
     1
290
     0
176
     1
 90
        1
176
     1
 40
0.0
176
     1
 90
        0
176
     1
290
     0
176
     1
290
     1
176
     1
290
     1
176
     1
290
     0
176
     1
290
     0
176
     1
290
     0
176
     1
290
     0
176
     1
290
     0
176
     1
290
     0
176
     1
 90
       50
176
     1
 40
0.0
176
     1
 40
1.0
176
     1
 90
        0
176
     1
 62
    18
420
        0
176
     1
 90
       50
176
     1
 90
        3
176
     1
 62
     5
420
      255
176
     1
290
     0
176
     1
 90
       50
176
     1
 90
       50
176
     1
 90
       50
176
     1
290
     0
176
     1
 90
       50
176
     1
 62
   256
176
     0
 40
1.0
176
     0
 90
        2
176
     1
  1
strokes_ogs.tif
176
     1
290
     0
176
     1
 40
1.0
176
     1
 40
1.0
176
     1
  0
VISUALSTYLE
  5
1A5
102
{ACAD_REACTORS
330
145
102
}
330
145
100
AcDbVisualStyle
  2
OverhangOff
 70
    21
177
     3
291
     1
 70
    58
 90
        2
176
     0
 90
        2
176
     0
 90
        0
176
     0
 90
        0
176
     0
 40
0.6
176
     0
 40
30.0
176
     0
 62
     7
420
 16777215
176
     0
 90
        1
176
     0
 90
        4
176
     0
 62
     7
176
     0
 62
   257
176
     0
 90
        1
176
     0
 90
        1
176
     0
 40
1.0
176
     0
 90
        9
176
     2
 62
     7
176
     0
 40
1.0
176
     0
 90
        1
176
     0
 90
        6
176
     0
 90
        2
176
     0
 62
     7
176
     0
 90
        5
176
     0
 90
        0
176
     0
 90
        0
176
     0
290
     0
176
     0
 90
        1
176
     0
 40
0.0
176
     0
 90
        0
176
     0
290
     0
176
     0
290
     1
176
     0
290
     1
176
     0
290
     0
176
     0
290
     0
176
     0
290
     0
176
     0
290
     0
176
     0
290
     0
176
     0
290
     0
176
     0
 90
       50
176
     0
 40
0.0
176
     0
 40
1.0
176
     0
 90
        0
176
     0
 62
    18
420
        0
176
     0
 90
       50
176
     0
 90
        3
176
     0
 62
     5
420
      255
176
     0
290
     0
176
     0
 90
       50
176
     0
 90
       50
176
     0
 90
       50
176
     0
290
     0
176
     0
 90
       50
176
     0
 62
   256
176
     0
 40
1.0
176
     0
 90
        2
176
     0
  1
strokes_ogs.tif
176
     0
290
     0
176
     0
 40
1.0
176
     0
 40
1.0
176
     0
  0
VISUALSTYLE
  5
14E
102
{ACAD_REACTORS
330
145
102
}
330
145
100
AcDbVisualStyle
  2
Realistic
 70
     8
177
     3
291
     0
 70
    58
 90
        2
176
     1
 90
        2
176
     1
 90
        0
176
     1
 90
        0
176
     1
 40
-0.6
176
     1
 40
-30.0
176
     1
 62
     7
176
     1
 90
        1
176
     1
 90
        0
176
     1
 62
     7
176
     1
 62
   257
176
     1
 90
        1
176
     1
 90
        1
176
     1
 40
1.0
176
     1
 90
        8
176
     1
 62
     8
176
     1
 40
1.0
176
     1
 90
        1
176
     1
 90
        6
176
     1
 90
        2
176
     1
 62
     7
176
     1
 90
        5
176
     1
 90
        0
176
     1
 90
        0
176
     1
290
     0
176
     1
 90
       13
176
     1
 40
0.0
176
     1
 90
        0
176
     1
290
     0
176
     1
290
     1
176
     1
290
     1
176
     1
290
     0
176
     1
290
     0
176
     1
290
     0
176
     1
290
     0
176
     1
290
     0
176
     1
290
     0
176
     1
 90
       50
176
     1
 40
0.0
176
     1
 40
1.0
176
     1
 90
        0
176
     1
 62
    18
420
        0
176
     1
 90
       50
176
     1
 90
        3
176
     1
 62
     5
420
      255
176
     1
290
     0
176
     1
 90
       50
176
     1
 90
       50
176
     1
 90
       50
176
     1
290
     0
176
     1
 90
       50
176
     1
 62
   256
176
     0
 40
1.0
176
     0
 90
        2
176
     1
  1
strokes_ogs.tif
176
     1
290
     0
176
     1
 40
1.0
176
     1
 40
1.0
176
     1
  0
VISUALSTYLE
  5
1AB
102
{ACAD_REACTORS
330
145
102
}
330
145
100
AcDbVisualStyle
  2
Shaded
 70
    27
177
     3
291
     0
 70
    58
 90
        2
176
     1
 90
        2
176
     1
 90
        1
176
     1
 90
        2
176
     1
 40
0.6
176
     1
 40
30.0
176
     1
 62
     7
420
 16777215
176
     1
 90
        0
176
     1
 90
        4
176
     1
 62
     7
176
     1
 62
   257
176
     1
 90
        1
176
     1
 90
        1
176
     1
 40
1.0
176
     1
 90
        8
176
     1
 62
   257
176
     1
 40
1.0
176
     1
 90
        1
176
     1
 90
        6
176
     1
 90
        2
176
     1
 62
     8
420
  7895160
176
     1
 90
        3
176
     1
 90
        0
176
     1
 90
        0
176
     1
290
     0
176
     1
 90
        5
176
     1
 40
0.0
176
     1
 90
        0
176
     1
290
     0
176
     1
290
     1
176
     1
290
     1
176
     1
290
     0
176
     1
290
     0
176
     1
290
     0
176
     1
290
     0
176
     1
290
     0
176
     1
290
     0
176
     1
 90
       50
176
     1
 40
0.0
176
     1
 40
1.0
176
     1
 90
        0
176
     1
 62
    18
420
        0
176
     1
 90
       50
176
     1
 90
        3
176
     1
 62
     5
420
      255
176
     1
290
     0
176
     1
 90
       50
176
     1
 90
       50
176
     1
 90
       50
176
     1
290
     0
176
     1
 90
       50
176
     1
 62
   256
176
     0
 40
1.0
176
     0
 90
        2
176
     1
  1
strokes_ogs.tif
176
     1
290
     0
176
     1
 40
1.0
176
     1
 40
1.0
176
     1
  0
VISUALSTYLE
  5
1AA
102
{ACAD_REACTORS
330
145
102
}
330
145
100
AcDbVisualStyle
  2
Shaded with edges
 70
    26
177
     3
291
     0
 70
    58
 90
        2
176
     1
 90
        2
176
     1
 90
        1
176
     1
 90
        2
176
     1
 40
0.6
176
     1
 40
30.0
176
     1
 62
     7
420
 16777215
176
     1
 90
        1
176
     1
 90
       10
176
     1
 62
     7
176
     1
 62
   257
176
     1
 90
        2
176
     1
 90
        1
176
     1
 40
1.0
176
     1
 90
        8
176
     1
 62
   257
176
     1
 40
1.0
176
     1
 90
        1
176
     1
 90
        6
176
     1
 90
        2
176
     1
 62
     7
176
     1
 90
        3
176
     1
 90
        0
176
     1
 90
        0
176
     1
290
     0
176
     1
 90
        5
176
     1
 40
0.0
176
     1
 90
        0
176
     1
290
     0
176
     1
290
     1
176
     1
290
     1
176
     1
290
     0
176
     1
290
     0
176
     1
290
     0
176
     1
290
     0
176
     1
290
     0
176
     1
290
     0
176
     1
 90
       50
176
     1
 40
0.0
176
     1
 40
1.0
176
     1
 90
        0
176
     1
 62
    18
420
        0
176
     1
 90
       50
176
     1
 90
        3
176
     1
 62
     5
420
      255
176
     1
290
     0
176
     1
 90
       50
176
     1
 90
       50
176
     1
 90
       50
176
     1
290
     0
176
     1
 90
       50
176
     1
 62
   256
176
     0
 40
1.0
176
     0
 90
        2
176
     1
  1
strokes_ogs.tif
176
     1
290
     0
176
     1
 40
1.0
176
     1
 40
1.0
176
     1
  0
VISUALSTYLE
  5
1A7
102
{ACAD_REACTORS
330
145
102
}
330
145
100
AcDbVisualStyle
  2
Shades of Gray
 70
    23
177
     3
291
     0
 70
    58
 90
        2
176
     1
 90
        2
176
     1
 90
        3
176
     1
 90
        0
176
     1
 40
0.6
176
     1
 40
30.0
176
     1
 62
     7
420
 16777215
176
     1
 90
        2
176
     1
 90
        2
176
     1
 62
     7
176
     1
 62
     7
176
     1
 90
        1
176
     1
 90
        1
176
     1
 40
40.0
176
     1
 90
        8
176
     1
 62
     7
176
     1
 40
1.0
176
     1
 90
        1
176
     1
 90
        6
176
     1
 90
        2
176
     1
 62
     7
176
     1
 90
        3
176
     1
 90
        0
176
     1
 90
        0
176
     1
290
     0
176
     1
 90
        1
176
     1
 40
0.0
176
     1
 90
        0
176
     1
290
     0
176
     1
290
     1
176
     1
290
     1
176
     1
290
     0
176
     1
290
     0
176
     1
290
     0
176
     1
290
     0
176
     1
290
     0
176
     1
290
     0
176
     1
 90
       50
176
     1
 40
0.0
176
     1
 40
1.0
176
     1
 90
        0
176
     1
 62
    18
420
        0
176
     1
 90
       50
176
     1
 90
        3
176
     1
 62
     5
420
      255
176
     1
290
     0
176
     1
 90
       50
176
     1
 90
       50
176
     1
 90
       50
176
     1
290
     0
176
     1
 90
       50
176
     1
 62
   256
176
     0
 40
1.0
176
     0
 90
        2
176
     1
  1
strokes_ogs.tif
176
     1
290
     0
176
     1
 40
1.0
176
     1
 40
1.0
176
     1
  0
VISUALSTYLE
  5
1A8
102
{ACAD_REACTORS
330
145
102
}
330
145
100
AcDbVisualStyle
  2
Sketchy
 70
    24
177
     3
291
     0
 70
    58
 90
        1
176
     1
 90
        2
176
     1
 90
        2
176
     1
 90
        0
176
     1
 40
0.6
176
     1
 40
30.0
176
     1
 62
     7
420
 16777215
176
     1
 90
        2
176
     1
 90
        2
176
     1
 62
     7
176
     1
 62
     7
176
     1
 90
        1
176
     1
 90
        1
176
     1
 40
40.0
176
     1
 90
       11
176
     1
 62
     7
176
     1
 40
1.0
176
     1
 90
        1
176
     1
 90
        6
176
     1
 90
        2
176
     1
 62
     7
176
     1
 90
        6
176
     1
 90
        0
176
     1
 90
        0
176
     1
290
     0
176
     1
 90
        1
176
     1
 40
0.0
176
     1
 90
        0
176
     1
290
     0
176
     1
290
     1
176
     1
290
     1
176
     1
290
     0
176
     1
290
     0
176
     1
290
     0
176
     1
290
     0
176
     1
290
     0
176
     1
290
     0
176
     1
 90
       50
176
     1
 40
0.0
176
     1
 40
1.0
176
     1
 90
        0
176
     1
 62
    18
420
        0
176
     1
 90
       50
176
     1
 90
        3
176
     1
 62
     5
420
      255
176
     1
290
     0
176
     1
 90
       50
176
     1
 90
       50
176
     1
 90
       50
176
     1
290
     0
176
     1
 90
       50
176
     1
 62
   256
176
     0
 40
1.0
176
     0
 90
        2
176
     1
  1
strokes_ogs.tif
176
     1
290
     0
176
     1
 40
1.0
176
     1
 40
1.0
176
     1
  0
VISUALSTYLE
  5
152
102
{ACAD_REACTORS
330
145
102
}
330
145
100
AcDbVisualStyle
  2
Thicken
 70
    13
177
     3
291
     1
 70
    58
 90
        2
176
     1
 90
        2
176
     1
 90
        0
176
     1
 90
        0
176
     1
 40
-0.6
176
     1
 40
-30.0
176
     1
 62
     7
176
     1
 90
        1
176
     1
 90
        4
176
     1
 62
     7
176
     1
 62
   257
176
     1
 90
        1
176
     1
 90
        1
176
     1
 40
1.0
176
     1
 90
       12
176
     1
 62
     7
176
     1
 40
1.0
176
     1
 90
        1
176
     1
 90
        6
176
     1
 90
        2
176
     1
 62
     7
176
     1
 90
        5
176
     1
 90
        0
176
     1
 90
        0
176
     1
290
     0
176
     1
 90
        1
176
     1
 40
0.0
176
     1
 90
        0
176
     1
290
     0
176
     1
290
     1
176
     1
290
     1
176
     1
290
     0
176
     1
290
     0
176
     1
290
     0
176
     1
290
     0
176
     1
290
     0
176
     1
290
     0
176
     1
 90
       50
176
     1
 40
0.0
176
     1
 40
1.0
176
     1
 90
        0
176
     1
 62
    18
420
        0
176
     1
 90
       50
176
     1
 90
        3
176
     1
 62
     5
420
      255
176
     1
290
     0
176
     1
 90
       50
176
     1
 90
       50
176
     1
 90
       50
176
     1
290
     0
176
     1
 90
       50
176
     1
 62
   256
176
     0
 40
1.0
176
     0
 90
        2
176
     1
  1
strokes_ogs.tif
176
     1
290
     0
176
     1
 40
1.0
176
     1
 40
1.0
176
     1
  0
VISUALSTYLE
  5
1A2
102
{ACAD_REACTORS
330
145
102
}
330
145
100
AcDbVisualStyle
  2
Wireframe
 70
     5
177
     3
291
     0
 70
    58
 90
        0
176
     1
 90
        2
176
     1
 90
        0
176
     1
 90
        0
176
     1
 40
0.6
176
     1
 40
30.0
176
     1
 62
     7
420
 16777215
176
     1
 90
        1
176
     1
 90
        4
176
     1
 62
     7
176
     1
 62
   257
176
     1
 90
        1
176
     1
 90
        1
176
     1
 40
1.0
176
     1
 90
        0
176
     1
 62
   257
176
     1
 40
1.0
176
     1
 90
        1
176
     1
 90
        6
176
     1
 90
        2
176
     1
 62
     7
176
     1
 90
        3
176
     1
 90
        0
176
     1
 90
        0
176
     1
290
     0
176
     1
 90
        1
176
     1
 40
0.0
176
     1
 90
        0
176
     1
290
     0
176
     1
290
     1
176
     1
290
     1
176
     1
290
     0
176
     1
290
     0
176
     1
290
     0
176
     1
290
     0
176
     1
290
     0
176
     1
290
     0
176
     1
 90
       50
176
     1
 40
0.0
176
     1
 40
1.0
176
     1
 90
        0
176
     1
 62
    18
420
        0
176
     1
 90
       50
176
     1
 90
        3
176
     1
 62
     5
420
      255
176
     1
290
     0
176
     1
 90
       50
176
     1
 90
       50
176
     1
 90
       50
176
     1
290
     0
176
     1
 90
       50
176
     1
 62
   256
176
     0
 40
1.0
176
     0
 90
        2
176
     1
  1
strokes_ogs.tif
176
     1
290
     0
176
     1
 40
1.0
176
     1
 40
1.0
176
     1
  0
VISUALSTYLE
  5
1A9
102
{ACAD_REACTORS
330
145
102
}
330
145
100
AcDbVisualStyle
  2
X-Ray
 70
    25
177
     3
291
     0
 70
    58
 90
        2
176
     1
 90
        2
176
     1
 90
        1
176
     1
 90
        1
176
     1
 40
0.5
176
     1
 40
30.0
176
     1
 62
     7
420
 16777215
176
     1
 90
        1
176
     1
 90
        0
176
     1
 62
     7
176
     1
 62
   257
176
     1
 90
        1
176
     1
 90
        1
176
     1
 40
1.0
176
     1
 90
        8
176
     1
 62
     7
176
     1
 40
1.0
176
     1
 90
        1
176
     1
 90
        6
176
     1
 90
        2
176
     1
 62
     7
176
     1
 90
        3
176
     1
 90
        0
176
     1
 90
        0
176
     1
290
     0
176
     1
 90
       13
176
     1
 40
0.0
176
     1
 90
        0
176
     1
290
     0
176
     1
290
     1
176
     1
290
     1
176
     1
290
     0
176
     1
290
     0
176
     1
290
     0
176
     1
290
     0
176
     1
290
     0
176
     1
290
     0
176
     1
 90
       50
176
     1
 40
0.0
176
     1
 40
1.0
176
     1
 90
        0
176
     1
 62
    18
420
        0
176
     1
 90
       50
176
     1
 90
        3
176
     1
 62
     5
420
      255
176
     1
290
     0
176
     1
 90
       50
176
     1
 90
       50
176
     1
 90
       50
176
     1
290
     0
176
     1
 90
       50
176
     1
 62
   256
176
     0
 40
1.0
176
     0
 90
        2
176
     1
  1
strokes_ogs.tif
176
     1
290
     0
176
     1
 40
1.0
176
     1
 40
1.0
176
     1
  0
DICTIONARYVAR
  5
1B0
102
{ACAD_REACTORS
330
161
102
}
330
161
100
DictionaryVariables
280
     0
  1
1:1
  0
DICTIONARYVAR
  5
1B2
102
{ACAD_REACTORS
330
161
102
}
330
161
100
DictionaryVariables
280
     0
  1
Standard
  0
DICTIONARYVAR
  5
1B1
102
{ACAD_REACTORS
330
161
102
}
330
161
100
DictionaryVariables
280
     0
  1
Standard
  0
DICTIONARYVAR
  5
165
102
{ACAD_REACTORS
330
161
102
}
330
161
100
DictionaryVariables
280
     0
  1
2
  0
DICTIONARYVAR
  5
166
102
{ACAD_REACTORS
330
161
102
}
330
161
100
DictionaryVariables
280
     0
  1
1
  0
DICTIONARYVAR
  5
164
102
{ACAD_REACTORS
330
161
102
}
330
161
100
DictionaryVariables
280
     0
  1
0
  0
DICTIONARY
  5
244
330
1AD
100
AcDbDictionary
280
     1
281
     1
  3
ACAD_ROUNDTRIP_2008_TABLESTYLE_CELLSTYLEMAP
360
245
  0
CELLSTYLEMAP
  5
245
102
{ACAD_REACTORS
330
244
102
}
330
244
100
AcDbCellStyleMap
 90
        3
300
CELLSTYLE
  1
TABLEFORMAT_BEGIN
 90
        5
170
     1
 91
        0
 92
    32768
 62
   257
 93
        1
300
CONTENTFORMAT
  1
CONTENTFORMAT_BEGIN
 90
        0
 91
        0
 92
        4
 93
        0
300

 40
0.0
140
1.0
 94
        5
 62
     0
340
11
144
0.25
309
CONTENTFORMAT_END
171
     1
301
MARGIN
  1
CELLMARGIN_BEGIN
 40
0.06
 40
0.06
 40
0.06
 40
0.06
 40
0.06
 40
0.06
309
CELLMARGIN_END
 94
        6
 95
        1
302
GRIDFORMAT
  1
GRIDFORMAT_BEGIN
 90
        0
 91
        1
 62
     0
 92
       -2
340
14
 93
        0
 40
0.045
309
GRIDFORMAT_END
 95
        2
302
GRIDFORMAT
  1
GRIDFORMAT_BEGIN
 90
        0
 91
        1
 62
     0
 92
       -2
340
14
 93
        0
 40
0.045
309
GRIDFORMAT_END
 95
        4
302
GRIDFORMAT
  1
GRIDFORMAT_BEGIN
 90
        0
 91
        1
 62
     0
 92
       -2
340
14
 93
        0
 40
0.045
309
GRIDFORMAT_END
 95
        8
302
GRIDFORMAT
  1
GRIDFORMAT_BEGIN
 90
        0
 91
        1
 62
     0
 92
       -2
340
14
 93
        0
 40
0.045
309
GRIDFORMAT_END
 95
       16
302
GRIDFORMAT
  1
GRIDFORMAT_BEGIN
 90
        0
 91
        1
 62
     0
 92
       -2
340
14
 93
        0
 40
0.045
309
GRIDFORMAT_END
 95
       32
302
GRIDFORMAT
  1
GRIDFORMAT_BEGIN
 90
        0
 91
        1
 62
     0
 92
       -2
340
14
 93
        0
 40
0.045
309
GRIDFORMAT_END
309
TABLEFORMAT_END
  1
CELLSTYLE_BEGIN
 90
        1
 91
        1
300
_TITLE
309
CELLSTYLE_END
300
CELLSTYLE
  1
TABLEFORMAT_BEGIN
 90
        5
170
     1
 91
        0
 92
        0
 62
   257
 93
        1
300
CONTENTFORMAT
  1
CONTENTFORMAT_BEGIN
 90
        0
 91
        0
 92
        4
 93
        0
300

 40
0.0
140
1.0
 94
        5
 62
     0
340
11
144
0.18
309
CONTENTFORMAT_END
171
     1
301
MARGIN
  1
CELLMARGIN_BEGIN
 40
0.06
 40
0.06
 40
0.06
 40
0.06
 40
0.06
 40
0.06
309
CELLMARGIN_END
 94
        6
 95
        1
302
GRIDFORMAT
  1
GRIDFORMAT_BEGIN
 90
        0
 91
        1
 62
     0
 92
       -2
340
14
 93
        0
 40
0.045
309
GRIDFORMAT_END
 95
        2
302
GRIDFORMAT
  1
GRIDFORMAT_BEGIN
 90
        0
 91
        1
 62
     0
 92
       -2
340
14
 93
        0
 40
0.045
309
GRIDFORMAT_END
 95
        4
302
GRIDFORMAT
  1
GRIDFORMAT_BEGIN
 90
        0
 91
        1
 62
     0
 92
       -2
340
14
 93
        0
 40
0.045
309
GRIDFORMAT_END
 95
        8
302
GRIDFORMAT
  1
GRIDFORMAT_BEGIN
 90
        0
 91
        1
 62
     0
 92
       -2
340
14
 93
        0
 40
0.045
309
GRIDFORMAT_END
 95
       16
302
GRIDFORMAT
  1
GRIDFORMAT_BEGIN
 90
        0
 91
        1
 62
     0
 92
       -2
340
14
 93
        0
 40
0.045
309
GRIDFORMAT_END
 95
       32
302
GRIDFORMAT
  1
GRIDFORMAT_BEGIN
 90
        0
 91
        1
 62
     0
 92
       -2
340
14
 93
        0
 40
0.045
309
GRIDFORMAT_END
309
TABLEFORMAT_END
  1
CELLSTYLE_BEGIN
 90
        2
 91
        1
300
_HEADER
309
CELLSTYLE_END
300
CELLSTYLE
  1
TABLEFORMAT_BEGIN
 90
        5
170
     1
 91
        0
 92
        0
 62
   257
 93
        1
300
CONTENTFORMAT
  1
CONTENTFORMAT_BEGIN
 90
        0
 91
        0
 92
        4
 93
        0
300

 40
0.0
140
1.0
 94
        2
 62
     0
340
11
144
0.18
309
CONTENTFORMAT_END
171
     1
301
MARGIN
  1
CELLMARGIN_BEGIN
 40
0.06
 40
0.06
 40
0.06
 40
0.06
 40
0.06
 40
0.06
309
CELLMARGIN_END
 94
        6
 95
        1
302
GRIDFORMAT
  1
GRIDFORMAT_BEGIN
 90
        0
 91
        1
 62
     0
 92
       -2
340
14
 93
        0
 40
0.045
309
GRIDFORMAT_END
 95
        2
302
GRIDFORMAT
  1
GRIDFORMAT_BEGIN
 90
        0
 91
        1
 62
     0
 92
       -2
340
14
 93
        0
 40
0.045
309
GRIDFORMAT_END
 95
        4
302
GRIDFORMAT
  1
GRIDFORMAT_BEGIN
 90
        0
 91
        1
 62
     0
 92
       -2
340
14
 93
        0
 40
0.045
309
GRIDFORMAT_END
 95
        8
302
GRIDFORMAT
  1
GRIDFORMAT_BEGIN
 90
        0
 91
        1
 62
     0
 92
       -2
340
14
 93
        0
 40
0.045
309
GRIDFORMAT_END
 95
       16
302
GRIDFORMAT
  1
GRIDFORMAT_BEGIN
 90
        0
 91
        1
 62
     0
 92
       -2
340
14
 93
        0
 40
0.045
309
GRIDFORMAT_END
 95
       32
302
GRIDFORMAT
  1
GRIDFORMAT_BEGIN
 90
        0
 91
        1
 62
     0
 92
       -2
340
14
 93
        0
 40
0.045
309
GRIDFORMAT_END
309
TABLEFORMAT_END
  1
CELLSTYLE_BEGIN
 90
        3
 91
        2
300
_DATA
309
CELLSTYLE_END
  0
ENDSEC
  0
EOF
