  0
SECTION
  2
HEADER
  9
$ACADVER
  1
AC1027
  9
$ACADMAINTVER
 70
   105
  9
$DWGCODEPAGE
  3
ANSI_1252
  9
$REQUIREDVERSIONS
160
                 0
  9
$LASTSAVEDBY
  1
matthias.ochs
  9
$INSBASE
 10
0.0
 20
0.0
 30
0.0
  9
$EXTMIN
 10
-37.78224260817851
 20
-101.0195187239564
 30
0.0
  9
$EXTMAX
 10
85.69622061842394
 20
107.8107243469994
 30
0.0
  9
$LIMMIN
 10
-161.107450499
 20
-75.613123128
  9
$LIMMAX
 10
202.814946133
 20
88.925290449
  9
$ORTHOMODE
 70
     0
  9
$REGENMODE
 70
     1
  9
$FILLMODE
 70
     1
  9
$QTEXTMODE
 70
     0
  9
$MIRRTEXT
 70
     1
  9
$LTSCALE
 40
1.0
  9
$ATTMODE
 70
     1
  9
$TEXTSIZE
 40
0.2
  9
$TRACEWID
 40
0.05
  9
$TEXTSTYLE
  7
Standard
  9
$CLAYER
  8
SK1
  9
$CELTYPE
  6
ByLayer
  9
$CECOLOR
 62
   256
  9
$CELTSCALE
 40
1.0
  9
$DISPSILH
 70
     0
  9
$DIMSCALE
 40
1.0
  9
$DIMASZ
 40
0.18
  9
$DIMEXO
 40
0.0625
  9
$DIMDLI
 40
0.38
  9
$DIMRND
 40
0.0
  9
$DIMDLE
 40
0.0
  9
$DIMEXE
 40
0.18
  9
$DIMTP
 40
0.0
  9
$DIMTM
 40
0.0
  9
$DIMTXT
 40
0.18
  9
$DIMCEN
 40
0.09
  9
$DIMTSZ
 40
0.0
  9
$DIMTOL
 70
     0
  9
$DIMLIM
 70
     0
  9
$DIMTIH
 70
     1
  9
$DIMTOH
 70
     1
  9
$DIMSE1
 70
     0
  9
$DIMSE2
 70
     0
  9
$DIMTAD
 70
     0
  9
$DIMZIN
 70
     0
  9
$DIMBLK
  1

  9
$DIMASO
 70
     1
  9
$DIMSHO
 70
     1
  9
$DIMPOST
  1

  9
$DIMAPOST
  1

  9
$DIMALT
 70
     0
  9
$DIMALTD
 70
     2
  9
$DIMALTF
 40
25.4
  9
$DIMLFAC
 40
1.0
  9
$DIMTOFL
 70
     0
  9
$DIMTVP
 40
0.0
  9
$DIMTIX
 70
     0
  9
$DIMSOXD
 70
     0
  9
$DIMSAH
 70
     0
  9
$DIMBLK1
  1

  9
$DIMBLK2
  1

  9
$DIMSTYLE
  2
Standard
  9
$DIMCLRD
 70
     0
  9
$DIMCLRE
 70
     0
  9
$DIMCLRT
 70
     0
  9
$DIMTFAC
 40
1.0
  9
$DIMGAP
 40
0.09
  9
$DIMJUST
 70
     0
  9
$DIMSD1
 70
     0
  9
$DIMSD2
 70
     0
  9
$DIMTOLJ
 70
     1
  9
$DIMTZIN
 70
     0
  9
$DIMALTZ
 70
     0
  9
$DIMALTTZ
 70
     0
  9
$DIMUPT
 70
     0
  9
$DIMDEC
 70
     4
  9
$DIMTDEC
 70
     4
  9
$DIMALTU
 70
     2
  9
$DIMALTTD
 70
     2
  9
$DIMTXSTY
  7
Standard
  9
$DIMAUNIT
 70
     0
  9
$DIMADEC
 70
     0
  9
$DIMALTRND
 40
0.0
  9
$DIMAZIN
 70
     0
  9
$DIMDSEP
 70
    46
  9
$DIMATFIT
 70
     3
  9
$DIMFRAC
 70
     0
  9
$DIMLDRBLK
  1

  9
$DIMLUNIT
 70
     2
  9
$DIMLWD
 70
    -2
  9
$DIMLWE
 70
    -2
  9
$DIMTMOVE
 70
     2
  9
$DIMFXL
 40
1.0
  9
$DIMFXLON
 70
     0
  9
$DIMJOGANG
 40
0.7853981633974483
  9
$DIMTFILL
 70
     0
  9
$DIMTFILLCLR
 70
     0
  9
$DIMARCSYM
 70
     0
  9
$DIMLTYPE
  6

  9
$DIMLTEX1
  6

  9
$DIMLTEX2
  6

  9
$DIMTXTDIRECTION
 70
     0
  9
$LUNITS
 70
     2
  9
$LUPREC
 70
     4
  9
$SKETCHINC
 40
0.1
  9
$FILLETRAD
 40
0.5
  9
$AUNITS
 70
     2
  9
$AUPREC
 70
     0
  9
$MENU
  1
.
  9
$ELEVATION
 40
0.0
  9
$PELEVATION
 40
0.0
  9
$THICKNESS
 40
0.0
  9
$LIMCHECK
 70
     0
  9
$CHAMFERA
 40
0.5
  9
$CHAMFERB
 40
0.5
  9
$CHAMFERC
 40
1.0
  9
$CHAMFERD
 40
0.0
  9
$SKPOLY
 70
     0
  9
$TDCREATE
 40
2458327.549563472
  9
$TDUCREATE
 40
2458327.466230139
  9
$TDUPDATE
 40
2458677.591597014
  9
$TDUUPDATE
 40
2458677.508263681
  9
$TDINDWG
 40
0.0063145949
  9
$TDUSRTIMER
 40
0.0048284838
  9
$USRTIMER
 70
     1
  9
$ANGBASE
 50
0.0
  9
$ANGDIR
 70
     0
  9
$PDMODE
 70
     0
  9
$PDSIZE
 40
0.0
  9
$PLINEWID
 40
0.0
  9
$SPLFRAME
 70
     0
  9
$SPLINETYPE
 70
     6
  9
$SPLINESEGS
 70
     8
  9
$HANDSEED
  5
254
  9
$SURFTAB1
 70
     6
  9
$SURFTAB2
 70
     6
  9
$SURFTYPE
 70
     6
  9
$SURFU
 70
     6
  9
$SURFV
 70
     6
  9
$UCSBASE
  2

  9
$UCSNAME
  2

  9
$UCSORG
 10
0.0
 20
0.0
 30
0.0
  9
$UCSXDIR
 10
1.0
 20
0.0
 30
0.0
  9
$UCSYDIR
 10
0.0
 20
1.0
 30
0.0
  9
$UCSORTHOREF
  2

  9
$UCSORTHOVIEW
 70
     0
  9
$UCSORGTOP
 10
0.0
 20
0.0
 30
0.0
  9
$UCSORGBOTTOM
 10
0.0
 20
0.0
 30
0.0
  9
$UCSORGLEFT
 10
0.0
 20
0.0
 30
0.0
  9
$UCSORGRIGHT
 10
0.0
 20
0.0
 30
0.0
  9
$UCSORGFRONT
 10
0.0
 20
0.0
 30
0.0
  9
$UCSORGBACK
 10
0.0
 20
0.0
 30
0.0
  9
$PUCSBASE
  2

  9
$PUCSNAME
  2

  9
$PUCSORG
 10
0.0
 20
0.0
 30
0.0
  9
$PUCSXDIR
 10
1.0
 20
0.0
 30
0.0
  9
$PUCSYDIR
 10
0.0
 20
1.0
 30
0.0
  9
$PUCSORTHOREF
  2

  9
$PUCSORTHOVIEW
 70
     0
  9
$PUCSORGTOP
 10
0.0
 20
0.0
 30
0.0
  9
$PUCSORGBOTTOM
 10
0.0
 20
0.0
 30
0.0
  9
$PUCSORGLEFT
 10
0.0
 20
0.0
 30
0.0
  9
$PUCSORGRIGHT
 10
0.0
 20
0.0
 30
0.0
  9
$PUCSORGFRONT
 10
0.0
 20
0.0
 30
0.0
  9
$PUCSORGBACK
 10
0.0
 20
0.0
 30
0.0
  9
$USERI1
 70
     0
  9
$USERI2
 70
     0
  9
$USERI3
 70
     0
  9
$USERI4
 70
     0
  9
$USERI5
 70
     0
  9
$USERR1
 40
0.0
  9
$USERR2
 40
0.0
  9
$USERR3
 40
0.0
  9
$USERR4
 40
0.0
  9
$USERR5
 40
0.0
  9
$WORLDVIEW
 70
     1
  9
$SHADEDGE
 70
     3
  9
$SHADEDIF
 70
    70
  9
$TILEMODE
 70
     1
  9
$MAXACTVP
 70
    64
  9
$PINSBASE
 10
0.0
 20
0.0
 30
0.0
  9
$PLIMCHECK
 70
     0
  9
$PEXTMIN
 10
1.05
 20
0.6999999999999997
 30
0.0
  9
$PEXTMAX
 10
9.45
 20
6.300000000000001
 30
0.0
  9
$PLIMMIN
 10
0.0
 20
0.0
  9
$PLIMMAX
 10
0.0
 20
0.0
  9
$UNITMODE
 70
     0
  9
$VISRETAIN
 70
     1
  9
$PLINEGEN
 70
     0
  9
$PSLTSCALE
 70
     1
  9
$TREEDEPTH
 70
  3020
  9
$CMLSTYLE
  2
Standard
  9
$CMLJUST
 70
     0
  9
$CMLSCALE
 40
1.0
  9
$PROXYGRAPHICS
 70
     1
  9
$MEASUREMENT
 70
     0
  9
$CELWEIGHT
370
    -1
  9
$ENDCAPS
280
     0
  9
$JOINSTYLE
280
     0
  9
$LWDISPLAY
290
     0
  9
$INSUNITS
 70
     0
  9
$HYPERLINKBASE
  1

  9
$STYLESHEET
  1

  9
$XEDIT
290
     1
  9
$CEPSNTYPE
380
     0
  9
$PSTYLEMODE
290
     1
  9
$FINGERPRINTGUID
  2
{8D97C77B-9D7F-4360-8A78-18A1271CDB25}
  9
$VERSIONGUID
  2
{FAEB1C32-E019-11D5-929B-00C0DF256EC4}
  9
$EXTNAMES
290
     1
  9
$PSVPSCALE
 40
0.0
  9
$OLESTARTUP
290
     0
  9
$SORTENTS
280
   127
  9
$INDEXCTL
280
     0
  9
$HIDETEXT
280
     1
  9
$XCLIPFRAME
280
     2
  9
$HALOGAP
280
     0
  9
$OBSCOLOR
 70
   257
  9
$OBSLTYPE
280
     0
  9
$INTERSECTIONDISPLAY
280
     0
  9
$INTERSECTIONCOLOR
 70
   257
  9
$DIMASSOC
280
     2
  9
$PROJECTNAME
  1

  9
$CAMERADISPLAY
290
     0
  9
$LENSLENGTH
 40
50.0
  9
$CAMERAHEIGHT
 40
0.0
  9
$STEPSPERSEC
 40
2.0
  9
$STEPSIZE
 40
6.0
  9
$3DDWFPREC
 40
2.0
  9
$PSOLWIDTH
 40
0.25
  9
$PSOLHEIGHT
 40
4.0
  9
$LOFTANG1
 40
1.570796326794897
  9
$LOFTANG2
 40
1.570796326794897
  9
$LOFTMAG1
 40
0.0
  9
$LOFTMAG2
 40
0.0
  9
$LOFTPARAM
 70
     7
  9
$LOFTNORMALS
280
     1
  9
$LATITUDE
 40
37.795
  9
$LONGITUDE
 40
-122.394
  9
$NORTHDIRECTION
 40
0.0
  9
$TIMEZONE
 70
 -8000
  9
$LIGHTGLYPHDISPLAY
280
     1
  9
$TILEMODELIGHTSYNCH
280
     1
  9
$SOLIDHIST
280
     0
  9
$SHOWHIST
280
     1
  9
$DWFFRAME
280
     2
  9
$DGNFRAME
280
     2
  9
$REALWORLDSCALE
290
     1
  9
$INTERFERECOLOR
 62
   256
  9
$CSHADOW
280
     0
  9
$SHADOWPLANELOCATION
 40
0.0
  0
ENDSEC
  0
SECTION
  2
CLASSES
  0
CLASS
  1
ACDBDICTIONARYWDFLT
  2
AcDbDictionaryWithDefault
  3
ObjectDBX Classes
 90
        0
 91
       19
280
     0
281
     0
  0
CLASS
  1
SCALE
  2
AcDbScale
  3
ObjectDBX Classes
 90
     1153
 91
       19
280
     0
281
     0
  0
CLASS
  1
VISUALSTYLE
  2
AcDbVisualStyle
  3
ObjectDBX Classes
 90
     4095
 91
       19
280
     0
281
     0
  0
CLASS
  1
MATERIAL
  2
AcDbMaterial
  3
ObjectDBX Classes
 90
     1153
 91
       19
280
     0
281
     0
  0
CLASS
  1
DICTIONARYVAR
  2
AcDbDictionaryVar
  3
ObjectDBX Classes
 90
        0
 91
       17
280
     0
281
     0
  0
CLASS
  1
ACDBPLACEHOLDER
  2
AcDbPlaceHolder
  3
ObjectDBX Classes
 90
        0
 91
        1
280
     0
281
     0
  0
CLASS
  1
LAYOUT
  2
AcDbLayout
  3
ObjectDBX Classes
 90
        0
 91
        1
280
     0
281
     0
  0
CLASS
  1
TABLESTYLE
  2
AcDbTableStyle
  3
ObjectDBX Classes
 90
     4095
 91
       18
280
     0
281
     0
  0
CLASS
  1
MLEADERSTYLE
  2
AcDbMLeaderStyle
  3
ACDB_MLEADERSTYLE_CLASS
 90
     4095
 91
       18
280
     0
281
     0
  0
CLASS
  1
SUN
  2
AcDbSun
  3
SCENEOE
 90
     1153
 91
       19
280
     0
281
     0
  0
CLASS
  1
SORTENTSTABLE
  2
AcDbSortentsTable
  3
ObjectDBX Classes
 90
        0
 91
       15
280
     0
281
     0
  0
CLASS
  1
CELLSTYLEMAP
  2
AcDbCellStyleMap
  3
ObjectDBX Classes
 90
     1152
 91
       12
280
     0
281
     0
  0
ENDSEC
  0
SECTION
  2
TABLES
  0
TABLE
  2
VPORT
  5
8
330
0
100
AcDbSymbolTable
 70
     1
  0
VPORT
  5
13E
330
8
100
AcDbSymbolTableRecord
100
AcDbViewportTableRecord
  2
*Active
 70
     0
 10
0.0
 20
0.0
 11
1.0
 21
1.0
 12
-54.39856217512745
 22
3.564195295646897
 13
0.0
 23
0.0
 14
0.5
 24
0.5
 15
0.5
 25
0.5
 16
0.0
 26
0.0
 36
1.0
 17
0.0
 27
0.0
 37
0.0
 40
716.3399887290998
 41
1.831002331002331
 42
50.0
 43
0.0
 44
0.0
 50
0.0
 51
0.0
 71
    16
 72
   100
 73
     1
 74
     3
 75
     0
 76
     0
 77
     0
 78
     0
281
     0
 65
     1
110
0.0
120
0.0
130
0.0
111
1.0
121
0.0
131
0.0
112
0.0
122
1.0
132
0.0
 79
     0
146
0.0
348
16F
 60
     3
 61
     5
292
     1
282
     1
141
0.0
142
0.0
 63
   256
361
205
  0
ENDTAB
  0
TABLE
  2
LTYPE
  5
5
330
0
100
AcDbSymbolTable
 70
     8
  0
LTYPE
  5
14
330
5
100
AcDbSymbolTableRecord
100
AcDbLinetypeTableRecord
  2
ByBlock
 70
     0
  3

 72
    65
 73
     0
 40
0.0
  0
LTYPE
  5
15
330
5
100
AcDbSymbolTableRecord
100
AcDbLinetypeTableRecord
  2
ByLayer
 70
     0
  3

 72
    65
 73
     0
 40
0.0
  0
LTYPE
  5
16
330
5
100
AcDbSymbolTableRecord
100
AcDbLinetypeTableRecord
  2
Continuous
 70
     0
  3
Solid line
 72
    65
 73
     0
 40
0.0
  0
LTYPE
  5
20
330
5
100
AcDbSymbolTableRecord
100
AcDbLinetypeTableRecord
  2
PUNKT
 70
     0
  3
..............
 72
    65
 73
     2
 40
1.5
 49
0.7
 74
     0
 49
-0.8
 74
     0
  0
LTYPE
  5
21
330
5
100
AcDbSymbolTableRecord
100
AcDbLinetypeTableRecord
  2
GESTRICHELT
 70
     0
  3
-- -- -- -- --
 72
    65
 73
     7
 40
2.8
 49
0.9
 74
     0
 49
0.0
 74
     0
 49
0.9
 74
     0
 49
0.0
 74
     0
 49
0.2
 74
     0
 49
0.0
 74
     0
 49
-0.8
 74
     0
  0
LTYPE
  5
22
330
5
100
AcDbSymbolTableRecord
100
AcDbLinetypeTableRecord
  2
STRICHPUNKT
 70
     0
  3
--.--.--.--.--
 72
    65
 73
     4
 40
8.8
 49
5.5
 74
     0
 49
-1.3
 74
     0
 49
0.7
 74
     0
 49
-1.3
 74
     0
  0
LTYPE
  5
25
330
5
100
AcDbSymbolTableRecord
100
AcDbLinetypeTableRecord
  2
PHANTOM
 70
     0
  3
--..--..--..--
 72
    65
 73
     6
 40
14.2
 49
7.0
 74
     0
 49
-1.8
 74
     0
 49
0.9
 74
     0
 49
-1.8
 74
     0
 49
0.9
 74
     0
 49
-1.8
 74
     0
  0
LTYPE
  5
1B6
330
5
100
AcDbSymbolTableRecord
100
AcDbLinetypeTableRecord
  2
DASH
 70
     0
  3
DASH _ _ _ _ _
 72
    65
 73
     2
 40
0.75
 49
0.4
 74
     0
 49
-0.35
 74
     0
  0
LTYPE
  5
1B7
330
5
100
AcDbSymbolTableRecord
100
AcDbLinetypeTableRecord
  2
LONGDASH_DASH
 70
     0
  3
LONGDASH_DASH __ . __ . __
 72
    65
 73
     4
 40
0.85
 49
0.4
 74
     0
 49
-0.2
 74
     0
 49
0.05
 74
     0
 49
-0.2
 74
     0
  0
LTYPE
  5
1B8
330
5
100
AcDbSymbolTableRecord
100
AcDbLinetypeTableRecord
  2
LONGDASH_DASH_DASH
 70
     0
  3
LONGDASH_DASH_DASH __ . . __ . . __
 72
    65
 73
     6
 40
1.1
 49
0.4
 74
     0
 49
-0.2
 74
     0
 49
0.05
 74
     0
 49
-0.2
 74
     0
 49
0.05
 74
     0
 49
-0.2
 74
     0
  0
ENDTAB
  0
TABLE
  2
LAYER
  5
2
102
{ACAD_XDICTIONARY
360
1D5
102
}
330
0
100
AcDbSymbolTable
 70
    17
  0
LAYER
  5
180
330
2
100
AcDbSymbolTableRecord
100
AcDbLayerTableRecord
  2
200
 70
     0
 62
     2
  6
Continuous
370
    50
390
F
347
17E
348
0
  0
LAYER
  5
1B9
330
2
100
AcDbSymbolTableRecord
100
AcDbLayerTableRecord
  2
0
 70
     0
 62
     1
  6
Continuous
370
    -3
390
F
347
17E
348
0
  0
LAYER
  5
1BA
330
2
100
AcDbSymbolTableRecord
100
AcDbLayerTableRecord
  2
1
 70
     0
 62
     4
  6
Continuous
370
    50
390
F
347
17E
348
0
  0
LAYER
  5
1BB
330
2
100
AcDbSymbolTableRecord
100
AcDbLayerTableRecord
  2
2
 70
     0
 62
     7
  6
Continuous
370
    25
390
F
347
17E
348
0
  0
LAYER
  5
1BC
330
2
100
AcDbSymbolTableRecord
100
AcDbLayerTableRecord
  2
3
 70
     0
 62
     1
  6
DASH
370
    35
390
F
347
17E
348
0
  0
LAYER
  5
1BD
330
2
100
AcDbSymbolTableRecord
100
AcDbLayerTableRecord
  2
4
 70
     0
 62
     2
  6
LONGDASH_DASH
370
    25
390
F
347
17E
348
0
  0
LAYER
  5
1BE
330
2
100
AcDbSymbolTableRecord
100
AcDbLayerTableRecord
  2
6
 70
     0
 62
     5
  6
Continuous
370
    -3
390
F
347
17E
348
0
  0
LAYER
  5
1BF
330
2
100
AcDbSymbolTableRecord
100
AcDbLayerTableRecord
  2
CUT
 70
     0
 62
     1
  6
Continuous
370
    25
390
F
347
17E
348
0
  0
LAYER
  5
1C0
330
2
100
AcDbSymbolTableRecord
100
AcDbLayerTableRecord
  2
NOCUT
 70
     0
 62
     7
  6
Continuous
370
    25
390
F
347
17E
348
0
  0
LAYER
  5
1C1
330
2
100
AcDbSymbolTableRecord
100
AcDbLayerTableRecord
  2
SK1
 70
     0
 62
     4
  6
Continuous
370
    50
390
F
347
17E
348
0
  0
LAYER
  5
1C2
330
2
100
AcDbSymbolTableRecord
100
AcDbLayerTableRecord
  2
SK2
 70
     0
 62
     7
  6
Continuous
370
    25
390
F
347
17E
348
0
  0
LAYER
  5
1C3
330
2
100
AcDbSymbolTableRecord
100
AcDbLayerTableRecord
  2
SK3
 70
     0
 62
     1
  6
DASH
370
    35
390
F
347
17E
348
0
  0
LAYER
  5
1C4
330
2
100
AcDbSymbolTableRecord
100
AcDbLayerTableRecord
  2
SK4
 70
     0
 62
     2
  6
LONGDASH_DASH
370
    25
390
F
347
17E
348
0
  0
LAYER
  5
1C5
330
2
100
AcDbSymbolTableRecord
100
AcDbLayerTableRecord
  2
SK6
 70
     0
 62
     5
  6
Continuous
370
    -3
390
F
347
17E
348
0
  0
LAYER
  5
1C6
330
2
100
AcDbSymbolTableRecord
100
AcDbLayerTableRecord
  2
INFTOTAL
 70
     0
 62
     9
  6
Continuous
370
    18
390
F
347
17E
348
0
  0
LAYER
  5
209
330
2
100
AcDbSymbolTableRecord
100
AcDbLayerTableRecord
  2
7
 70
     0
 62
     5
  6
Continuous
370
    18
390
F
347
17E
348
0
1001
AcAecLayerStandard
1000

1000

  0
LAYER
  5
20B
330
2
100
AcDbSymbolTableRecord
100
AcDbLayerTableRecord
  2
11
 70
     0
 62
     4
  6
Continuous
370
    50
390
F
347
17E
348
0
1001
AcAecLayerStandard
1000

1000

  0
ENDTAB
  0
TABLE
  2
STYLE
  5
3
330
0
100
AcDbSymbolTable
 70
     3
  0
STYLE
  5
11
330
3
100
AcDbSymbolTableRecord
100
AcDbTextStyleTableRecord
  2
Standard
 70
     0
 40
0.0
 41
1.0
 50
0.0
 71
     0
 42
0.2
  3
txt
  4

  0
STYLE
  5
17F
330
3
100
AcDbSymbolTableRecord
100
AcDbTextStyleTableRecord
  2
BMG_Text
 70
     0
 40
3.5
 41
1.0
 50
0.0
 71
     0
 42
0.2
  3
monos.ttf
  4

1001
ACAD
1000
Monospac821 BT
1071
       49
  0
STYLE
  5
210
330
3
100
AcDbSymbolTableRecord
100
AcDbTextStyleTableRecord
  2
SLDTEXTSTYLE0
 70
     0
 40
0.0
 41
0.605
 50
0.0
 71
     0
 42
0.2
  3
TXT
  4

  0
ENDTAB
  0
TABLE
  2
VIEW
  5
6
330
0
100
AcDbSymbolTable
 70
     0
  0
ENDTAB
  0
TABLE
  2
UCS
  5
7
330
0
100
AcDbSymbolTable
 70
     0
  0
ENDTAB
  0
TABLE
  2
APPID
  5
9
330
0
100
AcDbSymbolTable
 70
     3
  0
APPID
  5
12
330
9
100
AcDbSymbolTableRecord
100
AcDbRegAppTableRecord
  2
ACAD
 70
     0
  0
APPID
  5
20A
330
9
100
AcDbSymbolTableRecord
100
AcDbRegAppTableRecord
  2
AcAecLayerStandard
 70
     0
  0
APPID
  5
213
330
9
100
AcDbSymbolTableRecord
100
AcDbRegAppTableRecord
  2
PE_URL
 70
     0
  0
ENDTAB
  0
TABLE
  2
DIMSTYLE
  5
A
330
0
100
AcDbSymbolTable
 70
     6
100
AcDbDimStyleTable
  0
DIMSTYLE
105
28
330
A
100
AcDbSymbolTableRecord
100
AcDbDimStyleTableRecord
  2
Standard
 70
     0
178
     0
340
11
  0
DIMSTYLE
105
20C
330
A
100
AcDbSymbolTableRecord
100
AcDbDimStyleTableRecord
  2
Matthias
 70
     0
 41
3.0
 44
2.0
 73
     0
 77
     1
140
3.0
147
2.0
178
     0
340
11
  0
DIMSTYLE
105
20E
102
{ACAD_REACTORS
102
}
330
A
100
AcDbSymbolTableRecord
100
AcDbDimStyleTableRecord
  2
ISO-25
 70
     0
 41
2.5
 42
0.625
 43
3.75
 44
1.25
 73
     0
 74
     0
 77
     1
 78
     8
140
2.5
141
2.5
143
0.0393700787
147
0.625
171
     3
172
     1
178
     0
271
     2
272
     2
274
     3
278
    44
283
     0
284
     8
340
11
  0
DIMSTYLE
105
20F
330
A
100
AcDbSymbolTableRecord
100
AcDbDimStyleTableRecord
  2
SLDDIMSTYLE0
 70
     0
 41
3.5
 44
0.0
 45
0.000000001
 73
     0
 74
     0
 77
     1
 78
    12
 79
     3
140
3.5
144
0.5
147
0.875
173
     1
178
     0
271
     2
272
     1
276
     2
284
    12
340
210
  0
DIMSTYLE
105
211
330
A
100
AcDbSymbolTableRecord
100
AcDbDimStyleTableRecord
  2
SLDDIMSTYLE1
 70
     0
 41
3.5
 44
0.0
 45
0.000000001
 73
     0
 74
     0
 77
     1
 78
    12
 79
     3
140
3.5
144
0.5
147
0.875
173
     1
178
     0
271
     2
272
     3
276
     2
284
    12
340
210
  0
DIMSTYLE
105
212
330
A
100
AcDbSymbolTableRecord
100
AcDbDimStyleTableRecord
  2
SLDDIMSTYLE2
 70
     0
 41
3.5
 44
0.0
 45
0.000000001
 73
     0
 74
     0
 77
     1
 78
    12
 79
     3
140
3.5
147
0.875
173
     1
178
     0
271
     2
272
     0
276
     2
284
    12
340
210
  0
ENDTAB
  0
TABLE
  2
BLOCK_RECORD
  5
1
330
0
100
AcDbSymbolTable
 70
     1
  0
BLOCK_RECORD
  5
1D
102
{ACAD_XDICTIONARY
360
244
102
}
330
1
100
AcDbSymbolTableRecord
100
AcDbBlockTableRecord
  2
*Model_Space
340
1E
 70
     0
280
     1
281
     0
  0
BLOCK_RECORD
  5
1B
330
1
100
AcDbSymbolTableRecord
100
AcDbBlockTableRecord
  2
*Paper_Space
340
1C
 70
     0
280
     1
281
     0
  0
ENDTAB
  0
ENDSEC
  0
SECTION
  2
BLOCKS
  0
BLOCK
  5
168
330
1D
100
AcDbEntity
  8
0
100
AcDbBlockBegin
  2
*Model_Space
 70
     0
 10
0.0
 20
0.0
 30
0.0
  3
*Model_Space
  1

  0
ENDBLK
  5
169
330
1D
100
AcDbEntity
  8
0
100
AcDbBlockEnd
  0
BLOCK
  5
166
330
1B
100
AcDbEntity
 67
     1
  8
0
100
AcDbBlockBegin
  2
*Paper_Space
 70
     0
 10
0.0
 20
0.0
 30
0.0
  3
*Paper_Space
  1

  0
ENDBLK
  5
167
330
1B
100
AcDbEntity
 67
     1
  8
0
100
AcDbBlockEnd
  0
ENDSEC
  0
SECTION
  2
ENTITIES
  0
ARC
  5
29
330
1D
100
AcDbEntity
  8
SK1
100
AcDbCircle
 10
37.77580123652636
 20
-38.847114898
 30
0.0
 40
82.523358137
100
AcDbArc
 50
117.285807823
 51
119.847317639
  0
ARC
  5
2A
330
1D
100
AcDbEntity
  8
SK1
100
AcDbCircle
 10
-0.2204288954736362
 20
34.866510394
 30
0.0
 40
0.407513977
100
AcDbArc
 50
293.8991436150002
 51
66.1008563849998
  0
ARC
  5
2B
330
1D
100
AcDbEntity
  8
SK1
100
AcDbCircle
 10
-36.38647078347363
 20
-38.847114898
 30
0.0
 40
82.514947519
100
AcDbArc
 50
63.877127221
 51
66.359412689
  0
LINE
  5
2C
330
1D
100
AcDbEntity
  8
SK1
100
AcDbLine
 10
-3.303410490473636
 20
37.500000062
 30
0.0
 11
16.29658974252636
 21
37.500000062
 31
0.0
  0
LINE
  5
2D
330
1D
100
AcDbEntity
  8
1
100
AcDbLine
 10
17.29658804352636
 20
36.499998036
 30
0.0
 11
16.79039187252636
 21
37.006194207
 31
0.0
  0
LINE
  5
2E
330
1D
100
AcDbEntity
  8
1
100
AcDbLine
 10
16.79039187252636
 20
37.006194207
 30
0.0
 11
16.29658974252636
 21
37.500000062
 31
0.0
  0
LINE
  5
30
330
1D
100
AcDbEntity
  8
1
100
AcDbLine
 10
17.29658804352636
 20
28.635640132
 30
0.0
 11
0.1946669025263638
 21
28.635640132
 31
0.0
  0
ARC
  5
31
330
1D
100
AcDbEntity
  8
1
100
AcDbCircle
 10
-0.4343121284736361
 20
28.668650429
 30
0.0
 40
0.629844664
100
AcDbArc
 50
356.995739231
 51
53.00813882199991
  0
ARC
  5
32
330
1D
100
AcDbEntity
  8
SK1
100
AcDbCircle
 10
-46.77877562947364
 20
-38.847114898
 30
0.0
 40
82.520555142
100
AcDbArc
 50
55.514082151
 51
58.21732022999998
  0
ARC
  5
33
330
1D
100
AcDbEntity
  8
SK1
100
AcDbCircle
 10
-0.1162425684736362
 20
-59.981639355
 30
0.0
 40
0.31517656
100
AcDbArc
 50
281.142714342
 51
350.5611800550005
  0
LINE
  5
34
330
1D
100
AcDbEntity
  8
1
100
AcDbLine
 10
0.1946669025263638
 20
28.635640132
 30
0.0
 11
0.1946669025263638
 21
-60.033326534
 31
0.0
  0
LINE
  5
35
330
1D
100
AcDbEntity
  8
1
100
AcDbLine
 10
32.26623124852637
 20
-73.055134651
 30
0.0
 11
32.26623124852637
 21
-73.055462477
 31
0.0
  0
LINE
  5
36
330
1D
100
AcDbEntity
  8
1
100
AcDbLine
 10
21.53129688952636
 20
-71.159088549
 30
0.0
 11
32.26623124852637
 21
-73.055462477
 31
0.0
  0
LINE
  5
37
330
1D
100
AcDbEntity
  8
1
100
AcDbLine
 10
21.53129688952636
 20
-71.27472156
 30
0.0
 11
21.53129688952636
 21
-71.159088549
 31
0.0
  0
ARC
  5
38
330
1D
100
AcDbEntity
  8
1
100
AcDbCircle
 10
21.50078471252636
 20
-70.158810468
 30
0.0
 40
1.114639428
100
AcDbArc
 50
262.7642282670001
 51
270.0
  0
ARC
  5
39
330
1D
100
AcDbEntity
  8
1
100
AcDbCircle
 10
21.50078471252636
 20
-70.158810468
 30
0.0
 40
1.116410354
100
AcDbArc
 50
270.0
 51
271.566217348
  0
LINE
  5
3A
330
1D
100
AcDbEntity
  8
1
100
AcDbLine
 10
21.36039174652636
 20
-71.264573869
 30
0.0
 11
20.41705511052636
 21
-71.098239657
 31
0.0
  0
LINE
  5
3B
330
1D
100
AcDbEntity
  8
1
100
AcDbLine
 10
20.41705511052636
 20
-71.098239657
 30
0.0
 11
14.18705842952636
 21
-69.999718604
 31
0.0
  0
LINE
  5
3C
330
1D
100
AcDbEntity
  8
1
100
AcDbLine
 10
14.18705842952636
 20
-60.033326534
 30
0.0
 11
14.18705842952636
 21
-69.999718604
 31
0.0
  0
LINE
  5
3D
330
1D
100
AcDbEntity
  8
1
100
AcDbLine
 10
14.18705842952636
 20
-60.033326534
 30
0.0
 11
16.79102517152636
 21
-60.568077055
 31
0.0
  0
LINE
  5
3E
330
1D
100
AcDbEntity
  8
1
100
AcDbLine
 10
16.79102517152636
 20
-60.568077055
 30
0.0
 11
28.09406257652637
 21
-62.875421283
 31
0.0
  0
ARC
  5
3F
330
1D
100
AcDbEntity
  8
1
100
AcDbCircle
 10
77.69965251452638
 20
1.068842021999998
 30
0.0
 40
80.929494577
100
AcDbArc
 50
232.197017566
 51
233.079293609
  0
LINE
  5
40
330
1D
100
AcDbEntity
  8
1
100
AcDbLine
 10
17.29658804352636
 20
-1.568466106000002
 30
0.0
 11
17.29658804352636
 21
36.499998036
 31
0.0
  0
ARC
  5
41
330
1D
100
AcDbEntity
  8
1
100
AcDbCircle
 10
27.29658901552637
 20
-1.568466098000002
 30
0.0
 40
10.0
100
AcDbArc
 50
180.0
 51
210.0
  0
LINE
  5
42
330
1D
100
AcDbEntity
  8
1
100
AcDbLine
 10
28.09406257652637
 20
-22.94973613000001
 30
0.0
 11
28.09406257652637
 21
-62.875421283
 31
0.0
  0
LINE
  5
43
330
1D
100
AcDbEntity
  8
1
100
AcDbLine
 10
0.1946669025263638
 20
-60.033326534
 30
0.0
 11
14.18705842952636
 21
-60.033326534
 31
0.0
  0
LINE
  5
44
330
1D
100
AcDbEntity
  8
1
100
AcDbLine
 10
28.09406257652637
 20
-22.94973613000001
 30
0.0
 11
18.63633654552637
 21
-6.568465878000001
 31
0.0
  0
LINE
  5
45
330
1D
100
AcDbEntity
  8
1
100
AcDbLine
 10
30.09406662952636
 20
-26.413838875
 30
0.0
 11
30.09406662952636
 21
-63.34365302
 31
0.0
  0
LINE
  5
46
330
1D
100
AcDbEntity
  8
1
100
AcDbLine
 10
30.09406662952636
 20
-63.34365302
 30
0.0
 11
30.07766790252636
 21
-63.507491288
 31
0.0
  0
LINE
  5
47
330
1D
100
AcDbEntity
  8
1
100
AcDbLine
 10
30.07766790252636
 20
-63.507491288
 30
0.0
 11
30.02366609352636
 21
-63.655489621
 31
0.0
  0
LINE
  5
48
330
1D
100
AcDbEntity
  8
1
100
AcDbLine
 10
30.02366609352636
 20
-63.655489621
 30
0.0
 11
29.94370646252636
 21
-63.758434293
 31
0.0
  0
LINE
  5
49
330
1D
100
AcDbEntity
  8
1
100
AcDbLine
 10
29.94370646252636
 20
-63.758434293
 30
0.0
 11
29.81664426152636
 21
-63.83552545
 31
0.0
  0
LINE
  5
4A
330
1D
100
AcDbEntity
  8
1
100
AcDbLine
 10
29.81664426152636
 20
-63.83552545
 30
0.0
 11
29.60873580952637
 21
-63.859926102
 31
0.0
  0
LINE
  5
4B
330
1D
100
AcDbEntity
  8
1
100
AcDbLine
 10
29.60873580952637
 20
-63.859926102
 30
0.0
 11
29.26184422752636
 21
-63.74646121
 31
0.0
  0
LINE
  5
4C
330
1D
100
AcDbEntity
  8
1
100
AcDbLine
 10
29.26184422752636
 20
-63.74646121
 30
0.0
 11
29.08455021252636
 21
-63.631677565
 31
0.0
  0
LINE
  5
4D
330
1D
100
AcDbEntity
  8
1
100
AcDbLine
 10
30.09406662952636
 20
-26.413838875
 30
0.0
 11
28.09406257652637
 21
-22.94973613000001
 31
0.0
  0
LINE
  5
4E
330
1D
100
AcDbEntity
  8
1
100
AcDbLine
 10
14.18705842952636
 20
-69.999718604
 30
0.0
 11
0.1529212995263639
 21
-69.999718604
 31
0.0
  0
LINE
  5
4F
330
1D
100
AcDbEntity
  8
1
100
AcDbLine
 10
0.1529212995263639
 20
-69.999718604
 30
0.0
 11
0.0608880025263638
 21
-69.999174711
 31
0.0
  0
LINE
  5
50
330
1D
100
AcDbEntity
  8
1
100
AcDbLine
 10
0.0608880025263638
 20
-69.999174711
 30
0.0
 11
-0.0553336044736362
 21
-69.998660621
 31
0.0
  0
ARC
  5
51
330
1D
100
AcDbEntity
  8
SK1
100
AcDbCircle
 10
0.6946652265263639
 20
136.855514654
 30
0.0
 40
206.856087776
100
AcDbArc
 50
268.89252881
 51
269.792261162
  0
ARC
  5
52
330
1D
100
AcDbEntity
  8
SK1
100
AcDbCircle
 10
-9.697639619473636
 20
136.855514654
 30
0.0
 40
206.856951053
100
AcDbArc
 50
271.7713723480001
 51
272.671696999
  0
LINE
  5
53
330
1D
100
AcDbEntity
  8
SK1
100
AcDbLine
 10
-0.0553336044736362
 20
-69.778279898
 30
0.0
 11
0.0739153425263638
 21
-69.769652125
 31
0.0
  0
LINE
  5
54
330
1D
100
AcDbEntity
  8
SK1
100
AcDbLine
 10
0.0739153425263638
 20
-69.769652125
 30
0.0
 11
0.1603197255263638
 21
-69.757813153
 31
0.0
  0
LINE
  5
55
330
1D
100
AcDbEntity
  8
SK1
100
AcDbLine
 10
0.1603197255263638
 20
-69.757813153
 30
0.0
 11
0.1943539775263639
 21
-69.743902919
 31
0.0
  0
LINE
  5
56
330
1D
100
AcDbEntity
  8
SK1
100
AcDbLine
 10
0.1943539775263639
 20
-69.743902919
 30
0.0
 11
0.1718942025263638
 21
-69.729389188
 31
0.0
  0
LINE
  5
57
330
1D
100
AcDbEntity
  8
SK1
100
AcDbLine
 10
0.1718942025263638
 20
-69.729389188
 30
0.0
 11
0.0951867505263638
 21
-69.715985593
 31
0.0
  0
LINE
  5
58
330
1D
100
AcDbEntity
  8
SK1
100
AcDbLine
 10
0.0951867505263638
 20
-69.715985593
 30
0.0
 11
-0.0269953214736362
 21
-69.705405769
 31
0.0
  0
LINE
  5
59
330
1D
100
AcDbEntity
  8
SK1
100
AcDbLine
 10
-0.0269953214736362
 20
-69.705405769
 30
0.0
 11
-0.0553336044736362
 21
-69.703774092
 31
0.0
  0
ARC
  5
5A
330
1D
100
AcDbEntity
  8
SK1
100
AcDbCircle
 10
11.08697007152636
 20
136.855514654
 30
0.0
 40
206.861854089
100
AcDbArc
 50
266.010987308
 51
266.912320398
  0
ARC
  5
5B
330
1D
100
AcDbEntity
  8
SK1
100
AcDbCircle
 10
-20.08994446447364
 20
136.855514654
 30
0.0
 40
206.863567009
100
AcDbArc
 50
274.654547167
 51
275.557716197
  0
LINE
  5
5C
330
1D
100
AcDbEntity
  8
SK1
100
AcDbLine
 10
-0.0553336044736362
 20
-69.037707088
 30
0.0
 11
0.0740010245263638
 21
-69.01964688
 31
0.0
  0
LINE
  5
5D
330
1D
100
AcDbEntity
  8
SK1
100
AcDbLine
 10
0.0740010245263638
 20
-69.01964688
 30
0.0
 11
0.1601707145263638
 21
-68.99526858
 31
0.0
  0
LINE
  5
5E
330
1D
100
AcDbEntity
  8
SK1
100
AcDbLine
 10
0.1601707145263638
 20
-68.99526858
 30
0.0
 11
0.1943502525263638
 21
-68.966844615
 31
0.0
  0
LINE
  5
5F
330
1D
100
AcDbEntity
  8
SK1
100
AcDbLine
 10
0.1943502525263638
 20
-68.966844615
 30
0.0
 11
0.1714397175263638
 21
-68.937377569
 31
0.0
  0
LINE
  5
60
330
1D
100
AcDbEntity
  8
SK1
100
AcDbLine
 10
0.1714397175263638
 20
-68.937377569
 30
0.0
 11
0.0929441255263638
 21
-68.910480973
 31
0.0
  0
LINE
  5
61
330
1D
100
AcDbEntity
  8
SK1
100
AcDbLine
 10
0.0929441255263638
 20
-68.910480973
 30
0.0
 11
-0.0316295824736362
 21
-68.889641699
 31
0.0
  0
LINE
  5
62
330
1D
100
AcDbEntity
  8
SK1
100
AcDbLine
 10
-0.0316295824736362
 20
-68.889641699
 30
0.0
 11
-0.0553336044736362
 21
-68.887011644
 31
0.0
  0
ARC
  5
63
330
1D
100
AcDbEntity
  8
SK1
100
AcDbCircle
 10
21.47927491752636
 20
136.855514654
 30
0.0
 40
206.867422852
100
AcDbArc
 50
263.119448591
 51
264.024735981
  0
ARC
  5
64
330
1D
100
AcDbEntity
  8
SK1
100
AcDbCircle
 10
-30.48224930947364
 20
136.855514654
 30
0.0
 40
206.867254261
100
AcDbArc
 50
277.5495173030001
 51
278.458072162
  0
LINE
  5
65
330
1D
100
AcDbEntity
  8
SK1
100
AcDbLine
 10
-0.0553336044736362
 20
-67.759880361
 30
0.0
 11
0.0741649375263638
 21
-67.731925783
 31
0.0
  0
LINE
  5
66
330
1D
100
AcDbEntity
  8
SK1
100
AcDbLine
 10
0.0741649375263638
 20
-67.731925783
 30
0.0
 11
0.1599397465263638
 21
-67.694590923
 31
0.0
  0
LINE
  5
67
330
1D
100
AcDbEntity
  8
SK1
100
AcDbLine
 10
0.1599397465263638
 20
-67.694590923
 30
0.0
 11
0.1943502525263638
 21
-67.650848565
 31
0.0
  0
LINE
  5
68
330
1D
100
AcDbEntity
  8
SK1
100
AcDbLine
 10
0.1943502525263638
 20
-67.650848565
 30
0.0
 11
0.1705679995263638
 21
-67.605146703
 31
0.0
  0
LINE
  5
69
330
1D
100
AcDbEntity
  8
SK1
100
AcDbLine
 10
0.1705679995263638
 20
-67.605146703
 30
0.0
 11
0.0888351305263638
 21
-67.563535211
 31
0.0
  0
LINE
  5
6A
330
1D
100
AcDbEntity
  8
SK1
100
AcDbLine
 10
0.0888351305263638
 20
-67.563535211
 30
0.0
 11
-0.0553336044736362
 21
-67.529433903
 31
0.0
  0
ARC
  5
6B
330
1D
100
AcDbEntity
  8
SK1
100
AcDbCircle
 10
31.87157976252636
 20
136.855514654
 30
0.0
 40
206.857463975
100
AcDbArc
 50
260.209588912
 51
261.121593957
  0
ARC
  5
6C
330
1D
100
AcDbEntity
  8
SK1
100
AcDbCircle
 10
-35.46497285047364
 20
106.179148696
 30
0.0
 40
175.702013587
100
AcDbArc
 50
280.54723489
 51
281.626858282
  0
LINE
  5
6D
330
1D
100
AcDbEntity
  8
SK1
100
AcDbLine
 10
-0.0553336044736362
 20
-65.913559434
 30
0.0
 11
0.0744182565263638
 21
-65.874928174
 31
0.0
  0
LINE
  5
6E
330
1D
100
AcDbEntity
  8
SK1
100
AcDbLine
 10
0.0744182565263638
 20
-65.874928174
 30
0.0
 11
0.1596156455263638
 21
-65.823958752
 31
0.0
  0
LINE
  5
6F
330
1D
100
AcDbEntity
  8
SK1
100
AcDbLine
 10
0.1596156455263638
 20
-65.823958752
 30
0.0
 11
0.1943614285263638
 21
-65.76348984
 31
0.0
  0
LINE
  5
70
330
1D
100
AcDbEntity
  8
SK1
100
AcDbLine
 10
0.1943614285263638
 20
-65.76348984
 30
0.0
 11
0.1691523895263638
 21
-65.699362692
 31
0.0
  0
LINE
  5
71
330
1D
100
AcDbEntity
  8
SK1
100
AcDbLine
 10
0.1691523895263638
 20
-65.699362692
 30
0.0
 11
0.0823121465263638
 21
-65.641009745
 31
0.0
  0
LINE
  5
72
330
1D
100
AcDbEntity
  8
SK1
100
AcDbLine
 10
0.0823121465263638
 20
-65.641009745
 30
0.0
 11
-0.0553336044736362
 21
-65.597468552
 31
0.0
  0
ARC
  5
73
330
1D
100
AcDbEntity
  8
SK1
100
AcDbCircle
 10
36.85430330352636
 20
106.179148695
 30
0.0
 40
175.698073168
100
AcDbArc
 50
256.787637759
 51
257.873240652
  0
ARC
  5
74
330
1D
100
AcDbEntity
  8
SK1
100
AcDbCircle
 10
-45.85727769547363
 20
106.179148696
 30
0.0
 40
175.699943724
100
AcDbArc
 50
284.016200883
 51
285.110300725
  0
LINE
  5
75
330
1D
100
AcDbEntity
  8
SK1
100
AcDbLine
 10
-0.0553336044736362
 20
-63.44913834
 30
0.0
 11
0.0747758845263638
 21
-63.398615953
 31
0.0
  0
LINE
  5
76
330
1D
100
AcDbEntity
  8
SK1
100
AcDbLine
 10
0.0747758845263638
 20
-63.398615953
 30
0.0
 11
0.1592021385263638
 21
-63.332953987
 31
0.0
  0
LINE
  5
77
330
1D
100
AcDbEntity
  8
SK1
100
AcDbLine
 10
0.1592021385263638
 20
-63.332953987
 30
0.0
 11
0.1943837805263638
 21
-63.253486094
 31
0.0
  0
LINE
  5
78
330
1D
100
AcDbEntity
  8
SK1
100
AcDbLine
 10
0.1943837805263638
 20
-63.253486094
 30
0.0
 11
0.1669395665263638
 21
-63.167409536
 31
0.0
  0
LINE
  5
79
330
1D
100
AcDbEntity
  8
SK1
100
AcDbLine
 10
0.1669395665263638
 20
-63.167409536
 30
0.0
 11
0.0723730725263638
 21
-63.089111385
 31
0.0
  0
LINE
  5
7A
330
1D
100
AcDbEntity
  8
SK1
100
AcDbLine
 10
0.0723730725263638
 20
-63.089111385
 30
0.0
 11
-0.0553336044736362
 21
-63.038335678
 31
0.0
  0
ARC
  5
7B
330
1D
100
AcDbEntity
  8
SK1
100
AcDbCircle
 10
47.24660814852636
 20
106.179148695
 30
0.0
 40
175.705828846
100
AcDbArc
 50
253.279878155
 51
254.382545966
  0
ARC
  5
7C
330
1D
100
AcDbEntity
  8
SK1
100
AcDbCircle
 10
-49.96179374847364
 20
85.26654901
 30
0.0
 40
153.869807625
100
AcDbArc
 50
287.65188044
 51
288.9250165479999
  0
LINE
  5
7D
330
1D
100
AcDbEntity
  8
SK1
100
AcDbLine
 10
-3.303410490473636
 20
-61.358527777
 30
0.0
 11
-3.353411336473636
 21
-61.317337242
 31
0.0
  0
LINE
  5
7E
330
1D
100
AcDbEntity
  8
SK1
100
AcDbLine
 10
-3.353411336473636
 20
31.276436958
 30
0.0
 11
-3.303410490473636
 21
31.318823311
 31
0.0
  0
ARC
  5
7F
330
1D
100
AcDbEntity
  8
1
100
AcDbCircle
 10
32.40307626452636
 20
-72.264807691
 30
0.0
 40
0.802086817
100
AcDbArc
 50
260.176641067
 51
359.4880564259997
  0
LINE
  5
80
330
1D
100
AcDbEntity
  8
1
100
AcDbLine
 10
30.82191384852636
 20
-27.674505052
 30
0.0
 11
30.82191384852636
 21
-44.500002203
 31
0.0
  0
ARC
  5
81
330
1D
100
AcDbEntity
  8
1
100
AcDbCircle
 10
119.0277531065264
 20
-44.500001428
 30
0.0
 40
88.205840414
100
AcDbArc
 50
180.0
 51
185.344722231
  0
ARC
  5
82
330
1D
100
AcDbEntity
  8
1
100
AcDbCircle
 10
45.58749646552636
 20
-51.37059292
 30
0.0
 40
14.444900054
100
AcDbArc
 50
185.345024151
 51
192.606993773
  0
ARC
  5
83
330
1D
100
AcDbEntity
  8
1
100
AcDbCircle
 10
35.46495523252636
 20
-53.634546332
 30
0.0
 40
4.072276178
100
AcDbArc
 50
192.606993773
 51
207.0028841099999
  0
ARC
  5
84
330
1D
100
AcDbEntity
  8
1
100
AcDbCircle
 10
31.98594209752637
 20
-55.407413512
 30
0.0
 40
0.167587915
100
AcDbArc
 50
207.0026238010005
 51
332.997376199
  0
ARC
  5
86
330
1D
100
AcDbEntity
  8
1
100
AcDbCircle
 10
28.50692896352636
 20
-53.634546332
 30
0.0
 40
4.072276178
100
AcDbArc
 50
332.9971158899999
 51
347.393006227
  0
ARC
  5
87
330
1D
100
AcDbEntity
  8
1
100
AcDbCircle
 10
18.38438772952636
 20
-51.37059292
 30
0.0
 40
14.444900054
100
AcDbArc
 50
347.3930062269999
 51
354.654975849
  0
ARC
  5
88
330
1D
100
AcDbEntity
  8
1
100
AcDbCircle
 10
-55.05586891047363
 20
-44.500001428
 30
0.0
 40
88.205840414
100
AcDbArc
 50
354.655277769
 51
0.0
  0
LINE
  5
89
330
1D
100
AcDbEntity
  8
1
100
AcDbLine
 10
33.14997441552637
 20
-44.500002203
 30
0.0
 11
33.14997441552637
 21
-31.706822601
 31
0.0
  0
LINE
  5
8A
330
1D
100
AcDbEntity
  8
1
100
AcDbLine
 10
33.14997441552637
 20
-31.706822601
 30
0.0
 11
33.64658541452636
 21
-32.566988406
 31
0.0
  0
LINE
  5
8B
330
1D
100
AcDbEntity
  8
1
100
AcDbLine
 10
33.64658541452636
 20
-32.566988406
 30
0.0
 11
33.64658541452636
 21
-61.264974561
 31
0.0
  0
LINE
  5
8C
330
1D
100
AcDbEntity
  8
1
100
AcDbLine
 10
33.64658541452636
 20
-61.264974561
 30
0.0
 11
33.48893112952636
 21
-61.410599885
 31
0.0
  0
LINE
  5
8D
330
1D
100
AcDbEntity
  8
1
100
AcDbLine
 10
33.20515341552636
 20
-61.360308465
 30
0.0
 11
33.48893112952636
 21
-61.410599885
 31
0.0
  0
LINE
  5
8E
330
1D
100
AcDbEntity
  8
1
100
AcDbLine
 10
33.20515341552636
 20
-72.266177771
 30
0.0
 11
33.20515341552636
 21
-61.360308465
 31
0.0
  0
LINE
  5
8F
330
1D
100
AcDbEntity
  8
1
100
AcDbLine
 10
33.20515341552636
 20
-72.266177771
 30
0.0
 11
33.20513106352637
 21
-72.271974322
 31
0.0
  0
LINE
  5
90
330
1D
100
AcDbEntity
  8
1
100
AcDbLine
 10
30.09406662952636
 20
-26.413838875
 30
0.0
 11
30.82191384852636
 21
-27.674505052
 31
0.0
  0
LINE
  5
91
330
1D
100
AcDbEntity
  8
SK1
100
AcDbLine
 10
-3.353411336473636
 20
-62.026695845
 30
0.0
 11
-3.303410490473636
 21
-62.098105934
 31
0.0
  0
ARC
  5
92
330
1D
100
AcDbEntity
  8
SK1
100
AcDbCircle
 10
-2.521579895473636
 20
-61.302991497
 30
0.0
 40
1.102584023
100
AcDbArc
 50
191.1338683529999
 51
221.0237000210001
  0
LINE
  5
94
330
1D
100
AcDbEntity
  8
SK1
100
AcDbLine
 10
-3.353411336473636
 20
-61.317337242
 30
0.0
 11
-3.433523704473636
 21
-61.257494179
 31
0.0
  0
LINE
  5
95
330
1D
100
AcDbEntity
  8
SK1
100
AcDbLine
 10
-3.433523704473636
 20
-61.257494179
 30
0.0
 11
-3.510428597473636
 21
-61.216452655
 31
0.0
  0
LINE
  5
96
330
1D
100
AcDbEntity
  8
SK1
100
AcDbLine
 10
-3.510428597473636
 20
-61.216452655
 30
0.0
 11
-3.568785269473636
 21
-61.208759931
 31
0.0
  0
LINE
  5
97
330
1D
100
AcDbEntity
  8
SK1
100
AcDbLine
 10
-3.568785269473636
 20
-61.208759931
 30
0.0
 11
-3.596482803473636
 21
-61.23165184
 31
0.0
  0
LINE
  5
98
330
1D
100
AcDbEntity
  8
SK1
100
AcDbLine
 10
-3.596482803473636
 20
-61.23165184
 30
0.0
 11
-3.603411843473636
 21
-61.268822786
 31
0.0
  0
LINE
  5
99
330
1D
100
AcDbEntity
  8
SK1
100
AcDbLine
 10
-3.603411843473636
 20
31.373052361
 30
0.0
 11
-3.593524922473636
 21
31.282378796
 31
0.0
  0
LINE
  5
9A
330
1D
100
AcDbEntity
  8
SK1
100
AcDbLine
 10
-3.593524922473636
 20
31.282378796
 30
0.0
 11
-3.566691656473636
 21
31.22645101199999
 31
0.0
  0
LINE
  5
9B
330
1D
100
AcDbEntity
  8
SK1
100
AcDbLine
 10
-3.566691656473636
 20
31.22645101199999
 30
0.0
 11
-3.527140249473636
 21
31.201513919
 31
0.0
  0
LINE
  5
9C
330
1D
100
AcDbEntity
  8
SK1
100
AcDbLine
 10
-3.527140249473636
 20
31.201513919
 30
0.0
 11
-3.472151239473636
 21
31.204587284
 31
0.0
  0
LINE
  5
9D
330
1D
100
AcDbEntity
  8
SK1
100
AcDbLine
 10
-3.472151239473636
 20
31.204587284
 30
0.0
 11
-3.415411343473636
 21
31.23087479499999
 31
0.0
  0
LINE
  5
9E
330
1D
100
AcDbEntity
  8
SK1
100
AcDbLine
 10
-3.415411343473636
 20
31.23087479499999
 30
0.0
 11
-3.353411336473636
 21
31.276436958
 31
0.0
  0
ARC
  5
A0
330
1D
100
AcDbEntity
  8
SK1
100
AcDbCircle
 10
-1.923153490473636
 20
31.758337156
 30
0.0
 40
1.682915908
100
AcDbArc
 50
148.197410176
 51
176.779637838
  0
LINE
  5
A1
330
1D
100
AcDbEntity
  8
SK1
100
AcDbLine
 10
-3.303410490473636
 20
32.74407095
 30
0.0
 11
-3.353411336473636
 21
32.645224097
 31
0.0
  0
LINE
  5
A3
330
1D
100
AcDbEntity
  8
SK1
100
AcDbLine
 10
-3.303410490473636
 20
-64.289727745
 30
0.0
 11
-3.353411336473636
 21
-64.247721371
 31
0.0
  0
LINE
  5
A4
330
1D
100
AcDbEntity
  8
SK1
100
AcDbLine
 10
-3.353411336473636
 20
36.690185282
 30
0.0
 11
-3.303410490473636
 21
36.731036815
 31
0.0
  0
LINE
  5
A6
330
1D
100
AcDbEntity
  8
SK1
100
AcDbLine
 10
-3.557121386473636
 20
37.246285441
 30
0.0
 11
-3.595335413473636
 21
37.112923774
 31
0.0
  0
LINE
  5
A7
330
1D
100
AcDbEntity
  8
SK1
100
AcDbLine
 10
-3.595335413473636
 20
37.112923774
 30
0.0
 11
-3.603411843473636
 21
37.038466397
 31
0.0
  0
LINE
  5
A8
330
1D
100
AcDbEntity
  8
SK1
100
AcDbLine
 10
-3.557121386473636
 20
37.246285441
 30
0.0
 11
-3.303410490473636
 21
37.500000062
 31
0.0
  0
LINE
  5
A9
330
1D
100
AcDbEntity
  8
SK1
100
AcDbLine
 10
-3.603411843473636
 20
36.701856616
 30
0.0
 11
-3.597574313473636
 21
36.652489069
 31
0.0
  0
LINE
  5
AA
330
1D
100
AcDbEntity
  8
SK1
100
AcDbLine
 10
-3.597574313473636
 20
36.652489069
 30
0.0
 11
-3.569966186473636
 21
36.609566274
 31
0.0
  0
LINE
  5
AB
330
1D
100
AcDbEntity
  8
SK1
100
AcDbLine
 10
-3.569966186473636
 20
36.609566274
 30
0.0
 11
-3.526473422473636
 21
36.598908219
 31
0.0
  0
LINE
  5
AC
330
1D
100
AcDbEntity
  8
SK1
100
AcDbLine
 10
-3.526473422473636
 20
36.598908219
 30
0.0
 11
-3.467584033473636
 21
36.615347925
 31
0.0
  0
LINE
  5
AD
330
1D
100
AcDbEntity
  8
SK1
100
AcDbLine
 10
-3.467584033473636
 20
36.615347925
 30
0.0
 11
-3.382077445473636
 21
36.667755309
 31
0.0
  0
LINE
  5
AE
330
1D
100
AcDbEntity
  8
SK1
100
AcDbLine
 10
-3.382077445473636
 20
36.667755309
 30
0.0
 11
-3.353411336473636
 21
36.690185282
 31
0.0
  0
LINE
  5
AF
330
1D
100
AcDbEntity
  8
SK1
100
AcDbLine
 10
-3.353411336473636
 20
-64.802446899
 30
0.0
 11
-3.303410490473636
 21
-64.868131217
 31
0.0
  0
ARC
  5
B0
330
1D
100
AcDbEntity
  8
SK1
100
AcDbCircle
 10
-2.433146622473636
 20
-63.995439709
 30
0.0
 40
1.223988459
100
AcDbArc
 50
197.0385056489999
 51
221.2484759389999
  0
LINE
  5
B2
330
1D
100
AcDbEntity
  8
SK1
100
AcDbLine
 10
-3.353411336473636
 20
-64.247721371
 30
0.0
 11
-3.442225982473636
 21
-64.179138777
 31
0.0
  0
LINE
  5
B3
330
1D
100
AcDbEntity
  8
SK1
100
AcDbLine
 10
-3.442225982473636
 20
-64.179138777
 30
0.0
 11
-3.520650794473636
 21
-64.13336986
 31
0.0
  0
LINE
  5
B4
330
1D
100
AcDbEntity
  8
SK1
100
AcDbLine
 10
-3.520650794473636
 20
-64.13336986
 30
0.0
 11
-3.577487548473636
 21
-64.121463832
 31
0.0
  0
LINE
  5
B5
330
1D
100
AcDbEntity
  8
SK1
100
AcDbLine
 10
-3.577487548473636
 20
-64.121463832
 30
0.0
 11
-3.600770612473636
 21
-64.142012534
 31
0.0
  0
LINE
  5
B6
330
1D
100
AcDbEntity
  8
SK1
100
AcDbLine
 10
-3.600770612473636
 20
-64.142012534
 30
0.0
 11
-3.603411843473636
 21
-64.160944459
 31
0.0
  0
LINE
  5
B9
330
1D
100
AcDbEntity
  8
SK1
100
AcDbLine
 10
-3.303410490473636
 20
-66.554264662
 30
0.0
 11
-3.353411336473636
 21
-66.511081097
 31
0.0
  0
LINE
  5
BA
330
1D
100
AcDbEntity
  8
SK1
100
AcDbLine
 10
-3.353411336473636
 20
-66.928343412
 30
0.0
 11
-3.303410490473636
 21
-66.989356217
 31
0.0
  0
ARC
  5
BB
330
1D
100
AcDbEntity
  8
SK1
100
AcDbCircle
 10
-2.517650578473636
 20
-66.12273459
 30
0.0
 40
1.160819374
100
AcDbArc
 50
200.7167903729998
 51
223.9475957369997
  0
LINE
  5
BD
330
1D
100
AcDbEntity
  8
SK1
100
AcDbLine
 10
-3.353411336473636
 20
-66.511081097
 30
0.0
 11
-3.450511028473636
 21
-66.432760593
 31
0.0
  0
LINE
  5
BE
330
1D
100
AcDbEntity
  8
SK1
100
AcDbLine
 10
-3.450511028473636
 20
-66.432760593
 30
0.0
 11
-3.529807557473636
 21
-66.381433544
 31
0.0
  0
LINE
  5
BF
330
1D
100
AcDbEntity
  8
SK1
100
AcDbLine
 10
-3.529807557473636
 20
-66.381433544
 30
0.0
 11
-3.584558149473636
 21
-66.364297208
 31
0.0
  0
LINE
  5
C0
330
1D
100
AcDbEntity
  8
SK1
100
AcDbLine
 10
-3.584558149473636
 20
-66.364297208
 30
0.0
 11
-3.602946181473636
 21
-66.381731567
 31
0.0
  0
LINE
  5
C1
330
1D
100
AcDbEntity
  8
SK1
100
AcDbLine
 10
-3.602946181473636
 20
-66.381731567
 30
0.0
 11
-3.603411843473636
 21
-66.388139066
 31
0.0
  0
LINE
  5
C2
330
1D
100
AcDbEntity
  8
SK1
100
AcDbLine
 10
-3.603411843473636
 20
37.199998709
 30
0.0
 11
-3.597998996473636
 21
37.205411556
 31
0.0
  0
LINE
  5
C4
330
1D
100
AcDbEntity
  8
SK1
100
AcDbLine
 10
-3.303410490473636
 20
-68.218545553
 30
0.0
 11
-3.353411336473636
 21
-68.173879323
 31
0.0
  0
LINE
  5
C5
330
1D
100
AcDbEntity
  8
SK1
100
AcDbLine
 10
-3.353411336473636
 20
-68.464943704
 30
0.0
 11
-3.303410490473636
 21
-68.522059855
 31
0.0
  0
ARC
  5
C6
330
1D
100
AcDbEntity
  8
SK1
100
AcDbCircle
 10
-2.575378043473636
 20
-67.642071387
 30
0.0
 40
1.132455145
100
AcDbArc
 50
204.7980068429998
 51
226.6043515169999
  0
LINE
  5
C8
330
1D
100
AcDbEntity
  8
SK1
100
AcDbLine
 10
-3.353411336473636
 20
-68.173879323
 30
0.0
 11
-3.458501775473636
 21
-68.084636268
 31
0.0
  0
LINE
  5
C9
330
1D
100
AcDbEntity
  8
SK1
100
AcDbLine
 10
-3.458501775473636
 20
-68.084636268
 30
0.0
 11
-3.538111229473636
 21
-68.026931521
 31
0.0
  0
LINE
  5
CA
330
1D
100
AcDbEntity
  8
SK1
100
AcDbLine
 10
-3.538111229473636
 20
-68.026931521
 30
0.0
 11
-3.584409137473636
 21
-68.004520175
 31
0.0
  0
LINE
  5
CB
330
1D
100
AcDbEntity
  8
SK1
100
AcDbLine
 10
-3.584409137473636
 20
-68.004520175
 30
0.0
 11
-3.603151072473636
 21
-68.01241779
 31
0.0
  0
LINE
  5
CC
330
1D
100
AcDbEntity
  8
SK1
100
AcDbLine
 10
-3.603151072473636
 20
-68.01241779
 30
0.0
 11
-3.603411843473636
 21
-68.0157482
 31
0.0
  0
LINE
  5
CE
330
1D
100
AcDbEntity
  8
SK1
100
AcDbLine
 10
-3.303410490473636
 20
-69.32582849
 30
0.0
 11
-3.353411336473636
 21
-69.27937412
 31
0.0
  0
ARC
  5
CF
330
1D
100
AcDbEntity
  8
SK1
100
AcDbCircle
 10
-3.843331460473636
 20
-69.654998854
 30
0.0
 40
0.617345664
100
AcDbArc
 50
37.47760153899948
 51
67.13066155899995
  0
LINE
  5
D1
330
1D
100
AcDbEntity
  8
SK1
100
AcDbLine
 10
-3.353411336473636
 20
-69.451385674
 30
0.0
 11
-3.303410490473636
 21
-69.505201218
 31
0.0
  0
ARC
  5
D2
330
1D
100
AcDbEntity
  8
SK1
100
AcDbCircle
 10
-2.414198171473636
 20
-68.427395967
 30
0.0
 40
1.38948778
100
AcDbArc
 50
211.1445948299998
 51
227.47265438
  0
LINE
  5
D4
330
1D
100
AcDbEntity
  8
SK1
100
AcDbLine
 10
-3.303410490473636
 20
-69.902585384
 30
0.0
 11
-3.353411336473636
 21
-69.854037401
 31
0.0
  0
LINE
  5
D5
330
1D
100
AcDbEntity
  8
1
100
AcDbLine
 10
30.82191384852636
 20
-27.674505052
 30
0.0
 11
33.14997441552637
 21
-31.706822601
 31
0.0
  0
LINE
  5
D6
330
1D
100
AcDbEntity
  8
SK1
100
AcDbLine
 10
-3.353411336473636
 20
-69.910944936
 30
0.0
 11
-3.303410490473636
 21
-69.961929259
 31
0.0
  0
ARC
  5
D7
330
1D
100
AcDbEntity
  8
SK1
100
AcDbCircle
 10
-1.159484256473636
 20
-67.598617005
 30
0.0
 40
3.187503176
100
AcDbArc
 50
219.939601259
 51
226.5050876069999
  0
LINE
  5
D8
330
1D
100
AcDbEntity
  8
SK1
100
AcDbLine
 10
-3.603411843473636
 20
37.038466397
 30
0.0
 11
-3.603411843473636
 21
-69.64492940599999
 31
0.0
  0
ARC
  5
D9
330
1D
100
AcDbEntity
  8
SK1
100
AcDbCircle
 10
-4.756356611473636
 20
-71.135259431
 30
0.0
 40
1.899943508
100
AcDbArc
 50
42.40349520199997
 51
52.63927966200005
  0
LINE
  5
DB
330
1D
100
AcDbEntity
  8
1
100
AcDbLine
 10
14.18705842952636
 20
69.999715748
 30
0.0
 11
0.3529209595263638
 21
69.999715748
 31
0.0
  0
LINE
  5
DC
330
1D
100
AcDbEntity
  8
1
100
AcDbLine
 10
21.29665878113574
 20
71.25333412677737
 30
0.0
 11
20.41705511052636
 21
71.098236802
 31
0.0
  0
LINE
  5
DD
330
1D
100
AcDbEntity
  8
1
100
AcDbLine
 10
20.41705511052636
 20
71.098236802
 30
0.0
 11
14.18705842952636
 21
69.999715748
 31
0.0
  0
LINE
  5
DE
330
1D
100
AcDbEntity
  8
1
100
AcDbLine
 10
20.30987478352636
 20
61.887091461
 30
0.0
 11
21.29658869952636
 21
63.063009146
 31
0.0
  0
ARC
  5
DF
330
1D
100
AcDbEntity
  8
1
100
AcDbCircle
 10
22.30158901552636
 20
60.21584318
 30
0.0
 40
2.6
100
AcDbArc
 50
140.0
 51
320.0
  0
LINE
  5
E0
330
1D
100
AcDbEntity
  8
1
100
AcDbLine
 10
25.28001926352636
 20
59.720518502
 30
0.0
 11
24.29330534752636
 21
58.544597092
 31
0.0
  0
LINE
  5
E1
330
1D
100
AcDbEntity
  8
1
100
AcDbLine
 10
33.64658541452636
 20
61.264971706
 30
0.0
 11
33.64186174652637
 21
61.264133516
 31
0.0
  0
LINE
  5
E2
330
1D
100
AcDbEntity
  8
1
100
AcDbLine
 10
33.64658541452636
 20
32.56698555
 30
0.0
 11
33.64658541452636
 21
61.264971706
 31
0.0
  0
LINE
  5
E3
330
1D
100
AcDbEntity
  8
1
100
AcDbLine
 10
18.63633654552637
 20
6.568463022999998
 30
0.0
 11
33.64658541452636
 21
32.56698555
 31
0.0
  0
ARC
  5
E4
330
1D
100
AcDbEntity
  8
1
100
AcDbCircle
 10
27.29658901552637
 20
1.568463241999998
 30
0.0
 40
10.0
100
AcDbArc
 50
150.0
 51
180.0
  0
LINE
  5
E5
330
1D
100
AcDbEntity
  8
1
100
AcDbLine
 10
33.64658541452636
 20
61.264971706
 30
0.0
 11
33.64511765052637
 21
61.266327712
 31
0.0
  0
LINE
  5
E6
330
1D
100
AcDbEntity
  8
1
100
AcDbLine
 10
0.3529209595263638
 20
69.999715748
 30
0.0
 11
0.2608876625263639
 21
69.999171856
 31
0.0
  0
LINE
  5
E7
330
1D
100
AcDbEntity
  8
1
100
AcDbLine
 10
0.2608876625263639
 20
69.999171856
 30
0.0
 11
0.1446660555263638
 21
69.998657766
 31
0.0
  0
LINE
  5
E8
330
1D
100
AcDbEntity
  8
SK1
100
AcDbLine
 10
-3.153411676473636
 20
69.910942081
 30
0.0
 11
-3.103410829473636
 21
69.961926404
 31
0.0
  0
ARC
  5
E9
330
1D
100
AcDbEntity
  8
SK1
100
AcDbCircle
 10
0.8946652265263638
 20
-136.855517509
 30
0.0
 40
206.855536433
100
AcDbArc
 50
90.207738838
 51
91.10747119
  0
LINE
  5
EA
330
1D
100
AcDbEntity
  8
SK1
100
AcDbLine
 10
-3.403412183473636
 20
37.39999837
 30
0.0
 11
-3.403412183473636
 21
69.644926551
 31
0.0
  0
ARC
  5
EB
330
1D
100
AcDbEntity
  8
SK1
100
AcDbCircle
 10
-0.9594845954736362
 20
67.598614149
 30
0.0
 40
3.187503176
100
AcDbArc
 50
133.4949123930001
 51
140.060398741
  0
ARC
  5
ED
330
1D
100
AcDbEntity
  8
1
100
AcDbCircle
 10
22.09658901552636
 20
71.242769085
 30
0.0
 40
0.8
100
AcDbArc
 50
100.0000000000001
 51
180.0
  0
LINE
  5
EE
330
1D
100
AcDbEntity
  8
1
100
AcDbLine
 10
33.05766917252637
 20
73.987847629
 30
0.0
 11
21.95767126452636
 21
72.030617359
 31
0.0
  0
ARC
  5
EF
330
1D
100
AcDbEntity
  8
1
100
AcDbCircle
 10
33.19658901552636
 20
73.199998571
 30
0.0
 40
0.8
100
AcDbArc
 50
0.0
 51
100.0000000000001
  0
LINE
  5
F0
330
1D
100
AcDbEntity
  8
1
100
AcDbLine
 10
33.99659133952636
 20
61.928762558
 30
0.0
 11
33.99659133952636
 21
73.200000885
 31
0.0
  0
ARC
  5
F1
330
1D
100
AcDbEntity
  8
1
100
AcDbCircle
 10
33.19658901552636
 20
61.928763179
 30
0.0
 40
0.8
100
AcDbArc
 50
280.0000000000001
 51
0.0
  0
ARC
  5
F2
330
1D
100
AcDbEntity
  8
1
100
AcDbCircle
 10
22.09658901552636
 20
59.971533693
 30
0.0
 40
0.8
100
AcDbArc
 50
180.0
 51
280.0000000000001
  0
ARC
  5
F4
330
1D
100
AcDbEntity
  8
CUT
100
AcDbCircle
 10
33.19658901552636
 20
-73.200001427
 30
0.0
 40
0.8
100
AcDbArc
 50
259.9999999999999
 51
0.0
  0
ARC
  5
F5
330
1D
100
AcDbEntity
  8
CUT
100
AcDbCircle
 10
33.19658901552636
 20
-73.200001427
 30
0.0
 40
0.21554549
100
AcDbArc
 50
260.0000000000002
 51
0.0
  0
ARC
  5
F6
330
1D
100
AcDbEntity
  8
CUT
100
AcDbCircle
 10
33.19658901552636
 20
-61.928766035
 30
0.0
 40
0.8
100
AcDbArc
 50
0.0
 51
55.89825163400004
  0
ARC
  5
F7
330
1D
100
AcDbEntity
  8
CUT
100
AcDbCircle
 10
33.19658901552636
 20
-61.928766035
 30
0.0
 40
0.21554549
100
AcDbArc
 50
0.0
 51
80.00000000000018
  0
LINE
  5
F8
330
1D
100
AcDbEntity
  8
CUT
100
AcDbLine
 10
33.99659133952636
 20
-61.928765413
 30
0.0
 11
33.99659133952636
 21
-73.20000374
 31
0.0
  0
LINE
  5
F9
330
1D
100
AcDbEntity
  8
CUT
100
AcDbLine
 10
33.41213799552636
 20
-73.20000374
 30
0.0
 11
33.41213799552636
 21
-61.928765413
 31
0.0
  0
LINE
  5
FA
330
1D
100
AcDbEntity
  8
1
100
AcDbLine
 10
33.23401696552637
 20
-61.716494647
 30
0.0
 11
33.20515341552636
 21
-61.7114059
 31
0.0
  0
LINE
  5
FB
330
1D
100
AcDbEntity
  8
CUT
100
AcDbLine
 10
22.05915934852636
 20
-71.455040512
 30
0.0
 11
33.15916098152636
 21
-73.412270782
 31
0.0
  0
ARC
  5
FC
330
1D
100
AcDbEntity
  8
CUT
100
AcDbCircle
 10
22.09658901552636
 20
-71.242771941
 30
0.0
 40
0.21554549
100
AcDbArc
 50
180.0
 51
260.0000000000002
  0
LINE
  5
FD
330
1D
100
AcDbEntity
  8
CUT
100
AcDbLine
 10
21.88104204352636
 20
-71.220868763
 30
0.0
 11
21.88104204352636
 21
-71.24277347
 31
0.0
  0
LINE
  5
FE
330
1D
100
AcDbEntity
  8
CUT
100
AcDbLine
 10
33.05766917252637
 20
-73.987850484
 30
0.0
 11
21.95767126452636
 21
-72.030620214
 31
0.0
  0
ARC
  5
FF
330
1D
100
AcDbEntity
  8
CUT
100
AcDbCircle
 10
22.09658901552636
 20
-71.242771941
 30
0.0
 40
0.8
100
AcDbArc
 50
180.0
 51
259.9999999999999
  0
ARC
  5
101
330
1D
100
AcDbEntity
  8
1
100
AcDbCircle
 10
28.45184519852636
 20
64.626735703
 30
0.0
 40
0.7
100
AcDbArc
 50
63.38416180600031
 51
176.6158381940004
  0
ARC
  5
102
330
1D
100
AcDbEntity
  8
1
100
AcDbCircle
 10
28.89985143952637
 20
65.520766132
 30
0.0
 40
0.3
100
AcDbArc
 50
243.3841618059994
 51
56.61583819399915
  0
ARC
  5
104
330
1D
100
AcDbEntity
  8
1
100
AcDbCircle
 10
26.45533283152636
 20
64.626735703
 30
0.0
 40
0.7
100
AcDbArc
 50
3.384161805999646
 51
116.6158381939999
  0
ARC
  5
105
330
1D
100
AcDbEntity
  8
1
100
AcDbCircle
 10
27.45358901552637
 20
64.685766132
 30
0.0
 40
0.3
100
AcDbArc
 50
183.3841618060004
 51
356.6158381939996
  0
ARC
  5
107
330
1D
100
AcDbEntity
  8
1
100
AcDbCircle
 10
25.45707664752636
 20
66.355766132
 30
0.0
 40
0.7
100
AcDbArc
 50
303.3841618060002
 51
56.6158381939998
  0
ARC
  5
108
330
1D
100
AcDbEntity
  8
1
100
AcDbCircle
 10
26.00732659052636
 20
65.520766132
 30
0.0
 40
0.3
100
AcDbArc
 50
123.3841618060009
 51
296.6158381940006
  0
ARC
  5
10A
330
1D
100
AcDbEntity
  8
1
100
AcDbCircle
 10
29.45010138252636
 20
66.355766132
 30
0.0
 40
0.7
100
AcDbArc
 50
123.3841618060002
 51
236.6158381939998
  0
ARC
  5
10B
330
1D
100
AcDbEntity
  8
1
100
AcDbCircle
 10
28.89985143952637
 20
67.190766132
 30
0.0
 40
0.3
100
AcDbArc
 50
303.3841618060009
 51
116.6158381940006
  0
ARC
  5
10C
330
1D
100
AcDbEntity
  8
1
100
AcDbCircle
 10
28.45184519852636
 20
68.084796562
 30
0.0
 40
0.7
100
AcDbArc
 50
183.3841618059996
 51
296.6158381939997
  0
ARC
  5
10D
330
1D
100
AcDbEntity
  8
1
100
AcDbCircle
 10
27.45358901552637
 20
68.025766132
 30
0.0
 40
0.3
100
AcDbArc
 50
3.384161806000438
 51
176.6158381939996
  0
ARC
  5
10F
330
1D
100
AcDbEntity
  8
1
100
AcDbCircle
 10
26.45533283152636
 20
68.084796562
 30
0.0
 40
0.7
100
AcDbArc
 50
243.3841618060001
 51
356.6158381940003
  0
ARC
  5
111
330
1D
100
AcDbEntity
  8
1
100
AcDbCircle
 10
26.00732659052636
 20
67.190766132
 30
0.0
 40
0.3
100
AcDbArc
 50
63.38416180599944
 51
236.6158381939991
  0
LINE
  5
112
330
1D
100
AcDbEntity
  8
1
100
AcDbLine
 10
32.26623124852637
 20
-73.055134651
 30
0.0
 11
32.10141695552636
 21
-72.913089332
 31
0.0
  0
LINE
  5
113
330
1D
100
AcDbEntity
  8
1
100
AcDbLine
 10
32.10141695552636
 20
-72.913089332
 30
0.0
 11
31.77284635152636
 21
-72.525823054
 31
0.0
  0
LINE
  5
114
330
1D
100
AcDbEntity
  8
1
100
AcDbLine
 10
31.77284635152636
 20
-72.525823054
 30
0.0
 11
31.44571370852636
 21
-72.000542221
 31
0.0
  0
LINE
  5
115
330
1D
100
AcDbEntity
  8
1
100
AcDbLine
 10
31.44571370852636
 20
-72.000542221
 30
0.0
 11
31.04000724352636
 21
-71.150416073
 31
0.0
  0
LINE
  5
116
330
1D
100
AcDbEntity
  8
1
100
AcDbLine
 10
31.04000724352636
 20
-71.150416073
 30
0.0
 11
30.63936717352636
 21
-70.088306007
 31
0.0
  0
LINE
  5
117
330
1D
100
AcDbEntity
  8
1
100
AcDbLine
 10
30.63936717352636
 20
-70.088306007
 30
0.0
 11
30.24556673552636
 21
-68.818794128
 31
0.0
  0
LINE
  5
118
330
1D
100
AcDbEntity
  8
1
100
AcDbLine
 10
30.24556673552636
 20
-68.818794128
 30
0.0
 11
29.84888292352636
 21
-67.29994857
 31
0.0
  0
LINE
  5
119
330
1D
100
AcDbEntity
  8
1
100
AcDbLine
 10
29.84888292352636
 20
-67.29994857
 30
0.0
 11
29.46126646852636
 21
-65.568262276
 31
0.0
  0
LINE
  5
11A
330
1D
100
AcDbEntity
  8
1
100
AcDbLine
 10
29.46126646852636
 20
-65.568262276
 30
0.0
 11
29.08455021252636
 21
-63.631677565
 31
0.0
  0
ARC
  5
11B
330
1D
100
AcDbEntity
  8
1
100
AcDbCircle
 10
152.9892572705264
 20
-39.937272045
 30
0.0
 40
125.104304104
100
AcDbArc
 50
190.783297569
 51
192.474884001
  0
ARC
  5
11C
330
1D
100
AcDbEntity
  8
1
100
AcDbCircle
 10
50.08511978152637
 20
-62.703097425
 30
0.0
 40
19.671525299
100
AcDbArc
 50
192.4753148389999
 51
202.812008309
  0
ARC
  5
11D
330
1D
100
AcDbEntity
  8
1
100
AcDbCircle
 10
38.63913754152637
 20
-67.517368365
 30
0.0
 40
7.254290739
100
AcDbArc
 50
202.8120083089999
 51
219.574065791
  0
ARC
  5
11E
330
1D
100
AcDbEntity
  8
1
100
AcDbCircle
 10
33.80005212552636
 20
-71.516915036
 30
0.0
 40
0.976303701
100
AcDbArc
 50
219.5742891520002
 51
231.7650374509997
  0
LINE
  5
11F
330
1D
100
AcDbEntity
  8
CUT
100
AcDbLine
 10
33.41213799552636
 20
-73.20000374
 30
0.0
 11
33.99659133952636
 21
-73.20000374
 31
0.0
  0
LINE
  5
120
330
1D
100
AcDbEntity
  8
CUT
100
AcDbLine
 10
33.15916098152636
 20
-73.412270782
 30
0.0
 11
33.05766917252637
 21
-73.987850484
 31
0.0
  0
LINE
  5
121
330
1D
100
AcDbEntity
  8
CUT
100
AcDbLine
 10
33.23401696552637
 20
-61.716494647
 30
0.0
 11
33.29404629252637
 21
-61.376062718
 31
0.0
  0
LINE
  5
122
330
1D
100
AcDbEntity
  8
CUT
100
AcDbLine
 10
33.41213799552636
 20
-61.928765413
 30
0.0
 11
33.99659133952636
 21
-61.928765413
 31
0.0
  0
LINE
  5
123
330
1D
100
AcDbEntity
  8
CUT
100
AcDbLine
 10
22.05915934852636
 20
-71.455040512
 30
0.0
 11
21.95767126452636
 21
-72.030620214
 31
0.0
  0
LINE
  5
124
330
1D
100
AcDbEntity
  8
CUT
100
AcDbLine
 10
21.88104204352636
 20
-71.24277347
 30
0.0
 11
21.53129688952636
 21
-71.24277347
 31
0.0
  0
LINE
  5
126
330
1D
100
AcDbEntity
  8
2
100
AcDbLine
 10
50.39868988852636
 20
-73.999999999
 30
0.0
 11
33.19658436652637
 21
-73.999999999
 31
0.0
  0
LINE
  5
127
330
1D
100
AcDbEntity
  8
2
100
AcDbLine
 10
48.39868988852636
 20
-73.999999999
 30
0.0
 11
47.94868988852637
 21
-70.499999999
 31
0.0
  0
LINE
  5
128
330
1D
100
AcDbEntity
  8
2
100
AcDbLine
 10
47.94868988852637
 20
-70.499999999
 30
0.0
 11
48.84868988852637
 21
-70.499999999
 31
0.0
  0
LINE
  5
129
330
1D
100
AcDbEntity
  8
2
100
AcDbLine
 10
48.84868988852637
 20
-70.499999999
 30
0.0
 11
48.39868988852636
 21
-73.999999999
 31
0.0
  0
LINE
  5
12A
330
1D
100
AcDbEntity
  8
2
100
AcDbLine
 10
50.39868988852636
 20
73.999999999
 30
0.0
 11
33.19658436652637
 21
73.999999999
 31
0.0
  0
LINE
  5
12B
330
1D
100
AcDbEntity
  8
2
100
AcDbLine
 10
48.39868988852636
 20
73.999999999
 30
0.0
 11
48.84868988852637
 21
70.499999999
 31
0.0
  0
LINE
  5
12C
330
1D
100
AcDbEntity
  8
2
100
AcDbLine
 10
48.84868988852637
 20
70.499999999
 30
0.0
 11
47.94868988852637
 21
70.499999999
 31
0.0
  0
LINE
  5
12D
330
1D
100
AcDbEntity
  8
2
100
AcDbLine
 10
47.94868988852637
 20
70.499999999
 30
0.0
 11
48.39868988852636
 21
73.999999999
 31
0.0
  0
LINE
  5
12E
330
1D
100
AcDbEntity
  8
2
100
AcDbLine
 10
48.39868988852636
 20
-70.499999999
 30
0.0
 11
48.39868988852636
 21
70.499999999
 31
0.0
  0
TEXT
  5
12F
330
1D
100
AcDbEntity
  8
2
100
AcDbText
 10
46.89868988852636
 20
-4.762970404000002
 30
0.0
 40
3.5
  1
148
 50
90.0
  7
BMG_Text
100
AcDbText
  0
CIRCLE
  5
130
330
1D
100
AcDbEntity
  8
2
100
AcDbCircle
 10
45.64868988852636
 20
-7.012970404000002
 30
0.0
 40
1.25
  0
LINE
  5
131
330
1D
100
AcDbEntity
  8
2
100
AcDbLine
 10
46.89868988852636
 20
-8.262970404000002
 30
0.0
 11
44.39868988852636
 21
-5.762970404000002
 31
0.0
  0
TEXT
  5
132
330
1D
100
AcDbEntity
  8
2
100
AcDbText
 10
46.89868988852636
 20
1.542967095999998
 30
0.0
 40
3.5
  1
-176
 50
90.0
  7
BMG_Text
100
AcDbText
  0
LINE
  5
133
330
1D
100
AcDbEntity
  8
SK4
100
AcDbLine
 10
38.69751342852636
 20
-0.0000000000000021
 30
0.0
 11
-6.698020872473636
 21
-0.0000000000000021
 31
0.0
  0
TEXT
  5
134
330
1D
100
AcDbEntity
  8
SK6
100
AcDbText
 10
7.130949178526364
 20
-48.415766547
 30
0.0
 40
3.5
  1
639.483
  7
BMG_Text
100
AcDbText
  0
LINE
  5
135
330
1D
100
AcDbEntity
  8
2
100
AcDbLine
 10
33.99658669052636
 20
84.312168747
 30
0.0
 11
33.99658669052636
 21
73.199999482
 31
0.0
  0
LINE
  5
136
330
1D
100
AcDbEntity
  8
2
100
AcDbLine
 10
33.99658669052636
 20
82.312168747
 30
0.0
 11
30.49658669052636
 21
81.862168747
 31
0.0
  0
LINE
  5
137
330
1D
100
AcDbEntity
  8
2
100
AcDbLine
 10
30.49658669052636
 20
81.862168747
 30
0.0
 11
30.49658669052636
 21
82.762168747
 31
0.0
  0
LINE
  5
138
330
1D
100
AcDbEntity
  8
2
100
AcDbLine
 10
30.49658669052636
 20
82.762168747
 30
0.0
 11
33.99658669052636
 21
82.312168747
 31
0.0
  0
LINE
  5
139
330
1D
100
AcDbEntity
  8
2
100
AcDbLine
 10
-4.613415335473636
 20
82.312168747
 30
0.0
 11
30.49658669052636
 21
82.312168747
 31
0.0
  0
TEXT
  5
13A
330
1D
100
AcDbEntity
  8
2
100
AcDbText
 10
8.378460246526364
 20
83.812168747
 30
0.0
 40
3.5
  1
71 /  117
  7
BMG_Text
100
AcDbText
  0
LINE
  5
13B
330
1D
100
AcDbEntity
  8
3
100
AcDbLine
 10
16.29658928052636
 20
-37.500003871
 30
0.0
 11
17.29658944452637
 21
-36.500001845
 31
0.0
  0
LINE
  5
13C
330
1D
100
AcDbEntity
  8
3
100
AcDbLine
 10
-3.603411843473636
 20
-37.500003871
 30
0.0
 11
16.29658928052636
 21
-37.500003871
 31
0.0
  0
LINE
  5
13D
330
1D
100
AcDbEntity
  8
3
100
AcDbLine
 10
17.29658944452637
 20
-36.500001845
 30
0.0
 11
17.29658944452637
 21
-1.568466098000002
 31
0.0
  0
LINE
  5
1DC
330
1D
100
AcDbEntity
  8
1
100
AcDbLine
 10
21.29658869952636
 20
63.063009146
 30
0.0
 11
21.29658869952636
 21
71.22241224952212
 31
0.0
  0
LINE
  5
1DD
330
1D
100
AcDbEntity
  8
3
100
AcDbLine
 10
21.29658869952636
 20
71.22241224952212
 30
0.0
 11
33.19658901552636
 21
73.199998571
 31
0.0
  0
LINE
  5
1DE
330
1D
100
AcDbEntity
  8
3
100
AcDbLine
 10
33.19658901552636
 20
73.199998571
 30
0.0
 11
33.19658901552636
 21
61.12411457213315
 31
0.0
  0
LINE
  5
1DF
330
1D
100
AcDbEntity
  8
1
100
AcDbLine
 10
33.19658901552636
 20
61.12411457213315
 30
0.0
 11
33.64658541452636
 21
61.12411457213315
 31
0.0
  0
LINE
  5
1E0
330
1D
100
AcDbEntity
  8
1
100
AcDbLine
 10
25.28001926352636
 20
59.720518502
 30
0.0
 11
33.33550755765991
 21
61.14091697659023
 31
0.0
  0
LINE
  5
1E3
330
1D
100
AcDbEntity
  8
1
100
AcDbLine
 10
21.29658901552636
 20
71.242769085
 30
0.0
 11
21.29658901552636
 21
59.971533693
 31
0.0
  0
LINE
  5
1E4
330
1D
100
AcDbEntity
  8
1
100
AcDbLine
 10
22.23550755765991
 20
59.18368749059023
 30
0.0
 11
33.33550755765991
 21
61.14091697659023
 31
0.0
  0
LWPOLYLINE
  5
1E6
330
1D
100
AcDbEntity
  8
INFTOTAL
100
AcDbPolyline
 90
        4
 70
     1
 43
0.0
 10
-37.7822426081785
 20
107.8107243469994
 10
-37.7822426081785
 20
-101.0195187239564
 10
85.69622061842395
 20
-101.0195187239564
 10
85.69622061842395
 20
107.8107243469994
  0
LINE
  5
1F2
330
1D
100
AcDbEntity
  8
NOCUT
100
AcDbLine
 10
33.64658541452636
 20
61.264971706
 30
0.0
 11
33.64511765052636
 21
32.60573139502533
 31
0.0
  0
LINE
  5
1F3
330
1D
100
AcDbEntity
  8
NOCUT
100
AcDbLine
 10
33.64511765052636
 20
32.60573139502533
 30
0.0
 11
18.63633497768198
 21
6.568463241999997
 31
0.0
  0
ARC
  5
1F4
330
1D
100
AcDbEntity
  8
NOCUT
100
AcDbCircle
 10
27.29658901552645
 20
1.568463241999977
 30
0.0
 40
10.00000000000009
100
AcDbArc
 50
150.0000000000002
 51
179.9999999999999
  0
LINE
  5
1F5
330
1D
100
AcDbEntity
  8
NOCUT
100
AcDbLine
 10
17.29658901552637
 20
1.568463242000001
 30
0.0
 11
17.29658901552637
 21
-0.0000000000000021
 31
0.0
  0
LINE
  5
1F6
330
1D
100
AcDbEntity
  8
NOCUT
100
AcDbLine
 10
17.29658901552637
 20
-0.0000000000000021
 30
0.0
 11
0.0
 21
0.0
 31
0.0
  0
LINE
  5
1F7
330
1D
100
AcDbEntity
  8
NOCUT
100
AcDbLine
 10
0.0
 20
0.0
 30
0.0
 11
0.0000000000000077
 21
69.99808416889351
 31
0.0
  0
LINE
  5
1F8
330
1D
100
AcDbEntity
  8
NOCUT
100
AcDbLine
 10
0.0000000000000077
 20
69.99808416889351
 30
0.0
 11
14.20054145829288
 21
69.99808416889351
 31
0.0
  0
LINE
  5
1F9
330
1D
100
AcDbEntity
  8
NOCUT
100
AcDbLine
 10
14.20054145829288
 20
69.99808416889351
 30
0.0
 11
21.29665878113574
 21
71.25333412677737
 31
0.0
  0
LINE
  5
226
330
1D
100
AcDbEntity
  8
4
100
AcDbLine
 10
38.69751342852636
 20
-0.0000000000000021
 30
0.0
 11
0.0
 21
0.0
 31
0.0
  0
LINE
  5
22D
330
1D
100
AcDbEntity
  8
NOCUT
100
AcDbLine
 10
33.64658541452636
 20
61.264971706
 30
0.0
 11
33.64511765052637
 21
61.266327712
 31
0.0
  0
LINE
  5
22E
330
1D
100
AcDbEntity
  8
NOCUT
100
AcDbLine
 10
33.19658901552636
 20
61.12411457213315
 30
0.0
 11
33.19658901552636
 21
73.199998571
 31
0.0
  0
LINE
  5
22F
330
1D
100
AcDbEntity
  8
NOCUT
100
AcDbLine
 10
33.19658901552636
 20
73.199998571
 30
0.0
 11
21.29658869952636
 21
71.22241224952212
 31
0.0
  0
ARC
  5
231
330
1D
100
AcDbEntity
  8
NOCUT
100
AcDbCircle
 10
22.09658901552636
 20
71.242769085
 30
0.0
 40
0.7999999999999995
100
AcDbArc
 50
179.2433126234455
 51
181.4576358181007
  0
LINE
  5
232
330
1D
100
AcDbEntity
  8
NOCUT
100
AcDbLine
 10
33.19658901552636
 20
61.12411457213315
 30
0.0
 11
33.64658541452636
 21
61.12411457213315
 31
0.0
  0
ARC
  5
239
330
1D
100
AcDbEntity
  8
CUT
100
AcDbCircle
 10
22.09658901552636
 20
71.242769085
 30
0.0
 40
0.8
100
AcDbArc
 50
99.99999999999959
 51
180.0
  0
LINE
  5
23A
330
1D
100
AcDbEntity
  8
CUT
100
AcDbLine
 10
33.05766917252637
 20
73.987847629
 30
0.0
 11
21.95767126452637
 21
72.030617359
 31
0.0
  0
ARC
  5
23B
330
1D
100
AcDbEntity
  8
CUT
100
AcDbCircle
 10
33.19658901552637
 20
73.199998571
 30
0.0
 40
0.8
100
AcDbArc
 50
0.0
 51
100.0000000000006
  0
LINE
  5
23C
330
1D
100
AcDbEntity
  8
CUT
100
AcDbLine
 10
33.99659133952636
 20
61.928762558
 30
0.0
 11
33.99659133952636
 21
73.200000885
 31
0.0
  0
ARC
  5
23D
330
1D
100
AcDbEntity
  8
CUT
100
AcDbCircle
 10
33.19658901552637
 20
61.928763179
 30
0.0
 40
0.8
100
AcDbArc
 50
279.9999999999995
 51
0.0
  0
ARC
  5
23E
330
1D
100
AcDbEntity
  8
CUT
100
AcDbCircle
 10
22.09658901552636
 20
59.971533693
 30
0.0
 40
0.8
100
AcDbArc
 50
180.0
 51
279.9999999999995
  0
CIRCLE
  5
23F
330
1D
100
AcDbEntity
  8
1
100
AcDbCircle
 10
27.45358901552636
 20
66.355766132
 30
0.0
 40
3.76603163
  0
LINE
  5
240
330
1D
100
AcDbEntity
  8
CUT
100
AcDbLine
 10
21.29658901552637
 20
71.242769085
 30
0.0
 11
21.29658901552637
 21
59.971533693
 31
0.0
  0
LINE
  5
241
330
1D
100
AcDbEntity
  8
CUT
100
AcDbLine
 10
22.2355075576599
 20
59.18368749059023
 30
0.0
 11
33.33550755765991
 21
61.14091697659023
 31
0.0
  0
HATCH
  5
246
330
1D
100
AcDbEntity
  8
7
100
AcDbHatch
 10
0.0
 20
0.0
 30
0.0
210
0.0
220
0.0
230
1.0
  2
ANSI37
 70
     0
 71
     0
 91
        2
 92
        7
 72
     1
 73
     1
 93
        8
 10
33.99658959652638
 20
61.92876302374999
 42
0.0
 10
33.99658959652638
 20
73.19999914949999
 42
0.466306419043631
 10
33.05767014817621
 20
73.98784548730733
 42
0.0
 10
21.9576706711762
 20
72.03061580530733
 42
0.363969872503755
 10
21.29658901552637
 20
71.242769085
 42
0.0
 10
21.29658901552637
 20
59.971533693
 42
0.4663076581549869
 10
22.2355075576599
 20
59.18368749059023
 42
0.0
 10
33.33550755766618
 20
61.14091697659134
 42
0.3639696143993268
 97
        0
 92
       22
 72
     1
 73
     1
 93
        2
 10
23.68755738552636
 20
66.35576613199999
 42
-1.000000000000004
 10
31.21962064552636
 20
66.35576613199999
 42
-0.9999999999999962
 97
        0
 75
     0
 76
     1
 52
90.0
 41
5.0
 77
     0
 78
     2
 53
135.0
 43
-79.02563022646467
 44
-1.105897661716455
 45
-0.4419417382415922
 46
-0.4419417382415922
 79
     0
 53
225.0
 43
-79.02563022646467
 44
-1.105897661716455
 45
0.4419417382415922
 46
-0.4419417382415923
 79
     0
 47
0.0
 98
        2
 10
33.34189811739259
 20
62.73098474565507
 10
33.34189811739259
 20
62.73098474565507
1001
ACAD
1010
0.0
1020
0.0
1030
0.0
1001
PE_URL
1000

  0
ENDSEC
  0
SECTION
  2
OBJECTS
  0
DICTIONARY
  5
C
330
0
100
AcDbDictionary
281
     1
  3
ACAD_COLOR
350
215
  3
ACAD_DETAILVIEWSTYLE
350
203
  3
ACAD_GROUP
350
D
  3
ACAD_LAYOUT
350
1A
  3
ACAD_MATERIAL
350
17B
  3
ACAD_MLEADERSTYLE
350
188
  3
ACAD_MLINESTYLE
350
17
  3
ACAD_PLOTSETTINGS
350
19
  3
ACAD_PLOTSTYLENAME
350
E
  3
ACAD_SCALELIST
350
144
  3
ACAD_SECTIONVIEWSTYLE
350
204
  3
ACAD_TABLESTYLE
350
1D1
  3
ACAD_VISUALSTYLE
350
16A
  3
ACDB_RECOMPOSE_DATA
350
253
  3
AcDbVariableDictionary
350
186
  3
APPDATA
350
1D4
  0
SUN
  5
205
330
13E
100
AcDbSun
 90
        1
290
     0
 63
     7
421
 16777215
 40
1.0
291
     1
 91
  2455826
 92
 54000000
292
     0
 70
     2
 71
   256
280
     1
  0
DICTIONARY
  5
1D5
330
2
100
AcDbDictionary
280
     1
281
     1
  3
ACAD_LAYERSTATES
360
1D6
  0
DICTIONARY
  5
244
330
1D
100
AcDbDictionary
280
     1
281
     1
  3
ACAD_SORTENTS
360
245
  0
DICTIONARY
  5
215
102
{ACAD_REACTORS
330
C
102
}
330
C
100
AcDbDictionary
281
     1
  0
DICTIONARY
  5
203
102
{ACAD_REACTORS
330
C
102
}
330
C
100
AcDbDictionary
281
     1
  0
DICTIONARY
  5
D
102
{ACAD_REACTORS
330
C
102
}
330
C
100
AcDbDictionary
281
     1
  0
DICTIONARY
  5
1A
102
{ACAD_REACTORS
330
C
102
}
330
C
100
AcDbDictionary
281
     1
  3
Layout1
350
1C
  3
Model
350
1E
  0
DICTIONARY
  5
17B
102
{ACAD_REACTORS
330
C
102
}
330
C
100
AcDbDictionary
281
     1
  3
ByBlock
350
17D
  3
ByLayer
350
17C
  3
Global
350
17E
  0
DICTIONARY
  5
188
102
{ACAD_REACTORS
330
C
102
}
330
C
100
AcDbDictionary
281
     1
  3
Standard
350
1D3
  0
DICTIONARY
  5
17
102
{ACAD_REACTORS
330
C
102
}
330
C
100
AcDbDictionary
281
     1
  3
Standard
350
18
  0
DICTIONARY
  5
19
102
{ACAD_REACTORS
330
C
102
}
330
C
100
AcDbDictionary
281
     1
  0
ACDBDICTIONARYWDFLT
  5
E
102
{ACAD_REACTORS
330
C
102
}
330
C
100
AcDbDictionary
281
     1
  3
Normal
350
F
100
AcDbDictionaryWithDefault
340
F
  0
DICTIONARY
  5
144
102
{ACAD_REACTORS
330
C
102
}
330
C
100
AcDbDictionary
281
     1
  3
A0
350
145
  3
A1
350
146
  3
A2
350
147
  3
A3
350
148
  3
A4
350
149
  3
A5
350
14A
  3
A6
350
14B
  3
A7
350
14C
  3
A8
350
14D
  3
A9
350
14E
  3
B0
350
14F
  3
B1
350
150
  3
B2
350
151
  3
B3
350
152
  3
B4
350
153
  3
B5
350
154
  3
B6
350
155
  3
B7
350
156
  3
B8
350
157
  3
B9
350
158
  3
C0
350
159
  3
C1
350
15A
  3
C2
350
15B
  3
C3
350
15C
  3
C4
350
15D
  3
C5
350
15E
  3
C6
350
15F
  3
C7
350
160
  3
C8
350
161
  3
C9
350
162
  3
D0
350
163
  3
D1
350
164
  3
D2
350
165
  0
DICTIONARY
  5
204
102
{ACAD_REACTORS
330
C
102
}
330
C
100
AcDbDictionary
281
     1
  0
DICTIONARY
  5
1D1
102
{ACAD_REACTORS
330
C
102
}
330
C
100
AcDbDictionary
281
     1
  3
Standard
350
1D2
  0
DICTIONARY
  5
16A
102
{ACAD_REACTORS
330
C
102
}
330
C
100
AcDbDictionary
281
     1
  3
2dWireframe
350
16F
  3
3D Hidden
350
171
  3
3dWireframe
350
170
  3
Basic
350
172
  3
Brighten
350
176
  3
ColorChange
350
17A
  3
Conceptual
350
174
  3
Dim
350
175
  3
EdgeColorOff
350
1CB
  3
Facepattern
350
179
  3
Flat
350
16B
  3
FlatWithEdges
350
16C
  3
Gouraud
350
16D
  3
GouraudWithEdges
350
16E
  3
Hidden
350
1C8
  3
JitterOff
350
1C9
  3
Linepattern
350
178
  3
OverhangOff
350
1CA
  3
Realistic
350
173
  3
Shaded
350
1D0
  3
Shaded with edges
350
1CF
  3
Shades of Gray
350
1CC
  3
Sketchy
350
1CD
  3
Thicken
350
177
  3
Wireframe
350
1C7
  3
X-Ray
350
1CE
  0
XRECORD
  5
253
102
{ACAD_REACTORS
330
C
102
}
330
C
100
AcDbXrecord
280
     1
 90
        1
330
1D2
  0
DICTIONARY
  5
186
102
{ACAD_REACTORS
330
C
102
}
330
C
100
AcDbDictionary
281
     1
  3
CANNOSCALE
350
200
  3
CMLEADERSTYLE
350
202
  3
CTABLESTYLE
350
201
  3
DIMASSOC
350
18A
  3
HIDETEXT
350
18B
  3
MSLTSCALE
350
189
  0
DICTIONARY
  5
1D4
102
{ACAD_REACTORS
330
C
102
}
330
C
100
AcDbDictionary
281
     1
  0
DICTIONARY
  5
1D6
102
{ACAD_REACTORS
330
1D5
102
}
330
1D5
100
AcDbDictionary
281
     1
  0
SORTENTSTABLE
  5
245
102
{ACAD_REACTORS
330
244
102
}
330
244
100
AcDbSortentsTable
330
1D
331
239
  5
23B
331
23A
  5
23C
331
23B
  5
23D
331
23C
  5
23E
331
23D
  5
23F
331
23E
  5
240
331
23F
  5
241
331
240
  5
243
331
241
  5
246
331
0
  5
239
331
246
  5
23A
  0
LAYOUT
  5
1C
102
{ACAD_REACTORS
330
1A
102
}
330
1A
100
AcDbPlotSettings
  1

  2
none_device
  4

  6

 40
0.0
 41
0.0
 42
0.0
 43
0.0
 44
0.0
 45
0.0
 46
0.0
 47
0.0
 48
0.0
 49
0.0
140
0.0
141
0.0
142
1.0
143
1.0
 70
   688
 72
     0
 73
     0
 74
     5
  7

 75
    16
 76
     0
 77
     2
 78
   300
147
1.0
148
0.0
149
0.0
100
AcDbLayout
  1
Layout1
 70
     1
 71
     1
 10
0.0
 20
0.0
 11
12.0
 21
9.0
 12
0.0
 22
0.0
 32
0.0
 14
1.000000000000000E+20
 24
1.000000000000000E+20
 34
1.000000000000000E+20
 15
-1.000000000000000E+20
 25
-1.000000000000000E+20
 35
-1.000000000000000E+20
146
0.0
 13
0.0
 23
0.0
 33
0.0
 16
1.0
 26
0.0
 36
0.0
 17
0.0
 27
1.0
 37
0.0
 76
     0
330
1B
  0
LAYOUT
  5
1E
102
{ACAD_REACTORS
330
1A
102
}
330
1A
100
AcDbPlotSettings
  1

  2
none_device
  4
ANSI_A_(11.00_x_8.50_Inches)
  6

 40
6.35
 41
19.05
 42
6.35
 43
19.05
 44
279.4
 45
215.9
 46
0.0
 47
0.0
 48
0.0
 49
0.0
140
0.0
141
0.0
142
1.0
143
304.9712121356879
 70
  1712
 72
     0
 73
     0
 74
     0
  7

 75
     0
 76
     0
 77
     2
 78
   300
147
0.003278998017541
148
43085.823689455
149
21455.50653653352
100
AcDbLayout
  1
Model
 70
     1
 71
     0
 10
0.0
 20
0.0
 11
12.0
 21
9.0
 12
0.0
 22
0.0
 32
0.0
 14
-37.78224260817851
 24
-101.0195187239564
 34
0.0
 15
85.69622061842394
 25
107.8107243469994
 35
0.0
146
0.0
 13
0.0
 23
0.0
 33
0.0
 16
1.0
 26
0.0
 36
0.0
 17
0.0
 27
1.0
 37
0.0
 76
     0
330
1D
331
13E
  0
MATERIAL
  5
17D
102
{ACAD_REACTORS
330
17B
102
}
330
17B
100
AcDbMaterial
  1
ByBlock
 72
     1
 94
      127
  0
MATERIAL
  5
17C
102
{ACAD_REACTORS
330
17B
102
}
330
17B
100
AcDbMaterial
  1
ByLayer
 72
     1
 94
      127
  0
MATERIAL
  5
17E
102
{ACAD_REACTORS
330
17B
102
}
330
17B
100
AcDbMaterial
  1
Global
 72
     1
 94
      127
  0
MLEADERSTYLE
  5
1D3
102
{ACAD_REACTORS
330
188
102
}
330
188
100
AcDbMLeaderStyle
179
     2
170
     2
171
     1
172
     0
 90
        2
 40
0.0
 41
0.0
173
     1
 91
-1056964608
340
14
 92
       -2
290
     1
 42
0.09
291
     1
 43
0.36
  3
Standard
341
0
 44
0.18
300

342
11
174
     1
178
     1
175
     1
176
     0
 93
-1056964608
 45
0.18
292
     0
297
     0
 46
0.18
343
0
 94
-1056964608
 47
1.0
 49
1.0
140
1.0
293
     1
141
0.0
294
     1
177
     0
142
1.0
295
     0
296
     0
143
0.125
271
     0
272
     9
273
     9
298
     0
  0
MLINESTYLE
  5
18
102
{ACAD_REACTORS
330
17
102
}
330
17
100
AcDbMlineStyle
  2
Standard
 70
     0
  3

 62
   256
 51
90.0
 52
90.0
 71
     2
 49
0.5
 62
   256
  6
BYLAYER
 49
-0.5
 62
   256
  6
BYLAYER
  0
ACDBPLACEHOLDER
  5
F
102
{ACAD_REACTORS
330
E
102
}
330
E
  0
SCALE
  5
145
102
{ACAD_REACTORS
330
144
102
}
330
144
100
AcDbScale
 70
     0
300
1:1
140
1.0
141
1.0
290
     1
  0
SCALE
  5
146
102
{ACAD_REACTORS
330
144
102
}
330
144
100
AcDbScale
 70
     0
300
1:2
140
1.0
141
2.0
290
     0
  0
SCALE
  5
147
102
{ACAD_REACTORS
330
144
102
}
330
144
100
AcDbScale
 70
     0
300
1:4
140
1.0
141
4.0
290
     0
  0
SCALE
  5
148
102
{ACAD_REACTORS
330
144
102
}
330
144
100
AcDbScale
 70
     0
300
1:5
140
1.0
141
5.0
290
     0
  0
SCALE
  5
149
102
{ACAD_REACTORS
330
144
102
}
330
144
100
AcDbScale
 70
     0
300
1:8
140
1.0
141
8.0
290
     0
  0
SCALE
  5
14A
102
{ACAD_REACTORS
330
144
102
}
330
144
100
AcDbScale
 70
     0
300
1:10
140
1.0
141
10.0
290
     0
  0
SCALE
  5
14B
102
{ACAD_REACTORS
330
144
102
}
330
144
100
AcDbScale
 70
     0
300
1:16
140
1.0
141
16.0
290
     0
  0
SCALE
  5
14C
102
{ACAD_REACTORS
330
144
102
}
330
144
100
AcDbScale
 70
     0
300
1:20
140
1.0
141
20.0
290
     0
  0
SCALE
  5
14D
102
{ACAD_REACTORS
330
144
102
}
330
144
100
AcDbScale
 70
     0
300
1:30
140
1.0
141
30.0
290
     0
  0
SCALE
  5
14E
102
{ACAD_REACTORS
330
144
102
}
330
144
100
AcDbScale
 70
     0
300
1:40
140
1.0
141
40.0
290
     0
  0
SCALE
  5
14F
102
{ACAD_REACTORS
330
144
102
}
330
144
100
AcDbScale
 70
     0
300
1:50
140
1.0
141
50.0
290
     0
  0
SCALE
  5
150
102
{ACAD_REACTORS
330
144
102
}
330
144
100
AcDbScale
 70
     0
300
1:100
140
1.0
141
100.0
290
     0
  0
SCALE
  5
151
102
{ACAD_REACTORS
330
144
102
}
330
144
100
AcDbScale
 70
     0
300
2:1
140
2.0
141
1.0
290
     0
  0
SCALE
  5
152
102
{ACAD_REACTORS
330
144
102
}
330
144
100
AcDbScale
 70
     0
300
4:1
140
4.0
141
1.0
290
     0
  0
SCALE
  5
153
102
{ACAD_REACTORS
330
144
102
}
330
144
100
AcDbScale
 70
     0
300
8:1
140
8.0
141
1.0
290
     0
  0
SCALE
  5
154
102
{ACAD_REACTORS
330
144
102
}
330
144
100
AcDbScale
 70
     0
300
10:1
140
10.0
141
1.0
290
     0
  0
SCALE
  5
155
102
{ACAD_REACTORS
330
144
102
}
330
144
100
AcDbScale
 70
     0
300
100:1
140
100.0
141
1.0
290
     0
  0
SCALE
  5
156
102
{ACAD_REACTORS
330
144
102
}
330
144
100
AcDbScale
 70
     0
300
1/128" = 1'-0"
140
0.0078125
141
12.0
290
     0
  0
SCALE
  5
157
102
{ACAD_REACTORS
330
144
102
}
330
144
100
AcDbScale
 70
     0
300
1/64" = 1'-0"
140
0.015625
141
12.0
290
     0
  0
SCALE
  5
158
102
{ACAD_REACTORS
330
144
102
}
330
144
100
AcDbScale
 70
     0
300
1/32" = 1'-0"
140
0.03125
141
12.0
290
     0
  0
SCALE
  5
159
102
{ACAD_REACTORS
330
144
102
}
330
144
100
AcDbScale
 70
     0
300
1/16" = 1'-0"
140
0.0625
141
12.0
290
     0
  0
SCALE
  5
15A
102
{ACAD_REACTORS
330
144
102
}
330
144
100
AcDbScale
 70
     0
300
3/32" = 1'-0"
140
0.09375
141
12.0
290
     0
  0
SCALE
  5
15B
102
{ACAD_REACTORS
330
144
102
}
330
144
100
AcDbScale
 70
     0
300
1/8" = 1'-0"
140
0.125
141
12.0
290
     0
  0
SCALE
  5
15C
102
{ACAD_REACTORS
330
144
102
}
330
144
100
AcDbScale
 70
     0
300
3/16" = 1'-0"
140
0.1875
141
12.0
290
     0
  0
SCALE
  5
15D
102
{ACAD_REACTORS
330
144
102
}
330
144
100
AcDbScale
 70
     0
300
1/4" = 1'-0"
140
0.25
141
12.0
290
     0
  0
SCALE
  5
15E
102
{ACAD_REACTORS
330
144
102
}
330
144
100
AcDbScale
 70
     0
300
3/8" = 1'-0"
140
0.375
141
12.0
290
     0
  0
SCALE
  5
15F
102
{ACAD_REACTORS
330
144
102
}
330
144
100
AcDbScale
 70
     0
300
1/2" = 1'-0"
140
0.5
141
12.0
290
     0
  0
SCALE
  5
160
102
{ACAD_REACTORS
330
144
102
}
330
144
100
AcDbScale
 70
     0
300
3/4" = 1'-0"
140
0.75
141
12.0
290
     0
  0
SCALE
  5
161
102
{ACAD_REACTORS
330
144
102
}
330
144
100
AcDbScale
 70
     0
300
1" = 1'-0"
140
1.0
141
12.0
290
     0
  0
SCALE
  5
162
102
{ACAD_REACTORS
330
144
102
}
330
144
100
AcDbScale
 70
     0
300
1-1/2" = 1'-0"
140
1.5
141
12.0
290
     0
  0
SCALE
  5
163
102
{ACAD_REACTORS
330
144
102
}
330
144
100
AcDbScale
 70
     0
300
3" = 1'-0"
140
3.0
141
12.0
290
     0
  0
SCALE
  5
164
102
{ACAD_REACTORS
330
144
102
}
330
144
100
AcDbScale
 70
     0
300
6" = 1'-0"
140
6.0
141
12.0
290
     0
  0
SCALE
  5
165
102
{ACAD_REACTORS
330
144
102
}
330
144
100
AcDbScale
 70
     0
300
1'-0" = 1'-0"
140
12.0
141
12.0
290
     0
  0
TABLESTYLE
  5
1D2
102
{ACAD_REACTORS
330
1D1
102
}
102
{ACAD_XDICTIONARY
360
251
102
}
330
1D1
100
AcDbTableStyle
  3
Standard
 70
     0
 71
     0
 40
0.06
 41
0.06
280
     0
281
     0
  7
Standard
140
0.18
170
     2
 62
     0
 63
   257
283
     0
 90
        4
 91
        0
  1

274
    -2
284
     1
 64
     0
275
    -2
285
     1
 65
     0
276
    -2
286
     1
 66
     0
277
    -2
287
     1
 67
     0
278
    -2
288
     1
 68
     0
279
    -2
289
     1
 69
     0
  7
Standard
140
0.25
170
     5
 62
     0
 63
   257
283
     0
 90
        4
 91
        0
  1

274
    -2
284
     1
 64
     0
275
    -2
285
     1
 65
     0
276
    -2
286
     1
 66
     0
277
    -2
287
     1
 67
     0
278
    -2
288
     1
 68
     0
279
    -2
289
     1
 69
     0
  7
Standard
140
0.18
170
     5
 62
     0
 63
   257
283
     0
 90
        4
 91
        0
  1

274
    -2
284
     1
 64
     0
275
    -2
285
     1
 65
     0
276
    -2
286
     1
 66
     0
277
    -2
287
     1
 67
     0
278
    -2
288
     1
 68
     0
279
    -2
289
     1
 69
     0
  0
VISUALSTYLE
  5
16F
102
{ACAD_REACTORS
330
16A
102
}
330
16A
100
AcDbVisualStyle
  2
2dWireframe
 70
     4
177
     3
291
     0
 70
    58
 90
        0
176
     1
 90
        2
176
     1
 90
        0
176
     1
 90
        0
176
     1
 40
-0.6
176
     1
 40
-30.0
176
     1
 62
     7
176
     1
 90
        1
176
     1
 90
        4
176
     1
 62
     7
176
     1
 62
   257
176
     1
 90
        1
176
     1
 90
        1
176
     1
 40
1.0
176
     1
 90
        0
176
     1
 62
   257
176
     1
 40
1.0
176
     1
 90
        1
176
     1
 90
        6
176
     1
 90
        2
176
     1
 62
     7
176
     1
 90
        5
176
     1
 90
        0
176
     1
 90
        0
176
     1
290
     0
176
     1
 90
        1
176
     1
 40
0.0
176
     1
 90
        0
176
     1
290
     1
176
     1
290
     1
176
     1
290
     0
176
     1
290
     0
176
     1
290
     0
176
     1
290
     0
176
     1
290
     0
176
     1
290
     0
176
     1
290
     0
176
     1
 90
       50
176
     1
 40
0.0
176
     1
 40
1.0
176
     1
 90
        0
176
     1
 62
    18
420
        0
176
     1
 90
       50
176
     1
 90
        3
176
     1
 62
     5
420
      255
176
     1
290
     0
176
     1
 90
       50
176
     1
 90
       50
176
     1
 90
       50
176
     1
290
     0
176
     1
 90
       50
176
     1
 62
   256
176
     0
 40
1.0
176
     0
 90
        2
176
     1
  1
strokes_ogs.tif
176
     1
290
     0
176
     1
 40
1.0
176
     1
 40
1.0
176
     1
  0
VISUALSTYLE
  5
171
102
{ACAD_REACTORS
330
16A
102
}
330
16A
100
AcDbVisualStyle
  2
3D Hidden
 70
     6
177
     3
291
     0
 70
    58
 90
        1
176
     1
 90
        2
176
     1
 90
        2
176
     1
 90
        0
176
     1
 40
-0.6
176
     1
 40
-30.0
176
     1
 62
     7
176
     1
 90
        2
176
     1
 90
        2
176
     1
 62
     7
176
     1
 62
   257
176
     1
 90
        2
176
     1
 90
        1
176
     1
 40
40.0
176
     1
 90
        0
176
     1
 62
   257
176
     1
 40
1.0
176
     1
 90
        1
176
     1
 90
        6
176
     1
 90
        2
176
     1
 62
     7
176
     1
 90
        3
176
     1
 90
        0
176
     1
 90
        0
176
     1
290
     0
176
     1
 90
        1
176
     1
 40
0.0
176
     1
 90
        0
176
     1
290
     0
176
     1
290
     1
176
     1
290
     1
176
     1
290
     0
176
     1
290
     0
176
     1
290
     0
176
     1
290
     0
176
     1
290
     0
176
     1
290
     0
176
     1
 90
       50
176
     1
 40
0.0
176
     1
 40
1.0
176
     1
 90
        0
176
     1
 62
    18
420
        0
176
     1
 90
       50
176
     1
 90
        3
176
     1
 62
     5
420
      255
176
     1
290
     0
176
     1
 90
       50
176
     1
 90
       50
176
     1
 90
       50
176
     1
290
     0
176
     1
 90
       50
176
     1
 62
   256
176
     0
 40
1.0
176
     0
 90
        2
176
     1
  1
strokes_ogs.tif
176
     1
290
     0
176
     1
 40
1.0
176
     1
 40
1.0
176
     1
  0
VISUALSTYLE
  5
170
102
{ACAD_REACTORS
330
16A
102
}
330
16A
100
AcDbVisualStyle
  2
3dWireframe
 70
     5
177
     3
291
     0
 70
    58
 90
        0
176
     1
 90
        2
176
     1
 90
        0
176
     1
 90
        0
176
     1
 40
-0.6
176
     1
 40
-30.0
176
     1
 62
     7
176
     1
 90
        1
176
     1
 90
        4
176
     1
 62
     7
176
     1
 62
   257
176
     1
 90
        1
176
     1
 90
        1
176
     1
 40
1.0
176
     1
 90
        0
176
     1
 62
   257
176
     1
 40
1.0
176
     1
 90
        1
176
     1
 90
        6
176
     1
 90
        2
176
     1
 62
     7
176
     1
 90
        5
176
     1
 90
        0
176
     1
 90
        0
176
     1
290
     0
176
     1
 90
        1
176
     1
 40
0.0
176
     1
 90
        0
176
     1
290
     0
176
     1
290
     1
176
     1
290
     1
176
     1
290
     0
176
     1
290
     0
176
     1
290
     0
176
     1
290
     0
176
     1
290
     0
176
     1
290
     0
176
     1
 90
       50
176
     1
 40
0.0
176
     1
 40
1.0
176
     1
 90
        0
176
     1
 62
    18
420
        0
176
     1
 90
       50
176
     1
 90
        3
176
     1
 62
     5
420
      255
176
     1
290
     0
176
     1
 90
       50
176
     1
 90
       50
176
     1
 90
       50
176
     1
290
     0
176
     1
 90
       50
176
     1
 62
   256
176
     0
 40
1.0
176
     0
 90
        2
176
     1
  1
strokes_ogs.tif
176
     1
290
     0
176
     1
 40
1.0
176
     1
 40
1.0
176
     1
  0
VISUALSTYLE
  5
172
102
{ACAD_REACTORS
330
16A
102
}
330
16A
100
AcDbVisualStyle
  2
Basic
 70
     7
177
     3
291
     1
 70
    58
 90
        1
176
     1
 90
        0
176
     1
 90
        1
176
     1
 90
        0
176
     1
 40
-0.6
176
     1
 40
-30.0
176
     1
 62
     7
176
     1
 90
        0
176
     1
 90
        4
176
     1
 62
     7
176
     1
 62
   257
176
     1
 90
        1
176
     1
 90
        1
176
     1
 40
1.0
176
     1
 90
        8
176
     1
 62
     7
176
     1
 40
1.0
176
     1
 90
        1
176
     1
 90
        6
176
     1
 90
        2
176
     1
 62
     7
176
     1
 90
        5
176
     1
 90
        0
176
     1
 90
        0
176
     1
290
     0
176
     1
 90
        1
176
     1
 40
0.0
176
     1
 90
        0
176
     1
290
     0
176
     1
290
     1
176
     1
290
     1
176
     1
290
     0
176
     1
290
     0
176
     1
290
     0
176
     1
290
     0
176
     1
290
     0
176
     1
290
     0
176
     1
 90
       50
176
     1
 40
0.0
176
     1
 40
1.0
176
     1
 90
        0
176
     1
 62
    18
420
        0
176
     1
 90
       50
176
     1
 90
        3
176
     1
 62
     5
420
      255
176
     1
290
     0
176
     1
 90
       50
176
     1
 90
       50
176
     1
 90
       50
176
     1
290
     0
176
     1
 90
       50
176
     1
 62
   256
176
     0
 40
1.0
176
     0
 90
        2
176
     1
  1
strokes_ogs.tif
176
     1
290
     0
176
     1
 40
1.0
176
     1
 40
1.0
176
     1
  0
VISUALSTYLE
  5
176
102
{ACAD_REACTORS
330
16A
102
}
330
16A
100
AcDbVisualStyle
  2
Brighten
 70
    12
177
     3
291
     1
 70
    58
 90
        2
176
     1
 90
        2
176
     1
 90
        0
176
     1
 90
        0
176
     1
 40
-0.6
176
     1
 40
-30.0
176
     1
 62
     7
176
     1
 90
        1
176
     1
 90
        4
176
     1
 62
     7
176
     1
 62
   257
176
     1
 90
        1
176
     1
 90
        1
176
     1
 40
1.0
176
     1
 90
        8
176
     1
 62
     7
176
     1
 40
1.0
176
     1
 90
        1
176
     1
 90
        6
176
     1
 90
        2
176
     1
 62
     7
176
     1
 90
        5
176
     1
 90
        0
176
     1
 90
        0
176
     1
290
     0
176
     1
 90
        1
176
     1
 40
50.0
176
     1
 90
        0
176
     1
290
     0
176
     1
290
     1
176
     1
290
     1
176
     1
290
     0
176
     1
290
     0
176
     1
290
     0
176
     1
290
     0
176
     1
290
     0
176
     1
290
     0
176
     1
 90
       50
176
     1
 40
0.0
176
     1
 40
1.0
176
     1
 90
        0
176
     1
 62
    18
420
        0
176
     1
 90
       50
176
     1
 90
        3
176
     1
 62
     5
420
      255
176
     1
290
     0
176
     1
 90
       50
176
     1
 90
       50
176
     1
 90
       50
176
     1
290
     0
176
     1
 90
       50
176
     1
 62
   256
176
     0
 40
1.0
176
     0
 90
        2
176
     1
  1
strokes_ogs.tif
176
     1
290
     0
176
     1
 40
1.0
176
     1
 40
1.0
176
     1
  0
VISUALSTYLE
  5
17A
102
{ACAD_REACTORS
330
16A
102
}
330
16A
100
AcDbVisualStyle
  2
ColorChange
 70
    16
177
     3
291
     1
 70
    58
 90
        2
176
     1
 90
        2
176
     1
 90
        3
176
     1
 90
        0
176
     1
 40
-0.6
176
     1
 40
-30.0
176
     1
 62
     8
176
     1
 90
        1
176
     1
 90
        4
176
     1
 62
     7
176
     1
 62
   257
176
     1
 90
        1
176
     1
 90
        1
176
     1
 40
1.0
176
     1
 90
        8
176
     1
 62
     8
176
     1
 40
1.0
176
     1
 90
        1
176
     1
 90
        6
176
     1
 90
        2
176
     1
 62
     7
176
     1
 90
        5
176
     1
 90
        0
176
     1
 90
        0
176
     1
290
     0
176
     1
 90
        1
176
     1
 40
0.0
176
     1
 90
        0
176
     1
290
     0
176
     1
290
     1
176
     1
290
     1
176
     1
290
     0
176
     1
290
     0
176
     1
290
     0
176
     1
290
     0
176
     1
290
     0
176
     1
290
     0
176
     1
 90
       50
176
     1
 40
0.0
176
     1
 40
1.0
176
     1
 90
        0
176
     1
 62
    18
420
        0
176
     1
 90
       50
176
     1
 90
        3
176
     1
 62
     5
420
      255
176
     1
290
     0
176
     1
 90
       50
176
     1
 90
       50
176
     1
 90
       50
176
     1
290
     0
176
     1
 90
       50
176
     1
 62
   256
176
     0
 40
1.0
176
     0
 90
        2
176
     1
  1
strokes_ogs.tif
176
     1
290
     0
176
     1
 40
1.0
176
     1
 40
1.0
176
     1
  0
VISUALSTYLE
  5
174
102
{ACAD_REACTORS
330
16A
102
}
330
16A
100
AcDbVisualStyle
  2
Conceptual
 70
     9
177
     3
291
     0
 70
    58
 90
        3
176
     1
 90
        2
176
     1
 90
        0
176
     1
 90
        0
176
     1
 40
-0.6
176
     1
 40
-30.0
176
     1
 62
     7
176
     1
 90
        2
176
     1
 90
        2
176
     1
 62
     7
176
     1
 62
   257
176
     1
 90
        1
176
     1
 90
        1
176
     1
 40
40.0
176
     1
 90
        8
176
     1
 62
     7
176
     1
 40
1.0
176
     1
 90
        1
176
     1
 90
        6
176
     1
 90
        2
176
     1
 62
     7
176
     1
 90
        3
176
     1
 90
        0
176
     1
 90
        0
176
     1
290
     0
176
     1
 90
        1
176
     1
 40
0.0
176
     1
 90
        0
176
     1
290
     0
176
     1
290
     1
176
     1
290
     1
176
     1
290
     0
176
     1
290
     0
176
     1
290
     0
176
     1
290
     0
176
     1
290
     0
176
     1
290
     0
176
     1
 90
       50
176
     1
 40
0.0
176
     1
 40
1.0
176
     1
 90
        0
176
     1
 62
    18
420
        0
176
     1
 90
       50
176
     1
 90
        3
176
     1
 62
     5
420
      255
176
     1
290
     0
176
     1
 90
       50
176
     1
 90
       50
176
     1
 90
       50
176
     1
290
     0
176
     1
 90
       50
176
     1
 62
   256
176
     0
 40
1.0
176
     0
 90
        2
176
     1
  1
strokes_ogs.tif
176
     1
290
     0
176
     1
 40
1.0
176
     1
 40
1.0
176
     1
  0
VISUALSTYLE
  5
175
102
{ACAD_REACTORS
330
16A
102
}
330
16A
100
AcDbVisualStyle
  2
Dim
 70
    11
177
     3
291
     1
 70
    58
 90
        2
176
     1
 90
        2
176
     1
 90
        0
176
     1
 90
        0
176
     1
 40
-0.6
176
     1
 40
-30.0
176
     1
 62
     7
176
     1
 90
        1
176
     1
 90
        4
176
     1
 62
     7
176
     1
 62
   257
176
     1
 90
        1
176
     1
 90
        1
176
     1
 40
1.0
176
     1
 90
        8
176
     1
 62
     7
176
     1
 40
1.0
176
     1
 90
        1
176
     1
 90
        6
176
     1
 90
        2
176
     1
 62
     7
176
     1
 90
        5
176
     1
 90
        0
176
     1
 90
        0
176
     1
290
     0
176
     1
 90
        1
176
     1
 40
-50.0
176
     1
 90
        0
176
     1
290
     0
176
     1
290
     1
176
     1
290
     1
176
     1
290
     0
176
     1
290
     0
176
     1
290
     0
176
     1
290
     0
176
     1
290
     0
176
     1
290
     0
176
     1
 90
       50
176
     1
 40
0.0
176
     1
 40
1.0
176
     1
 90
        0
176
     1
 62
    18
420
        0
176
     1
 90
       50
176
     1
 90
        3
176
     1
 62
     5
420
      255
176
     1
290
     0
176
     1
 90
       50
176
     1
 90
       50
176
     1
 90
       50
176
     1
290
     0
176
     1
 90
       50
176
     1
 62
   256
176
     0
 40
1.0
176
     0
 90
        2
176
     1
  1
strokes_ogs.tif
176
     1
290
     0
176
     1
 40
1.0
176
     1
 40
1.0
176
     1
  0
VISUALSTYLE
  5
1CB
102
{ACAD_REACTORS
330
16A
102
}
330
16A
100
AcDbVisualStyle
  2
EdgeColorOff
 70
    22
177
     3
291
     1
 70
    58
 90
        2
176
     0
 90
        2
176
     0
 90
        0
176
     0
 90
        0
176
     0
 40
0.6
176
     0
 40
30.0
176
     0
 62
     7
420
 16777215
176
     0
 90
        1
176
     0
 90
        4
176
     0
 62
     7
176
     0
 62
   257
176
     0
 90
        1
176
     0
 90
        1
176
     0
 40
1.0
176
     0
 90
        8
176
     2
 62
     7
176
     0
 40
1.0
176
     0
 90
        1
176
     0
 90
        6
176
     0
 90
        2
176
     0
 62
     7
176
     0
 90
        5
176
     0
 90
        0
176
     0
 90
        0
176
     0
290
     0
176
     0
 90
        1
176
     0
 40
0.0
176
     0
 90
        0
176
     0
290
     0
176
     0
290
     1
176
     0
290
     1
176
     0
290
     0
176
     0
290
     0
176
     0
290
     0
176
     0
290
     0
176
     0
290
     0
176
     0
290
     0
176
     0
 90
       50
176
     0
 40
0.0
176
     0
 40
1.0
176
     0
 90
        0
176
     0
 62
    18
420
        0
176
     0
 90
       50
176
     0
 90
        3
176
     0
 62
     5
420
      255
176
     0
290
     0
176
     0
 90
       50
176
     0
 90
       50
176
     0
 90
       50
176
     0
290
     0
176
     0
 90
       50
176
     0
 62
   256
176
     0
 40
1.0
176
     0
 90
        2
176
     0
  1
strokes_ogs.tif
176
     0
290
     0
176
     0
 40
1.0
176
     0
 40
1.0
176
     0
  0
VISUALSTYLE
  5
179
102
{ACAD_REACTORS
330
16A
102
}
330
16A
100
AcDbVisualStyle
  2
Facepattern
 70
    15
177
     3
291
     1
 70
    58
 90
        2
176
     1
 90
        2
176
     1
 90
        0
176
     1
 90
        0
176
     1
 40
-0.6
176
     1
 40
-30.0
176
     1
 62
     7
176
     1
 90
        1
176
     1
 90
        4
176
     1
 62
     7
176
     1
 62
   257
176
     1
 90
        1
176
     1
 90
        1
176
     1
 40
1.0
176
     1
 90
        8
176
     1
 62
     7
176
     1
 40
1.0
176
     1
 90
        1
176
     1
 90
        6
176
     1
 90
        2
176
     1
 62
     7
176
     1
 90
        5
176
     1
 90
        0
176
     1
 90
        0
176
     1
290
     0
176
     1
 90
        1
176
     1
 40
0.0
176
     1
 90
        0
176
     1
290
     0
176
     1
290
     1
176
     1
290
     1
176
     1
290
     0
176
     1
290
     0
176
     1
290
     0
176
     1
290
     0
176
     1
290
     0
176
     1
290
     0
176
     1
 90
       50
176
     1
 40
0.0
176
     1
 40
1.0
176
     1
 90
        0
176
     1
 62
    18
420
        0
176
     1
 90
       50
176
     1
 90
        3
176
     1
 62
     5
420
      255
176
     1
290
     0
176
     1
 90
       50
176
     1
 90
       50
176
     1
 90
       50
176
     1
290
     0
176
     1
 90
       50
176
     1
 62
   256
176
     0
 40
1.0
176
     0
 90
        2
176
     1
  1
strokes_ogs.tif
176
     1
290
     0
176
     1
 40
1.0
176
     1
 40
1.0
176
     1
  0
VISUALSTYLE
  5
16B
102
{ACAD_REACTORS
330
16A
102
}
330
16A
100
AcDbVisualStyle
  2
Flat
 70
     0
177
     3
291
     1
 70
    58
 90
        2
176
     1
 90
        1
176
     1
 90
        1
176
     1
 90
        2
176
     1
 40
-0.6
176
     1
 40
30.0
176
     1
 62
     7
176
     1
 90
        0
176
     1
 90
        4
176
     1
 62
     7
176
     1
 62
   257
176
     1
 90
        1
176
     1
 90
        1
176
     1
 40
1.0
176
     1
 90
        8
176
     1
 62
     7
176
     1
 40
1.0
176
     1
 90
        1
176
     1
 90
        6
176
     1
 90
        2
176
     1
 62
     7
176
     1
 90
        5
176
     1
 90
        0
176
     1
 90
        0
176
     1
290
     0
176
     1
 90
       13
176
     1
 40
0.0
176
     1
 90
        0
176
     1
290
     0
176
     1
290
     1
176
     1
290
     1
176
     1
290
     0
176
     1
290
     0
176
     1
290
     0
176
     1
290
     0
176
     1
290
     0
176
     1
290
     0
176
     1
 90
       50
176
     1
 40
0.0
176
     1
 40
1.0
176
     1
 90
        0
176
     1
 62
    18
420
        0
176
     1
 90
       50
176
     1
 90
        3
176
     1
 62
     5
420
      255
176
     1
290
     0
176
     1
 90
       50
176
     1
 90
       50
176
     1
 90
       50
176
     1
290
     0
176
     1
 90
       50
176
     1
 62
   256
176
     0
 40
1.0
176
     0
 90
        2
176
     1
  1
strokes_ogs.tif
176
     1
290
     0
176
     1
 40
1.0
176
     1
 40
1.0
176
     1
  0
VISUALSTYLE
  5
16C
102
{ACAD_REACTORS
330
16A
102
}
330
16A
100
AcDbVisualStyle
  2
FlatWithEdges
 70
     1
177
     3
291
     1
 70
    58
 90
        2
176
     1
 90
        1
176
     1
 90
        1
176
     1
 90
        2
176
     1
 40
-0.6
176
     1
 40
30.0
176
     1
 62
     7
176
     1
 90
        1
176
     1
 90
        4
176
     1
 62
     7
176
     1
 62
   257
176
     1
 90
        1
176
     1
 90
        1
176
     1
 40
1.0
176
     1
 90
        0
176
     1
 62
   257
176
     1
 40
1.0
176
     1
 90
        1
176
     1
 90
        6
176
     1
 90
        2
176
     1
 62
     7
176
     1
 90
        5
176
     1
 90
        0
176
     1
 90
        0
176
     1
290
     0
176
     1
 90
       13
176
     1
 40
0.0
176
     1
 90
        0
176
     1
290
     0
176
     1
290
     1
176
     1
290
     1
176
     1
290
     0
176
     1
290
     0
176
     1
290
     0
176
     1
290
     0
176
     1
290
     0
176
     1
290
     0
176
     1
 90
       50
176
     1
 40
0.0
176
     1
 40
1.0
176
     1
 90
        0
176
     1
 62
    18
420
        0
176
     1
 90
       50
176
     1
 90
        3
176
     1
 62
     5
420
      255
176
     1
290
     0
176
     1
 90
       50
176
     1
 90
       50
176
     1
 90
       50
176
     1
290
     0
176
     1
 90
       50
176
     1
 62
   256
176
     0
 40
1.0
176
     0
 90
        2
176
     1
  1
strokes_ogs.tif
176
     1
290
     0
176
     1
 40
1.0
176
     1
 40
1.0
176
     1
  0
VISUALSTYLE
  5
16D
102
{ACAD_REACTORS
330
16A
102
}
330
16A
100
AcDbVisualStyle
  2
Gouraud
 70
     2
177
     3
291
     1
 70
    58
 90
        2
176
     1
 90
        2
176
     1
 90
        1
176
     1
 90
        2
176
     1
 40
-0.6
176
     1
 40
30.0
176
     1
 62
     7
176
     1
 90
        0
176
     1
 90
        4
176
     1
 62
     7
176
     1
 62
   257
176
     1
 90
        1
176
     1
 90
        1
176
     1
 40
1.0
176
     1
 90
        0
176
     1
 62
     7
176
     1
 40
1.0
176
     1
 90
        1
176
     1
 90
        6
176
     1
 90
        2
176
     1
 62
     7
176
     1
 90
        5
176
     1
 90
        0
176
     1
 90
        0
176
     1
290
     0
176
     1
 90
       13
176
     1
 40
0.0
176
     1
 90
        0
176
     1
290
     0
176
     1
290
     1
176
     1
290
     1
176
     1
290
     0
176
     1
290
     0
176
     1
290
     0
176
     1
290
     0
176
     1
290
     0
176
     1
290
     0
176
     1
 90
       50
176
     1
 40
0.0
176
     1
 40
1.0
176
     1
 90
        0
176
     1
 62
    18
420
        0
176
     1
 90
       50
176
     1
 90
        3
176
     1
 62
     5
420
      255
176
     1
290
     0
176
     1
 90
       50
176
     1
 90
       50
176
     1
 90
       50
176
     1
290
     0
176
     1
 90
       50
176
     1
 62
   256
176
     0
 40
1.0
176
     0
 90
        2
176
     1
  1
strokes_ogs.tif
176
     1
290
     0
176
     1
 40
1.0
176
     1
 40
1.0
176
     1
  0
VISUALSTYLE
  5
16E
102
{ACAD_REACTORS
330
16A
102
}
330
16A
100
AcDbVisualStyle
  2
GouraudWithEdges
 70
     3
177
     3
291
     1
 70
    58
 90
        2
176
     1
 90
        2
176
     1
 90
        1
176
     1
 90
        2
176
     1
 40
-0.6
176
     1
 40
30.0
176
     1
 62
     7
176
     1
 90
        1
176
     1
 90
        4
176
     1
 62
     7
176
     1
 62
   257
176
     1
 90
        1
176
     1
 90
        1
176
     1
 40
1.0
176
     1
 90
        0
176
     1
 62
   257
176
     1
 40
1.0
176
     1
 90
        1
176
     1
 90
        6
176
     1
 90
        2
176
     1
 62
     7
176
     1
 90
        5
176
     1
 90
        0
176
     1
 90
        0
176
     1
290
     0
176
     1
 90
       13
176
     1
 40
0.0
176
     1
 90
        0
176
     1
290
     0
176
     1
290
     1
176
     1
290
     1
176
     1
290
     0
176
     1
290
     0
176
     1
290
     0
176
     1
290
     0
176
     1
290
     0
176
     1
290
     0
176
     1
 90
       50
176
     1
 40
0.0
176
     1
 40
1.0
176
     1
 90
        0
176
     1
 62
    18
420
        0
176
     1
 90
       50
176
     1
 90
        3
176
     1
 62
     5
420
      255
176
     1
290
     0
176
     1
 90
       50
176
     1
 90
       50
176
     1
 90
       50
176
     1
290
     0
176
     1
 90
       50
176
     1
 62
   256
176
     0
 40
1.0
176
     0
 90
        2
176
     1
  1
strokes_ogs.tif
176
     1
290
     0
176
     1
 40
1.0
176
     1
 40
1.0
176
     1
  0
VISUALSTYLE
  5
1C8
102
{ACAD_REACTORS
330
16A
102
}
330
16A
100
AcDbVisualStyle
  2
Hidden
 70
     6
177
     3
291
     0
 70
    58
 90
        1
176
     1
 90
        2
176
     1
 90
        2
176
     1
 90
        0
176
     1
 40
0.6
176
     1
 40
30.0
176
     1
 62
     7
420
 16777215
176
     1
 90
        2
176
     1
 90
        2
176
     1
 62
     7
176
     1
 62
   257
176
     1
 90
        2
176
     1
 90
        1
176
     1
 40
40.0
176
     1
 90
        0
176
     1
 62
   257
176
     1
 40
1.0
176
     1
 90
        1
176
     1
 90
        6
176
     1
 90
        2
176
     1
 62
     7
176
     1
 90
        3
176
     1
 90
        0
176
     1
 90
        0
176
     1
290
     0
176
     1
 90
        1
176
     1
 40
0.0
176
     1
 90
        0
176
     1
290
     0
176
     1
290
     1
176
     1
290
     1
176
     1
290
     0
176
     1
290
     0
176
     1
290
     0
176
     1
290
     0
176
     1
290
     0
176
     1
290
     0
176
     1
 90
       50
176
     1
 40
0.0
176
     1
 40
1.0
176
     1
 90
        0
176
     1
 62
    18
420
        0
176
     1
 90
       50
176
     1
 90
        3
176
     1
 62
     5
420
      255
176
     1
290
     0
176
     1
 90
       50
176
     1
 90
       50
176
     1
 90
       50
176
     1
290
     0
176
     1
 90
       50
176
     1
 62
   256
176
     0
 40
1.0
176
     0
 90
        2
176
     1
  1
strokes_ogs.tif
176
     1
290
     0
176
     1
 40
1.0
176
     1
 40
1.0
176
     1
  0
VISUALSTYLE
  5
1C9
102
{ACAD_REACTORS
330
16A
102
}
330
16A
100
AcDbVisualStyle
  2
JitterOff
 70
    20
177
     3
291
     1
 70
    58
 90
        2
176
     0
 90
        2
176
     0
 90
        0
176
     0
 90
        0
176
     0
 40
0.6
176
     0
 40
30.0
176
     0
 62
     7
420
 16777215
176
     0
 90
        1
176
     0
 90
        4
176
     0
 62
     7
176
     0
 62
   257
176
     0
 90
        1
176
     0
 90
        1
176
     0
 40
1.0
176
     0
 90
       10
176
     2
 62
     7
176
     0
 40
1.0
176
     0
 90
        1
176
     0
 90
        6
176
     0
 90
        2
176
     0
 62
     7
176
     0
 90
        5
176
     0
 90
        0
176
     0
 90
        0
176
     0
290
     0
176
     0
 90
        1
176
     0
 40
0.0
176
     0
 90
        0
176
     0
290
     0
176
     0
290
     1
176
     0
290
     1
176
     0
290
     0
176
     0
290
     0
176
     0
290
     0
176
     0
290
     0
176
     0
290
     0
176
     0
290
     0
176
     0
 90
       50
176
     0
 40
0.0
176
     0
 40
1.0
176
     0
 90
        0
176
     0
 62
    18
420
        0
176
     0
 90
       50
176
     0
 90
        3
176
     0
 62
     5
420
      255
176
     0
290
     0
176
     0
 90
       50
176
     0
 90
       50
176
     0
 90
       50
176
     0
290
     0
176
     0
 90
       50
176
     0
 62
   256
176
     0
 40
1.0
176
     0
 90
        2
176
     0
  1
strokes_ogs.tif
176
     0
290
     0
176
     0
 40
1.0
176
     0
 40
1.0
176
     0
  0
VISUALSTYLE
  5
178
102
{ACAD_REACTORS
330
16A
102
}
330
16A
100
AcDbVisualStyle
  2
Linepattern
 70
    14
177
     3
291
     1
 70
    58
 90
        2
176
     1
 90
        2
176
     1
 90
        0
176
     1
 90
        0
176
     1
 40
-0.6
176
     1
 40
-30.0
176
     1
 62
     7
176
     1
 90
        1
176
     1
 90
        4
176
     1
 62
     7
176
     1
 62
   257
176
     1
 90
        7
176
     1
 90
        7
176
     1
 40
1.0
176
     1
 90
        8
176
     1
 62
     7
176
     1
 40
1.0
176
     1
 90
        1
176
     1
 90
        6
176
     1
 90
        2
176
     1
 62
     7
176
     1
 90
        5
176
     1
 90
        0
176
     1
 90
        0
176
     1
290
     0
176
     1
 90
        1
176
     1
 40
0.0
176
     1
 90
        0
176
     1
290
     0
176
     1
290
     1
176
     1
290
     1
176
     1
290
     0
176
     1
290
     0
176
     1
290
     0
176
     1
290
     0
176
     1
290
     0
176
     1
290
     0
176
     1
 90
       50
176
     1
 40
0.0
176
     1
 40
1.0
176
     1
 90
        0
176
     1
 62
    18
420
        0
176
     1
 90
       50
176
     1
 90
        3
176
     1
 62
     5
420
      255
176
     1
290
     0
176
     1
 90
       50
176
     1
 90
       50
176
     1
 90
       50
176
     1
290
     0
176
     1
 90
       50
176
     1
 62
   256
176
     0
 40
1.0
176
     0
 90
        2
176
     1
  1
strokes_ogs.tif
176
     1
290
     0
176
     1
 40
1.0
176
     1
 40
1.0
176
     1
  0
VISUALSTYLE
  5
1CA
102
{ACAD_REACTORS
330
16A
102
}
330
16A
100
AcDbVisualStyle
  2
OverhangOff
 70
    21
177
     3
291
     1
 70
    58
 90
        2
176
     0
 90
        2
176
     0
 90
        0
176
     0
 90
        0
176
     0
 40
0.6
176
     0
 40
30.0
176
     0
 62
     7
420
 16777215
176
     0
 90
        1
176
     0
 90
        4
176
     0
 62
     7
176
     0
 62
   257
176
     0
 90
        1
176
     0
 90
        1
176
     0
 40
1.0
176
     0
 90
        9
176
     2
 62
     7
176
     0
 40
1.0
176
     0
 90
        1
176
     0
 90
        6
176
     0
 90
        2
176
     0
 62
     7
176
     0
 90
        5
176
     0
 90
        0
176
     0
 90
        0
176
     0
290
     0
176
     0
 90
        1
176
     0
 40
0.0
176
     0
 90
        0
176
     0
290
     0
176
     0
290
     1
176
     0
290
     1
176
     0
290
     0
176
     0
290
     0
176
     0
290
     0
176
     0
290
     0
176
     0
290
     0
176
     0
290
     0
176
     0
 90
       50
176
     0
 40
0.0
176
     0
 40
1.0
176
     0
 90
        0
176
     0
 62
    18
420
        0
176
     0
 90
       50
176
     0
 90
        3
176
     0
 62
     5
420
      255
176
     0
290
     0
176
     0
 90
       50
176
     0
 90
       50
176
     0
 90
       50
176
     0
290
     0
176
     0
 90
       50
176
     0
 62
   256
176
     0
 40
1.0
176
     0
 90
        2
176
     0
  1
strokes_ogs.tif
176
     0
290
     0
176
     0
 40
1.0
176
     0
 40
1.0
176
     0
  0
VISUALSTYLE
  5
173
102
{ACAD_REACTORS
330
16A
102
}
330
16A
100
AcDbVisualStyle
  2
Realistic
 70
     8
177
     3
291
     0
 70
    58
 90
        2
176
     1
 90
        2
176
     1
 90
        0
176
     1
 90
        0
176
     1
 40
-0.6
176
     1
 40
-30.0
176
     1
 62
     7
176
     1
 90
        1
176
     1
 90
        0
176
     1
 62
     7
176
     1
 62
   257
176
     1
 90
        1
176
     1
 90
        1
176
     1
 40
1.0
176
     1
 90
        8
176
     1
 62
     8
176
     1
 40
1.0
176
     1
 90
        1
176
     1
 90
        6
176
     1
 90
        2
176
     1
 62
     7
176
     1
 90
        5
176
     1
 90
        0
176
     1
 90
        0
176
     1
290
     0
176
     1
 90
       13
176
     1
 40
0.0
176
     1
 90
        0
176
     1
290
     0
176
     1
290
     1
176
     1
290
     1
176
     1
290
     0
176
     1
290
     0
176
     1
290
     0
176
     1
290
     0
176
     1
290
     0
176
     1
290
     0
176
     1
 90
       50
176
     1
 40
0.0
176
     1
 40
1.0
176
     1
 90
        0
176
     1
 62
    18
420
        0
176
     1
 90
       50
176
     1
 90
        3
176
     1
 62
     5
420
      255
176
     1
290
     0
176
     1
 90
       50
176
     1
 90
       50
176
     1
 90
       50
176
     1
290
     0
176
     1
 90
       50
176
     1
 62
   256
176
     0
 40
1.0
176
     0
 90
        2
176
     1
  1
strokes_ogs.tif
176
     1
290
     0
176
     1
 40
1.0
176
     1
 40
1.0
176
     1
  0
VISUALSTYLE
  5
1D0
102
{ACAD_REACTORS
330
16A
102
}
330
16A
100
AcDbVisualStyle
  2
Shaded
 70
    27
177
     3
291
     0
 70
    58
 90
        2
176
     1
 90
        2
176
     1
 90
        1
176
     1
 90
        2
176
     1
 40
0.6
176
     1
 40
30.0
176
     1
 62
     7
420
 16777215
176
     1
 90
        0
176
     1
 90
        4
176
     1
 62
     7
176
     1
 62
   257
176
     1
 90
        1
176
     1
 90
        1
176
     1
 40
1.0
176
     1
 90
        8
176
     1
 62
   257
176
     1
 40
1.0
176
     1
 90
        1
176
     1
 90
        6
176
     1
 90
        2
176
     1
 62
     8
420
  7895160
176
     1
 90
        3
176
     1
 90
        0
176
     1
 90
        0
176
     1
290
     0
176
     1
 90
        5
176
     1
 40
0.0
176
     1
 90
        0
176
     1
290
     0
176
     1
290
     1
176
     1
290
     1
176
     1
290
     0
176
     1
290
     0
176
     1
290
     0
176
     1
290
     0
176
     1
290
     0
176
     1
290
     0
176
     1
 90
       50
176
     1
 40
0.0
176
     1
 40
1.0
176
     1
 90
        0
176
     1
 62
    18
420
        0
176
     1
 90
       50
176
     1
 90
        3
176
     1
 62
     5
420
      255
176
     1
290
     0
176
     1
 90
       50
176
     1
 90
       50
176
     1
 90
       50
176
     1
290
     0
176
     1
 90
       50
176
     1
 62
   256
176
     0
 40
1.0
176
     0
 90
        2
176
     1
  1
strokes_ogs.tif
176
     1
290
     0
176
     1
 40
1.0
176
     1
 40
1.0
176
     1
  0
VISUALSTYLE
  5
1CF
102
{ACAD_REACTORS
330
16A
102
}
330
16A
100
AcDbVisualStyle
  2
Shaded with edges
 70
    26
177
     3
291
     0
 70
    58
 90
        2
176
     1
 90
        2
176
     1
 90
        1
176
     1
 90
        2
176
     1
 40
0.6
176
     1
 40
30.0
176
     1
 62
     7
420
 16777215
176
     1
 90
        1
176
     1
 90
       10
176
     1
 62
     7
176
     1
 62
   257
176
     1
 90
        2
176
     1
 90
        1
176
     1
 40
1.0
176
     1
 90
        8
176
     1
 62
   257
176
     1
 40
1.0
176
     1
 90
        1
176
     1
 90
        6
176
     1
 90
        2
176
     1
 62
     7
176
     1
 90
        3
176
     1
 90
        0
176
     1
 90
        0
176
     1
290
     0
176
     1
 90
        5
176
     1
 40
0.0
176
     1
 90
        0
176
     1
290
     0
176
     1
290
     1
176
     1
290
     1
176
     1
290
     0
176
     1
290
     0
176
     1
290
     0
176
     1
290
     0
176
     1
290
     0
176
     1
290
     0
176
     1
 90
       50
176
     1
 40
0.0
176
     1
 40
1.0
176
     1
 90
        0
176
     1
 62
    18
420
        0
176
     1
 90
       50
176
     1
 90
        3
176
     1
 62
     5
420
      255
176
     1
290
     0
176
     1
 90
       50
176
     1
 90
       50
176
     1
 90
       50
176
     1
290
     0
176
     1
 90
       50
176
     1
 62
   256
176
     0
 40
1.0
176
     0
 90
        2
176
     1
  1
strokes_ogs.tif
176
     1
290
     0
176
     1
 40
1.0
176
     1
 40
1.0
176
     1
  0
VISUALSTYLE
  5
1CC
102
{ACAD_REACTORS
330
16A
102
}
330
16A
100
AcDbVisualStyle
  2
Shades of Gray
 70
    23
177
     3
291
     0
 70
    58
 90
        2
176
     1
 90
        2
176
     1
 90
        3
176
     1
 90
        0
176
     1
 40
0.6
176
     1
 40
30.0
176
     1
 62
     7
420
 16777215
176
     1
 90
        2
176
     1
 90
        2
176
     1
 62
     7
176
     1
 62
     7
176
     1
 90
        1
176
     1
 90
        1
176
     1
 40
40.0
176
     1
 90
        8
176
     1
 62
     7
176
     1
 40
1.0
176
     1
 90
        1
176
     1
 90
        6
176
     1
 90
        2
176
     1
 62
     7
176
     1
 90
        3
176
     1
 90
        0
176
     1
 90
        0
176
     1
290
     0
176
     1
 90
        1
176
     1
 40
0.0
176
     1
 90
        0
176
     1
290
     0
176
     1
290
     1
176
     1
290
     1
176
     1
290
     0
176
     1
290
     0
176
     1
290
     0
176
     1
290
     0
176
     1
290
     0
176
     1
290
     0
176
     1
 90
       50
176
     1
 40
0.0
176
     1
 40
1.0
176
     1
 90
        0
176
     1
 62
    18
420
        0
176
     1
 90
       50
176
     1
 90
        3
176
     1
 62
     5
420
      255
176
     1
290
     0
176
     1
 90
       50
176
     1
 90
       50
176
     1
 90
       50
176
     1
290
     0
176
     1
 90
       50
176
     1
 62
   256
176
     0
 40
1.0
176
     0
 90
        2
176
     1
  1
strokes_ogs.tif
176
     1
290
     0
176
     1
 40
1.0
176
     1
 40
1.0
176
     1
  0
VISUALSTYLE
  5
1CD
102
{ACAD_REACTORS
330
16A
102
}
330
16A
100
AcDbVisualStyle
  2
Sketchy
 70
    24
177
     3
291
     0
 70
    58
 90
        1
176
     1
 90
        2
176
     1
 90
        2
176
     1
 90
        0
176
     1
 40
0.6
176
     1
 40
30.0
176
     1
 62
     7
420
 16777215
176
     1
 90
        2
176
     1
 90
        2
176
     1
 62
     7
176
     1
 62
     7
176
     1
 90
        1
176
     1
 90
        1
176
     1
 40
40.0
176
     1
 90
       11
176
     1
 62
     7
176
     1
 40
1.0
176
     1
 90
        1
176
     1
 90
        6
176
     1
 90
        2
176
     1
 62
     7
176
     1
 90
        6
176
     1
 90
        0
176
     1
 90
        0
176
     1
290
     0
176
     1
 90
        1
176
     1
 40
0.0
176
     1
 90
        0
176
     1
290
     0
176
     1
290
     1
176
     1
290
     1
176
     1
290
     0
176
     1
290
     0
176
     1
290
     0
176
     1
290
     0
176
     1
290
     0
176
     1
290
     0
176
     1
 90
       50
176
     1
 40
0.0
176
     1
 40
1.0
176
     1
 90
        0
176
     1
 62
    18
420
        0
176
     1
 90
       50
176
     1
 90
        3
176
     1
 62
     5
420
      255
176
     1
290
     0
176
     1
 90
       50
176
     1
 90
       50
176
     1
 90
       50
176
     1
290
     0
176
     1
 90
       50
176
     1
 62
   256
176
     0
 40
1.0
176
     0
 90
        2
176
     1
  1
strokes_ogs.tif
176
     1
290
     0
176
     1
 40
1.0
176
     1
 40
1.0
176
     1
  0
VISUALSTYLE
  5
177
102
{ACAD_REACTORS
330
16A
102
}
330
16A
100
AcDbVisualStyle
  2
Thicken
 70
    13
177
     3
291
     1
 70
    58
 90
        2
176
     1
 90
        2
176
     1
 90
        0
176
     1
 90
        0
176
     1
 40
-0.6
176
     1
 40
-30.0
176
     1
 62
     7
176
     1
 90
        1
176
     1
 90
        4
176
     1
 62
     7
176
     1
 62
   257
176
     1
 90
        1
176
     1
 90
        1
176
     1
 40
1.0
176
     1
 90
       12
176
     1
 62
     7
176
     1
 40
1.0
176
     1
 90
        1
176
     1
 90
        6
176
     1
 90
        2
176
     1
 62
     7
176
     1
 90
        5
176
     1
 90
        0
176
     1
 90
        0
176
     1
290
     0
176
     1
 90
        1
176
     1
 40
0.0
176
     1
 90
        0
176
     1
290
     0
176
     1
290
     1
176
     1
290
     1
176
     1
290
     0
176
     1
290
     0
176
     1
290
     0
176
     1
290
     0
176
     1
290
     0
176
     1
290
     0
176
     1
 90
       50
176
     1
 40
0.0
176
     1
 40
1.0
176
     1
 90
        0
176
     1
 62
    18
420
        0
176
     1
 90
       50
176
     1
 90
        3
176
     1
 62
     5
420
      255
176
     1
290
     0
176
     1
 90
       50
176
     1
 90
       50
176
     1
 90
       50
176
     1
290
     0
176
     1
 90
       50
176
     1
 62
   256
176
     0
 40
1.0
176
     0
 90
        2
176
     1
  1
strokes_ogs.tif
176
     1
290
     0
176
     1
 40
1.0
176
     1
 40
1.0
176
     1
  0
VISUALSTYLE
  5
1C7
102
{ACAD_REACTORS
330
16A
102
}
330
16A
100
AcDbVisualStyle
  2
Wireframe
 70
     5
177
     3
291
     0
 70
    58
 90
        0
176
     1
 90
        2
176
     1
 90
        0
176
     1
 90
        0
176
     1
 40
0.6
176
     1
 40
30.0
176
     1
 62
     7
420
 16777215
176
     1
 90
        1
176
     1
 90
        4
176
     1
 62
     7
176
     1
 62
   257
176
     1
 90
        1
176
     1
 90
        1
176
     1
 40
1.0
176
     1
 90
        0
176
     1
 62
   257
176
     1
 40
1.0
176
     1
 90
        1
176
     1
 90
        6
176
     1
 90
        2
176
     1
 62
     7
176
     1
 90
        3
176
     1
 90
        0
176
     1
 90
        0
176
     1
290
     0
176
     1
 90
        1
176
     1
 40
0.0
176
     1
 90
        0
176
     1
290
     0
176
     1
290
     1
176
     1
290
     1
176
     1
290
     0
176
     1
290
     0
176
     1
290
     0
176
     1
290
     0
176
     1
290
     0
176
     1
290
     0
176
     1
 90
       50
176
     1
 40
0.0
176
     1
 40
1.0
176
     1
 90
        0
176
     1
 62
    18
420
        0
176
     1
 90
       50
176
     1
 90
        3
176
     1
 62
     5
420
      255
176
     1
290
     0
176
     1
 90
       50
176
     1
 90
       50
176
     1
 90
       50
176
     1
290
     0
176
     1
 90
       50
176
     1
 62
   256
176
     0
 40
1.0
176
     0
 90
        2
176
     1
  1
strokes_ogs.tif
176
     1
290
     0
176
     1
 40
1.0
176
     1
 40
1.0
176
     1
  0
VISUALSTYLE
  5
1CE
102
{ACAD_REACTORS
330
16A
102
}
330
16A
100
AcDbVisualStyle
  2
X-Ray
 70
    25
177
     3
291
     0
 70
    58
 90
        2
176
     1
 90
        2
176
     1
 90
        1
176
     1
 90
        1
176
     1
 40
0.5
176
     1
 40
30.0
176
     1
 62
     7
420
 16777215
176
     1
 90
        1
176
     1
 90
        0
176
     1
 62
     7
176
     1
 62
   257
176
     1
 90
        1
176
     1
 90
        1
176
     1
 40
1.0
176
     1
 90
        8
176
     1
 62
     7
176
     1
 40
1.0
176
     1
 90
        1
176
     1
 90
        6
176
     1
 90
        2
176
     1
 62
     7
176
     1
 90
        3
176
     1
 90
        0
176
     1
 90
        0
176
     1
290
     0
176
     1
 90
       13
176
     1
 40
0.0
176
     1
 90
        0
176
     1
290
     0
176
     1
290
     1
176
     1
290
     1
176
     1
290
     0
176
     1
290
     0
176
     1
290
     0
176
     1
290
     0
176
     1
290
     0
176
     1
290
     0
176
     1
 90
       50
176
     1
 40
0.0
176
     1
 40
1.0
176
     1
 90
        0
176
     1
 62
    18
420
        0
176
     1
 90
       50
176
     1
 90
        3
176
     1
 62
     5
420
      255
176
     1
290
     0
176
     1
 90
       50
176
     1
 90
       50
176
     1
 90
       50
176
     1
290
     0
176
     1
 90
       50
176
     1
 62
   256
176
     0
 40
1.0
176
     0
 90
        2
176
     1
  1
strokes_ogs.tif
176
     1
290
     0
176
     1
 40
1.0
176
     1
 40
1.0
176
     1
  0
DICTIONARYVAR
  5
200
102
{ACAD_REACTORS
330
186
102
}
330
186
100
DictionaryVariables
280
     0
  1
1:1
  0
DICTIONARYVAR
  5
202
102
{ACAD_REACTORS
330
186
102
}
330
186
100
DictionaryVariables
280
     0
  1
Standard
  0
DICTIONARYVAR
  5
201
102
{ACAD_REACTORS
330
186
102
}
330
186
100
DictionaryVariables
280
     0
  1
Standard
  0
DICTIONARYVAR
  5
18A
102
{ACAD_REACTORS
330
186
102
}
330
186
100
DictionaryVariables
280
     0
  1
2
  0
DICTIONARYVAR
  5
18B
102
{ACAD_REACTORS
330
186
102
}
330
186
100
DictionaryVariables
280
     0
  1
1
  0
DICTIONARYVAR
  5
189
102
{ACAD_REACTORS
330
186
102
}
330
186
100
DictionaryVariables
280
     0
  1
0
  0
DICTIONARY
  5
251
330
1D2
100
AcDbDictionary
280
     1
281
     1
  3
ACAD_ROUNDTRIP_2008_TABLESTYLE_CELLSTYLEMAP
360
252
  0
CELLSTYLEMAP
  5
252
102
{ACAD_REACTORS
330
251
102
}
330
251
100
AcDbCellStyleMap
 90
        3
300
CELLSTYLE
  1
TABLEFORMAT_BEGIN
 90
        5
170
     1
 91
        0
 92
    32768
 62
   257
 93
        1
300
CONTENTFORMAT
  1
CONTENTFORMAT_BEGIN
 90
        0
 91
        0
 92
        4
 93
        0
300

 40
0.0
140
1.0
 94
        5
 62
     0
340
11
144
0.25
309
CONTENTFORMAT_END
171
     1
301
MARGIN
  1
CELLMARGIN_BEGIN
 40
0.06
 40
0.06
 40
0.06
 40
0.06
 40
0.06
 40
0.06
309
CELLMARGIN_END
 94
        6
 95
        1
302
GRIDFORMAT
  1
GRIDFORMAT_BEGIN
 90
        0
 91
        1
 62
     0
 92
       -2
340
14
 93
        0
 40
0.045
309
GRIDFORMAT_END
 95
        2
302
GRIDFORMAT
  1
GRIDFORMAT_BEGIN
 90
        0
 91
        1
 62
     0
 92
       -2
340
14
 93
        0
 40
0.045
309
GRIDFORMAT_END
 95
        4
302
GRIDFORMAT
  1
GRIDFORMAT_BEGIN
 90
        0
 91
        1
 62
     0
 92
       -2
340
14
 93
        0
 40
0.045
309
GRIDFORMAT_END
 95
        8
302
GRIDFORMAT
  1
GRIDFORMAT_BEGIN
 90
        0
 91
        1
 62
     0
 92
       -2
340
14
 93
        0
 40
0.045
309
GRIDFORMAT_END
 95
       16
302
GRIDFORMAT
  1
GRIDFORMAT_BEGIN
 90
        0
 91
        1
 62
     0
 92
       -2
340
14
 93
        0
 40
0.045
309
GRIDFORMAT_END
 95
       32
302
GRIDFORMAT
  1
GRIDFORMAT_BEGIN
 90
        0
 91
        1
 62
     0
 92
       -2
340
14
 93
        0
 40
0.045
309
GRIDFORMAT_END
309
TABLEFORMAT_END
  1
CELLSTYLE_BEGIN
 90
        1
 91
        1
300
_TITLE
309
CELLSTYLE_END
300
CELLSTYLE
  1
TABLEFORMAT_BEGIN
 90
        5
170
     1
 91
        0
 92
        0
 62
   257
 93
        1
300
CONTENTFORMAT
  1
CONTENTFORMAT_BEGIN
 90
        0
 91
        0
 92
        4
 93
        0
300

 40
0.0
140
1.0
 94
        5
 62
     0
340
11
144
0.18
309
CONTENTFORMAT_END
171
     1
301
MARGIN
  1
CELLMARGIN_BEGIN
 40
0.06
 40
0.06
 40
0.06
 40
0.06
 40
0.06
 40
0.06
309
CELLMARGIN_END
 94
        6
 95
        1
302
GRIDFORMAT
  1
GRIDFORMAT_BEGIN
 90
        0
 91
        1
 62
     0
 92
       -2
340
14
 93
        0
 40
0.045
309
GRIDFORMAT_END
 95
        2
302
GRIDFORMAT
  1
GRIDFORMAT_BEGIN
 90
        0
 91
        1
 62
     0
 92
       -2
340
14
 93
        0
 40
0.045
309
GRIDFORMAT_END
 95
        4
302
GRIDFORMAT
  1
GRIDFORMAT_BEGIN
 90
        0
 91
        1
 62
     0
 92
       -2
340
14
 93
        0
 40
0.045
309
GRIDFORMAT_END
 95
        8
302
GRIDFORMAT
  1
GRIDFORMAT_BEGIN
 90
        0
 91
        1
 62
     0
 92
       -2
340
14
 93
        0
 40
0.045
309
GRIDFORMAT_END
 95
       16
302
GRIDFORMAT
  1
GRIDFORMAT_BEGIN
 90
        0
 91
        1
 62
     0
 92
       -2
340
14
 93
        0
 40
0.045
309
GRIDFORMAT_END
 95
       32
302
GRIDFORMAT
  1
GRIDFORMAT_BEGIN
 90
        0
 91
        1
 62
     0
 92
       -2
340
14
 93
        0
 40
0.045
309
GRIDFORMAT_END
309
TABLEFORMAT_END
  1
CELLSTYLE_BEGIN
 90
        2
 91
        1
300
_HEADER
309
CELLSTYLE_END
300
CELLSTYLE
  1
TABLEFORMAT_BEGIN
 90
        5
170
     1
 91
        0
 92
        0
 62
   257
 93
        1
300
CONTENTFORMAT
  1
CONTENTFORMAT_BEGIN
 90
        0
 91
        0
 92
        4
 93
        0
300

 40
0.0
140
1.0
 94
        2
 62
     0
340
11
144
0.18
309
CONTENTFORMAT_END
171
     1
301
MARGIN
  1
CELLMARGIN_BEGIN
 40
0.06
 40
0.06
 40
0.06
 40
0.06
 40
0.06
 40
0.06
309
CELLMARGIN_END
 94
        6
 95
        1
302
GRIDFORMAT
  1
GRIDFORMAT_BEGIN
 90
        0
 91
        1
 62
     0
 92
       -2
340
14
 93
        0
 40
0.045
309
GRIDFORMAT_END
 95
        2
302
GRIDFORMAT
  1
GRIDFORMAT_BEGIN
 90
        0
 91
        1
 62
     0
 92
       -2
340
14
 93
        0
 40
0.045
309
GRIDFORMAT_END
 95
        4
302
GRIDFORMAT
  1
GRIDFORMAT_BEGIN
 90
        0
 91
        1
 62
     0
 92
       -2
340
14
 93
        0
 40
0.045
309
GRIDFORMAT_END
 95
        8
302
GRIDFORMAT
  1
GRIDFORMAT_BEGIN
 90
        0
 91
        1
 62
     0
 92
       -2
340
14
 93
        0
 40
0.045
309
GRIDFORMAT_END
 95
       16
302
GRIDFORMAT
  1
GRIDFORMAT_BEGIN
 90
        0
 91
        1
 62
     0
 92
       -2
340
14
 93
        0
 40
0.045
309
GRIDFORMAT_END
 95
       32
302
GRIDFORMAT
  1
GRIDFORMAT_BEGIN
 90
        0
 91
        1
 62
     0
 92
       -2
340
14
 93
        0
 40
0.045
309
GRIDFORMAT_END
309
TABLEFORMAT_END
  1
CELLSTYLE_BEGIN
 90
        3
 91
        2
300
_DATA
309
CELLSTYLE_END
  0
ENDSEC
  0
SECTION
  2
ACDSDATA
 70
     2
 71
     2
  0
ACDSSCHEMA
 90
        0
  1
AcDb_Thumbnail_Schema
  2
AcDbDs::ID
280
    10
 91
        8
  2
Thumbnail_Data
280
    15
 91
        0
101
ACDSRECORD
 95
        0
 90
        2
  2
AcDbDs::TreatedAsObjectData
280
     1
291
     1
101
ACDSRECORD
 95
        0
 90
        3
  2
AcDbDs::Legacy
280
     1
291
     1
101
ACDSRECORD
  1
AcDbDs::ID
 90
        4
  2
AcDs:Indexable
280
     1
291
     1
101
ACDSRECORD
  1
AcDbDs::ID
 90
        5
  2
AcDbDs::HandleAttribute
280
     7
282
     1
  0
ACDSSCHEMA
 90
        1
  1
AcDb3DSolid_ASM_Data
  2
AcDbDs::ID
280
    10
 91
        8
  2
ASM_Data
280
    15
 91
        0
101
ACDSRECORD
 95
        1
 90
        2
  2
AcDbDs::TreatedAsObjectData
280
     1
291
     1
101
ACDSRECORD
 95
        1
 90
        3
  2
AcDbDs::Legacy
280
     1
291
     1
101
ACDSRECORD
  1
AcDbDs::ID
 90
        4
  2
AcDs:Indexable
280
     1
291
     1
101
ACDSRECORD
  1
AcDbDs::ID
 90
        5
  2
AcDbDs::HandleAttribute
280
     7
282
     1
  0
ACDSSCHEMA
 90
        2
  1
AcDbDs::TreatedAsObjectDataSchema
  2
AcDbDs::TreatedAsObjectData
280
     1
 91
        0
  0
ACDSSCHEMA
 90
        3
  1
AcDbDs::LegacySchema
  2
AcDbDs::Legacy
280
     1
 91
        0
  0
ACDSSCHEMA
 90
        4
  1
AcDbDs::IndexedPropertySchema
  2
AcDs:Indexable
280
     1
 91
        0
  0
ACDSSCHEMA
 90
        5
  1
AcDbDs::HandleAttributeSchema
  2
AcDbDs::HandleAttribute
280
     7
 91
        1
284
     1
  0
ACDSRECORD
 90
        0
  2
AcDbDs::ID
280
    10
320
1C
  2
Thumbnail_Data
280
    15
 94
     1707
310
89504E470D0A1A0A0000000D49484452000001000000008B08060000008E7247C9000000097048597300000EC400000EC401952B0E1B0000065D49444154789CEDDDDB4E535D1486E1D1DA8D14082807261A37042AE89117E005713D5C01B7A42662C088210637295AB0297443970726B5730516FD7F6632F83ADFE7ACA9CE
310
8C4C47DE08B4A5B4B3B39319802495BD0700E087000009AB780F308D939313DBD8D8B05AADE63D0A3095376FDED8BD7BF7BCC7B8964400068381BD7EFDDAE6E7E7BD4701A6F2EEDD3BEF11A6C2970040C2080090300200248C000009230040C2080090300200248C000009230040C208009030899702E7EDEEEE5A96FD7B17
310
F3CACA8A3D78F060FC787F7FDF0683819999D56A355B5F5F1F3FF7FDFB773B3E3E1E3F5E5D5DB5B9B93933336BB7DB76747474E9B9A3D1C83E7CF8307E2E7FEEE1E1A1753A9DA9CE7DF8F0A12D2F2F5F7AEEC2C2823D79F2E4CA73373737AD5C2E5F7BEED9D9991D1C1C5C79EEE41DE5CFCDDF51D1B945775FAD56ADD96C8E
310
9F2BBAFBA273F377943FF7BFDC7DD1B937B9FB7EBF6FAF5EBD32352585CF0368B55AB6B5B5357E2FC0FBF7EFEDE5CB97CE5301FFE477727B7BDB9696961C279A0E5F020009930C8042599116D59D940CC0A3478FBC470002AA3B2919000071100020619201D8DDDDF51E0108A8EEA46400265F0300DC06AA3B291900007148
310
06A0D168788F00045477523200CF9E3DF31E0108A8EEA4640000C4211900D56FB86076A9EEA46400547FE482D9A5BA9392010010070100122619007E47206E1BD59D940CC0D3A74FBD470002AA3B2919000071100020619201D8DFDFF71E0108A8EEA46400263FCD16B80D547752320000E2900CC0E2E2A2F7084040752725
310
03F0F8F163EF118080EA4E4A0600401C040048986400F6F6F6BC470002AA3B291980E170E83D021050DD49C9000088433200F57ADD7B0420A0BA939201585B5BF31E0108A8EEA4640000C4410080844906E0E0E0C07B0420A0BA939201383B3BF31E0108A8EEA4640000C4211980B9B939EF118080EA4E4A06607575D57B04
310
20A0BA9392010010070100122619804F9F3E798F00045477523200E7E7E7DE230001D59D940C008038240350A954BC470002AA3B291980E7CF9F7B8F0004547752320000E2200040C22403F0F1E347EF118080EA4E4A06A0DFEF7B8F0004547752320000E2900C40B55AF51E0108A8EEA464009ACDA6F70840407527250300
310
200E0200244C3200878787DE230001D59D940C40A7D3F11E0108A8EEA4640000C4410080844906E0C58B17DE230001D59D940C40A954F21E0108A8EEA4640000C4211980CF9F3F7B8F00045477523200DD6ED77B0420A0BA939201001087640054BFE182D9A5BA93920150FD910B6697EA4E4A0600401C0400489864008E8E
310
8EBC470002AA3B29198076BBED3D021050DD49C9000088433200E5B2E4D89861AA3B2939F5E6E6A6F70840407527250300200E0200244C32005FBE7CF11E0108A8EEA464004E4F4FBD470002AA3B2919000071100020619201D8D8D8F01E0108A8EEA46400EEDCB9E33D021050DD49C90000884332003F7EFCF01E0108A8EE
310
A464005AAD96F70840407527250300200E0200244C3200AAEFBCC2EC52DD49C900A8BEF71AB34B752735A70610856400BE7DFBE63D021050DD49C900FCFCF9D37B0420A0BA939201001007010012261980B5B535EF118080EA4E4A06A05EAF7B8F0004547752320000E2900CC0D7AF5FBD470002AA3B2919805FBF7E798F00
310
04547752320000E2200040C22403B0BEBEEE3D021050DD49C900D46A35EF118080EA4E4A0600401C920150FDFC35CC2ED59D940C80EA27B06276A9EEA4640000C451F11EE0FFC8B22C78E145BD5EB746A3317E7C727262A3D1C8CCFE7E54D3D2D2D2F8B96EB76BBD5E6FFC787171D12A95BFD7D0EBF5ACDBED5E7A6E9665D6
310
6EB7C7CFE5CFED743A36180CA63AB7D1688C5F3B9E3FB75AADDAC2C2C295E72E2F2F5BA954BAF6DCE17068BF7FFFBEF2DCC93BCA9F9BBFA3A27363DD7DD1B931EFBEE8DC9BDCFD70383445920168369B767C7C3C7E9CFFB54CBD5ECF2E2E2E2E7D6E381CDAF9F9F9F8F1E43FF8C5C545F0DCE4DFCDB2ECCAE7CCCCFAFD7EB0
310
DC45E74EBE71247F6E966585E74E2A3A77341A159E3B794779F93B2A3AF726773F3F3F3FF5B9B1EEBEE8DC9BDCBDEA8F014B3B3B3BD9F57FCC57ABD5B2ADADAD606180DB6C7B7B3BF85FCA6DC5F700808411002061040048180100124600808411002061040048180100124600808449BC14B85C2EDBDBB76FEDEEDDBBDEA3
310
005351796F804400EEDFBF6F7B7B7BDE6300535B5959F11E612A7C0900248C000009FB03B853874E9481AB3B0000000049454E44AE426082
  0
ACDSRECORD
 90
        0
  2
AcDbDs::ID
280
    10
320
1E
  2
Thumbnail_Data
280
    15
 94
      953
310
89504E470D0A1A0A0000000D49484452000001000000008B08060000008E7247C9000000097048597300000EC400000EC401952B0E1B0000036B49444154789CEDD9C16A94670085E1938C440DA5690A5A8C8B989840D242952C0BBDC45E8CDD170BDE410906936A9B451A6A0D62632C7548ECA220080ED94CFCC5F33CAB99
310
E15F9CCDBC7CF3CD4C9237012ACD0E3D00188E0040310180620200C504008A0900141300282600504C00A0980040310180620200C504008A0900141300282600504C00A0980040310180620200C504008A0900141300282600504C00A0980040310180620200C504008A0900141300282600504C00A0980040310180620200
310
C504008A0900141300282600504C00A0980040310180620200C504008A0900141300282600504C00A0980040310180620200C504008A0900141300282600504C00A0980040310180620200C504008A090014BB34F4003E2E6B6B6B198FC7E73E77F9F2E5ECEEEE7E80455C2401E01DE3F138FBFBFB6FDFAFACACE4CA952B39
310
3A3ACAD3A74FDF7EBEBCBC3CC43CA64C0098687D7D3D9B9B9BF9ECD2A51C9F9CE4A7070FF2EAD5ABA1673145EE0098686F71313FEEED65FFABEF7372F83C5B5B5B434F62CA9C0098ECF838D9D9C9C15F3FE48F2FE7737B3C1A7A1153E604C064D7AF27EBEBF9FDE820AF47BEFC9F22270026BB752B999B4B9E3D4B5EBFFEFF
310
359F142700267BF93279F428B97D3B79FC380B0B0B432F62CA0480F71A8D92CD9B7FE79BD57FF3F51787595D4D363636869EC5940900EF757A9AEC1C7C9EE39FFFCCFEEE284F9E2427272743CF62CA0480F35DBB96CCCC647B7B7BE8254C994B40265B5CCC786D2D674B4BC9CD9BC9DEDED08B98322700267BFE3C87BFDEC9
310
3FCFBE4BE6E7875EC3051000265B5A4AB67E4BEEEC67E1E1C3A1D77001FC0460B2EDED647636DFDEBB97B9BB7733F7E2C5D08B98320160B2FBF79324BF24C9E1E1A053B81802C03BAE5EBD9A1B376E9CFBDCBC3B814FC24C9237438FE0E3311A8D323B7BFED5D0D9D9594E4F4F3FC0222E92004031FF0240310180620200C5
310
04008A0900141300282600504C00A0980040310180620200C504008A0900141300282600504C00A0980040310180620200C504008A0900141300282600504C00A0980040310180620200C504008A0900141300282600504C00A0980040310180620200C504008A0900141300282600504C00A0980040310180620200C50400
310
8A0900141300282600504C00A0980040310180620200C504008A0900141300282600504C00A0980040B1FF0063316FB6A7196FA60000000049454E44AE426082
  0
ENDSEC
  0
EOF
