  0
SECTION
  2
HEADER
  9
$ACADVER
  1
AC1027
  9
$ACADMAINTVER
 70
   105
  9
$DWGCODEPAGE
  3
ANSI_1252
  9
$REQUIREDVERSIONS
160
                 0
  9
$LASTSAVEDBY
  1
matthias.ochs
  9
$INSBASE
 10
0.0
 20
0.0
 30
0.0
  9
$EXTMIN
 10
-36.86924950163576
 20
-55.93006885549898
 30
0.0
  9
$EXTMAX
 10
52.08376889127722
 20
50.54735964474603
 30
0.0
  9
$LIMMIN
 10
-68.393861396
 20
-27.154999552
  9
$LIMMAX
 10
79.3750069
 20
39.655000026
  9
$ORTHOMODE
 70
     0
  9
$REGENMODE
 70
     1
  9
$FILLMODE
 70
     1
  9
$QTEXTMODE
 70
     0
  9
$MIRRTEXT
 70
     1
  9
$LTSCALE
 40
1.0
  9
$ATTMODE
 70
     1
  9
$TEXTSIZE
 40
0.2
  9
$TRACEWID
 40
0.05
  9
$TEXTSTYLE
  7
Standard
  9
$CLAYER
  8
SK2
  9
$CELTYPE
  6
ByLayer
  9
$CECOLOR
 62
   256
  9
$CELTSCALE
 40
1.0
  9
$DISPSILH
 70
     0
  9
$DIMSCALE
 40
1.0
  9
$DIMASZ
 40
0.18
  9
$DIMEXO
 40
0.0625
  9
$DIMDLI
 40
0.38
  9
$DIMRND
 40
0.0
  9
$DIMDLE
 40
0.0
  9
$DIMEXE
 40
0.18
  9
$DIMTP
 40
0.0
  9
$DIMTM
 40
0.0
  9
$DIMTXT
 40
0.18
  9
$DIMCEN
 40
0.09
  9
$DIMTSZ
 40
0.0
  9
$DIMTOL
 70
     0
  9
$DIMLIM
 70
     0
  9
$DIMTIH
 70
     1
  9
$DIMTOH
 70
     1
  9
$DIMSE1
 70
     0
  9
$DIMSE2
 70
     0
  9
$DIMTAD
 70
     0
  9
$DIMZIN
 70
     0
  9
$DIMBLK
  1

  9
$DIMASO
 70
     1
  9
$DIMSHO
 70
     1
  9
$DIMPOST
  1

  9
$DIMAPOST
  1

  9
$DIMALT
 70
     0
  9
$DIMALTD
 70
     2
  9
$DIMALTF
 40
25.4
  9
$DIMLFAC
 40
1.0
  9
$DIMTOFL
 70
     0
  9
$DIMTVP
 40
0.0
  9
$DIMTIX
 70
     0
  9
$DIMSOXD
 70
     0
  9
$DIMSAH
 70
     0
  9
$DIMBLK1
  1

  9
$DIMBLK2
  1

  9
$DIMSTYLE
  2
Standard
  9
$DIMCLRD
 70
     0
  9
$DIMCLRE
 70
     0
  9
$DIMCLRT
 70
     0
  9
$DIMTFAC
 40
1.0
  9
$DIMGAP
 40
0.09
  9
$DIMJUST
 70
     0
  9
$DIMSD1
 70
     0
  9
$DIMSD2
 70
     0
  9
$DIMTOLJ
 70
     1
  9
$DIMTZIN
 70
     0
  9
$DIMALTZ
 70
     0
  9
$DIMALTTZ
 70
     0
  9
$DIMUPT
 70
     0
  9
$DIMDEC
 70
     4
  9
$DIMTDEC
 70
     4
  9
$DIMALTU
 70
     2
  9
$DIMALTTD
 70
     2
  9
$DIMTXSTY
  7
Standard
  9
$DIMAUNIT
 70
     0
  9
$DIMADEC
 70
     0
  9
$DIMALTRND
 40
0.0
  9
$DIMAZIN
 70
     0
  9
$DIMDSEP
 70
    46
  9
$DIMATFIT
 70
     3
  9
$DIMFRAC
 70
     0
  9
$DIMLDRBLK
  1

  9
$DIMLUNIT
 70
     2
  9
$DIMLWD
 70
    -2
  9
$DIMLWE
 70
    -2
  9
$DIMTMOVE
 70
     2
  9
$DIMFXL
 40
1.0
  9
$DIMFXLON
 70
     0
  9
$DIMJOGANG
 40
0.7853981633974483
  9
$DIMTFILL
 70
     0
  9
$DIMTFILLCLR
 70
     0
  9
$DIMARCSYM
 70
     0
  9
$DIMLTYPE
  6

  9
$DIMLTEX1
  6

  9
$DIMLTEX2
  6

  9
$DIMTXTDIRECTION
 70
     0
  9
$LUNITS
 70
     2
  9
$LUPREC
 70
     4
  9
$SKETCHINC
 40
0.1
  9
$FILLETRAD
 40
0.5
  9
$AUNITS
 70
     2
  9
$AUPREC
 70
     0
  9
$MENU
  1
.
  9
$ELEVATION
 40
0.0
  9
$PELEVATION
 40
0.0
  9
$THICKNESS
 40
0.0
  9
$LIMCHECK
 70
     0
  9
$CHAMFERA
 40
0.5
  9
$CHAMFERB
 40
0.5
  9
$CHAMFERC
 40
1.0
  9
$CHAMFERD
 40
0.0
  9
$SKPOLY
 70
     0
  9
$TDCREATE
 40
2458327.549560127
  9
$TDUCREATE
 40
2458327.466226794
  9
$TDUPDATE
 40
2458677.597493276
  9
$TDUUPDATE
 40
2458677.514159942
  9
$TDINDWG
 40
0.0045205787
  9
$TDUSRTIMER
 40
0.0054097569
  9
$USRTIMER
 70
     1
  9
$ANGBASE
 50
0.0
  9
$ANGDIR
 70
     0
  9
$PDMODE
 70
     0
  9
$PDSIZE
 40
0.0
  9
$PLINEWID
 40
0.0
  9
$SPLFRAME
 70
     0
  9
$SPLINETYPE
 70
     6
  9
$SPLINESEGS
 70
     8
  9
$HANDSEED
  5
328
  9
$SURFTAB1
 70
     6
  9
$SURFTAB2
 70
     6
  9
$SURFTYPE
 70
     6
  9
$SURFU
 70
     6
  9
$SURFV
 70
     6
  9
$UCSBASE
  2

  9
$UCSNAME
  2

  9
$UCSORG
 10
0.0
 20
0.0
 30
0.0
  9
$UCSXDIR
 10
1.0
 20
0.0
 30
0.0
  9
$UCSYDIR
 10
0.0
 20
1.0
 30
0.0
  9
$UCSORTHOREF
  2

  9
$UCSORTHOVIEW
 70
     0
  9
$UCSORGTOP
 10
0.0
 20
0.0
 30
0.0
  9
$UCSORGBOTTOM
 10
0.0
 20
0.0
 30
0.0
  9
$UCSORGLEFT
 10
0.0
 20
0.0
 30
0.0
  9
$UCSORGRIGHT
 10
0.0
 20
0.0
 30
0.0
  9
$UCSORGFRONT
 10
0.0
 20
0.0
 30
0.0
  9
$UCSORGBACK
 10
0.0
 20
0.0
 30
0.0
  9
$PUCSBASE
  2

  9
$PUCSNAME
  2

  9
$PUCSORG
 10
0.0
 20
0.0
 30
0.0
  9
$PUCSXDIR
 10
1.0
 20
0.0
 30
0.0
  9
$PUCSYDIR
 10
0.0
 20
1.0
 30
0.0
  9
$PUCSORTHOREF
  2

  9
$PUCSORTHOVIEW
 70
     0
  9
$PUCSORGTOP
 10
0.0
 20
0.0
 30
0.0
  9
$PUCSORGBOTTOM
 10
0.0
 20
0.0
 30
0.0
  9
$PUCSORGLEFT
 10
0.0
 20
0.0
 30
0.0
  9
$PUCSORGRIGHT
 10
0.0
 20
0.0
 30
0.0
  9
$PUCSORGFRONT
 10
0.0
 20
0.0
 30
0.0
  9
$PUCSORGBACK
 10
0.0
 20
0.0
 30
0.0
  9
$USERI1
 70
     0
  9
$USERI2
 70
     0
  9
$USERI3
 70
     0
  9
$USERI4
 70
     0
  9
$USERI5
 70
     0
  9
$USERR1
 40
0.0
  9
$USERR2
 40
0.0
  9
$USERR3
 40
0.0
  9
$USERR4
 40
0.0
  9
$USERR5
 40
0.0
  9
$WORLDVIEW
 70
     1
  9
$SHADEDGE
 70
     3
  9
$SHADEDIF
 70
    70
  9
$TILEMODE
 70
     1
  9
$MAXACTVP
 70
    64
  9
$PINSBASE
 10
0.0
 20
0.0
 30
0.0
  9
$PLIMCHECK
 70
     0
  9
$PEXTMIN
 10
1.000000000000000E+20
 20
1.000000000000000E+20
 30
1.000000000000000E+20
  9
$PEXTMAX
 10
-1.000000000000000E+20
 20
-1.000000000000000E+20
 30
-1.000000000000000E+20
  9
$PLIMMIN
 10
0.0
 20
0.0
  9
$PLIMMAX
 10
0.0
 20
0.0
  9
$UNITMODE
 70
     0
  9
$VISRETAIN
 70
     1
  9
$PLINEGEN
 70
     0
  9
$PSLTSCALE
 70
     1
  9
$TREEDEPTH
 70
  3020
  9
$CMLSTYLE
  2
Standard
  9
$CMLJUST
 70
     0
  9
$CMLSCALE
 40
1.0
  9
$PROXYGRAPHICS
 70
     1
  9
$MEASUREMENT
 70
     0
  9
$CELWEIGHT
370
    -1
  9
$ENDCAPS
280
     0
  9
$JOINSTYLE
280
     0
  9
$LWDISPLAY
290
     0
  9
$INSUNITS
 70
     0
  9
$HYPERLINKBASE
  1

  9
$STYLESHEET
  1

  9
$XEDIT
290
     1
  9
$CEPSNTYPE
380
     0
  9
$PSTYLEMODE
290
     1
  9
$FINGERPRINTGUID
  2
{3D366631-CE99-4CF8-B886-68E64BF12802}
  9
$VERSIONGUID
  2
{FAEB1C32-E019-11D5-929B-00C0DF256EC4}
  9
$EXTNAMES
290
     1
  9
$PSVPSCALE
 40
0.0
  9
$OLESTARTUP
290
     0
  9
$SORTENTS
280
   127
  9
$INDEXCTL
280
     0
  9
$HIDETEXT
280
     1
  9
$XCLIPFRAME
280
     2
  9
$HALOGAP
280
     0
  9
$OBSCOLOR
 70
   257
  9
$OBSLTYPE
280
     0
  9
$INTERSECTIONDISPLAY
280
     0
  9
$INTERSECTIONCOLOR
 70
   257
  9
$DIMASSOC
280
     2
  9
$PROJECTNAME
  1

  9
$CAMERADISPLAY
290
     0
  9
$LENSLENGTH
 40
50.0
  9
$CAMERAHEIGHT
 40
0.0
  9
$STEPSPERSEC
 40
2.0
  9
$STEPSIZE
 40
6.0
  9
$3DDWFPREC
 40
2.0
  9
$PSOLWIDTH
 40
0.25
  9
$PSOLHEIGHT
 40
4.0
  9
$LOFTANG1
 40
1.570796326794897
  9
$LOFTANG2
 40
1.570796326794897
  9
$LOFTMAG1
 40
0.0
  9
$LOFTMAG2
 40
0.0
  9
$LOFTPARAM
 70
     7
  9
$LOFTNORMALS
280
     1
  9
$LATITUDE
 40
37.795
  9
$LONGITUDE
 40
-122.394
  9
$NORTHDIRECTION
 40
0.0
  9
$TIMEZONE
 70
 -8000
  9
$LIGHTGLYPHDISPLAY
280
     1
  9
$TILEMODELIGHTSYNCH
280
     1
  9
$SOLIDHIST
280
     0
  9
$SHOWHIST
280
     1
  9
$DWFFRAME
280
     2
  9
$DGNFRAME
280
     2
  9
$REALWORLDSCALE
290
     1
  9
$INTERFERECOLOR
 62
   256
  9
$CSHADOW
280
     0
  9
$SHADOWPLANELOCATION
 40
0.0
  0
ENDSEC
  0
SECTION
  2
CLASSES
  0
CLASS
  1
ACDBDICTIONARYWDFLT
  2
AcDbDictionaryWithDefault
  3
ObjectDBX Classes
 90
        0
 91
       18
280
     0
281
     0
  0
CLASS
  1
SCALE
  2
AcDbScale
  3
ObjectDBX Classes
 90
     1153
 91
       18
280
     0
281
     0
  0
CLASS
  1
VISUALSTYLE
  2
AcDbVisualStyle
  3
ObjectDBX Classes
 90
     4095
 91
       18
280
     0
281
     0
  0
CLASS
  1
MATERIAL
  2
AcDbMaterial
  3
ObjectDBX Classes
 90
     1153
 91
       18
280
     0
281
     0
  0
CLASS
  1
DICTIONARYVAR
  2
AcDbDictionaryVar
  3
ObjectDBX Classes
 90
        0
 91
       16
280
     0
281
     0
  0
CLASS
  1
ACDBPLACEHOLDER
  2
AcDbPlaceHolder
  3
ObjectDBX Classes
 90
        0
 91
        1
280
     0
281
     0
  0
CLASS
  1
LAYOUT
  2
AcDbLayout
  3
ObjectDBX Classes
 90
        0
 91
        1
280
     0
281
     0
  0
CLASS
  1
TABLESTYLE
  2
AcDbTableStyle
  3
ObjectDBX Classes
 90
     4095
 91
       17
280
     0
281
     0
  0
CLASS
  1
MLEADERSTYLE
  2
AcDbMLeaderStyle
  3
ACDB_MLEADERSTYLE_CLASS
 90
     4095
 91
       17
280
     0
281
     0
  0
CLASS
  1
SUN
  2
AcDbSun
  3
SCENEOE
 90
     1153
 91
       18
280
     0
281
     0
  0
CLASS
  1
SORTENTSTABLE
  2
AcDbSortentsTable
  3
ObjectDBX Classes
 90
        0
 91
       14
280
     0
281
     0
  0
CLASS
  1
CELLSTYLEMAP
  2
AcDbCellStyleMap
  3
ObjectDBX Classes
 90
     1152
 91
       12
280
     0
281
     0
  0
ENDSEC
  0
SECTION
  2
TABLES
  0
TABLE
  2
VPORT
  5
8
330
0
100
AcDbSymbolTable
 70
     1
  0
VPORT
  5
1E2
330
8
100
AcDbSymbolTableRecord
100
AcDbViewportTableRecord
  2
*Active
 70
     0
 10
0.0
 20
0.0
 11
1.0
 21
1.0
 12
-11.08370072282703
 22
9.740085556772073
 13
0.0
 23
0.0
 14
0.5
 24
0.5
 15
0.5
 25
0.5
 16
0.0
 26
0.0
 36
1.0
 17
0.0
 27
0.0
 37
0.0
 40
150.2273840043216
 41
1.831002331002331
 42
50.0
 43
0.0
 44
0.0
 50
0.0
 51
0.0
 71
    16
 72
   100
 73
     1
 74
     3
 75
     0
 76
     0
 77
     0
 78
     0
281
     0
 65
     1
110
0.0
120
0.0
130
0.0
111
1.0
121
0.0
131
0.0
112
0.0
122
1.0
132
0.0
 79
     0
146
0.0
348
213
 60
     3
 61
     5
292
     1
282
     1
141
0.0
142
0.0
 63
   256
361
2A3
  0
ENDTAB
  0
TABLE
  2
LTYPE
  5
5
330
0
100
AcDbSymbolTable
 70
     8
  0
LTYPE
  5
14
330
5
100
AcDbSymbolTableRecord
100
AcDbLinetypeTableRecord
  2
ByBlock
 70
     0
  3

 72
    65
 73
     0
 40
0.0
  0
LTYPE
  5
15
330
5
100
AcDbSymbolTableRecord
100
AcDbLinetypeTableRecord
  2
ByLayer
 70
     0
  3

 72
    65
 73
     0
 40
0.0
  0
LTYPE
  5
16
330
5
100
AcDbSymbolTableRecord
100
AcDbLinetypeTableRecord
  2
Continuous
 70
     0
  3
Solid line
 72
    65
 73
     0
 40
0.0
  0
LTYPE
  5
20
330
5
100
AcDbSymbolTableRecord
100
AcDbLinetypeTableRecord
  2
PUNKT
 70
     0
  3
..............
 72
    65
 73
     2
 40
1.5
 49
0.7
 74
     0
 49
-0.8
 74
     0
  0
LTYPE
  5
21
330
5
100
AcDbSymbolTableRecord
100
AcDbLinetypeTableRecord
  2
GESTRICHELT
 70
     0
  3
-- -- -- -- --
 72
    65
 73
     7
 40
2.8
 49
0.9
 74
     0
 49
0.0
 74
     0
 49
0.9
 74
     0
 49
0.0
 74
     0
 49
0.2
 74
     0
 49
0.0
 74
     0
 49
-0.8
 74
     0
  0
LTYPE
  5
22
330
5
100
AcDbSymbolTableRecord
100
AcDbLinetypeTableRecord
  2
STRICHPUNKT
 70
     0
  3
--.--.--.--.--
 72
    65
 73
     4
 40
8.8
 49
5.5
 74
     0
 49
-1.3
 74
     0
 49
0.7
 74
     0
 49
-1.3
 74
     0
  0
LTYPE
  5
25
330
5
100
AcDbSymbolTableRecord
100
AcDbLinetypeTableRecord
  2
PHANTOM
 70
     0
  3
--..--..--..--
 72
    65
 73
     6
 40
14.2
 49
7.0
 74
     0
 49
-1.8
 74
     0
 49
0.9
 74
     0
 49
-1.8
 74
     0
 49
0.9
 74
     0
 49
-1.8
 74
     0
  0
LTYPE
  5
25A
330
5
100
AcDbSymbolTableRecord
100
AcDbLinetypeTableRecord
  2
DASH
 70
     0
  3
DASH _ _ _ _ _
 72
    65
 73
     2
 40
0.75
 49
0.4
 74
     0
 49
-0.35
 74
     0
  0
LTYPE
  5
25B
330
5
100
AcDbSymbolTableRecord
100
AcDbLinetypeTableRecord
  2
LONGDASH_DASH
 70
     0
  3
LONGDASH_DASH __ . __ . __
 72
    65
 73
     4
 40
0.85
 49
0.4
 74
     0
 49
-0.2
 74
     0
 49
0.05
 74
     0
 49
-0.2
 74
     0
  0
LTYPE
  5
25C
330
5
100
AcDbSymbolTableRecord
100
AcDbLinetypeTableRecord
  2
LONGDASH_DASH_DASH
 70
     0
  3
LONGDASH_DASH_DASH __ . . __ . . __
 72
    65
 73
     6
 40
1.1
 49
0.4
 74
     0
 49
-0.2
 74
     0
 49
0.05
 74
     0
 49
-0.2
 74
     0
 49
0.05
 74
     0
 49
-0.2
 74
     0
  0
ENDTAB
  0
TABLE
  2
LAYER
  5
2
102
{ACAD_XDICTIONARY
360
279
102
}
330
0
100
AcDbSymbolTable
 70
    17
  0
LAYER
  5
224
330
2
100
AcDbSymbolTableRecord
100
AcDbLayerTableRecord
  2
200
 70
     0
 62
     2
  6
Continuous
370
    50
390
F
347
222
348
0
  0
LAYER
  5
25D
330
2
100
AcDbSymbolTableRecord
100
AcDbLayerTableRecord
  2
0
 70
     0
 62
     1
  6
Continuous
370
    -3
390
F
347
222
348
0
  0
LAYER
  5
25E
330
2
100
AcDbSymbolTableRecord
100
AcDbLayerTableRecord
  2
1
 70
     0
 62
     4
  6
Continuous
370
    50
390
F
347
222
348
0
  0
LAYER
  5
25F
330
2
100
AcDbSymbolTableRecord
100
AcDbLayerTableRecord
  2
2
 70
     0
 62
     7
  6
Continuous
370
    25
390
F
347
222
348
0
  0
LAYER
  5
260
330
2
100
AcDbSymbolTableRecord
100
AcDbLayerTableRecord
  2
3
 70
     0
 62
     1
  6
DASH
370
    35
390
F
347
222
348
0
  0
LAYER
  5
261
330
2
100
AcDbSymbolTableRecord
100
AcDbLayerTableRecord
  2
4
 70
     0
 62
     2
  6
LONGDASH_DASH
370
    25
390
F
347
222
348
0
  0
LAYER
  5
262
330
2
100
AcDbSymbolTableRecord
100
AcDbLayerTableRecord
  2
6
 70
     0
 62
     5
  6
Continuous
370
    -3
390
F
347
222
348
0
  0
LAYER
  5
263
330
2
100
AcDbSymbolTableRecord
100
AcDbLayerTableRecord
  2
CUT
 70
     0
 62
     1
  6
Continuous
370
    25
390
F
347
222
348
0
  0
LAYER
  5
264
330
2
100
AcDbSymbolTableRecord
100
AcDbLayerTableRecord
  2
NOCUT
 70
     0
 62
     7
  6
Continuous
370
    25
390
F
347
222
348
0
  0
LAYER
  5
265
330
2
100
AcDbSymbolTableRecord
100
AcDbLayerTableRecord
  2
SK1
 70
     0
 62
     4
  6
Continuous
370
    50
390
F
347
222
348
0
  0
LAYER
  5
266
330
2
100
AcDbSymbolTableRecord
100
AcDbLayerTableRecord
  2
SK2
 70
     0
 62
     7
  6
Continuous
370
    25
390
F
347
222
348
0
  0
LAYER
  5
267
330
2
100
AcDbSymbolTableRecord
100
AcDbLayerTableRecord
  2
SK3
 70
     0
 62
     1
  6
DASH
370
    35
390
F
347
222
348
0
  0
LAYER
  5
268
330
2
100
AcDbSymbolTableRecord
100
AcDbLayerTableRecord
  2
SK4
 70
     0
 62
     2
  6
LONGDASH_DASH
370
    25
390
F
347
222
348
0
  0
LAYER
  5
269
330
2
100
AcDbSymbolTableRecord
100
AcDbLayerTableRecord
  2
SK6
 70
     0
 62
     5
  6
Continuous
370
    -3
390
F
347
222
348
0
  0
LAYER
  5
26A
330
2
100
AcDbSymbolTableRecord
100
AcDbLayerTableRecord
  2
INFTOTAL
 70
     0
 62
     9
  6
Continuous
370
    18
390
F
347
222
348
0
  0
LAYER
  5
2A7
330
2
100
AcDbSymbolTableRecord
100
AcDbLayerTableRecord
  2
7
 70
     0
 62
     5
  6
Continuous
370
    18
390
F
347
222
348
0
1001
AcAecLayerStandard
1000

1000

  0
LAYER
  5
2A9
330
2
100
AcDbSymbolTableRecord
100
AcDbLayerTableRecord
  2
11
 70
     0
 62
     4
  6
Continuous
370
    50
390
F
347
222
348
0
1001
AcAecLayerStandard
1000

1000

  0
ENDTAB
  0
TABLE
  2
STYLE
  5
3
330
0
100
AcDbSymbolTable
 70
     3
  0
STYLE
  5
11
330
3
100
AcDbSymbolTableRecord
100
AcDbTextStyleTableRecord
  2
Standard
 70
     0
 40
0.0
 41
1.0
 50
0.0
 71
     0
 42
0.2
  3
txt
  4

  0
STYLE
  5
223
330
3
100
AcDbSymbolTableRecord
100
AcDbTextStyleTableRecord
  2
BMG_Text
 70
     0
 40
3.5
 41
1.0
 50
0.0
 71
     0
 42
0.2
  3
monos.ttf
  4

1001
ACAD
1000
Monospac821 BT
1071
       49
  0
STYLE
  5
2AE
330
3
100
AcDbSymbolTableRecord
100
AcDbTextStyleTableRecord
  2
SLDTEXTSTYLE0
 70
     0
 40
0.0
 41
0.605
 50
0.0
 71
     0
 42
0.2
  3
TXT
  4

  0
ENDTAB
  0
TABLE
  2
VIEW
  5
6
330
0
100
AcDbSymbolTable
 70
     0
  0
ENDTAB
  0
TABLE
  2
UCS
  5
7
330
0
100
AcDbSymbolTable
 70
     0
  0
ENDTAB
  0
TABLE
  2
APPID
  5
9
330
0
100
AcDbSymbolTable
 70
     3
  0
APPID
  5
12
330
9
100
AcDbSymbolTableRecord
100
AcDbRegAppTableRecord
  2
ACAD
 70
     0
  0
APPID
  5
2A8
330
9
100
AcDbSymbolTableRecord
100
AcDbRegAppTableRecord
  2
AcAecLayerStandard
 70
     0
  0
APPID
  5
2B1
330
9
100
AcDbSymbolTableRecord
100
AcDbRegAppTableRecord
  2
PE_URL
 70
     0
  0
ENDTAB
  0
TABLE
  2
DIMSTYLE
  5
A
330
0
100
AcDbSymbolTable
 70
     6
100
AcDbDimStyleTable
  0
DIMSTYLE
105
28
330
A
100
AcDbSymbolTableRecord
100
AcDbDimStyleTableRecord
  2
Standard
 70
     0
178
     0
340
11
  0
DIMSTYLE
105
2AA
330
A
100
AcDbSymbolTableRecord
100
AcDbDimStyleTableRecord
  2
Matthias
 70
     0
 41
3.0
 44
2.0
 73
     0
 77
     1
140
3.0
147
2.0
178
     0
340
11
  0
DIMSTYLE
105
2AC
102
{ACAD_REACTORS
102
}
330
A
100
AcDbSymbolTableRecord
100
AcDbDimStyleTableRecord
  2
ISO-25
 70
     0
 41
2.5
 42
0.625
 43
3.75
 44
1.25
 73
     0
 74
     0
 77
     1
 78
     8
140
2.5
141
2.5
143
0.0393700787
147
0.625
171
     3
172
     1
178
     0
271
     2
272
     2
274
     3
278
    44
283
     0
284
     8
340
11
  0
DIMSTYLE
105
2AD
330
A
100
AcDbSymbolTableRecord
100
AcDbDimStyleTableRecord
  2
SLDDIMSTYLE0
 70
     0
 41
3.5
 44
0.0
 45
0.000000001
 73
     0
 74
     0
 77
     1
 78
    12
 79
     3
140
3.5
144
0.5
147
0.875
173
     1
178
     0
271
     2
272
     1
276
     2
284
    12
340
2AE
  0
DIMSTYLE
105
2AF
330
A
100
AcDbSymbolTableRecord
100
AcDbDimStyleTableRecord
  2
SLDDIMSTYLE1
 70
     0
 41
3.5
 44
0.0
 45
0.000000001
 73
     0
 74
     0
 77
     1
 78
    12
 79
     3
140
3.5
144
0.5
147
0.875
173
     1
178
     0
271
     2
272
     3
276
     2
284
    12
340
2AE
  0
DIMSTYLE
105
2B0
330
A
100
AcDbSymbolTableRecord
100
AcDbDimStyleTableRecord
  2
SLDDIMSTYLE2
 70
     0
 41
3.5
 44
0.0
 45
0.000000001
 73
     0
 74
     0
 77
     1
 78
    12
 79
     3
140
3.5
147
0.875
173
     1
178
     0
271
     2
272
     0
276
     2
284
    12
340
2AE
  0
ENDTAB
  0
TABLE
  2
BLOCK_RECORD
  5
1
330
0
100
AcDbSymbolTable
 70
     1
  0
BLOCK_RECORD
  5
1D
102
{ACAD_XDICTIONARY
360
31C
102
}
330
1
100
AcDbSymbolTableRecord
100
AcDbBlockTableRecord
  2
*Model_Space
340
1E
 70
     0
280
     1
281
     0
  0
BLOCK_RECORD
  5
1B
330
1
100
AcDbSymbolTableRecord
100
AcDbBlockTableRecord
  2
*Paper_Space
340
1C
 70
     0
280
     1
281
     0
  0
ENDTAB
  0
ENDSEC
  0
SECTION
  2
BLOCKS
  0
BLOCK
  5
20C
330
1D
100
AcDbEntity
  8
0
100
AcDbBlockBegin
  2
*Model_Space
 70
     0
 10
0.0
 20
0.0
 30
0.0
  3
*Model_Space
  1

  0
ENDBLK
  5
20D
330
1D
100
AcDbEntity
  8
0
100
AcDbBlockEnd
  0
BLOCK
  5
20A
330
1B
100
AcDbEntity
 67
     1
  8
0
100
AcDbBlockBegin
  2
*Paper_Space
 70
     0
 10
0.0
 20
0.0
 30
0.0
  3
*Paper_Space
  1

  0
ENDBLK
  5
20B
330
1B
100
AcDbEntity
 67
     1
  8
0
100
AcDbBlockEnd
  0
ENDSEC
  0
SECTION
  2
ENTITIES
  0
LINE
  5
29
330
1D
100
AcDbEntity
  8
SK2
100
AcDbLine
 10
31.04718962488819
 20
-26.499999556
 30
0.0
 11
18.66604414688819
 21
-26.499999556
 31
0.0
  0
LINE
  5
2A
330
1D
100
AcDbEntity
  8
SK2
100
AcDbLine
 10
29.04718962488819
 20
-26.499999556
 30
0.0
 11
28.59718962488819
 21
-22.999999556
 31
0.0
  0
LINE
  5
2B
330
1D
100
AcDbEntity
  8
SK2
100
AcDbLine
 10
28.59718962488819
 20
-22.999999556
 30
0.0
 11
29.49718962488819
 21
-22.999999556
 31
0.0
  0
LINE
  5
2C
330
1D
100
AcDbEntity
  8
SK2
100
AcDbLine
 10
29.49718962488819
 20
-22.999999556
 30
0.0
 11
29.04718962488819
 21
-26.499999556
 31
0.0
  0
LINE
  5
2D
330
1D
100
AcDbEntity
  8
SK2
100
AcDbLine
 10
31.04718962488819
 20
26.500000439
 30
0.0
 11
18.66604414688819
 21
26.500000439
 31
0.0
  0
LINE
  5
2E
330
1D
100
AcDbEntity
  8
SK2
100
AcDbLine
 10
29.04718962488819
 20
26.500000439
 30
0.0
 11
29.49718962488819
 21
23.000000439
 31
0.0
  0
LINE
  5
2F
330
1D
100
AcDbEntity
  8
SK2
100
AcDbLine
 10
29.49718962488819
 20
23.000000439
 30
0.0
 11
28.59718962488819
 21
23.000000439
 31
0.0
  0
LINE
  5
30
330
1D
100
AcDbEntity
  8
SK2
100
AcDbLine
 10
28.59718962488819
 20
23.000000439
 30
0.0
 11
29.04718962488819
 21
26.500000439
 31
0.0
  0
LINE
  5
31
330
1D
100
AcDbEntity
  8
SK2
100
AcDbLine
 10
29.04718962488819
 20
-22.999999556
 30
0.0
 11
29.04718962488819
 21
23.000000439
 31
0.0
  0
TEXT
  5
32
330
1D
100
AcDbEntity
  8
SK2
100
AcDbText
 10
27.54718962488819
 20
-2.930937651000002
 30
0.0
 40
3.5
  1
53
 50
90.0
  7
BMG_Text
100
AcDbText
  0
CIRCLE
  5
33
330
1D
100
AcDbEntity
  8
SK2
100
AcDbCircle
 10
26.29718962488819
 20
-5.180937651000002
 30
0.0
 40
1.25
  0
LINE
  5
34
330
1D
100
AcDbEntity
  8
SK2
100
AcDbLine
 10
27.54718962488819
 20
-6.430937651000002
 30
0.0
 11
25.04718962488819
 21
-3.930937651000002
 31
0.0
  0
TEXT
  5
35
330
1D
100
AcDbEntity
  8
SK2
100
AcDbText
 10
27.54718962488819
 20
1.296874848999998
 30
0.0
 40
3.5
  1
-66
 50
90.0
  7
BMG_Text
100
AcDbText
  0
LINE
  5
36
330
1D
100
AcDbEntity
  8
SK4
100
AcDbLine
 10
-4.950476501111813
 20
-0.000000000000002
 30
0.0
 11
22.13922011088819
 21
-0.000000000000002
 31
0.0
  0
TEXT
  5
37
330
1D
100
AcDbEntity
  8
SK6
100
AcDbText
 10
-1.87354936352607
 20
-41.28830467418922
 30
0.0
 40
3.5
  1
639.447
  7
BMG_Text
100
AcDbText
  0
LINE
  5
38
330
1D
100
AcDbEntity
  8
2
100
AcDbLine
 10
19.06604411688819
 20
36.000000056
 30
0.0
 11
19.06604411688819
 21
24.750000056
 31
0.0
  0
LINE
  5
39
330
1D
100
AcDbEntity
  8
2
100
AcDbLine
 10
19.06604411688819
 20
34.000000056
 30
0.0
 11
15.56604411788819
 21
33.550000051
 31
0.0
  0
LINE
  5
3A
330
1D
100
AcDbEntity
  8
2
100
AcDbLine
 10
15.56604411788819
 20
33.550000051
 30
0.0
 11
15.56604411588819
 21
34.450000051
 31
0.0
  0
LINE
  5
3B
330
1D
100
AcDbEntity
  8
2
100
AcDbLine
 10
15.56604411588819
 20
34.450000051
 30
0.0
 11
19.06604411688819
 21
34.000000056
 31
0.0
  0
LINE
  5
3C
330
1D
100
AcDbEntity
  8
2
100
AcDbLine
 10
-17.93395587911181
 20
34.0
 30
0.0
 11
15.56604411688819
 21
34.000000051
 31
0.0
  0
TEXT
  5
3D
330
1D
100
AcDbEntity
  8
2
100
AcDbText
 10
-1.098643797111814
 20
35.500000025
 30
0.0
 40
3.5
  1
47
 50
0.000000087
  7
BMG_Text
100
AcDbText
  0
LINE
  5
3E
330
1D
100
AcDbEntity
  8
1
100
AcDbLine
 10
3.059244732888186
 20
23.298520338
 30
0.0
 11
0.8660433988881864
 21
19.499743799
 31
0.0
  0
LINE
  5
3F
330
1D
100
AcDbEntity
  8
1
100
AcDbLine
 10
9.541044029888186
 20
24.441446619
 30
0.0
 11
3.059244732888186
 21
23.298520338
 31
0.0
  0
LINE
  5
40
330
1D
100
AcDbEntity
  8
1
100
AcDbLine
 10
9.042250010888186
 20
17.897828924
 30
0.0
 11
9.541044029888186
 21
18.49226884
 31
0.0
  0
ARC
  5
41
330
1D
100
AcDbEntity
  8
1
100
AcDbCircle
 10
10.65094345288819
 20
16.547975079
 30
0.0
 40
2.1
100
AcDbArc
 50
139.9999999999999
 51
320.0000000000001
  0
LINE
  5
42
330
1D
100
AcDbEntity
  8
1
100
AcDbLine
 10
12.75843057688819
 20
15.792560274
 30
0.0
 11
12.25963655788819
 21
15.198121289
 31
0.0
  0
LINE
  5
43
330
1D
100
AcDbEntity
  8
1
100
AcDbLine
 10
18.76604413288819
 20
13.809475558
 30
0.0
 11
18.76604413288819
 21
16.853104787
 31
0.0
  0
ARC
  5
44
330
1D
100
AcDbEntity
  8
1
100
AcDbCircle
 10
24.26604414688819
 20
8.000000128999998
 30
0.0
 40
8.0
100
AcDbArc
 50
133.432536558
 51
180.0
  0
LINE
  5
46
330
1D
100
AcDbEntity
  8
3
100
AcDbLine
 10
10.13051068288819
 20
-7.635535231000002
 30
0.0
 11
16.26604424688819
 21
-1.500000736000002
 31
0.0
  0
ARC
  5
47
330
1D
100
AcDbEntity
  8
3
100
AcDbCircle
 10
13.66604414688819
 20
-11.171067683
 30
0.0
 40
5.0
100
AcDbArc
 50
135.0
 51
180.0
  0
LINE
  5
48
330
1D
100
AcDbEntity
  8
3
100
AcDbLine
 10
8.666044118888186
 20
-16.035640171
 30
0.0
 11
8.666044118888186
 21
-11.171066692
 31
0.0
  0
LINE
  5
49
330
1D
100
AcDbEntity
  8
3
100
AcDbLine
 10
6.666043790888186
 20
-19.499742916
 30
0.0
 11
8.666044118888186
 21
-16.035640171
 31
0.0
  0
LINE
  5
4A
330
1D
100
AcDbEntity
  8
3
100
AcDbLine
 10
0.8660433988881864
 20
-19.499742916
 30
0.0
 11
6.666043790888186
 21
-19.499742916
 31
0.0
  0
LINE
  5
4C
330
1D
100
AcDbEntity
  8
1
100
AcDbLine
 10
18.59658486788819
 20
26.493923227
 30
0.0
 11
9.871585312888186
 21
24.955470324
 31
0.0
  0
ARC
  5
4D
330
1D
100
AcDbEntity
  8
1
100
AcDbCircle
 10
9.941044146888187
 20
24.56154722
 30
0.0
 40
0.4
100
AcDbArc
 50
100.0000000000001
 51
180.0
  0
ARC
  5
4F
330
1D
100
AcDbEntity
  8
1
100
AcDbCircle
 10
9.941044146888187
 20
15.701950031
 30
0.0
 40
0.4
100
AcDbArc
 50
180.0
 51
280.0000000000001
  0
ARC
  5
50
330
1D
100
AcDbEntity
  8
1
100
AcDbCircle
 10
18.66604414688819
 20
17.240402938
 30
0.0
 40
0.4
100
AcDbArc
 50
280.0000000000001
 51
0.0
  0
LINE
  5
51
330
1D
100
AcDbEntity
  8
1
100
AcDbLine
 10
19.06604414688818
 20
17.24040273
 30
0.0
 11
19.06604414688818
 21
26.100000139
 31
0.0
  0
ARC
  5
52
330
1D
100
AcDbEntity
  8
1
100
AcDbCircle
 10
18.66604414688819
 20
26.100000126
 30
0.0
 40
0.4
100
AcDbArc
 50
0.0
 51
100.0000000000001
  0
ARC
  5
55
330
1D
100
AcDbEntity
  8
1
100
AcDbCircle
 10
13.27954864288819
 20
19.221739679
 30
0.0
 40
0.6
100
AcDbArc
 50
359.8136467860001
 51
120.186353214
  0
ARC
  5
56
330
1D
100
AcDbEntity
  8
1
100
AcDbCircle
 10
14.12954414688819
 20
19.218975079
 30
0.0
 40
0.25
100
AcDbArc
 50
179.8136467859999
 51
0.1863532140001308
  0
ARC
  5
58
330
1D
100
AcDbEntity
  8
1
100
AcDbCircle
 10
14.97953965188819
 20
19.221739679
 30
0.0
 40
0.6
100
AcDbArc
 50
59.81364678600003
 51
180.1863532139999
  0
ARC
  5
59
330
1D
100
AcDbEntity
  8
1
100
AcDbCircle
 10
15.40693161788819
 20
19.956475079
 30
0.0
 40
0.25
100
AcDbArc
 50
239.8136467870001
 51
60.18635321399992
  0
ARC
  5
5B
330
1D
100
AcDbEntity
  8
1
100
AcDbCircle
 10
15.82953515588819
 20
20.693975079
 30
0.0
 40
0.6
100
AcDbArc
 50
119.813646787
 51
240.1863532140001
  0
ARC
  5
5C
330
1D
100
AcDbEntity
  8
1
100
AcDbCircle
 10
15.40693161788819
 20
21.43147507899999
 30
0.0
 40
0.25
100
AcDbArc
 50
299.8136467860001
 51
120.1863532140004
  0
ARC
  5
5E
330
1D
100
AcDbEntity
  8
1
100
AcDbCircle
 10
12.42955313888819
 20
20.693975079
 30
0.0
 40
0.6
100
AcDbArc
 50
299.8136467859999
 51
60.18635321400006
  0
ARC
  5
5F
330
1D
100
AcDbEntity
  8
1
100
AcDbCircle
 10
12.85215667688819
 20
19.956475079
 30
0.0
 40
0.25
100
AcDbArc
 50
119.8136467860001
 51
300.1863532140003
  0
ARC
  5
60
330
1D
100
AcDbEntity
  8
1
100
AcDbCircle
 10
14.12954414688819
 20
22.168975079
 30
0.0
 40
0.25
100
AcDbArc
 50
359.8136467869998
 51
180.1863532130003
  0
ARC
  5
61
330
1D
100
AcDbEntity
  8
1
100
AcDbCircle
 10
14.97953965188819
 20
22.166210478
 30
0.0
 40
0.6
100
AcDbArc
 50
179.8136467860001
 51
300.186353214
  0
ARC
  5
64
330
1D
100
AcDbEntity
  8
1
100
AcDbCircle
 10
13.27954864288819
 20
22.166210478
 30
0.0
 40
0.6
100
AcDbArc
 50
239.813646786
 51
0.1863532139998849
  0
ARC
  5
65
330
1D
100
AcDbEntity
  8
1
100
AcDbCircle
 10
12.85215667688819
 20
21.43147507899999
 30
0.0
 40
0.25
100
AcDbArc
 50
59.81364678700013
 51
240.1863532139999
  0
LINE
  5
66
330
1D
100
AcDbEntity
  8
1
100
AcDbLine
 10
7.599056715888186
 20
0.000000128999998
 30
0.0
 11
7.599056715888186
 21
-14.160603156
 31
0.0
  0
LINE
  5
67
330
1D
100
AcDbEntity
  8
1
100
AcDbLine
 10
15.56604403888819
 20
0.000000128999998
 30
0.0
 11
15.56604403888819
 21
-16.437915956
 31
0.0
  0
LINE
  5
68
330
1D
100
AcDbEntity
  8
1
100
AcDbLine
 10
7.599056715888186
 20
-14.160603156
 30
0.0
 11
11.04354115088819
 21
-15.171195252
 31
0.0
  0
LINE
  5
69
330
1D
100
AcDbEntity
  8
1
100
AcDbLine
 10
11.04354115088819
 20
-15.171195252
 30
0.0
 11
15.56604403888819
 21
-16.437915956
 31
0.0
  0
ARC
  5
6A
330
1D
100
AcDbEntity
  8
1
100
AcDbCircle
 10
0.1785873178881863
 20
14.950616287
 30
0.0
 40
0.173711529
100
AcDbArc
 50
21.63735557000016
 51
66.24010038600004
  0
ARC
  5
6B
330
1D
100
AcDbEntity
  8
1
100
AcDbCircle
 10
-14.79406853511181
 20
-16.46779766
 30
0.0
 40
34.977327837
100
AcDbArc
 50
64.528097096
 51
66.652549519
  0
ARC
  5
6C
330
1D
100
AcDbEntity
  8
1
100
AcDbCircle
 10
-32.70114426711181
 20
-259.092125012
 30
0.0
 40
277.120445099
100
AcDbArc
 50
83.26858471900003
 51
83.41572891899999
  0
LINE
  5
6D
330
1D
100
AcDbEntity
  8
1
100
AcDbLine
 10
-0.2183941941118137
 20
16.117999459
 30
0.0
 11
0.4918603408881864
 21
16.052855307
 31
0.0
  0
LINE
  5
6E
330
1D
100
AcDbEntity
  8
1
100
AcDbLine
 10
0.4918603408881864
 20
16.052855307
 30
0.0
 11
1.212107966888186
 21
16.023540998
 31
0.0
  0
LINE
  5
6F
330
1D
100
AcDbEntity
  8
1
100
AcDbLine
 10
1.212107966888186
 20
16.023540998
 30
0.0
 11
1.935317198888186
 21
16.02603321699999
 31
0.0
  0
LINE
  5
70
330
1D
100
AcDbEntity
  8
1
100
AcDbLine
 10
1.935317198888186
 20
16.02603321699999
 30
0.0
 11
2.654456551888186
 21
16.05630865099999
 31
0.0
  0
LINE
  5
71
330
1D
100
AcDbEntity
  8
1
100
AcDbLine
 10
2.654456551888186
 20
16.05630865099999
 30
0.0
 11
3.415812755888187
 21
16.115816439
 31
0.0
  0
LINE
  5
72
330
1D
100
AcDbEntity
  8
1
100
AcDbLine
 10
3.415812755888187
 20
16.115816439
 30
0.0
 11
4.170375893888187
 21
16.205651814
 31
0.0
  0
LINE
  5
73
330
1D
100
AcDbEntity
  8
1
100
AcDbLine
 10
4.170375893888187
 20
16.205651814
 30
0.0
 11
4.906008968888186
 21
16.329517717
 31
0.0
  0
LINE
  5
74
330
1D
100
AcDbEntity
  8
1
100
AcDbLine
 10
4.906008968888186
 20
16.329517717
 30
0.0
 11
5.610576848888186
 21
16.491109634
 31
0.0
  0
LINE
  5
75
330
1D
100
AcDbEntity
  8
1
100
AcDbLine
 10
5.610576848888186
 20
16.491109634
 30
0.0
 11
5.994375812888187
 21
16.603751237
 31
0.0
  0
LINE
  5
76
330
1D
100
AcDbEntity
  8
1
100
AcDbLine
 10
5.994375812888187
 20
16.603751237
 30
0.0
 11
6.350191327888187
 21
16.736386472
 31
0.0
  0
LINE
  5
77
330
1D
100
AcDbEntity
  8
1
100
AcDbLine
 10
6.350191327888187
 20
16.736386472
 30
0.0
 11
6.529715861888186
 21
16.821039969
 31
0.0
  0
LINE
  5
78
330
1D
100
AcDbEntity
  8
1
100
AcDbLine
 10
6.529715861888186
 20
16.821039969
 30
0.0
 11
6.686856987888186
 21
16.914839054
 31
0.0
  0
LINE
  5
79
330
1D
100
AcDbEntity
  8
1
100
AcDbLine
 10
6.686856987888186
 20
16.914839054
 30
0.0
 11
6.781724299888186
 21
16.990089918
 31
0.0
  0
LINE
  5
7A
330
1D
100
AcDbEntity
  8
1
100
AcDbLine
 10
6.781724299888186
 20
16.990089918
 30
0.0
 11
6.851962785888186
 21
17.070343847
 31
0.0
  0
LINE
  5
7B
330
1D
100
AcDbEntity
  8
1
100
AcDbLine
 10
6.851962785888186
 20
17.070343847
 30
0.0
 11
6.884651276888186
 21
17.135972286
 31
0.0
  0
LINE
  5
7C
330
1D
100
AcDbEntity
  8
1
100
AcDbLine
 10
6.884651276888186
 20
17.135972286
 30
0.0
 11
6.894454377888186
 21
17.20237186
 31
0.0
  0
LINE
  5
7D
330
1D
100
AcDbEntity
  8
1
100
AcDbLine
 10
6.894454377888186
 20
17.20237186
 30
0.0
 11
6.879273819888186
 21
17.26781776
 31
0.0
  0
LINE
  5
7E
330
1D
100
AcDbEntity
  8
1
100
AcDbLine
 10
6.879273819888186
 20
17.26781776
 30
0.0
 11
6.840661185888187
 21
17.330324406
 31
0.0
  0
LINE
  5
7F
330
1D
100
AcDbEntity
  8
1
100
AcDbLine
 10
6.840661185888187
 20
17.330324406
 30
0.0
 11
6.764330918888186
 21
17.401719595
 31
0.0
  0
LINE
  5
80
330
1D
100
AcDbEntity
  8
1
100
AcDbLine
 10
6.764330918888186
 20
17.401719595
 30
0.0
 11
6.663721072888186
 21
17.465783412
 31
0.0
  0
LINE
  5
81
330
1D
100
AcDbEntity
  8
1
100
AcDbLine
 10
6.663721072888186
 20
17.465783412
 30
0.0
 11
6.466141919888186
 21
17.554411793
 31
0.0
  0
LINE
  5
82
330
1D
100
AcDbEntity
  8
1
100
AcDbLine
 10
6.466141919888186
 20
17.554411793
 30
0.0
 11
6.240140664888187
 21
17.627766485
 31
0.0
  0
LINE
  5
83
330
1D
100
AcDbEntity
  8
1
100
AcDbLine
 10
6.240140664888187
 20
17.627766485
 30
0.0
 11
5.908038484888186
 21
17.708843703
 31
0.0
  0
LINE
  5
84
330
1D
100
AcDbEntity
  8
1
100
AcDbLine
 10
5.908038484888186
 20
17.708843703
 30
0.0
 11
5.556008796888186
 21
17.773354555
 31
0.0
  0
LINE
  5
85
330
1D
100
AcDbEntity
  8
1
100
AcDbLine
 10
5.556008796888186
 20
17.773354555
 30
0.0
 11
5.192898231888186
 21
17.824886495
 31
0.0
  0
LINE
  5
86
330
1D
100
AcDbEntity
  8
1
100
AcDbLine
 10
5.192898231888186
 20
17.824886495
 30
0.0
 11
4.809890891888187
 21
17.867820466
 31
0.0
  0
LINE
  5
87
330
1D
100
AcDbEntity
  8
1
100
AcDbLine
 10
4.809890891888187
 20
17.867820466
 30
0.0
 11
4.421441833888187
 21
17.901631201
 31
0.0
  0
ARC
  5
88
330
1D
100
AcDbEntity
  8
1
100
AcDbCircle
 10
-39.42808890111181
 20
-564.848260189
 30
0.0
 40
584.397311936
100
AcDbArc
 50
85.696837583
 51
86.188051057
  0
ARC
  5
89
330
1D
100
AcDbEntity
  8
1
100
AcDbCircle
 10
-12.44180515511181
 20
-37.50827071
 30
0.0
 40
57.013694418
100
AcDbArc
 50
77.987818659
 51
78.35546562200001
  0
ARC
  5
8A
330
1D
100
AcDbEntity
  8
1
100
AcDbCircle
 10
9.208829939888187
 20
-37.50827071
 30
0.0
 40
57.017989819
100
AcDbArc
 50
99.04138533499999
 51
100.246803522
  0
LINE
  5
8B
330
1D
100
AcDbEntity
  8
1
100
AcDbLine
 10
0.2485765318881863
 20
18.801273907
 30
0.0
 11
0.3004437488881864
 21
18.813071901
 31
0.0
  0
LINE
  5
8C
330
1D
100
AcDbEntity
  8
1
100
AcDbLine
 10
0.3004437488881864
 20
18.813071901
 30
0.0
 11
0.3347536728881864
 21
18.828543032
 31
0.0
  0
LINE
  5
8D
330
1D
100
AcDbEntity
  8
1
100
AcDbLine
 10
0.3347536728881864
 20
18.828543032
 30
0.0
 11
0.3484664668881863
 21
18.84631639199999
 31
0.0
  0
LINE
  5
8E
330
1D
100
AcDbEntity
  8
1
100
AcDbLine
 10
0.3484664668881863
 20
18.84631639199999
 30
0.0
 11
0.3387266948881864
 21
18.86441385199999
 31
0.0
  0
LINE
  5
8F
330
1D
100
AcDbEntity
  8
1
100
AcDbLine
 10
0.3387266948881864
 20
18.86441385199999
 30
0.0
 11
0.3058342438881864
 21
18.88042515
 31
0.0
  0
LINE
  5
90
330
1D
100
AcDbEntity
  8
1
100
AcDbLine
 10
0.3058342438881864
 20
18.88042515
 30
0.0
 11
0.2485765318881863
 21
18.893176818
 31
0.0
  0
ARC
  5
91
330
1D
100
AcDbEntity
  8
1
100
AcDbCircle
 10
-8.111678136111813
 20
-37.50827071
 30
0.0
 40
57.017689742
100
AcDbArc
 50
81.568573479
 51
82.767924027
  0
ARC
  5
92
330
1D
100
AcDbEntity
  8
1
100
AcDbCircle
 10
4.878702920888187
 20
-37.50827071
 30
0.0
 40
57.012493804
100
AcDbArc
 50
94.658263533
 51
95.85151243599998
  0
LINE
  5
93
330
1D
100
AcDbEntity
  8
1
100
AcDbLine
 10
0.2485765318881863
 20
19.31590041
 30
0.0
 11
0.3003226768881864
 21
19.321790094
 31
0.0
  0
LINE
  5
94
330
1D
100
AcDbEntity
  8
1
100
AcDbLine
 10
0.3003226768881864
 20
19.321790094
 30
0.0
 11
0.3348449428881863
 21
19.329527522
 31
0.0
  0
LINE
  5
95
330
1D
100
AcDbEntity
  8
1
100
AcDbLine
 10
0.3348449428881863
 20
19.329527522
 30
0.0
 11
0.3484571528881864
 21
19.338188822
 31
0.0
  0
LINE
  5
96
330
1D
100
AcDbEntity
  8
1
100
AcDbLine
 10
0.3484571528881864
 20
19.338188822
 30
0.0
 11
0.3393003898881863
 21
19.346768165
 31
0.0
  0
LINE
  5
97
330
1D
100
AcDbEntity
  8
1
100
AcDbLine
 10
0.3393003898881863
 20
19.346768165
 30
0.0
 11
0.3082333308881863
 21
19.3542709
 31
0.0
  0
LINE
  5
98
330
1D
100
AcDbEntity
  8
1
100
AcDbLine
 10
0.3082333308881863
 20
19.3542709
 30
0.0
 11
0.2589794058881864
 21
19.359907264
 31
0.0
  0
LINE
  5
99
330
1D
100
AcDbEntity
  8
1
100
AcDbLine
 10
0.2589794058881864
 20
19.359907264
 30
0.0
 11
0.2485765318881863
 21
19.360682124
 31
0.0
  0
ARC
  5
9A
330
1D
100
AcDbEntity
  8
1
100
AcDbCircle
 10
-3.781551117111813
 20
-37.50827071
 30
0.0
 40
57.011576096
100
AcDbArc
 50
85.946401968
 51
87.13693913300001
  0
ARC
  5
9B
330
1D
100
AcDbEntity
  8
1
100
AcDbCircle
 10
0.5485759018881864
 20
-37.50827071
 30
0.0
 40
57.008291271
100
AcDbArc
 50
90.30151426800002
 51
91.49016387
  0
LINE
  5
9C
330
1D
100
AcDbEntity
  8
1
100
AcDbLine
 10
0.2485765318881863
 20
19.499229396
 30
0.0
 11
0.3002705228881863
 21
19.499564672
 31
0.0
  0
LINE
  5
9D
330
1D
100
AcDbEntity
  8
1
100
AcDbLine
 10
0.3002705228881863
 20
19.499564672
 30
0.0
 11
0.3217803488881864
 21
19.499743486
 31
0.0
  0
LINE
  5
9E
330
1D
100
AcDbEntity
  8
1
100
AcDbLine
 10
0.3217803488881864
 20
19.499743486
 30
0.0
 11
6.666043790888186
 21
19.499743486
 31
0.0
  0
LINE
  5
9F
330
1D
100
AcDbEntity
  8
1
100
AcDbLine
 10
8.666044118888186
 20
16.035640741
 30
0.0
 11
8.457642997888186
 21
16.396602744
 31
0.0
  0
LINE
  5
A0
330
1D
100
AcDbEntity
  8
1
100
AcDbLine
 10
8.457642997888186
 20
16.396602744
 30
0.0
 11
8.259763958888186
 21
16.739340628
 31
0.0
  0
LINE
  5
A1
330
1D
100
AcDbEntity
  8
1
100
AcDbLine
 10
8.259763958888186
 20
16.739340628
 30
0.0
 11
8.072628657888187
 21
17.063466961
 31
0.0
  0
LINE
  5
A2
330
1D
100
AcDbEntity
  8
1
100
AcDbLine
 10
8.072628657888187
 20
17.063466961
 30
0.0
 11
7.896443846888186
 21
17.368631566
 31
0.0
  0
LINE
  5
A3
330
1D
100
AcDbEntity
  8
1
100
AcDbLine
 10
7.896443846888186
 20
17.368631566
 30
0.0
 11
7.731405104888187
 21
17.654484267
 31
0.0
  0
LINE
  5
A4
330
1D
100
AcDbEntity
  8
1
100
AcDbLine
 10
7.731405104888187
 20
17.654484267
 30
0.0
 11
7.577697764888186
 21
17.920715863
 31
0.0
  0
LINE
  5
A5
330
1D
100
AcDbEntity
  8
1
100
AcDbLine
 10
7.577697764888186
 20
17.920715863
 30
0.0
 11
7.435490394888187
 21
18.16702460699999
 31
0.0
  0
LINE
  5
A6
330
1D
100
AcDbEntity
  8
1
100
AcDbLine
 10
7.435490394888187
 20
18.16702460699999
 30
0.0
 11
7.304943184888186
 21
18.393138552
 31
0.0
  0
LINE
  5
A7
330
1D
100
AcDbEntity
  8
1
100
AcDbLine
 10
7.304943184888186
 20
18.393138552
 30
0.0
 11
7.186199555888186
 21
18.598808104
 31
0.0
  0
LINE
  5
A8
330
1D
100
AcDbEntity
  8
1
100
AcDbLine
 10
7.186199555888186
 20
18.598808104
 30
0.0
 11
7.079391757888186
 21
18.783806021
 31
0.0
  0
LINE
  5
A9
330
1D
100
AcDbEntity
  8
1
100
AcDbLine
 10
7.079391757888186
 20
18.783806021
 30
0.0
 11
6.984639930888187
 21
18.947919959
 31
0.0
  0
LINE
  5
AA
330
1D
100
AcDbEntity
  8
1
100
AcDbLine
 10
6.984639930888187
 20
18.947919959
 30
0.0
 11
6.902047450888186
 21
19.090974832
 31
0.0
  0
LINE
  5
AB
330
1D
100
AcDbEntity
  8
1
100
AcDbLine
 10
6.902047450888186
 20
19.090974832
 30
0.0
 11
6.831707450888186
 21
19.212806726
 31
0.0
  0
LINE
  5
AC
330
1D
100
AcDbEntity
  8
1
100
AcDbLine
 10
6.831707450888186
 20
19.212806726
 30
0.0
 11
6.773697229888186
 21
19.313281531
 31
0.0
  0
LINE
  5
AD
330
1D
100
AcDbEntity
  8
1
100
AcDbLine
 10
6.773697229888186
 20
19.313281531
 30
0.0
 11
6.728082912888186
 21
19.392291213
 31
0.0
  0
LINE
  5
AE
330
1D
100
AcDbEntity
  8
1
100
AcDbLine
 10
6.728082912888186
 20
19.392291213
 30
0.0
 11
6.694912928888186
 21
19.44974264
 31
0.0
  0
LINE
  5
AF
330
1D
100
AcDbEntity
  8
1
100
AcDbLine
 10
6.694912928888186
 20
19.44974264
 30
0.0
 11
6.674226390888187
 21
19.48557248199999
 31
0.0
  0
LINE
  5
B0
330
1D
100
AcDbEntity
  8
1
100
AcDbLine
 10
6.674226390888187
 20
19.48557248199999
 30
0.0
 11
6.666043790888186
 21
19.499743486
 31
0.0
  0
LINE
  5
B1
330
1D
100
AcDbEntity
  8
1
100
AcDbLine
 10
8.666044118888186
 20
11.171067262
 30
0.0
 11
8.666044118888186
 21
16.035640741
 31
0.0
  0
ARC
  5
B2
330
1D
100
AcDbEntity
  8
1
100
AcDbCircle
 10
13.66613193288819
 20
11.171106551
 30
0.0
 40
5.000087814
100
AcDbArc
 50
180.000450208
 51
224.999590816
  0
LINE
  5
B3
330
1D
100
AcDbEntity
  8
1
100
AcDbLine
 10
15.67814407788819
 20
2.087900543999998
 30
0.0
 11
15.04376858388819
 21
2.722276502999998
 31
0.0
  0
LINE
  5
B4
330
1D
100
AcDbEntity
  8
1
100
AcDbLine
 10
15.04376858388819
 20
2.722276502999998
 30
0.0
 11
14.41231837388819
 21
3.353726246999998
 31
0.0
  0
LINE
  5
B5
330
1D
100
AcDbEntity
  8
1
100
AcDbLine
 10
14.41231837388819
 20
3.353726246999998
 30
0.0
 11
13.78447284888819
 21
3.981571772999998
 31
0.0
  0
LINE
  5
B6
330
1D
100
AcDbEntity
  8
1
100
AcDbLine
 10
13.78447284888819
 20
3.981571772999998
 30
0.0
 11
13.16090581888819
 21
4.605138802999998
 31
0.0
  0
LINE
  5
B7
330
1D
100
AcDbEntity
  8
1
100
AcDbLine
 10
13.16090581888819
 20
4.605138802999998
 30
0.0
 11
12.54228830288819
 21
5.223756784999998
 31
0.0
  0
LINE
  5
B8
330
1D
100
AcDbEntity
  8
1
100
AcDbLine
 10
12.54228830288819
 20
5.223756784999998
 30
0.0
 11
11.92928479888819
 21
5.836760753999998
 31
0.0
  0
LINE
  5
B9
330
1D
100
AcDbEntity
  8
1
100
AcDbLine
 10
11.92928479888819
 20
5.836760753999998
 30
0.0
 11
11.32255375288819
 21
6.443491333999998
 31
0.0
  0
LINE
  5
BA
330
1D
100
AcDbEntity
  8
1
100
AcDbLine
 10
11.32255375288819
 20
6.443491333999998
 30
0.0
 11
10.72274709088819
 21
7.043296599999998
 31
0.0
  0
LINE
  5
BB
330
1D
100
AcDbEntity
  8
1
100
AcDbLine
 10
10.72274709088819
 20
7.043296599999998
 30
0.0
 11
10.13051068388819
 21
7.635535800999998
 31
0.0
  0
ARC
  5
BC
330
1D
100
AcDbEntity
  8
1
100
AcDbCircle
 10
35.06604414688819
 20
0.000000441999998
 30
0.0
 40
19.5
100
AcDbArc
 50
173.853454804
 51
180.0
  0
ARC
  5
BD
330
1D
100
AcDbEntity
  8
1
100
AcDbCircle
 10
-25.31468384611181
 20
0.000000441999998
 30
0.0
 40
32.913740696
100
AcDbArc
 50
0.0
 51
9.363806038000002
  0
LINE
  5
BE
330
1D
100
AcDbEntity
  8
1
100
AcDbLine
 10
7.166043872888187
 20
5.356071645999998
 30
0.0
 11
-0.9339554051118136
 21
5.356071645999998
 31
0.0
  0
ARC
  5
BF
330
1D
100
AcDbEntity
  8
1
100
AcDbCircle
 10
15.99370283788819
 20
-4.467841326000002
 30
0.0
 40
20.23398204
100
AcDbArc
 50
141.091744454
 51
141.212022181
  0
ARC
  5
C0
330
1D
100
AcDbEntity
  8
1
100
AcDbCircle
 10
12.73705315188819
 20
-1.850552634000002
 30
0.0
 40
16.055954342
100
AcDbArc
 50
141.212022181
 51
148.335939192
  0
ARC
  5
C1
330
1D
100
AcDbEntity
  8
1
100
AcDbCircle
 10
-0.2799384851118137
 20
8.593345189999999
 30
0.0
 40
0.635407997
100
AcDbArc
 50
326.281268907
 51
33.71873109299999
  0
ARC
  5
C2
330
1D
100
AcDbEntity
  8
1
100
AcDbCircle
 10
-14.89655103411181
 20
-4.467841326000002
 30
0.0
 40
20.23135964
100
AcDbArc
 50
41.53104358499999
 51
46.332894555
  0
ARC
  5
C3
330
1D
100
AcDbEntity
  8
1
100
AcDbCircle
 10
20.22134735888818
 20
-16.46779766
 30
0.0
 40
34.979035305
100
AcDbArc
 50
124.819474091
 51
125.494703262
  0
ARC
  5
C4
330
1D
100
AcDbEntity
  8
1
100
AcDbCircle
 10
11.66357581888819
 20
-4.467841326000002
 30
0.0
 40
20.233988242
100
AcDbArc
 50
125.494796581
 51
128.532969099
  0
ARC
  5
C5
330
1D
100
AcDbEntity
  8
1
100
AcDbCircle
 10
0.0885290258881863
 20
12.456985319
 30
0.0
 40
0.262895777
100
AcDbArc
 50
307.501840053
 51
52.49815994699998
  0
ARC
  5
C6
330
1D
100
AcDbEntity
  8
1
100
AcDbCircle
 10
-19.12419555411181
 20
-16.46779766
 30
0.0
 40
34.986515051
100
AcDbArc
 50
56.377327849
 51
58.67771564099999
  0
ARC
  5
C7
330
1D
100
AcDbEntity
  8
1
100
AcDbCircle
 10
15.89122033988819
 20
-16.46779766
 30
0.0
 40
34.980486158
100
AcDbArc
 50
116.563028469
 51
118.744007418
  0
ARC
  5
C8
330
1D
100
AcDbEntity
  8
1
100
AcDbCircle
 10
0.1763161478881863
 20
14.979424006
 30
0.0
 40
0.174804976
100
AcDbArc
 50
294.4171598699999
 51
339.6082910299996
  0
LINE
  5
C9
330
1D
100
AcDbEntity
  8
1
100
AcDbLine
 10
3.066043387888187
 20
19.116157795
 30
0.0
 11
2.800953592888186
 21
19.120643044
 31
0.0
  0
LINE
  5
CA
330
1D
100
AcDbEntity
  8
1
100
AcDbLine
 10
2.800953592888186
 20
19.120643044
 30
0.0
 11
2.543390746888186
 21
19.133625681
 31
0.0
  0
LINE
  5
CB
330
1D
100
AcDbEntity
  8
1
100
AcDbLine
 10
2.543390746888186
 20
19.133625681
 30
0.0
 11
2.300917188888187
 21
19.154397899
 31
0.0
  0
LINE
  5
CC
330
1D
100
AcDbEntity
  8
1
100
AcDbLine
 10
2.300917188888187
 20
19.154397899
 30
0.0
 11
2.079746703888186
 21
19.181525463
 31
0.0
  0
LINE
  5
CD
330
1D
100
AcDbEntity
  8
1
100
AcDbLine
 10
2.079746703888186
 20
19.181525463
 30
0.0
 11
1.884208078888186
 21
19.213846082
 31
0.0
  0
LINE
  5
CE
330
1D
100
AcDbEntity
  8
1
100
AcDbLine
 10
1.884208078888186
 20
19.213846082
 30
0.0
 11
1.721522788888186
 21
19.249213988
 31
0.0
  0
LINE
  5
CF
330
1D
100
AcDbEntity
  8
1
100
AcDbLine
 10
1.721522788888186
 20
19.249213988
 30
0.0
 11
1.594734395888186
 21
19.286384935
 31
0.0
  0
LINE
  5
D0
330
1D
100
AcDbEntity
  8
1
100
AcDbLine
 10
1.594734395888186
 20
19.286384935
 30
0.0
 11
1.509730721888186
 21
19.32300826399999
 31
0.0
  0
LINE
  5
D1
330
1D
100
AcDbEntity
  8
1
100
AcDbLine
 10
1.509730721888186
 20
19.32300826399999
 30
0.0
 11
1.469462196888186
 21
19.357612485
 31
0.0
  0
LINE
  5
D2
330
1D
100
AcDbEntity
  8
1
100
AcDbLine
 10
1.469462196888186
 20
19.357612485
 30
0.0
 11
1.475178654888186
 21
19.388826693
 31
0.0
  0
LINE
  5
D3
330
1D
100
AcDbEntity
  8
1
100
AcDbLine
 10
1.475178654888186
 20
19.388826693
 30
0.0
 11
1.527116651888186
 21
19.415533299
 31
0.0
  0
LINE
  5
D4
330
1D
100
AcDbEntity
  8
1
100
AcDbLine
 10
1.527116651888186
 20
19.415533299
 30
0.0
 11
1.623234729888186
 21
19.437627996
 31
0.0
  0
LINE
  5
D5
330
1D
100
AcDbEntity
  8
1
100
AcDbLine
 10
1.623234729888186
 20
19.437627996
 30
0.0
 11
1.760150323888186
 21
19.454864914
 31
0.0
  0
LINE
  5
D6
330
1D
100
AcDbEntity
  8
1
100
AcDbLine
 10
1.760150323888186
 20
19.454864914
 30
0.0
 11
1.934130693888186
 21
19.467858726
 31
0.0
  0
LINE
  5
D7
330
1D
100
AcDbEntity
  8
1
100
AcDbLine
 10
1.934130693888186
 20
19.467858726
 30
0.0
 11
2.139768580888187
 21
19.477060193
 31
0.0
  0
LINE
  5
D8
330
1D
100
AcDbEntity
  8
1
100
AcDbLine
 10
2.139768580888187
 20
19.477060193
 30
0.0
 11
2.371507714888186
 21
19.483229274
 31
0.0
  0
LINE
  5
D9
330
1D
100
AcDbEntity
  8
1
100
AcDbLine
 10
2.371507714888186
 20
19.483229274
 30
0.0
 11
2.623005787888186
 21
19.486980641
 31
0.0
  0
LINE
  5
DA
330
1D
100
AcDbEntity
  8
1
100
AcDbLine
 10
2.623005787888186
 20
19.486980641
 30
0.0
 11
2.886976132888186
 21
19.48882466
 31
0.0
  0
LINE
  5
DB
330
1D
100
AcDbEntity
  8
1
100
AcDbLine
 10
2.886976132888186
 20
19.48882466
 30
0.0
 11
3.156227077888186
 21
19.48908543
 31
0.0
  0
LINE
  5
DC
330
1D
100
AcDbEntity
  8
1
100
AcDbLine
 10
3.156227077888186
 20
19.48908543
 30
0.0
 11
3.422939236888186
 21
19.487777854
 31
0.0
  0
LINE
  5
DD
330
1D
100
AcDbEntity
  8
1
100
AcDbLine
 10
3.422939236888186
 20
19.487777854
 30
0.0
 11
3.679500910888186
 21
19.484700764
 31
0.0
  0
LINE
  5
DE
330
1D
100
AcDbEntity
  8
1
100
AcDbLine
 10
3.679500910888186
 20
19.484700764
 30
0.0
 11
3.918763267888187
 21
19.47939595
 31
0.0
  0
LINE
  5
DF
330
1D
100
AcDbEntity
  8
1
100
AcDbLine
 10
3.918763267888187
 20
19.47939595
 30
0.0
 11
4.133562574888186
 21
19.471252466
 31
0.0
  0
LINE
  5
E0
330
1D
100
AcDbEntity
  8
1
100
AcDbLine
 10
4.133562574888186
 20
19.471252466
 30
0.0
 11
4.318276437888186
 21
19.459633285
 31
0.0
  0
LINE
  5
E1
330
1D
100
AcDbEntity
  8
1
100
AcDbLine
 10
4.318276437888186
 20
19.459633285
 30
0.0
 11
4.467139038888186
 21
19.44391256
 31
0.0
  0
LINE
  5
E2
330
1D
100
AcDbEntity
  8
1
100
AcDbLine
 10
4.467139038888186
 20
19.44391256
 30
0.0
 11
4.576671886888186
 21
19.42375128899999
 31
0.0
  0
LINE
  5
E3
330
1D
100
AcDbEntity
  8
1
100
AcDbLine
 10
4.576671886888186
 20
19.42375128899999
 30
0.0
 11
4.643379728888187
 21
19.398925955
 31
0.0
  0
LINE
  5
E4
330
1D
100
AcDbEntity
  8
1
100
AcDbLine
 10
4.643379728888187
 20
19.398925955
 30
0.0
 11
4.666044394888186
 21
19.36981653599999
 31
0.0
  0
LINE
  5
E5
330
1D
100
AcDbEntity
  8
1
100
AcDbLine
 10
4.666044394888186
 20
19.36981653599999
 30
0.0
 11
4.643372277888187
 21
19.336788112
 31
0.0
  0
LINE
  5
E6
330
1D
100
AcDbEntity
  8
1
100
AcDbLine
 10
4.643372277888187
 20
19.336788112
 30
0.0
 11
4.576537775888187
 21
19.301159436
 31
0.0
  0
LINE
  5
E7
330
1D
100
AcDbEntity
  8
1
100
AcDbLine
 10
4.576537775888187
 20
19.301159436
 30
0.0
 11
4.465744848888186
 21
19.263951237
 31
0.0
  0
LINE
  5
E8
330
1D
100
AcDbEntity
  8
1
100
AcDbLine
 10
4.465744848888186
 20
19.263951237
 30
0.0
 11
4.315057786888186
 21
19.227260852
 31
0.0
  0
LINE
  5
E9
330
1D
100
AcDbEntity
  8
1
100
AcDbLine
 10
4.315057786888186
 20
19.227260852
 30
0.0
 11
4.127206298888186
 21
19.192868972
 31
0.0
  0
LINE
  5
EA
330
1D
100
AcDbEntity
  8
1
100
AcDbLine
 10
4.127206298888186
 20
19.192868972
 30
0.0
 11
3.908382746888186
 21
19.16286921
 31
0.0
  0
LINE
  5
EB
330
1D
100
AcDbEntity
  8
1
100
AcDbLine
 10
3.908382746888186
 20
19.16286921
 30
0.0
 11
3.666452149888186
 21
19.139381254
 31
0.0
  0
LINE
  5
EC
330
1D
100
AcDbEntity
  8
1
100
AcDbLine
 10
3.666452149888186
 20
19.139381254
 30
0.0
 11
3.406875784888186
 21
19.123518968
 31
0.0
  0
LINE
  5
ED
330
1D
100
AcDbEntity
  8
1
100
AcDbLine
 10
3.406875784888186
 20
19.123518968
 30
0.0
 11
3.066043387888187
 21
19.116157795
 31
0.0
  0
LINE
  5
EE
330
1D
100
AcDbEntity
  8
1
100
AcDbLine
 10
7.166043872888187
 20
5.356071645999998
 30
0.0
 11
7.166043872888187
 21
-15.017855784
 31
0.0
  0
ARC
  5
EF
330
1D
100
AcDbEntity
  8
1
100
AcDbCircle
 10
-13.09890980511181
 20
-4.116368793000002
 30
0.0
 40
23.011100993
100
AcDbArc
 50
331.722069773
 51
334.113795458
  0
LINE
  5
F0
330
1D
100
AcDbEntity
  8
1
100
AcDbLine
 10
16.26604424688819
 20
1.500001305999998
 30
0.0
 11
15.67814407788819
 21
2.087900543999998
 31
0.0
  0
LINE
  5
F1
330
1D
100
AcDbEntity
  8
1
100
AcDbLine
 10
16.26604424688819
 20
-7.999999320000001
 30
0.0
 11
16.26604424688819
 21
7.999999889999997
 31
0.0
  0
ARC
  5
F2
330
1D
100
AcDbEntity
  8
1
100
AcDbCircle
 10
24.26604414688819
 20
-7.999999558000002
 30
0.0
 40
8.0
100
AcDbArc
 50
180.0
 51
226.567463442
  0
LINE
  5
F3
330
1D
100
AcDbEntity
  8
1
100
AcDbLine
 10
16.86337708388819
 20
-11.03323592
 30
0.0
 11
16.86337708388819
 21
-16.90431392
 31
0.0
  0
LINE
  5
F4
330
1D
100
AcDbEntity
  8
1
100
AcDbLine
 10
16.86337708388819
 20
-16.90431392
 30
0.0
 11
16.84790828188819
 21
-17.104114277
 31
0.0
  0
LINE
  5
F5
330
1D
100
AcDbEntity
  8
1
100
AcDbLine
 10
16.84790828188819
 20
-17.104114277
 30
0.0
 11
16.80514427788819
 21
-17.252664884
 31
0.0
  0
LINE
  5
F6
330
1D
100
AcDbEntity
  8
1
100
AcDbLine
 10
16.80514427788819
 20
-17.252664884
 30
0.0
 11
16.74857364888819
 21
-17.344285605
 31
0.0
  0
LINE
  5
F7
330
1D
100
AcDbEntity
  8
1
100
AcDbLine
 10
16.74857364888819
 20
-17.344285605
 30
0.0
 11
16.67314886088819
 21
-17.403413413
 31
0.0
  0
LINE
  5
F8
330
1D
100
AcDbEntity
  8
1
100
AcDbLine
 10
16.67314886088819
 20
-17.403413413
 30
0.0
 11
16.57165216188818
 21
-17.426979599
 31
0.0
  0
LINE
  5
F9
330
1D
100
AcDbEntity
  8
1
100
AcDbLine
 10
16.57165216188818
 20
-17.426979599
 30
0.0
 11
16.41557297588819
 21
-17.391482239
 31
0.0
  0
LINE
  5
FA
330
1D
100
AcDbEntity
  8
1
100
AcDbLine
 10
16.41557297588819
 20
-17.391482239
 30
0.0
 11
16.27802198688819
 21
-17.311611084
 31
0.0
  0
LINE
  5
FB
330
1D
100
AcDbEntity
  8
1
100
AcDbLine
 10
16.27802198688819
 20
-17.311611084
 30
0.0
 11
16.14978631888819
 21
-17.204087099
 31
0.0
  0
LINE
  5
FC
330
1D
100
AcDbEntity
  8
1
100
AcDbLine
 10
16.14978631888819
 20
-17.204087099
 30
0.0
 11
16.00894333688819
 21
-17.053919716
 31
0.0
  0
LINE
  5
FD
330
1D
100
AcDbEntity
  8
1
100
AcDbLine
 10
16.00894333688819
 20
-17.053919716
 30
0.0
 11
15.87872348688819
 21
-16.885410866
 31
0.0
  0
ARC
  5
FE
330
1D
100
AcDbEntity
  8
1
100
AcDbCircle
 10
39.82379848788818
 20
0.172650614999998
 30
0.0
 40
29.399822457
100
AcDbArc
 50
214.401504005
 51
215.465420913
  0
LINE
  5
FF
330
1D
100
AcDbEntity
  8
1
100
AcDbLine
 10
9.742709825888186
 20
-24.211026367
 30
0.0
 11
9.867379459888186
 21
-24.233250284
 31
0.0
  0
LINE
  5
100
330
1D
100
AcDbEntity
  8
1
100
AcDbLine
 10
9.867379459888186
 20
-24.233250284
 30
0.0
 11
17.45926078388819
 21
-25.58582175900001
 31
0.0
  0
LINE
  5
101
330
1D
100
AcDbEntity
  8
1
100
AcDbLine
 10
9.742709825888186
 20
-24.437139613
 30
0.0
 11
9.742709825888186
 21
-24.211026367
 31
0.0
  0
ARC
  5
102
330
1D
100
AcDbEntity
  8
1
100
AcDbCircle
 10
9.639185831888186
 20
-24.02445219100001
 30
0.0
 40
0.428761237
100
AcDbArc
 50
264.030339796
 51
270.0
  0
ARC
  5
103
330
1D
100
AcDbEntity
  8
1
100
AcDbCircle
 10
9.639185831888186
 20
-24.02445219100001
 30
0.0
 40
0.429566989
100
AcDbArc
 50
270.0
 51
284.0822920200001
  0
LINE
  5
104
330
1D
100
AcDbEntity
  8
1
100
AcDbLine
 10
9.594594145888186
 20
-24.450888263
 30
0.0
 11
3.059244732888186
 21
-23.298519768
 31
0.0
  0
LINE
  5
105
330
1D
100
AcDbEntity
  8
1
100
AcDbLine
 10
3.059244732888186
 20
-13.829986436
 30
0.0
 11
3.059244732888186
 21
-23.298519768
 31
0.0
  0
LINE
  5
106
330
1D
100
AcDbEntity
  8
1
100
AcDbLine
 10
3.059244732888186
 20
-13.829986436
 30
0.0
 11
4.963785427888187
 21
-14.388528524
 31
0.0
  0
LINE
  5
107
330
1D
100
AcDbEntity
  8
1
100
AcDbLine
 10
4.963785427888187
 20
-14.388528524
 30
0.0
 11
7.166043872888187
 21
-15.017855784
 31
0.0
  0
ARC
  5
108
330
1D
100
AcDbEntity
  8
1
100
AcDbCircle
 10
17.59423111288818
 20
-24.78320436
 30
0.0
 40
0.804082303
100
AcDbArc
 50
260.3367933089999
 51
358.6181550000001
  0
LINE
  5
109
330
1D
100
AcDbEntity
  8
1
100
AcDbLine
 10
-0.9339554051118136
 20
-5.356071388000002
 30
0.0
 11
-1.131049339111814
 21
-5.328399932000002
 31
0.0
  0
LINE
  5
10A
330
1D
100
AcDbEntity
  8
1
100
AcDbLine
 10
-1.131049339111814
 20
5.328400188999998
 30
0.0
 11
-0.9339554051118136
 21
5.356071645999998
 31
0.0
  0
LINE
  5
10B
330
1D
100
AcDbEntity
  8
1
100
AcDbLine
 10
-1.033955236111814
 20
6.107093894999998
 30
0.0
 11
-1.091363822111814
 21
5.764989310999998
 31
0.0
  0
LINE
  5
10C
330
1D
100
AcDbEntity
  8
1
100
AcDbLine
 10
-1.091363822111814
 20
5.764989310999998
 30
0.0
 11
-1.131049339111814
 21
5.328400188999998
 31
0.0
  0
LINE
  5
10D
330
1D
100
AcDbEntity
  8
1
100
AcDbLine
 10
-0.9339554051118136
 20
6.580991798999999
 30
0.0
 11
-1.033955236111814
 21
6.107093894999998
 31
0.0
  0
LINE
  5
10E
330
1D
100
AcDbEntity
  8
1
100
AcDbLine
 10
-1.033955236111814
 20
-6.107091775000002
 30
0.0
 11
-0.9339554051118136
 21
-6.580991542000001
 31
0.0
  0
LINE
  5
10F
330
1D
100
AcDbEntity
  8
1
100
AcDbLine
 10
-1.131049339111814
 20
-5.328399932000002
 30
0.0
 11
-1.116593350111814
 21
-5.541814362000002
 31
0.0
  0
LINE
  5
110
330
1D
100
AcDbEntity
  8
1
100
AcDbLine
 10
-1.116593350111814
 20
-5.541814362000002
 30
0.0
 11
-1.033955236111814
 21
-6.107091775000002
 31
0.0
  0
ARC
  5
111
330
1D
100
AcDbEntity
  8
1
100
AcDbCircle
 10
51.50609185288818
 20
3.229704750999998
 30
0.0
 40
51.362730255
100
AcDbArc
 50
189.622716117
 51
199.398803824
  0
LINE
  5
112
330
1D
100
AcDbEntity
  8
1
100
AcDbLine
 10
-0.9339554051118136
 20
-5.356071388000002
 30
0.0
 11
0.8660433988881864
 21
-5.356071388000002
 31
0.0
  0
LINE
  5
113
330
1D
100
AcDbEntity
  8
1
100
AcDbLine
 10
3.059244732888186
 20
-23.298519768
 30
0.0
 11
0.8660433988881864
 21
-19.499743229
 31
0.0
  0
LINE
  5
114
330
1D
100
AcDbEntity
  8
1
100
AcDbLine
 10
0.8660433988881864
 20
-5.356071388000002
 30
0.0
 11
0.8660433988881864
 21
-19.499743229
 31
0.0
  0
LINE
  5
115
330
1D
100
AcDbEntity
  8
1
100
AcDbLine
 10
-0.9339554051118136
 20
-19.430570176
 30
0.0
 11
-0.9339554051118136
 21
-19.481205253
 31
0.0
  0
ARC
  5
116
330
1D
100
AcDbEntity
  8
1
100
AcDbCircle
 10
-3.781551117111813
 20
37.508271593
 30
0.0
 40
57.010003324
100
AcDbArc
 50
272.8630608669999
 51
274.053598032
  0
LINE
  5
117
330
1D
100
AcDbEntity
  8
1
100
AcDbLine
 10
0.2485765318881863
 20
-19.360681867
 30
0.0
 11
0.3002835618881863
 21
-19.355480431
 31
0.0
  0
LINE
  5
118
330
1D
100
AcDbEntity
  8
1
100
AcDbLine
 10
0.3002835618881863
 20
-19.355480431
 30
0.0
 11
0.3348076898881863
 21
-19.348366523
 31
0.0
  0
LINE
  5
119
330
1D
100
AcDbEntity
  8
1
100
AcDbLine
 10
0.3348076898881863
 20
-19.348366523
 30
0.0
 11
0.3484497028881863
 21
-19.339998124
 31
0.0
  0
LINE
  5
11A
330
1D
100
AcDbEntity
  8
1
100
AcDbLine
 10
0.3484497028881863
 20
-19.339998124
 30
0.0
 11
0.3394121478881864
 21
-19.331248814
 31
0.0
  0
LINE
  5
11B
330
1D
100
AcDbEntity
  8
1
100
AcDbLine
 10
0.3394121478881864
 20
-19.331248814
 30
0.0
 11
0.3084605738881864
 21
-19.323166797
 31
0.0
  0
LINE
  5
11C
330
1D
100
AcDbEntity
  8
1
100
AcDbLine
 10
0.3084605738881864
 20
-19.323166797
 30
0.0
 11
0.2591973348881863
 21
-19.316809123
 31
0.0
  0
LINE
  5
11D
330
1D
100
AcDbEntity
  8
1
100
AcDbLine
 10
0.2591973348881863
 20
-19.316809123
 30
0.0
 11
0.2485765318881863
 21
-19.315899221
 31
0.0
  0
ARC
  5
11E
330
1D
100
AcDbEntity
  8
1
100
AcDbCircle
 10
4.878702920888187
 20
37.508271593
 30
0.0
 40
57.014399146
100
AcDbArc
 50
264.148487564
 51
265.3417364670001
  0
ARC
  5
11F
330
1D
100
AcDbEntity
  8
1
100
AcDbCircle
 10
-8.111678136111813
 20
37.508271593
 30
0.0
 40
57.016445711
100
AcDbArc
 50
277.232075973
 51
278.4314265209999
  0
LINE
  5
120
330
1D
100
AcDbEntity
  8
1
100
AcDbLine
 10
0.2485765318881863
 20
-18.893174233
 30
0.0
 11
0.3003636558881864
 21
-18.882143648
 31
0.0
  0
LINE
  5
121
330
1D
100
AcDbEntity
  8
1
100
AcDbLine
 10
0.3003636558881864
 20
-18.882143648
 30
0.0
 11
0.3346735788881863
 21
-18.867358902
 31
0.0
  0
LINE
  5
122
330
1D
100
AcDbEntity
  8
1
100
AcDbLine
 10
0.3346735788881863
 20
-18.867358902
 30
0.0
 11
0.3484478398881863
 21
-18.849973904
 31
0.0
  0
LINE
  5
123
330
1D
100
AcDbEntity
  8
1
100
AcDbLine
 10
0.3484478398881863
 20
-18.849973904
 30
0.0
 11
0.3389781518881864
 21
-18.831732089
 31
0.0
  0
LINE
  5
124
330
1D
100
AcDbEntity
  8
1
100
AcDbLine
 10
0.3389781518881864
 20
-18.831732089
 30
0.0
 11
0.3063390208881863
 21
-18.815036734
 31
0.0
  0
LINE
  5
125
330
1D
100
AcDbEntity
  8
1
100
AcDbLine
 10
0.3063390208881863
 20
-18.815036734
 30
0.0
 11
0.2485765318881863
 21
-18.801274581
 31
0.0
  0
ARC
  5
126
330
1D
100
AcDbEntity
  8
1
100
AcDbCircle
 10
9.208829939888187
 20
37.508271593
 30
0.0
 40
57.017611823
100
AcDbArc
 50
259.753196478
 51
260.958614665
  0
ARC
  5
127
330
1D
100
AcDbEntity
  8
1
100
AcDbCircle
 10
-12.44180515511181
 20
37.508271593
 30
0.0
 40
57.014921249
100
AcDbArc
 50
281.6445343780001
 51
282.861778057
  0
LINE
  5
128
330
1D
100
AcDbEntity
  8
1
100
AcDbLine
 10
0.2485765318881863
 20
-18.071194051
 30
0.0
 11
0.3005201178881863
 21
-18.053636758
 31
0.0
  0
LINE
  5
129
330
1D
100
AcDbEntity
  8
1
100
AcDbLine
 10
0.3005201178881863
 20
-18.053636758
 30
0.0
 11
0.3344612378881863
 21
-18.03057348500001
 31
0.0
  0
LINE
  5
12A
330
1D
100
AcDbEntity
  8
1
100
AcDbLine
 10
0.3344612378881863
 20
-18.03057348500001
 30
0.0
 11
0.3484534278881863
 21
-18.002915067
 31
0.0
  0
LINE
  5
12B
330
1D
100
AcDbEntity
  8
1
100
AcDbLine
 10
0.3484534278881863
 20
-18.002915067
 30
0.0
 11
0.3380561428881864
 21
-17.973195633
 31
0.0
  0
LINE
  5
12C
330
1D
100
AcDbEntity
  8
1
100
AcDbLine
 10
0.3380561428881864
 20
-17.973195633
 30
0.0
 11
0.3020437608881864
 21
-17.946025228
 31
0.0
  0
LINE
  5
12D
330
1D
100
AcDbEntity
  8
1
100
AcDbLine
 10
0.3020437608881864
 20
-17.946025228
 30
0.0
 11
0.2485765318881863
 21
-17.92684836500001
 31
0.0
  0
ARC
  5
12E
330
1D
100
AcDbEntity
  8
1
100
AcDbCircle
 10
10.42424992588819
 20
24.162557611
 30
0.0
 40
43.29786638
100
AcDbArc
 50
254.791808239
 51
256.408777439
  0
ARC
  5
12F
330
1D
100
AcDbEntity
  8
1
100
AcDbCircle
 10
-13.65722514011181
 20
24.162557611
 30
0.0
 40
43.297304671
100
AcDbArc
 50
287.089084438
 51
288.732853185
  0
LINE
  5
130
330
1D
100
AcDbEntity
  8
1
100
AcDbLine
 10
0.2485765318881863
 20
-16.84292393
 30
0.0
 11
0.3007846128881864
 21
-16.81748951000001
 31
0.0
  0
LINE
  5
131
330
1D
100
AcDbEntity
  8
1
100
AcDbLine
 10
0.3007846128881864
 20
-16.81748951000001
 30
0.0
 11
0.3341650768881864
 21
-16.784971451
 31
0.0
  0
LINE
  5
132
330
1D
100
AcDbEntity
  8
1
100
AcDbLine
 10
0.3341650768881864
 20
-16.784971451
 30
0.0
 11
0.3484757798881863
 21
-16.744434705
 31
0.0
  0
LINE
  5
133
330
1D
100
AcDbEntity
  8
1
100
AcDbLine
 10
0.3484757798881863
 20
-16.744434705
 30
0.0
 11
0.3362456518881863
 21
-16.699176153
 31
0.0
  0
LINE
  5
134
330
1D
100
AcDbEntity
  8
1
100
AcDbLine
 10
0.3362456518881863
 20
-16.699176153
 30
0.0
 11
0.2939468428881863
 21
-16.657849645
 31
0.0
  0
LINE
  5
135
330
1D
100
AcDbEntity
  8
1
100
AcDbLine
 10
0.2939468428881863
 20
-16.657849645
 30
0.0
 11
0.2485765318881863
 21
-16.63598126
 31
0.0
  0
ARC
  5
136
330
1D
100
AcDbEntity
  8
1
100
AcDbCircle
 10
14.75437694488819
 20
24.162557611
 30
0.0
 40
43.303078035
100
AcDbArc
 50
248.759014361
 51
250.427305833
  0
ARC
  5
137
330
1D
100
AcDbEntity
  8
1
100
AcDbCircle
 10
-14.79406853511181
 20
16.467798543
 30
0.0
 40
34.973260297
100
AcDbArc
 50
293.347450481
 51
295.471902904
  0
ARC
  5
138
330
1D
100
AcDbEntity
  8
1
100
AcDbCircle
 10
0.1880491998881864
 20
-14.964927325
 30
0.0
 40
0.156826836
100
AcDbArc
 50
292.702736166
 51
67.29726383400008
  0
ARC
  5
139
330
1D
100
AcDbEntity
  8
1
100
AcDbCircle
 10
15.89122033988819
 20
16.467798543
 30
0.0
 40
34.987063284
100
AcDbArc
 50
241.255992582
 51
243.436971531
  0
ARC
  5
13A
330
1D
100
AcDbEntity
  8
1
100
AcDbCircle
 10
-19.12419555411181
 20
16.467798543
 30
0.0
 40
34.991229485
100
AcDbArc
 50
301.3222843589999
 51
303.622672151
  0
ARC
  5
13B
330
1D
100
AcDbEntity
  8
1
100
AcDbCircle
 10
0.0871894418881863
 20
-12.456985528
 30
0.0
 40
0.263713071
100
AcDbArc
 50
307.7327984630002
 51
52.26720153700009
  0
ARC
  5
13C
330
1D
100
AcDbEntity
  8
1
100
AcDbCircle
 10
11.66357581888819
 20
4.467842208999998
 30
0.0
 40
20.221897657
100
AcDbArc
 50
231.467030901
 51
234.505203419
  0
ARC
  5
13D
330
1D
100
AcDbEntity
  8
1
100
AcDbCircle
 10
20.22134735888818
 20
16.467798543
 30
0.0
 40
34.972862207
100
AcDbArc
 50
234.505296738
 51
235.180525909
  0
ARC
  5
13E
330
1D
100
AcDbEntity
  8
1
100
AcDbCircle
 10
-14.89655103411181
 20
4.467842208999998
 30
0.0
 40
20.221952039
100
AcDbArc
 50
313.667105445
 51
318.468956415
  0
ARC
  5
13F
330
1D
100
AcDbEntity
  8
1
100
AcDbCircle
 10
-0.2795238991118136
 20
-8.593344932000003
 30
0.0
 40
0.635063197
100
AcDbArc
 50
326.2605052219999
 51
33.73949477799995
  0
ARC
  5
140
330
1D
100
AcDbEntity
  8
1
100
AcDbCircle
 10
12.73705315188819
 20
1.850553516999998
 30
0.0
 40
16.061987692
100
AcDbArc
 50
211.664060808
 51
218.787977819
  0
ARC
  5
141
330
1D
100
AcDbEntity
  8
1
100
AcDbCircle
 10
15.99370283788819
 20
4.467842208999998
 30
0.0
 40
20.233988242
100
AcDbArc
 50
218.787977819
 51
218.908255546
  0
LINE
  5
142
330
1D
100
AcDbEntity
  8
1
100
AcDbLine
 10
0.8660433988881864
 20
-19.499743229
 30
0.0
 11
0.3217803488881864
 21
-19.499743229
 31
0.0
  0
ARC
  5
143
330
1D
100
AcDbEntity
  8
1
100
AcDbCircle
 10
0.1499721918881863
 20
-38.804630596
 30
0.0
 40
19.305651875
100
AcDbArc
 50
89.490096872
 51
89.707358385
  0
ARC
  5
144
330
1D
100
AcDbEntity
  8
1
100
AcDbCircle
 10
0.5485759018881864
 20
37.508271593
 30
0.0
 40
57.008756748
100
AcDbArc
 50
268.50983613
 51
269.698485732
  0
LINE
  5
145
330
1D
100
AcDbEntity
  8
1
100
AcDbLine
 10
18.76604413288819
 20
-13.809474988
 30
0.0
 11
18.76604413288819
 21
-16.90951815
 31
0.0
  0
LINE
  5
146
330
1D
100
AcDbEntity
  8
1
100
AcDbLine
 10
18.76604413288819
 20
-16.90951815
 30
0.0
 11
18.62940863388819
 21
-17.03572726000001
 31
0.0
  0
LINE
  5
147
330
1D
100
AcDbEntity
  8
1
100
AcDbLine
 10
18.39817934088819
 20
-16.994747205
 30
0.0
 11
18.62940863388819
 21
-17.03572726000001
 31
0.0
  0
LINE
  5
148
330
1D
100
AcDbEntity
  8
1
100
AcDbLine
 10
18.39817934088819
 20
-24.789967329
 30
0.0
 11
18.39817934088819
 21
-16.994747205
 31
0.0
  0
LINE
  5
149
330
1D
100
AcDbEntity
  8
1
100
AcDbLine
 10
18.39817934088819
 20
-24.789967329
 30
0.0
 11
18.39817829388819
 21
-24.791280494
 31
0.0
  0
LINE
  5
14A
330
1D
100
AcDbEntity
  8
1
100
AcDbLine
 10
18.39817829388819
 20
-24.791280494
 30
0.0
 11
18.39807957388819
 21
-24.802595132
 31
0.0
  0
LINE
  5
14C
330
1D
100
AcDbEntity
  8
1
100
AcDbLine
 10
-0.9339554051118136
 20
-10.159984102
 30
0.0
 11
-1.033955236111814
 21
-10.062495118
 31
0.0
  0
LINE
  5
14D
330
1D
100
AcDbEntity
  8
1
100
AcDbLine
 10
-1.033955236111814
 20
10.062495375
 30
0.0
 11
-0.9339554051118136
 21
10.159982497
 31
0.0
  0
LINE
  5
14E
330
1D
100
AcDbEntity
  8
1
100
AcDbLine
 10
-1.033955236111814
 20
-11.095716489
 30
0.0
 11
-0.9339554051118136
 21
-11.350734031
 31
0.0
  0
ARC
  5
14F
330
1D
100
AcDbEntity
  8
1
100
AcDbCircle
 10
0.1986947348881863
 20
-10.582917077
 30
0.0
 40
1.335061492
100
AcDbArc
 50
183.44439724
 51
202.587985102
  0
LINE
  5
150
330
1D
100
AcDbEntity
  8
1
100
AcDbLine
 10
-1.133955066111814
 20
13.375913853
 30
0.0
 11
-1.133955066111814
 21
-10.663127398
 31
0.0
  0
LINE
  5
151
330
1D
100
AcDbEntity
  8
1
100
AcDbLine
 10
-1.033955236111814
 20
-10.062495118
 30
0.0
 11
-1.046613772111814
 21
-10.051200038
 31
0.0
  0
LINE
  5
152
330
1D
100
AcDbEntity
  8
1
100
AcDbLine
 10
-1.046613772111814
 20
-10.051200038
 30
0.0
 11
-1.071072165111814
 21
-10.036436712
 31
0.0
  0
LINE
  5
153
330
1D
100
AcDbEntity
  8
1
100
AcDbLine
 10
-1.071072165111814
 20
-10.036436712
 30
0.0
 11
-1.088271831111814
 21
-10.033564513
 31
0.0
  0
LINE
  5
154
330
1D
100
AcDbEntity
  8
1
100
AcDbLine
 10
-1.088271831111814
 20
-10.033564513
 30
0.0
 11
-1.102847029111814
 21
-10.038588067
 31
0.0
  0
LINE
  5
155
330
1D
100
AcDbEntity
  8
1
100
AcDbLine
 10
-1.102847029111814
 20
-10.038588067
 30
0.0
 11
-1.117226650111814
 21
-10.055376088
 31
0.0
  0
LINE
  5
156
330
1D
100
AcDbEntity
  8
1
100
AcDbLine
 10
-1.117226650111814
 20
-10.055376088
 30
0.0
 11
-1.130075176111814
 21
-10.09755755
 31
0.0
  0
LINE
  5
157
330
1D
100
AcDbEntity
  8
1
100
AcDbLine
 10
-1.130075176111814
 20
-10.09755755
 30
0.0
 11
-1.133955066111814
 21
-10.15379267
 31
0.0
  0
ARC
  5
159
330
1D
100
AcDbEntity
  8
1
100
AcDbCircle
 10
0.1584324008881863
 20
10.592227864
 30
0.0
 40
1.294330771
100
AcDbArc
 50
157.107853036
 51
176.859927032
  0
LINE
  5
15A
330
1D
100
AcDbEntity
  8
1
100
AcDbLine
 10
-0.9339554051118136
 20
11.350734288
 30
0.0
 11
-1.033955236111814
 21
11.095719541
 31
0.0
  0
LINE
  5
15B
330
1D
100
AcDbEntity
  8
1
100
AcDbLine
 10
-1.133955066111814
 20
10.153791065
 30
0.0
 11
-1.128694956111814
 21
10.089824105
 31
0.0
  0
LINE
  5
15C
330
1D
100
AcDbEntity
  8
1
100
AcDbLine
 10
-1.128694956111814
 20
10.089824105
 30
0.0
 11
-1.120357756111814
 21
10.061802471
 31
0.0
  0
LINE
  5
15D
330
1D
100
AcDbEntity
  8
1
100
AcDbLine
 10
-1.120357756111814
 20
10.061802471
 30
0.0
 11
-1.105439831111814
 21
10.040512437
 31
0.0
  0
LINE
  5
15E
330
1D
100
AcDbEntity
  8
1
100
AcDbLine
 10
-1.105439831111814
 20
10.040512437
 30
0.0
 11
-1.090892573111814
 21
10.033866519
 31
0.0
  0
LINE
  5
15F
330
1D
100
AcDbEntity
  8
1
100
AcDbLine
 10
-1.090892573111814
 20
10.033866519
 30
0.0
 11
-1.073134114111814
 21
10.035710538
 31
0.0
  0
LINE
  5
160
330
1D
100
AcDbEntity
  8
1
100
AcDbLine
 10
-1.073134114111814
 20
10.035710538
 30
0.0
 11
-1.055416633111814
 21
10.044707114
 31
0.0
  0
LINE
  5
161
330
1D
100
AcDbEntity
  8
1
100
AcDbLine
 10
-1.055416633111814
 20
10.044707114
 30
0.0
 11
-1.033955236111814
 21
10.062495375
 31
0.0
  0
LINE
  5
163
330
1D
100
AcDbEntity
  8
1
100
AcDbLine
 10
-0.9339554051118136
 20
-13.423694169
 30
0.0
 11
-1.033955236111814
 21
-13.339244632
 31
0.0
  0
LINE
  5
164
330
1D
100
AcDbEntity
  8
1
100
AcDbLine
 10
-1.033955236111814
 20
13.339245821
 30
0.0
 11
-0.9339554051118136
 21
13.423694426
 31
0.0
  0
LINE
  5
165
330
1D
100
AcDbEntity
  8
1
100
AcDbLine
 10
-1.033955236111814
 20
-14.015466777
 30
0.0
 11
-0.9339554051118136
 21
-14.208055904
 31
0.0
  0
ARC
  5
166
330
1D
100
AcDbEntity
  8
1
100
AcDbCircle
 10
-0.3611423471118136
 20
-13.626863726
 30
0.0
 40
0.776974591
100
AcDbArc
 50
185.932976715
 51
210.009857166
  0
LINE
  5
167
330
1D
100
AcDbEntity
  8
1
100
AcDbLine
 10
-1.133955066111814
 20
-10.663127398
 30
0.0
 11
-1.133955066111814
 21
-13.707175722
 31
0.0
  0
LINE
  5
168
330
1D
100
AcDbEntity
  8
1
100
AcDbLine
 10
-1.033955236111814
 20
-13.339244632
 30
0.0
 11
-1.054392178111814
 21
-13.323813548
 31
0.0
  0
LINE
  5
169
330
1D
100
AcDbEntity
  8
1
100
AcDbLine
 10
-1.054392178111814
 20
-13.323813548
 30
0.0
 11
-1.084814761111814
 21
-13.309519609
 31
0.0
  0
LINE
  5
16A
330
1D
100
AcDbEntity
  8
1
100
AcDbLine
 10
-1.084814761111814
 20
-13.309519609
 30
0.0
 11
-1.107580010111814
 21
-13.310210651
 31
0.0
  0
LINE
  5
16B
330
1D
100
AcDbEntity
  8
1
100
AcDbLine
 10
-1.107580010111814
 20
-13.310210651
 30
0.0
 11
-1.121004094111814
 21
-13.320661953
 31
0.0
  0
LINE
  5
16C
330
1D
100
AcDbEntity
  8
1
100
AcDbLine
 10
-1.121004094111814
 20
-13.320661953
 30
0.0
 11
-1.131993700111814
 21
-13.349624222
 31
0.0
  0
LINE
  5
16D
330
1D
100
AcDbEntity
  8
1
100
AcDbLine
 10
-1.131993700111814
 20
-13.349624222
 30
0.0
 11
-1.133955066111814
 21
-13.375914527
 31
0.0
  0
LINE
  5
16E
330
1D
100
AcDbEntity
  8
1
100
AcDbLine
 10
-1.133955066111814
 20
15.563761944
 30
0.0
 11
-1.133955066111814
 21
13.375913853
 31
0.0
  0
ARC
  5
16F
330
1D
100
AcDbEntity
  8
1
100
AcDbCircle
 10
-0.4818417821118136
 20
13.666015854
 30
0.0
 40
0.653411084
100
AcDbArc
 50
147.6688349700001
 51
176.3882295500001
  0
LINE
  5
170
330
1D
100
AcDbEntity
  8
1
100
AcDbLine
 10
-0.9339554051118136
 20
14.208058024
 30
0.0
 11
-1.033955236111814
 21
14.015467966
 31
0.0
  0
LINE
  5
171
330
1D
100
AcDbEntity
  8
1
100
AcDbLine
 10
-1.133955066111814
 20
13.375913853
 30
0.0
 11
-1.130166445111814
 21
13.340978081
 31
0.0
  0
LINE
  5
172
330
1D
100
AcDbEntity
  8
1
100
AcDbLine
 10
-1.130166445111814
 20
13.340978081
 30
0.0
 11
-1.119392906111814
 21
13.318674768
 31
0.0
  0
LINE
  5
173
330
1D
100
AcDbEntity
  8
1
100
AcDbLine
 10
-1.119392906111814
 20
13.318674768
 30
0.0
 11
-1.103525032111814
 21
13.308962936
 31
0.0
  0
LINE
  5
174
330
1D
100
AcDbEntity
  8
1
100
AcDbLine
 10
-1.103525032111814
 20
13.308962936
 30
0.0
 11
-1.081488077111814
 21
13.31042325
 31
0.0
  0
LINE
  5
175
330
1D
100
AcDbEntity
  8
1
100
AcDbLine
 10
-1.081488077111814
 20
13.31042325
 30
0.0
 11
-1.058573817111814
 21
13.321155811
 31
0.0
  0
LINE
  5
176
330
1D
100
AcDbEntity
  8
1
100
AcDbLine
 10
-1.058573817111814
 20
13.321155811
 30
0.0
 11
-1.033955236111814
 21
13.339245821
 31
0.0
  0
ARC
  5
179
330
1D
100
AcDbEntity
  8
1
100
AcDbCircle
 10
0.2073988758881863
 20
14.953449942
 30
0.0
 40
0.14115683
100
AcDbArc
 50
342.43113539
 51
22.29218507400032
  0
LINE
  5
17A
330
1D
100
AcDbEntity
  8
1
100
AcDbLine
 10
-1.033955236111814
 20
15.56011116
 30
0.0
 11
-0.9339554051118136
 21
15.641799325
 31
0.0
  0
LINE
  5
17B
330
1D
100
AcDbEntity
  8
1
100
AcDbLine
 10
-0.9339554051118136
 20
-15.641798137
 30
0.0
 11
-1.033955236111814
 21
-15.560110902
 31
0.0
  0
LINE
  5
17C
330
1D
100
AcDbEntity
  8
1
100
AcDbLine
 10
-1.133955066111814
 20
19.269371534
 30
0.0
 11
-1.133955066111814
 21
15.563761944
 31
0.0
  0
ARC
  5
17D
330
1D
100
AcDbEntity
  8
1
100
AcDbCircle
 10
-0.6416337961118137
 20
15.735097628
 30
0.0
 40
0.496300417
100
AcDbArc
 50
142.231500357
 51
172.7397611950001
  0
LINE
  5
17E
330
1D
100
AcDbEntity
  8
1
100
AcDbLine
 10
-0.9339554051118136
 20
16.198722774
 30
0.0
 11
-1.033955236111814
 21
16.039068008
 31
0.0
  0
LINE
  5
17F
330
1D
100
AcDbEntity
  8
1
100
AcDbLine
 10
-1.133955066111814
 20
15.563761944
 30
0.0
 11
-1.131658424111814
 21
15.544405336
 31
0.0
  0
LINE
  5
180
330
1D
100
AcDbEntity
  8
1
100
AcDbLine
 10
-1.131658424111814
 20
15.544405336
 30
0.0
 11
-1.120640878111814
 21
15.52745154
 31
0.0
  0
LINE
  5
181
330
1D
100
AcDbEntity
  8
1
100
AcDbLine
 10
-1.120640878111814
 20
15.52745154
 30
0.0
 11
-1.103199069111814
 21
15.523368621
 31
0.0
  0
LINE
  5
182
330
1D
100
AcDbEntity
  8
1
100
AcDbLine
 10
-1.103199069111814
 20
15.523368621
 30
0.0
 11
-1.079588179111814
 21
15.530115122
 31
0.0
  0
LINE
  5
183
330
1D
100
AcDbEntity
  8
1
100
AcDbLine
 10
-1.079588179111814
 20
15.530115122
 30
0.0
 11
-1.045132969111814
 21
15.551353002
 31
0.0
  0
LINE
  5
184
330
1D
100
AcDbEntity
  8
1
100
AcDbLine
 10
-1.045132969111814
 20
15.551353002
 30
0.0
 11
-1.033955236111814
 21
15.56011116
 31
0.0
  0
LINE
  5
185
330
1D
100
AcDbEntity
  8
1
100
AcDbLine
 10
-1.033955236111814
 20
-16.039067751
 30
0.0
 11
-0.9339554051118136
 21
-16.198720654
 31
0.0
  0
ARC
  5
186
330
1D
100
AcDbEntity
  8
1
100
AcDbCircle
 10
-0.5950363731118137
 20
-15.715782077
 30
0.0
 40
0.545126953
100
AcDbArc
 50
188.655392962
 51
216.373501966
  0
LINE
  5
188
330
1D
100
AcDbEntity
  8
1
100
AcDbLine
 10
-1.033955236111814
 20
-15.560110902
 30
0.0
 11
-1.060846244111814
 21
-15.540443232
 31
0.0
  0
LINE
  5
189
330
1D
100
AcDbEntity
  8
1
100
AcDbLine
 10
-1.060846244111814
 20
-15.540443232
 30
0.0
 11
-1.090309565111814
 21
-15.525947196
 31
0.0
  0
LINE
  5
18A
330
1D
100
AcDbEntity
  8
1
100
AcDbLine
 10
-1.090309565111814
 20
-15.525947196
 30
0.0
 11
-1.114084367111814
 21
-15.524390025
 31
0.0
  0
LINE
  5
18B
330
1D
100
AcDbEntity
  8
1
100
AcDbLine
 10
-1.114084367111814
 20
-15.524390025
 30
0.0
 11
-1.127139647111814
 21
-15.534138178
 31
0.0
  0
LINE
  5
18C
330
1D
100
AcDbEntity
  8
1
100
AcDbLine
 10
-1.127139647111814
 20
-15.534138178
 30
0.0
 11
-1.133914088111814
 21
-15.560837334
 31
0.0
  0
LINE
  5
18D
330
1D
100
AcDbEntity
  8
1
100
AcDbLine
 10
-1.133914088111814
 20
-15.560837334
 30
0.0
 11
-1.133955066111814
 21
-15.563761687
 31
0.0
  0
LINE
  5
190
330
1D
100
AcDbEntity
  8
1
100
AcDbLine
 10
-0.9339554051118136
 20
-17.22312798900001
 30
0.0
 11
-1.033955236111814
 21
-17.140556929
 31
0.0
  0
LINE
  5
191
330
1D
100
AcDbEntity
  8
1
100
AcDbLine
 10
-1.033955236111814
 20
-17.480562312
 30
0.0
 11
-0.9339554051118136
 21
-17.618974542
 31
0.0
  0
ARC
  5
192
330
1D
100
AcDbEntity
  8
1
100
AcDbCircle
 10
-0.7232709221118137
 20
-17.19854807
 30
0.0
 40
0.419591201
100
AcDbArc
 50
191.8266794619998
 51
222.2306416679999
  0
LINE
  5
193
330
1D
100
AcDbEntity
  8
1
100
AcDbLine
 10
-1.133955066111814
 20
-13.707175722
 30
0.0
 11
-1.133955066111814
 21
-17.284544056
 31
0.0
  0
LINE
  5
194
330
1D
100
AcDbEntity
  8
1
100
AcDbLine
 10
-1.033955236111814
 20
-17.140556929
 30
0.0
 11
-1.066480745111814
 21
-17.116154415
 31
0.0
  0
LINE
  5
195
330
1D
100
AcDbEntity
  8
1
100
AcDbLine
 10
-1.066480745111814
 20
-17.116154415
 30
0.0
 11
-1.097389479111814
 21
-17.099438107
 31
0.0
  0
LINE
  5
196
330
1D
100
AcDbEntity
  8
1
100
AcDbLine
 10
-1.097389479111814
 20
-17.099438107
 30
0.0
 11
-1.120681856111814
 21
-17.09609559
 31
0.0
  0
LINE
  5
197
330
1D
100
AcDbEntity
  8
1
100
AcDbLine
 10
-1.120681856111814
 20
-17.09609559
 30
0.0
 11
-1.131518726111814
 21
-17.105100548
 31
0.0
  0
LINE
  5
198
330
1D
100
AcDbEntity
  8
1
100
AcDbLine
 10
-1.131518726111814
 20
-17.105100548
 30
0.0
 11
-1.133955066111814
 21
-17.118594481
 31
0.0
  0
LINE
  5
19A
330
1D
100
AcDbEntity
  8
1
100
AcDbLine
 10
-0.9339554051118136
 20
-18.333205825
 30
0.0
 11
-1.033955236111814
 21
-18.247747665
 31
0.0
  0
LINE
  5
19B
330
1D
100
AcDbEntity
  8
1
100
AcDbLine
 10
-1.033955236111814
 20
18.24774792199999
 30
0.0
 11
-0.9339554051118136
 21
18.333206082
 31
0.0
  0
LINE
  5
19C
330
1D
100
AcDbEntity
  8
1
100
AcDbLine
 10
-1.133955066111814
 20
-17.284544056
 30
0.0
 11
-1.133955066111814
 21
-18.315018026
 31
0.0
  0
LINE
  5
19D
330
1D
100
AcDbEntity
  8
1
100
AcDbLine
 10
-1.033955236111814
 20
-18.247747665
 30
0.0
 11
-1.071610470111814
 21
-18.217855936
 31
0.0
  0
LINE
  5
19E
330
1D
100
AcDbEntity
  8
1
100
AcDbLine
 10
-1.071610470111814
 20
-18.217855936
 30
0.0
 11
-1.103279163111814
 21
-18.19808675100001
 31
0.0
  0
LINE
  5
19F
330
1D
100
AcDbEntity
  8
1
100
AcDbLine
 10
-1.103279163111814
 20
-18.19808675100001
 30
0.0
 11
-1.125515421111814
 21
-18.19195119800001
 31
0.0
  0
LINE
  5
1A0
330
1D
100
AcDbEntity
  8
1
100
AcDbLine
 10
-1.125515421111814
 20
-18.19195119800001
 30
0.0
 11
-1.133562048111814
 21
-18.199344968
 31
0.0
  0
LINE
  5
1A1
330
1D
100
AcDbEntity
  8
1
100
AcDbLine
 10
-1.133562048111814
 20
-18.199344968
 30
0.0
 11
-1.133955066111814
 21
-18.203347793
 31
0.0
  0
LINE
  5
1A2
330
1D
100
AcDbEntity
  8
1
100
AcDbLine
 10
-1.033955236111814
 20
-18.47669935
 30
0.0
 11
-0.9339554051118136
 21
-18.599944992
 31
0.0
  0
ARC
  5
1A3
330
1D
100
AcDbEntity
  8
1
100
AcDbCircle
 10
-0.6971681131118137
 20
-18.15663107
 30
0.0
 40
0.464617337
100
AcDbArc
 50
199.931572859
 51
223.541973876
  0
LINE
  5
1A4
330
1D
100
AcDbEntity
  8
1
100
AcDbLine
 10
-1.133955066111814
 20
18.203349913
 30
0.0
 11
-1.131887530111814
 21
18.195411319
 31
0.0
  0
LINE
  5
1A5
330
1D
100
AcDbEntity
  8
1
100
AcDbLine
 10
-1.131887530111814
 20
18.195411319
 30
0.0
 11
-1.119081844111814
 21
18.192300702
 31
0.0
  0
LINE
  5
1A6
330
1D
100
AcDbEntity
  8
1
100
AcDbLine
 10
-1.119081844111814
 20
18.192300702
 30
0.0
 11
-1.097611134111814
 21
18.201055134
 31
0.0
  0
LINE
  5
1A7
330
1D
100
AcDbEntity
  8
1
100
AcDbLine
 10
-1.097611134111814
 20
18.201055134
 30
0.0
 11
-1.068790425111814
 21
18.219908828
 31
0.0
  0
LINE
  5
1A8
330
1D
100
AcDbEntity
  8
1
100
AcDbLine
 10
-1.068790425111814
 20
18.219908828
 30
0.0
 11
-1.033955236111814
 21
18.24774792199999
 31
0.0
  0
ARC
  5
1AA
330
1D
100
AcDbEntity
  8
1
100
AcDbCircle
 10
-0.8042704291118137
 20
18.222874995
 30
0.0
 40
0.34231932
100
AcDbArc
 50
132.141706047
 51
164.3847472179999
  0
LINE
  5
1AB
330
1D
100
AcDbEntity
  8
1
100
AcDbLine
 10
-0.9339554051118136
 20
18.599944318
 30
0.0
 11
-1.033955236111814
 21
18.476700539
 31
0.0
  0
LINE
  5
1AE
330
1D
100
AcDbEntity
  8
1
100
AcDbLine
 10
-0.9339554051118136
 20
-19.054572901
 30
0.0
 11
-1.033955236111814
 21
-18.96475522
 31
0.0
  0
LINE
  5
1AF
330
1D
100
AcDbEntity
  8
1
100
AcDbLine
 10
-1.033955236111814
 20
18.964754546
 30
0.0
 11
-0.9339554051118136
 21
19.054575021
 31
0.0
  0
LINE
  5
1B0
330
1D
100
AcDbEntity
  8
1
100
AcDbLine
 10
-1.033955236111814
 20
-19.097298255
 30
0.0
 11
-0.9339554051118136
 21
-19.20905137600001
 31
0.0
  0
ARC
  5
1B1
330
1D
100
AcDbEntity
  8
1
100
AcDbCircle
 10
-0.7152233121118137
 20
-18.754402017
 30
0.0
 40
0.468153681
100
AcDbArc
 50
206.5644021609998
 51
227.0916554429999
  0
LINE
  5
1B2
330
1D
100
AcDbEntity
  8
1
100
AcDbLine
 10
-1.133955066111814
 20
-18.315018026
 30
0.0
 11
-1.133955066111814
 21
-18.963761965
 31
0.0
  0
LINE
  5
1B3
330
1D
100
AcDbEntity
  8
1
100
AcDbLine
 10
-1.033955236111814
 20
-18.96475522
 30
0.0
 11
-1.076438446111814
 21
-18.928360531
 31
0.0
  0
LINE
  5
1B4
330
1D
100
AcDbEntity
  8
1
100
AcDbLine
 10
-1.076438446111814
 20
-18.928360531
 30
0.0
 11
-1.108334382111814
 21
-18.90478922200001
 31
0.0
  0
LINE
  5
1B5
330
1D
100
AcDbEntity
  8
1
100
AcDbLine
 10
-1.108334382111814
 20
-18.90478922200001
 30
0.0
 11
-1.126713101111814
 21
-18.89541872
 31
0.0
  0
LINE
  5
1B6
330
1D
100
AcDbEntity
  8
1
100
AcDbLine
 10
-1.126713101111814
 20
-18.89541872
 30
0.0
 11
-1.133901049111814
 21
-18.898225261
 31
0.0
  0
LINE
  5
1B7
330
1D
100
AcDbEntity
  8
1
100
AcDbLine
 10
-1.133901049111814
 20
-18.898225261
 30
0.0
 11
-1.133955066111814
 21
-18.899139354
 31
0.0
  0
ARC
  5
1B8
330
1D
100
AcDbEntity
  8
1
100
AcDbCircle
 10
-0.7433476641118136
 20
18.77546596299999
 30
0.0
 40
0.433624434
100
AcDbArc
 50
132.0811632629999
 51
154.262970857
  0
LINE
  5
1B9
330
1D
100
AcDbEntity
  8
1
100
AcDbLine
 10
-0.9339554051118136
 20
19.209051633
 30
0.0
 11
-1.033955236111814
 21
19.097300375
 31
0.0
  0
ARC
  5
1BA
330
1D
100
AcDbEntity
  8
1
100
AcDbCircle
 10
-1.172313608111814
 20
19.066612527
 30
0.0
 40
0.171808287
100
AcDbArc
 50
282.9007944130001
 51
323.6398896899999
  0
ARC
  5
1BE
330
1D
100
AcDbEntity
  8
1
100
AcDbCircle
 10
17.59486912388819
 20
-24.794030001
 30
0.0
 40
0.803320491
100
AcDbArc
 50
260.281376695
 51
0.2897659729999603
  0
LINE
  5
1BF
330
1D
100
AcDbEntity
  8
1
100
AcDbLine
 10
-1.033955236111814
 20
19.335033501
 30
0.0
 11
-0.9339554051118136
 21
19.430572296
 31
0.0
  0
LINE
  5
1C0
330
1D
100
AcDbEntity
  8
1
100
AcDbLine
 10
-0.9339554051118136
 20
-19.430570176
 30
0.0
 11
-1.033955236111814
 21
-19.33503464
 31
0.0
  0
ARC
  5
1C1
330
1D
100
AcDbEntity
  8
1
100
AcDbCircle
 10
-1.357828292111814
 20
-19.606999442
 30
0.0
 40
0.422916788
100
AcDbArc
 50
40.0210717770001
 51
58.03809732300007
  0
ARC
  5
1C2
330
1D
100
AcDbEntity
  8
1
100
AcDbCircle
 10
-0.3809426371118136
 20
-18.679552507
 30
0.0
 40
0.956511317
100
AcDbArc
 50
218.0708500559999
 51
226.944817001
  0
LINE
  5
1C3
330
1D
100
AcDbEntity
  8
1
100
AcDbLine
 10
-1.133955066111814
 20
-18.963761965
 30
0.0
 11
-1.133955066111814
 21
-19.269371277
 31
0.0
  0
LINE
  5
1C4
330
1D
100
AcDbEntity
  8
1
100
AcDbLine
 10
-0.9339554051118136
 20
19.481206441
 30
0.0
 11
-1.033955236111814
 21
19.378474111
 31
0.0
  0
ARC
  5
1C5
330
1D
100
AcDbEntity
  8
1
100
AcDbCircle
 10
-1.534434642111814
 20
19.810381704
 30
0.0
 40
0.69024311
100
AcDbArc
 50
305.464664203
 51
316.4752540619999
  0
ARC
  5
1C7
330
1D
100
AcDbEntity
  8
1
100
AcDbCircle
 10
-0.4034823451118136
 20
18.700223852
 30
0.0
 40
0.926023476
100
AcDbArc
 50
132.909239666
 51
142.0760677629999
  0
LINE
  5
1CA
330
1D
100
AcDbEntity
  8
CUT
100
AcDbLine
 10
18.57858944588819
 20
-17.313785722
 30
0.0
 11
18.39817934088819
 21
-17.281974537
 31
0.0
  0
LINE
  5
1CB
330
1D
100
AcDbEntity
  8
CUT
100
AcDbLine
 10
18.57858944588819
 20
-25.995775114
 30
0.0
 11
18.57858944588819
 21
-17.313785722
 31
0.0
  0
LINE
  5
1CC
330
1D
100
AcDbEntity
  8
CUT
100
AcDbLine
 10
10.02849919688819
 20
-24.488163518
 30
0.0
 11
18.57858944588819
 21
-25.995775114
 31
0.0
  0
LINE
  5
1CD
330
1D
100
AcDbEntity
  8
CUT
100
AcDbLine
 10
10.02849919688819
 20
-24.261955276
 30
0.0
 11
10.02849919688819
 21
-24.488163518
 31
0.0
  0
LINE
  5
1CE
330
1D
100
AcDbEntity
  8
CUT
100
AcDbLine
 10
10.02849919688819
 20
-24.488163518
 30
0.0
 11
9.941044281888187
 21
-24.561546614
 31
0.0
  0
LINE
  5
1CF
330
1D
100
AcDbEntity
  8
CUT
100
AcDbLine
 10
9.941044281888187
 20
-24.561546614
 30
0.0
 11
9.541044029888186
 21
-24.561546614
 31
0.0
  0
LINE
  5
1D0
330
1D
100
AcDbEntity
  8
CUT
100
AcDbLine
 10
9.541044029888186
 20
-24.561546614
 30
0.0
 11
9.541044029888186
 21
-24.441446049
 31
0.0
  0
LINE
  5
1D1
330
1D
100
AcDbEntity
  8
CUT
100
AcDbLine
 10
18.57858944588819
 20
-25.995775114
 30
0.0
 11
18.66604415788819
 21
-26.099999569
 31
0.0
  0
LINE
  5
1D2
330
1D
100
AcDbEntity
  8
CUT
100
AcDbLine
 10
18.66604415788819
 20
-26.099999569
 30
0.0
 11
18.59658486888819
 21
-26.493922657
 31
0.0
  0
LINE
  5
1D3
330
1D
100
AcDbEntity
  8
CUT
100
AcDbLine
 10
18.59658486888819
 20
-26.493922657
 30
0.0
 11
9.871585312888186
 21
-24.955469753
 31
0.0
  0
LINE
  5
1D4
330
1D
100
AcDbEntity
  8
CUT
100
AcDbLine
 10
9.941044281888187
 20
-24.561546614
 30
0.0
 11
9.871585312888186
 21
-24.955469753
 31
0.0
  0
LINE
  5
1D5
330
1D
100
AcDbEntity
  8
CUT
100
AcDbLine
 10
18.57858944588819
 20
-17.313785722
 30
0.0
 11
18.66604415788819
 21
-17.24040216
 31
0.0
  0
LINE
  5
1D6
330
1D
100
AcDbEntity
  8
CUT
100
AcDbLine
 10
18.66604415788819
 20
-17.24040216
 30
0.0
 11
19.06604414688818
 21
-17.24040216
 31
0.0
  0
LINE
  5
1D7
330
1D
100
AcDbEntity
  8
CUT
100
AcDbLine
 10
19.06604414688818
 20
-17.24040216
 30
0.0
 11
19.06604414688818
 21
-26.099999569
 31
0.0
  0
LINE
  5
1D8
330
1D
100
AcDbEntity
  8
CUT
100
AcDbLine
 10
18.66604415788819
 20
-26.099999569
 30
0.0
 11
19.06604414688818
 21
-26.099999569
 31
0.0
  0
LINE
  5
1D9
330
1D
100
AcDbEntity
  8
CUT
100
AcDbLine
 10
18.66604415788819
 20
-17.24040216
 30
0.0
 11
18.71628327688819
 21
-16.955481714
 31
0.0
  0
ARC
  5
1DA
330
1D
100
AcDbEntity
  8
CUT
100
AcDbCircle
 10
9.941044146888187
 20
-24.561546649
 30
0.0
 40
0.4
100
AcDbArc
 50
180.0
 51
259.9999999999999
  0
ARC
  5
1DB
330
1D
100
AcDbEntity
  8
CUT
100
AcDbCircle
 10
18.66604414688819
 20
-26.099999556
 30
0.0
 40
0.4
100
AcDbArc
 50
259.9999999999999
 51
0.0
  0
ARC
  5
1DC
330
1D
100
AcDbEntity
  8
CUT
100
AcDbCircle
 10
18.66604414688819
 20
-17.24040236700001
 30
0.0
 40
0.4
100
AcDbArc
 50
0.0
 51
75.52248781400002
  0
ARC
  5
1DD
330
1D
100
AcDbEntity
  8
1
100
AcDbCircle
 10
43.97163241088818
 20
-16.265106745
 30
0.0
 40
28.099756388
100
AcDbArc
 50
181.264911155
 51
199.350555874
  0
LINE
  5
1DE
330
1D
100
AcDbEntity
  8
1
100
AcDbLine
 10
17.45926078388819
 20
-25.575877912
 30
0.0
 11
17.45926078388819
 21
-25.58582175900001
 31
0.0
  0
ARC
  5
1DF
330
1D
100
AcDbEntity
  8
1
100
AcDbCircle
 10
216.2106784488882
 20
0.000000441999998
 30
0.0
 40
200.062746113
100
AcDbArc
 50
184.846989792
 51
185.345567256
  0
ARC
  5
1E0
330
1D
100
AcDbEntity
  8
1
100
AcDbCircle
 10
49.66486940588818
 20
-15.583335562
 30
0.0
 40
32.761402357
100
AcDbArc
 50
185.346011244
 51
192.608482125
  0
ARC
  5
1E1
330
1D
100
AcDbEntity
  8
1
100
AcDbCircle
 10
26.70769314188819
 20
-20.71844096
 30
0.0
 40
9.23692044
100
AcDbArc
 50
192.608482125
 51
206.174000949
  0
LINE
  5
27E
330
1D
100
AcDbEntity
  8
1
100
AcDbLine
 10
12.75843057688819
 20
15.792560274
 30
0.0
 11
18.76604413288819
 21
16.853104787
 31
0.0
  0
LINE
  5
27F
330
1D
100
AcDbEntity
  8
1
100
AcDbLine
 10
9.541044029888186
 20
18.49226884
 30
0.0
 11
9.541044029888186
 21
24.441446619
 31
0.0
  0
LINE
  5
280
330
1D
100
AcDbEntity
  8
3
100
AcDbLine
 10
9.541044029888186
 20
24.441446619
 30
0.0
 11
18.02782305673854
 21
25.95562241981858
 31
0.0
  0
LINE
  5
281
330
1D
100
AcDbEntity
  8
3
100
AcDbLine
 10
18.02782305673854
 20
25.95562241981858
 30
0.0
 11
18.68283448966537
 21
25.62811670335516
 31
0.0
  0
LINE
  5
282
330
1D
100
AcDbEntity
  8
3
100
AcDbLine
 10
18.68283448966537
 20
25.62811670335516
 30
0.0
 11
18.68283448966537
 21
17.142503136282
 31
0.0
  0
LINE
  5
283
330
1D
100
AcDbEntity
  8
3
100
AcDbLine
 10
18.68283448966537
 20
17.142503136282
 30
0.0
 11
18.76604413288819
 21
16.853104787
 31
0.0
  0
LINE
  5
285
330
1D
100
AcDbEntity
  8
1
100
AcDbLine
 10
18.73550341795496
 20
16.84647983679511
 30
0.0
 11
10.01050341795496
 21
15.30802692979512
 31
0.0
  0
LINE
  5
287
330
1D
100
AcDbEntity
  8
1
100
AcDbLine
 10
9.541044146888186
 20
15.701950031
 30
0.0
 11
9.541044146888186
 21
24.56154722
 31
0.0
  0
LINE
  5
28F
330
1D
100
AcDbEntity
  8
NOCUT
100
AcDbLine
 10
16.26604414688819
 20
8.000000129
 30
0.0
 11
16.26604414688819
 21
-0.000000000000002
 31
0.0
  0
LINE
  5
290
330
1D
100
AcDbEntity
  8
NOCUT
100
AcDbLine
 10
16.26604414688819
 20
-0.000000000000002
 30
0.0
 11
0.0
 21
0.0
 31
0.0
  0
LINE
  5
291
330
1D
100
AcDbEntity
  8
NOCUT
100
AcDbLine
 10
0.0
 20
0.0
 30
0.0
 11
0.0000000000000021
 21
19.4973810985623
 31
0.0
  0
LINE
  5
292
330
1D
100
AcDbEntity
  8
NOCUT
100
AcDbLine
 10
0.0000000000000021
 20
19.4973810985623
 30
0.0
 11
0.883093709913092
 21
19.4973810985623
 31
0.0
  0
LINE
  5
293
330
1D
100
AcDbEntity
  8
NOCUT
100
AcDbLine
 10
0.883093709913092
 20
19.4973810985623
 30
0.0
 11
3.059244732888186
 21
23.298520338
 31
0.0
  0
LINE
  5
294
330
1D
100
AcDbEntity
  8
NOCUT
100
AcDbLine
 10
3.059244732888186
 20
23.298520338
 30
0.0
 11
9.541044029888186
 21
24.441446619
 31
0.0
  0
ARC
  5
29A
330
1D
100
AcDbEntity
  8
NOCUT
100
AcDbCircle
 10
24.26604551856819
 20
8.000000099372105
 30
0.0
 40
8.000001271680008
100
AcDbArc
 50
133.4325416014569
 51
180.0000014995169
  0
LINE
  5
29B
330
1D
100
AcDbEntity
  8
NOCUT
100
AcDbLine
 10
18.76604414686687
 20
13.80947514829094
 30
0.0
 11
18.76604413288819
 21
16.853104787
 31
0.0
  0
LWPOLYLINE
  5
29D
330
1D
100
AcDbEntity
  8
INFTOTAL
100
AcDbPolyline
 90
        4
 70
     1
 43
0.0
 10
-36.86924950163576
 20
50.54735964474602
 10
-36.86924950163576
 20
-55.93006885549899
 10
52.08376889127722
 20
-55.93006885549899
 10
52.08376889127722
 20
50.54735964474602
  0
LINE
  5
2C5
330
1D
100
AcDbEntity
  8
4
100
AcDbLine
 10
22.13922011088819
 20
-0.000000000000002
 30
0.0
 11
0.0
 21
0.0
 31
0.0
  0
LINE
  5
2F6
330
1D
100
AcDbEntity
  8
CUT
100
AcDbLine
 10
18.59658486788818
 20
26.493923227
 30
0.0
 11
9.8715853128882
 21
24.95547032399999
 31
0.0
  0
ARC
  5
2F7
330
1D
100
AcDbEntity
  8
CUT
100
AcDbCircle
 10
9.941044146888188
 20
24.56154722
 30
0.0
 40
0.4
100
AcDbArc
 50
99.99999999999858
 51
180.0
  0
ARC
  5
2F8
330
1D
100
AcDbEntity
  8
CUT
100
AcDbCircle
 10
9.941044146888188
 20
15.701950031
 30
0.0
 40
0.4
100
AcDbArc
 50
180.0
 51
280.0000000000006
  0
ARC
  5
2F9
330
1D
100
AcDbEntity
  8
CUT
100
AcDbCircle
 10
18.66604414688818
 20
17.24040293799999
 30
0.0
 40
0.4
100
AcDbArc
 50
280.0000000000027
 51
0.0
  0
LINE
  5
2FA
330
1D
100
AcDbEntity
  8
CUT
100
AcDbLine
 10
19.06604414688819
 20
17.24040273
 30
0.0
 11
19.06604414688819
 21
26.10000013899999
 31
0.0
  0
ARC
  5
2FB
330
1D
100
AcDbEntity
  8
CUT
100
AcDbCircle
 10
18.66604414688818
 20
26.100000126
 30
0.0
 40
0.4
100
AcDbArc
 50
0.0
 51
99.99999999999858
  0
LINE
  5
2FC
330
1D
100
AcDbEntity
  8
CUT
100
AcDbLine
 10
18.73550341795496
 20
16.84647983679511
 30
0.0
 11
10.01050341795496
 21
15.30802692979512
 31
0.0
  0
LINE
  5
2FD
330
1D
100
AcDbEntity
  8
CUT
100
AcDbLine
 10
9.541044146888183
 20
15.701950031
 30
0.0
 11
9.541044146888183
 21
24.56154722
 31
0.0
  0
CIRCLE
  5
2FE
330
1D
100
AcDbEntity
  8
1
100
AcDbCircle
 10
14.12954414688819
 20
20.693975079
 30
0.0
 40
2.649999999999999
  0
HATCH
  5
31E
330
1D
100
AcDbEntity
  8
7
100
AcDbHatch
 10
0.0
 20
0.0
 30
0.0
210
0.0
220
0.0
230
1.0
  2
ANSI37
 70
     0
 71
     0
 91
        2
 92
        7
 72
     1
 73
     1
 93
        8
 10
10.0105034179666
 20
15.30802692979717
 42
0.0
 10
18.7660456600931
 20
16.85310505650368
 42
0.3419977103657997
 10
19.06604414688817
 20
17.24040290333332
 42
0.0
 10
19.06604414688819
 20
26.10000012925
 42
0.4663076566953405
 10
18.59658487383811
 20
26.49392322715367
 42
0.0
 10
9.87158498508812
 20
24.95547032190365
 42
0.3639703460752637
 10
9.541044146888183
 20
24.56154721999998
 42
0.0
 10
9.541044146888183
 20
15.701950031
 42
0.4663076581639762
 97
        0
 92
       22
 72
     1
 73
     1
 93
        2
 10
11.47954414688819
 20
20.693975079
 42
-1.0
 10
16.7795441468882
 20
20.693975079
 42
-1.0
 97
        0
 75
     0
 76
     1
 52
90.0
 41
5.0
 77
     0
 78
     2
 53
135.0
 43
-68.58579370597327
 44
-17.2302399459305
 45
-0.4419417382415922
 46
-0.4419417382415922
 79
     0
 53
225.0
 43
-68.58579370597327
 44
-17.2302399459305
 45
0.4419417382415922
 46
-0.4419417382415923
 79
     0
 47
0.0
 98
        2
 10
11.26740161362073
 20
16.73926459711634
 10
11.26740161362073
 20
16.73926459711634
1001
ACAD
1010
0.0
1020
0.0
1030
0.0
1001
PE_URL
1000

  0
LINE
  5
320
330
1D
100
AcDbEntity
  8
NOCUT
100
AcDbLine
 10
9.541044029888186
 20
24.441446619
 30
0.0
 11
18.02782305673854
 21
25.95562241981858
 31
0.0
  0
LINE
  5
321
330
1D
100
AcDbEntity
  8
NOCUT
100
AcDbLine
 10
18.02782305673854
 20
25.95562241981858
 30
0.0
 11
18.68283448966537
 21
25.62811670335516
 31
0.0
  0
LINE
  5
322
330
1D
100
AcDbEntity
  8
NOCUT
100
AcDbLine
 10
18.68283448966537
 20
25.62811670335516
 30
0.0
 11
18.68283448966537
 21
17.142503136282
 31
0.0
  0
LINE
  5
323
330
1D
100
AcDbEntity
  8
NOCUT
100
AcDbLine
 10
18.68283448966537
 20
17.142503136282
 30
0.0
 11
18.76604413288818
 21
16.853104787
 31
0.0
  0
ENDSEC
  0
SECTION
  2
OBJECTS
  0
DICTIONARY
  5
C
330
0
100
AcDbDictionary
281
     1
  3
ACAD_COLOR
350
2B3
  3
ACAD_DETAILVIEWSTYLE
350
2A1
  3
ACAD_GROUP
350
D
  3
ACAD_LAYOUT
350
1A
  3
ACAD_MATERIAL
350
21F
  3
ACAD_MLEADERSTYLE
350
22C
  3
ACAD_MLINESTYLE
350
17
  3
ACAD_PLOTSETTINGS
350
19
  3
ACAD_PLOTSTYLENAME
350
E
  3
ACAD_SCALELIST
350
1E8
  3
ACAD_SECTIONVIEWSTYLE
350
2A2
  3
ACAD_TABLESTYLE
350
275
  3
ACAD_VISUALSTYLE
350
20E
  3
ACDB_RECOMPOSE_DATA
350
327
  3
AcDbVariableDictionary
350
22A
  3
APPDATA
350
278
  0
SUN
  5
2A3
330
1E2
100
AcDbSun
 90
        1
290
     0
 63
     7
421
 16777215
 40
1.0
291
     1
 91
  2455826
 92
 54000000
292
     0
 70
     2
 71
   256
280
     1
  0
DICTIONARY
  5
279
330
2
100
AcDbDictionary
280
     1
281
     1
  3
ACAD_LAYERSTATES
360
27A
  0
DICTIONARY
  5
31C
330
1D
100
AcDbDictionary
280
     1
281
     1
  3
ACAD_SORTENTS
360
31D
  0
DICTIONARY
  5
2B3
102
{ACAD_REACTORS
330
C
102
}
330
C
100
AcDbDictionary
281
     1
  0
DICTIONARY
  5
2A1
102
{ACAD_REACTORS
330
C
102
}
330
C
100
AcDbDictionary
281
     1
  0
DICTIONARY
  5
D
102
{ACAD_REACTORS
330
C
102
}
330
C
100
AcDbDictionary
281
     1
  0
DICTIONARY
  5
1A
102
{ACAD_REACTORS
330
C
102
}
330
C
100
AcDbDictionary
281
     1
  3
Layout1
350
1C
  3
Model
350
1E
  0
DICTIONARY
  5
21F
102
{ACAD_REACTORS
330
C
102
}
330
C
100
AcDbDictionary
281
     1
  3
ByBlock
350
221
  3
ByLayer
350
220
  3
Global
350
222
  0
DICTIONARY
  5
22C
102
{ACAD_REACTORS
330
C
102
}
330
C
100
AcDbDictionary
281
     1
  3
Standard
350
277
  0
DICTIONARY
  5
17
102
{ACAD_REACTORS
330
C
102
}
330
C
100
AcDbDictionary
281
     1
  3
Standard
350
18
  0
DICTIONARY
  5
19
102
{ACAD_REACTORS
330
C
102
}
330
C
100
AcDbDictionary
281
     1
  0
ACDBDICTIONARYWDFLT
  5
E
102
{ACAD_REACTORS
330
C
102
}
330
C
100
AcDbDictionary
281
     1
  3
Normal
350
F
100
AcDbDictionaryWithDefault
340
F
  0
DICTIONARY
  5
1E8
102
{ACAD_REACTORS
330
C
102
}
330
C
100
AcDbDictionary
281
     1
  3
A0
350
1E9
  3
A1
350
1EA
  3
A2
350
1EB
  3
A3
350
1EC
  3
A4
350
1ED
  3
A5
350
1EE
  3
A6
350
1EF
  3
A7
350
1F0
  3
A8
350
1F1
  3
A9
350
1F2
  3
B0
350
1F3
  3
B1
350
1F4
  3
B2
350
1F5
  3
B3
350
1F6
  3
B4
350
1F7
  3
B5
350
1F8
  3
B6
350
1F9
  3
B7
350
1FA
  3
B8
350
1FB
  3
B9
350
1FC
  3
C0
350
1FD
  3
C1
350
1FE
  3
C2
350
1FF
  3
C3
350
200
  3
C4
350
201
  3
C5
350
202
  3
C6
350
203
  3
C7
350
204
  3
C8
350
205
  3
C9
350
206
  3
D0
350
207
  3
D1
350
208
  3
D2
350
209
  0
DICTIONARY
  5
2A2
102
{ACAD_REACTORS
330
C
102
}
330
C
100
AcDbDictionary
281
     1
  0
DICTIONARY
  5
275
102
{ACAD_REACTORS
330
C
102
}
330
C
100
AcDbDictionary
281
     1
  3
Standard
350
276
  0
DICTIONARY
  5
20E
102
{ACAD_REACTORS
330
C
102
}
330
C
100
AcDbDictionary
281
     1
  3
2dWireframe
350
213
  3
3D Hidden
350
215
  3
3dWireframe
350
214
  3
Basic
350
216
  3
Brighten
350
21A
  3
ColorChange
350
21E
  3
Conceptual
350
218
  3
Dim
350
219
  3
EdgeColorOff
350
26F
  3
Facepattern
350
21D
  3
Flat
350
20F
  3
FlatWithEdges
350
210
  3
Gouraud
350
211
  3
GouraudWithEdges
350
212
  3
Hidden
350
26C
  3
JitterOff
350
26D
  3
Linepattern
350
21C
  3
OverhangOff
350
26E
  3
Realistic
350
217
  3
Shaded
350
274
  3
Shaded with edges
350
273
  3
Shades of Gray
350
270
  3
Sketchy
350
271
  3
Thicken
350
21B
  3
Wireframe
350
26B
  3
X-Ray
350
272
  0
XRECORD
  5
327
102
{ACAD_REACTORS
330
C
102
}
330
C
100
AcDbXrecord
280
     1
 90
        1
330
276
  0
DICTIONARY
  5
22A
102
{ACAD_REACTORS
330
C
102
}
330
C
100
AcDbDictionary
281
     1
  3
CANNOSCALE
350
29E
  3
CMLEADERSTYLE
350
2A0
  3
CTABLESTYLE
350
29F
  3
DIMASSOC
350
22E
  3
HIDETEXT
350
22F
  3
MSLTSCALE
350
22D
  0
DICTIONARY
  5
278
102
{ACAD_REACTORS
330
C
102
}
330
C
100
AcDbDictionary
281
     1
  0
DICTIONARY
  5
27A
102
{ACAD_REACTORS
330
279
102
}
330
279
100
AcDbDictionary
281
     1
  0
SORTENTSTABLE
  5
31D
102
{ACAD_REACTORS
330
31C
102
}
330
31C
100
AcDbSortentsTable
330
1D
331
2F6
  5
2F8
331
2F7
  5
2F9
331
2F8
  5
2FA
331
2F9
  5
2FB
331
2FA
  5
2FC
331
2FB
  5
2FD
331
2FC
  5
2FE
331
2FD
  5
31B
331
2FE
  5
31E
331
0
  5
2F6
331
31E
  5
2F7
  0
LAYOUT
  5
1C
102
{ACAD_REACTORS
330
1A
102
}
330
1A
100
AcDbPlotSettings
  1

  2
none_device
  4

  6

 40
0.0
 41
0.0
 42
0.0
 43
0.0
 44
0.0
 45
0.0
 46
0.0
 47
0.0
 48
0.0
 49
0.0
140
0.0
141
0.0
142
1.0
143
1.0
 70
   688
 72
     0
 73
     0
 74
     5
  7

 75
    16
 76
     0
 77
     2
 78
   300
147
1.0
148
0.0
149
0.0
100
AcDbLayout
  1
Layout1
 70
     1
 71
     1
 10
0.0
 20
0.0
 11
12.0
 21
9.0
 12
0.0
 22
0.0
 32
0.0
 14
1.000000000000000E+20
 24
1.000000000000000E+20
 34
1.000000000000000E+20
 15
-1.000000000000000E+20
 25
-1.000000000000000E+20
 35
-1.000000000000000E+20
146
0.0
 13
0.0
 23
0.0
 33
0.0
 16
1.0
 26
0.0
 36
0.0
 17
0.0
 27
1.0
 37
0.0
 76
     0
330
1B
  0
LAYOUT
  5
1E
102
{ACAD_REACTORS
330
1A
102
}
330
1A
100
AcDbPlotSettings
  1

  2
none_device
  4

  6

 40
0.0
 41
0.0
 42
0.0
 43
0.0
 44
0.0
 45
0.0
 46
0.0
 47
0.0
 48
0.0
 49
0.0
140
0.0
141
0.0
142
1.0
143
1.0
 70
  1712
 72
     0
 73
     0
 74
     0
  7

 75
     0
 76
     0
 77
     2
 78
   300
147
1.0
148
0.0
149
0.0
100
AcDbLayout
  1
Model
 70
     1
 71
     0
 10
0.0
 20
0.0
 11
12.0
 21
9.0
 12
0.0
 22
0.0
 32
0.0
 14
-36.86924950163576
 24
-55.93006885549898
 34
0.0
 15
52.08376889127722
 25
50.54735964474603
 35
0.0
146
0.0
 13
0.0
 23
0.0
 33
0.0
 16
1.0
 26
0.0
 36
0.0
 17
0.0
 27
1.0
 37
0.0
 76
     0
330
1D
331
1E2
  0
MATERIAL
  5
221
102
{ACAD_REACTORS
330
21F
102
}
330
21F
100
AcDbMaterial
  1
ByBlock
 72
     1
 94
      127
  0
MATERIAL
  5
220
102
{ACAD_REACTORS
330
21F
102
}
330
21F
100
AcDbMaterial
  1
ByLayer
 72
     1
 94
      127
  0
MATERIAL
  5
222
102
{ACAD_REACTORS
330
21F
102
}
330
21F
100
AcDbMaterial
  1
Global
 72
     1
 94
      127
  0
MLEADERSTYLE
  5
277
102
{ACAD_REACTORS
330
22C
102
}
330
22C
100
AcDbMLeaderStyle
179
     2
170
     2
171
     1
172
     0
 90
        2
 40
0.0
 41
0.0
173
     1
 91
-1056964608
340
14
 92
       -2
290
     1
 42
0.09
291
     1
 43
0.36
  3
Standard
341
0
 44
0.18
300

342
11
174
     1
178
     1
175
     1
176
     0
 93
-1056964608
 45
0.18
292
     0
297
     0
 46
0.18
343
0
 94
-1056964608
 47
1.0
 49
1.0
140
1.0
293
     1
141
0.0
294
     1
177
     0
142
1.0
295
     0
296
     0
143
0.125
271
     0
272
     9
273
     9
298
     0
  0
MLINESTYLE
  5
18
102
{ACAD_REACTORS
330
17
102
}
330
17
100
AcDbMlineStyle
  2
Standard
 70
     0
  3

 62
   256
 51
90.0
 52
90.0
 71
     2
 49
0.5
 62
   256
  6
BYLAYER
 49
-0.5
 62
   256
  6
BYLAYER
  0
ACDBPLACEHOLDER
  5
F
102
{ACAD_REACTORS
330
E
102
}
330
E
  0
SCALE
  5
1E9
102
{ACAD_REACTORS
330
1E8
102
}
330
1E8
100
AcDbScale
 70
     0
300
1:1
140
1.0
141
1.0
290
     1
  0
SCALE
  5
1EA
102
{ACAD_REACTORS
330
1E8
102
}
330
1E8
100
AcDbScale
 70
     0
300
1:2
140
1.0
141
2.0
290
     0
  0
SCALE
  5
1EB
102
{ACAD_REACTORS
330
1E8
102
}
330
1E8
100
AcDbScale
 70
     0
300
1:4
140
1.0
141
4.0
290
     0
  0
SCALE
  5
1EC
102
{ACAD_REACTORS
330
1E8
102
}
330
1E8
100
AcDbScale
 70
     0
300
1:5
140
1.0
141
5.0
290
     0
  0
SCALE
  5
1ED
102
{ACAD_REACTORS
330
1E8
102
}
330
1E8
100
AcDbScale
 70
     0
300
1:8
140
1.0
141
8.0
290
     0
  0
SCALE
  5
1EE
102
{ACAD_REACTORS
330
1E8
102
}
330
1E8
100
AcDbScale
 70
     0
300
1:10
140
1.0
141
10.0
290
     0
  0
SCALE
  5
1EF
102
{ACAD_REACTORS
330
1E8
102
}
330
1E8
100
AcDbScale
 70
     0
300
1:16
140
1.0
141
16.0
290
     0
  0
SCALE
  5
1F0
102
{ACAD_REACTORS
330
1E8
102
}
330
1E8
100
AcDbScale
 70
     0
300
1:20
140
1.0
141
20.0
290
     0
  0
SCALE
  5
1F1
102
{ACAD_REACTORS
330
1E8
102
}
330
1E8
100
AcDbScale
 70
     0
300
1:30
140
1.0
141
30.0
290
     0
  0
SCALE
  5
1F2
102
{ACAD_REACTORS
330
1E8
102
}
330
1E8
100
AcDbScale
 70
     0
300
1:40
140
1.0
141
40.0
290
     0
  0
SCALE
  5
1F3
102
{ACAD_REACTORS
330
1E8
102
}
330
1E8
100
AcDbScale
 70
     0
300
1:50
140
1.0
141
50.0
290
     0
  0
SCALE
  5
1F4
102
{ACAD_REACTORS
330
1E8
102
}
330
1E8
100
AcDbScale
 70
     0
300
1:100
140
1.0
141
100.0
290
     0
  0
SCALE
  5
1F5
102
{ACAD_REACTORS
330
1E8
102
}
330
1E8
100
AcDbScale
 70
     0
300
2:1
140
2.0
141
1.0
290
     0
  0
SCALE
  5
1F6
102
{ACAD_REACTORS
330
1E8
102
}
330
1E8
100
AcDbScale
 70
     0
300
4:1
140
4.0
141
1.0
290
     0
  0
SCALE
  5
1F7
102
{ACAD_REACTORS
330
1E8
102
}
330
1E8
100
AcDbScale
 70
     0
300
8:1
140
8.0
141
1.0
290
     0
  0
SCALE
  5
1F8
102
{ACAD_REACTORS
330
1E8
102
}
330
1E8
100
AcDbScale
 70
     0
300
10:1
140
10.0
141
1.0
290
     0
  0
SCALE
  5
1F9
102
{ACAD_REACTORS
330
1E8
102
}
330
1E8
100
AcDbScale
 70
     0
300
100:1
140
100.0
141
1.0
290
     0
  0
SCALE
  5
1FA
102
{ACAD_REACTORS
330
1E8
102
}
330
1E8
100
AcDbScale
 70
     0
300
1/128" = 1'-0"
140
0.0078125
141
12.0
290
     0
  0
SCALE
  5
1FB
102
{ACAD_REACTORS
330
1E8
102
}
330
1E8
100
AcDbScale
 70
     0
300
1/64" = 1'-0"
140
0.015625
141
12.0
290
     0
  0
SCALE
  5
1FC
102
{ACAD_REACTORS
330
1E8
102
}
330
1E8
100
AcDbScale
 70
     0
300
1/32" = 1'-0"
140
0.03125
141
12.0
290
     0
  0
SCALE
  5
1FD
102
{ACAD_REACTORS
330
1E8
102
}
330
1E8
100
AcDbScale
 70
     0
300
1/16" = 1'-0"
140
0.0625
141
12.0
290
     0
  0
SCALE
  5
1FE
102
{ACAD_REACTORS
330
1E8
102
}
330
1E8
100
AcDbScale
 70
     0
300
3/32" = 1'-0"
140
0.09375
141
12.0
290
     0
  0
SCALE
  5
1FF
102
{ACAD_REACTORS
330
1E8
102
}
330
1E8
100
AcDbScale
 70
     0
300
1/8" = 1'-0"
140
0.125
141
12.0
290
     0
  0
SCALE
  5
200
102
{ACAD_REACTORS
330
1E8
102
}
330
1E8
100
AcDbScale
 70
     0
300
3/16" = 1'-0"
140
0.1875
141
12.0
290
     0
  0
SCALE
  5
201
102
{ACAD_REACTORS
330
1E8
102
}
330
1E8
100
AcDbScale
 70
     0
300
1/4" = 1'-0"
140
0.25
141
12.0
290
     0
  0
SCALE
  5
202
102
{ACAD_REACTORS
330
1E8
102
}
330
1E8
100
AcDbScale
 70
     0
300
3/8" = 1'-0"
140
0.375
141
12.0
290
     0
  0
SCALE
  5
203
102
{ACAD_REACTORS
330
1E8
102
}
330
1E8
100
AcDbScale
 70
     0
300
1/2" = 1'-0"
140
0.5
141
12.0
290
     0
  0
SCALE
  5
204
102
{ACAD_REACTORS
330
1E8
102
}
330
1E8
100
AcDbScale
 70
     0
300
3/4" = 1'-0"
140
0.75
141
12.0
290
     0
  0
SCALE
  5
205
102
{ACAD_REACTORS
330
1E8
102
}
330
1E8
100
AcDbScale
 70
     0
300
1" = 1'-0"
140
1.0
141
12.0
290
     0
  0
SCALE
  5
206
102
{ACAD_REACTORS
330
1E8
102
}
330
1E8
100
AcDbScale
 70
     0
300
1-1/2" = 1'-0"
140
1.5
141
12.0
290
     0
  0
SCALE
  5
207
102
{ACAD_REACTORS
330
1E8
102
}
330
1E8
100
AcDbScale
 70
     0
300
3" = 1'-0"
140
3.0
141
12.0
290
     0
  0
SCALE
  5
208
102
{ACAD_REACTORS
330
1E8
102
}
330
1E8
100
AcDbScale
 70
     0
300
6" = 1'-0"
140
6.0
141
12.0
290
     0
  0
SCALE
  5
209
102
{ACAD_REACTORS
330
1E8
102
}
330
1E8
100
AcDbScale
 70
     0
300
1'-0" = 1'-0"
140
12.0
141
12.0
290
     0
  0
TABLESTYLE
  5
276
102
{ACAD_REACTORS
330
275
102
}
102
{ACAD_XDICTIONARY
360
325
102
}
330
275
100
AcDbTableStyle
  3
Standard
 70
     0
 71
     0
 40
0.06
 41
0.06
280
     0
281
     0
  7
Standard
140
0.18
170
     2
 62
     0
 63
   257
283
     0
 90
        4
 91
        0
  1

274
    -2
284
     1
 64
     0
275
    -2
285
     1
 65
     0
276
    -2
286
     1
 66
     0
277
    -2
287
     1
 67
     0
278
    -2
288
     1
 68
     0
279
    -2
289
     1
 69
     0
  7
Standard
140
0.25
170
     5
 62
     0
 63
   257
283
     0
 90
        4
 91
        0
  1

274
    -2
284
     1
 64
     0
275
    -2
285
     1
 65
     0
276
    -2
286
     1
 66
     0
277
    -2
287
     1
 67
     0
278
    -2
288
     1
 68
     0
279
    -2
289
     1
 69
     0
  7
Standard
140
0.18
170
     5
 62
     0
 63
   257
283
     0
 90
        4
 91
        0
  1

274
    -2
284
     1
 64
     0
275
    -2
285
     1
 65
     0
276
    -2
286
     1
 66
     0
277
    -2
287
     1
 67
     0
278
    -2
288
     1
 68
     0
279
    -2
289
     1
 69
     0
  0
VISUALSTYLE
  5
213
102
{ACAD_REACTORS
330
20E
102
}
330
20E
100
AcDbVisualStyle
  2
2dWireframe
 70
     4
177
     3
291
     0
 70
    58
 90
        0
176
     1
 90
        2
176
     1
 90
        0
176
     1
 90
        0
176
     1
 40
-0.6
176
     1
 40
-30.0
176
     1
 62
     7
176
     1
 90
        1
176
     1
 90
        4
176
     1
 62
     7
176
     1
 62
   257
176
     1
 90
        1
176
     1
 90
        1
176
     1
 40
1.0
176
     1
 90
        0
176
     1
 62
   257
176
     1
 40
1.0
176
     1
 90
        1
176
     1
 90
        6
176
     1
 90
        2
176
     1
 62
     7
176
     1
 90
        5
176
     1
 90
        0
176
     1
 90
        0
176
     1
290
     0
176
     1
 90
        1
176
     1
 40
0.0
176
     1
 90
        0
176
     1
290
     1
176
     1
290
     1
176
     1
290
     0
176
     1
290
     0
176
     1
290
     0
176
     1
290
     0
176
     1
290
     0
176
     1
290
     0
176
     1
290
     0
176
     1
 90
       50
176
     1
 40
0.0
176
     1
 40
1.0
176
     1
 90
        0
176
     1
 62
    18
420
        0
176
     1
 90
       50
176
     1
 90
        3
176
     1
 62
     5
420
      255
176
     1
290
     0
176
     1
 90
       50
176
     1
 90
       50
176
     1
 90
       50
176
     1
290
     0
176
     1
 90
       50
176
     1
 62
   256
176
     0
 40
1.0
176
     0
 90
        2
176
     1
  1
strokes_ogs.tif
176
     1
290
     0
176
     1
 40
1.0
176
     1
 40
1.0
176
     1
  0
VISUALSTYLE
  5
215
102
{ACAD_REACTORS
330
20E
102
}
330
20E
100
AcDbVisualStyle
  2
3D Hidden
 70
     6
177
     3
291
     0
 70
    58
 90
        1
176
     1
 90
        2
176
     1
 90
        2
176
     1
 90
        0
176
     1
 40
-0.6
176
     1
 40
-30.0
176
     1
 62
     7
176
     1
 90
        2
176
     1
 90
        2
176
     1
 62
     7
176
     1
 62
   257
176
     1
 90
        2
176
     1
 90
        1
176
     1
 40
40.0
176
     1
 90
        0
176
     1
 62
   257
176
     1
 40
1.0
176
     1
 90
        1
176
     1
 90
        6
176
     1
 90
        2
176
     1
 62
     7
176
     1
 90
        3
176
     1
 90
        0
176
     1
 90
        0
176
     1
290
     0
176
     1
 90
        1
176
     1
 40
0.0
176
     1
 90
        0
176
     1
290
     0
176
     1
290
     1
176
     1
290
     1
176
     1
290
     0
176
     1
290
     0
176
     1
290
     0
176
     1
290
     0
176
     1
290
     0
176
     1
290
     0
176
     1
 90
       50
176
     1
 40
0.0
176
     1
 40
1.0
176
     1
 90
        0
176
     1
 62
    18
420
        0
176
     1
 90
       50
176
     1
 90
        3
176
     1
 62
     5
420
      255
176
     1
290
     0
176
     1
 90
       50
176
     1
 90
       50
176
     1
 90
       50
176
     1
290
     0
176
     1
 90
       50
176
     1
 62
   256
176
     0
 40
1.0
176
     0
 90
        2
176
     1
  1
strokes_ogs.tif
176
     1
290
     0
176
     1
 40
1.0
176
     1
 40
1.0
176
     1
  0
VISUALSTYLE
  5
214
102
{ACAD_REACTORS
330
20E
102
}
330
20E
100
AcDbVisualStyle
  2
3dWireframe
 70
     5
177
     3
291
     0
 70
    58
 90
        0
176
     1
 90
        2
176
     1
 90
        0
176
     1
 90
        0
176
     1
 40
-0.6
176
     1
 40
-30.0
176
     1
 62
     7
176
     1
 90
        1
176
     1
 90
        4
176
     1
 62
     7
176
     1
 62
   257
176
     1
 90
        1
176
     1
 90
        1
176
     1
 40
1.0
176
     1
 90
        0
176
     1
 62
   257
176
     1
 40
1.0
176
     1
 90
        1
176
     1
 90
        6
176
     1
 90
        2
176
     1
 62
     7
176
     1
 90
        5
176
     1
 90
        0
176
     1
 90
        0
176
     1
290
     0
176
     1
 90
        1
176
     1
 40
0.0
176
     1
 90
        0
176
     1
290
     0
176
     1
290
     1
176
     1
290
     1
176
     1
290
     0
176
     1
290
     0
176
     1
290
     0
176
     1
290
     0
176
     1
290
     0
176
     1
290
     0
176
     1
 90
       50
176
     1
 40
0.0
176
     1
 40
1.0
176
     1
 90
        0
176
     1
 62
    18
420
        0
176
     1
 90
       50
176
     1
 90
        3
176
     1
 62
     5
420
      255
176
     1
290
     0
176
     1
 90
       50
176
     1
 90
       50
176
     1
 90
       50
176
     1
290
     0
176
     1
 90
       50
176
     1
 62
   256
176
     0
 40
1.0
176
     0
 90
        2
176
     1
  1
strokes_ogs.tif
176
     1
290
     0
176
     1
 40
1.0
176
     1
 40
1.0
176
     1
  0
VISUALSTYLE
  5
216
102
{ACAD_REACTORS
330
20E
102
}
330
20E
100
AcDbVisualStyle
  2
Basic
 70
     7
177
     3
291
     1
 70
    58
 90
        1
176
     1
 90
        0
176
     1
 90
        1
176
     1
 90
        0
176
     1
 40
-0.6
176
     1
 40
-30.0
176
     1
 62
     7
176
     1
 90
        0
176
     1
 90
        4
176
     1
 62
     7
176
     1
 62
   257
176
     1
 90
        1
176
     1
 90
        1
176
     1
 40
1.0
176
     1
 90
        8
176
     1
 62
     7
176
     1
 40
1.0
176
     1
 90
        1
176
     1
 90
        6
176
     1
 90
        2
176
     1
 62
     7
176
     1
 90
        5
176
     1
 90
        0
176
     1
 90
        0
176
     1
290
     0
176
     1
 90
        1
176
     1
 40
0.0
176
     1
 90
        0
176
     1
290
     0
176
     1
290
     1
176
     1
290
     1
176
     1
290
     0
176
     1
290
     0
176
     1
290
     0
176
     1
290
     0
176
     1
290
     0
176
     1
290
     0
176
     1
 90
       50
176
     1
 40
0.0
176
     1
 40
1.0
176
     1
 90
        0
176
     1
 62
    18
420
        0
176
     1
 90
       50
176
     1
 90
        3
176
     1
 62
     5
420
      255
176
     1
290
     0
176
     1
 90
       50
176
     1
 90
       50
176
     1
 90
       50
176
     1
290
     0
176
     1
 90
       50
176
     1
 62
   256
176
     0
 40
1.0
176
     0
 90
        2
176
     1
  1
strokes_ogs.tif
176
     1
290
     0
176
     1
 40
1.0
176
     1
 40
1.0
176
     1
  0
VISUALSTYLE
  5
21A
102
{ACAD_REACTORS
330
20E
102
}
330
20E
100
AcDbVisualStyle
  2
Brighten
 70
    12
177
     3
291
     1
 70
    58
 90
        2
176
     1
 90
        2
176
     1
 90
        0
176
     1
 90
        0
176
     1
 40
-0.6
176
     1
 40
-30.0
176
     1
 62
     7
176
     1
 90
        1
176
     1
 90
        4
176
     1
 62
     7
176
     1
 62
   257
176
     1
 90
        1
176
     1
 90
        1
176
     1
 40
1.0
176
     1
 90
        8
176
     1
 62
     7
176
     1
 40
1.0
176
     1
 90
        1
176
     1
 90
        6
176
     1
 90
        2
176
     1
 62
     7
176
     1
 90
        5
176
     1
 90
        0
176
     1
 90
        0
176
     1
290
     0
176
     1
 90
        1
176
     1
 40
50.0
176
     1
 90
        0
176
     1
290
     0
176
     1
290
     1
176
     1
290
     1
176
     1
290
     0
176
     1
290
     0
176
     1
290
     0
176
     1
290
     0
176
     1
290
     0
176
     1
290
     0
176
     1
 90
       50
176
     1
 40
0.0
176
     1
 40
1.0
176
     1
 90
        0
176
     1
 62
    18
420
        0
176
     1
 90
       50
176
     1
 90
        3
176
     1
 62
     5
420
      255
176
     1
290
     0
176
     1
 90
       50
176
     1
 90
       50
176
     1
 90
       50
176
     1
290
     0
176
     1
 90
       50
176
     1
 62
   256
176
     0
 40
1.0
176
     0
 90
        2
176
     1
  1
strokes_ogs.tif
176
     1
290
     0
176
     1
 40
1.0
176
     1
 40
1.0
176
     1
  0
VISUALSTYLE
  5
21E
102
{ACAD_REACTORS
330
20E
102
}
330
20E
100
AcDbVisualStyle
  2
ColorChange
 70
    16
177
     3
291
     1
 70
    58
 90
        2
176
     1
 90
        2
176
     1
 90
        3
176
     1
 90
        0
176
     1
 40
-0.6
176
     1
 40
-30.0
176
     1
 62
     8
176
     1
 90
        1
176
     1
 90
        4
176
     1
 62
     7
176
     1
 62
   257
176
     1
 90
        1
176
     1
 90
        1
176
     1
 40
1.0
176
     1
 90
        8
176
     1
 62
     8
176
     1
 40
1.0
176
     1
 90
        1
176
     1
 90
        6
176
     1
 90
        2
176
     1
 62
     7
176
     1
 90
        5
176
     1
 90
        0
176
     1
 90
        0
176
     1
290
     0
176
     1
 90
        1
176
     1
 40
0.0
176
     1
 90
        0
176
     1
290
     0
176
     1
290
     1
176
     1
290
     1
176
     1
290
     0
176
     1
290
     0
176
     1
290
     0
176
     1
290
     0
176
     1
290
     0
176
     1
290
     0
176
     1
 90
       50
176
     1
 40
0.0
176
     1
 40
1.0
176
     1
 90
        0
176
     1
 62
    18
420
        0
176
     1
 90
       50
176
     1
 90
        3
176
     1
 62
     5
420
      255
176
     1
290
     0
176
     1
 90
       50
176
     1
 90
       50
176
     1
 90
       50
176
     1
290
     0
176
     1
 90
       50
176
     1
 62
   256
176
     0
 40
1.0
176
     0
 90
        2
176
     1
  1
strokes_ogs.tif
176
     1
290
     0
176
     1
 40
1.0
176
     1
 40
1.0
176
     1
  0
VISUALSTYLE
  5
218
102
{ACAD_REACTORS
330
20E
102
}
330
20E
100
AcDbVisualStyle
  2
Conceptual
 70
     9
177
     3
291
     0
 70
    58
 90
        3
176
     1
 90
        2
176
     1
 90
        0
176
     1
 90
        0
176
     1
 40
-0.6
176
     1
 40
-30.0
176
     1
 62
     7
176
     1
 90
        2
176
     1
 90
        2
176
     1
 62
     7
176
     1
 62
   257
176
     1
 90
        1
176
     1
 90
        1
176
     1
 40
40.0
176
     1
 90
        8
176
     1
 62
     7
176
     1
 40
1.0
176
     1
 90
        1
176
     1
 90
        6
176
     1
 90
        2
176
     1
 62
     7
176
     1
 90
        3
176
     1
 90
        0
176
     1
 90
        0
176
     1
290
     0
176
     1
 90
        1
176
     1
 40
0.0
176
     1
 90
        0
176
     1
290
     0
176
     1
290
     1
176
     1
290
     1
176
     1
290
     0
176
     1
290
     0
176
     1
290
     0
176
     1
290
     0
176
     1
290
     0
176
     1
290
     0
176
     1
 90
       50
176
     1
 40
0.0
176
     1
 40
1.0
176
     1
 90
        0
176
     1
 62
    18
420
        0
176
     1
 90
       50
176
     1
 90
        3
176
     1
 62
     5
420
      255
176
     1
290
     0
176
     1
 90
       50
176
     1
 90
       50
176
     1
 90
       50
176
     1
290
     0
176
     1
 90
       50
176
     1
 62
   256
176
     0
 40
1.0
176
     0
 90
        2
176
     1
  1
strokes_ogs.tif
176
     1
290
     0
176
     1
 40
1.0
176
     1
 40
1.0
176
     1
  0
VISUALSTYLE
  5
219
102
{ACAD_REACTORS
330
20E
102
}
330
20E
100
AcDbVisualStyle
  2
Dim
 70
    11
177
     3
291
     1
 70
    58
 90
        2
176
     1
 90
        2
176
     1
 90
        0
176
     1
 90
        0
176
     1
 40
-0.6
176
     1
 40
-30.0
176
     1
 62
     7
176
     1
 90
        1
176
     1
 90
        4
176
     1
 62
     7
176
     1
 62
   257
176
     1
 90
        1
176
     1
 90
        1
176
     1
 40
1.0
176
     1
 90
        8
176
     1
 62
     7
176
     1
 40
1.0
176
     1
 90
        1
176
     1
 90
        6
176
     1
 90
        2
176
     1
 62
     7
176
     1
 90
        5
176
     1
 90
        0
176
     1
 90
        0
176
     1
290
     0
176
     1
 90
        1
176
     1
 40
-50.0
176
     1
 90
        0
176
     1
290
     0
176
     1
290
     1
176
     1
290
     1
176
     1
290
     0
176
     1
290
     0
176
     1
290
     0
176
     1
290
     0
176
     1
290
     0
176
     1
290
     0
176
     1
 90
       50
176
     1
 40
0.0
176
     1
 40
1.0
176
     1
 90
        0
176
     1
 62
    18
420
        0
176
     1
 90
       50
176
     1
 90
        3
176
     1
 62
     5
420
      255
176
     1
290
     0
176
     1
 90
       50
176
     1
 90
       50
176
     1
 90
       50
176
     1
290
     0
176
     1
 90
       50
176
     1
 62
   256
176
     0
 40
1.0
176
     0
 90
        2
176
     1
  1
strokes_ogs.tif
176
     1
290
     0
176
     1
 40
1.0
176
     1
 40
1.0
176
     1
  0
VISUALSTYLE
  5
26F
102
{ACAD_REACTORS
330
20E
102
}
330
20E
100
AcDbVisualStyle
  2
EdgeColorOff
 70
    22
177
     3
291
     1
 70
    58
 90
        2
176
     0
 90
        2
176
     0
 90
        0
176
     0
 90
        0
176
     0
 40
0.6
176
     0
 40
30.0
176
     0
 62
     7
420
 16777215
176
     0
 90
        1
176
     0
 90
        4
176
     0
 62
     7
176
     0
 62
   257
176
     0
 90
        1
176
     0
 90
        1
176
     0
 40
1.0
176
     0
 90
        8
176
     2
 62
     7
176
     0
 40
1.0
176
     0
 90
        1
176
     0
 90
        6
176
     0
 90
        2
176
     0
 62
     7
176
     0
 90
        5
176
     0
 90
        0
176
     0
 90
        0
176
     0
290
     0
176
     0
 90
        1
176
     0
 40
0.0
176
     0
 90
        0
176
     0
290
     0
176
     0
290
     1
176
     0
290
     1
176
     0
290
     0
176
     0
290
     0
176
     0
290
     0
176
     0
290
     0
176
     0
290
     0
176
     0
290
     0
176
     0
 90
       50
176
     0
 40
0.0
176
     0
 40
1.0
176
     0
 90
        0
176
     0
 62
    18
420
        0
176
     0
 90
       50
176
     0
 90
        3
176
     0
 62
     5
420
      255
176
     0
290
     0
176
     0
 90
       50
176
     0
 90
       50
176
     0
 90
       50
176
     0
290
     0
176
     0
 90
       50
176
     0
 62
   256
176
     0
 40
1.0
176
     0
 90
        2
176
     0
  1
strokes_ogs.tif
176
     0
290
     0
176
     0
 40
1.0
176
     0
 40
1.0
176
     0
  0
VISUALSTYLE
  5
21D
102
{ACAD_REACTORS
330
20E
102
}
330
20E
100
AcDbVisualStyle
  2
Facepattern
 70
    15
177
     3
291
     1
 70
    58
 90
        2
176
     1
 90
        2
176
     1
 90
        0
176
     1
 90
        0
176
     1
 40
-0.6
176
     1
 40
-30.0
176
     1
 62
     7
176
     1
 90
        1
176
     1
 90
        4
176
     1
 62
     7
176
     1
 62
   257
176
     1
 90
        1
176
     1
 90
        1
176
     1
 40
1.0
176
     1
 90
        8
176
     1
 62
     7
176
     1
 40
1.0
176
     1
 90
        1
176
     1
 90
        6
176
     1
 90
        2
176
     1
 62
     7
176
     1
 90
        5
176
     1
 90
        0
176
     1
 90
        0
176
     1
290
     0
176
     1
 90
        1
176
     1
 40
0.0
176
     1
 90
        0
176
     1
290
     0
176
     1
290
     1
176
     1
290
     1
176
     1
290
     0
176
     1
290
     0
176
     1
290
     0
176
     1
290
     0
176
     1
290
     0
176
     1
290
     0
176
     1
 90
       50
176
     1
 40
0.0
176
     1
 40
1.0
176
     1
 90
        0
176
     1
 62
    18
420
        0
176
     1
 90
       50
176
     1
 90
        3
176
     1
 62
     5
420
      255
176
     1
290
     0
176
     1
 90
       50
176
     1
 90
       50
176
     1
 90
       50
176
     1
290
     0
176
     1
 90
       50
176
     1
 62
   256
176
     0
 40
1.0
176
     0
 90
        2
176
     1
  1
strokes_ogs.tif
176
     1
290
     0
176
     1
 40
1.0
176
     1
 40
1.0
176
     1
  0
VISUALSTYLE
  5
20F
102
{ACAD_REACTORS
330
20E
102
}
330
20E
100
AcDbVisualStyle
  2
Flat
 70
     0
177
     3
291
     1
 70
    58
 90
        2
176
     1
 90
        1
176
     1
 90
        1
176
     1
 90
        2
176
     1
 40
-0.6
176
     1
 40
30.0
176
     1
 62
     7
176
     1
 90
        0
176
     1
 90
        4
176
     1
 62
     7
176
     1
 62
   257
176
     1
 90
        1
176
     1
 90
        1
176
     1
 40
1.0
176
     1
 90
        8
176
     1
 62
     7
176
     1
 40
1.0
176
     1
 90
        1
176
     1
 90
        6
176
     1
 90
        2
176
     1
 62
     7
176
     1
 90
        5
176
     1
 90
        0
176
     1
 90
        0
176
     1
290
     0
176
     1
 90
       13
176
     1
 40
0.0
176
     1
 90
        0
176
     1
290
     0
176
     1
290
     1
176
     1
290
     1
176
     1
290
     0
176
     1
290
     0
176
     1
290
     0
176
     1
290
     0
176
     1
290
     0
176
     1
290
     0
176
     1
 90
       50
176
     1
 40
0.0
176
     1
 40
1.0
176
     1
 90
        0
176
     1
 62
    18
420
        0
176
     1
 90
       50
176
     1
 90
        3
176
     1
 62
     5
420
      255
176
     1
290
     0
176
     1
 90
       50
176
     1
 90
       50
176
     1
 90
       50
176
     1
290
     0
176
     1
 90
       50
176
     1
 62
   256
176
     0
 40
1.0
176
     0
 90
        2
176
     1
  1
strokes_ogs.tif
176
     1
290
     0
176
     1
 40
1.0
176
     1
 40
1.0
176
     1
  0
VISUALSTYLE
  5
210
102
{ACAD_REACTORS
330
20E
102
}
330
20E
100
AcDbVisualStyle
  2
FlatWithEdges
 70
     1
177
     3
291
     1
 70
    58
 90
        2
176
     1
 90
        1
176
     1
 90
        1
176
     1
 90
        2
176
     1
 40
-0.6
176
     1
 40
30.0
176
     1
 62
     7
176
     1
 90
        1
176
     1
 90
        4
176
     1
 62
     7
176
     1
 62
   257
176
     1
 90
        1
176
     1
 90
        1
176
     1
 40
1.0
176
     1
 90
        0
176
     1
 62
   257
176
     1
 40
1.0
176
     1
 90
        1
176
     1
 90
        6
176
     1
 90
        2
176
     1
 62
     7
176
     1
 90
        5
176
     1
 90
        0
176
     1
 90
        0
176
     1
290
     0
176
     1
 90
       13
176
     1
 40
0.0
176
     1
 90
        0
176
     1
290
     0
176
     1
290
     1
176
     1
290
     1
176
     1
290
     0
176
     1
290
     0
176
     1
290
     0
176
     1
290
     0
176
     1
290
     0
176
     1
290
     0
176
     1
 90
       50
176
     1
 40
0.0
176
     1
 40
1.0
176
     1
 90
        0
176
     1
 62
    18
420
        0
176
     1
 90
       50
176
     1
 90
        3
176
     1
 62
     5
420
      255
176
     1
290
     0
176
     1
 90
       50
176
     1
 90
       50
176
     1
 90
       50
176
     1
290
     0
176
     1
 90
       50
176
     1
 62
   256
176
     0
 40
1.0
176
     0
 90
        2
176
     1
  1
strokes_ogs.tif
176
     1
290
     0
176
     1
 40
1.0
176
     1
 40
1.0
176
     1
  0
VISUALSTYLE
  5
211
102
{ACAD_REACTORS
330
20E
102
}
330
20E
100
AcDbVisualStyle
  2
Gouraud
 70
     2
177
     3
291
     1
 70
    58
 90
        2
176
     1
 90
        2
176
     1
 90
        1
176
     1
 90
        2
176
     1
 40
-0.6
176
     1
 40
30.0
176
     1
 62
     7
176
     1
 90
        0
176
     1
 90
        4
176
     1
 62
     7
176
     1
 62
   257
176
     1
 90
        1
176
     1
 90
        1
176
     1
 40
1.0
176
     1
 90
        0
176
     1
 62
     7
176
     1
 40
1.0
176
     1
 90
        1
176
     1
 90
        6
176
     1
 90
        2
176
     1
 62
     7
176
     1
 90
        5
176
     1
 90
        0
176
     1
 90
        0
176
     1
290
     0
176
     1
 90
       13
176
     1
 40
0.0
176
     1
 90
        0
176
     1
290
     0
176
     1
290
     1
176
     1
290
     1
176
     1
290
     0
176
     1
290
     0
176
     1
290
     0
176
     1
290
     0
176
     1
290
     0
176
     1
290
     0
176
     1
 90
       50
176
     1
 40
0.0
176
     1
 40
1.0
176
     1
 90
        0
176
     1
 62
    18
420
        0
176
     1
 90
       50
176
     1
 90
        3
176
     1
 62
     5
420
      255
176
     1
290
     0
176
     1
 90
       50
176
     1
 90
       50
176
     1
 90
       50
176
     1
290
     0
176
     1
 90
       50
176
     1
 62
   256
176
     0
 40
1.0
176
     0
 90
        2
176
     1
  1
strokes_ogs.tif
176
     1
290
     0
176
     1
 40
1.0
176
     1
 40
1.0
176
     1
  0
VISUALSTYLE
  5
212
102
{ACAD_REACTORS
330
20E
102
}
330
20E
100
AcDbVisualStyle
  2
GouraudWithEdges
 70
     3
177
     3
291
     1
 70
    58
 90
        2
176
     1
 90
        2
176
     1
 90
        1
176
     1
 90
        2
176
     1
 40
-0.6
176
     1
 40
30.0
176
     1
 62
     7
176
     1
 90
        1
176
     1
 90
        4
176
     1
 62
     7
176
     1
 62
   257
176
     1
 90
        1
176
     1
 90
        1
176
     1
 40
1.0
176
     1
 90
        0
176
     1
 62
   257
176
     1
 40
1.0
176
     1
 90
        1
176
     1
 90
        6
176
     1
 90
        2
176
     1
 62
     7
176
     1
 90
        5
176
     1
 90
        0
176
     1
 90
        0
176
     1
290
     0
176
     1
 90
       13
176
     1
 40
0.0
176
     1
 90
        0
176
     1
290
     0
176
     1
290
     1
176
     1
290
     1
176
     1
290
     0
176
     1
290
     0
176
     1
290
     0
176
     1
290
     0
176
     1
290
     0
176
     1
290
     0
176
     1
 90
       50
176
     1
 40
0.0
176
     1
 40
1.0
176
     1
 90
        0
176
     1
 62
    18
420
        0
176
     1
 90
       50
176
     1
 90
        3
176
     1
 62
     5
420
      255
176
     1
290
     0
176
     1
 90
       50
176
     1
 90
       50
176
     1
 90
       50
176
     1
290
     0
176
     1
 90
       50
176
     1
 62
   256
176
     0
 40
1.0
176
     0
 90
        2
176
     1
  1
strokes_ogs.tif
176
     1
290
     0
176
     1
 40
1.0
176
     1
 40
1.0
176
     1
  0
VISUALSTYLE
  5
26C
102
{ACAD_REACTORS
330
20E
102
}
330
20E
100
AcDbVisualStyle
  2
Hidden
 70
     6
177
     3
291
     0
 70
    58
 90
        1
176
     1
 90
        2
176
     1
 90
        2
176
     1
 90
        0
176
     1
 40
0.6
176
     1
 40
30.0
176
     1
 62
     7
420
 16777215
176
     1
 90
        2
176
     1
 90
        2
176
     1
 62
     7
176
     1
 62
   257
176
     1
 90
        2
176
     1
 90
        1
176
     1
 40
40.0
176
     1
 90
        0
176
     1
 62
   257
176
     1
 40
1.0
176
     1
 90
        1
176
     1
 90
        6
176
     1
 90
        2
176
     1
 62
     7
176
     1
 90
        3
176
     1
 90
        0
176
     1
 90
        0
176
     1
290
     0
176
     1
 90
        1
176
     1
 40
0.0
176
     1
 90
        0
176
     1
290
     0
176
     1
290
     1
176
     1
290
     1
176
     1
290
     0
176
     1
290
     0
176
     1
290
     0
176
     1
290
     0
176
     1
290
     0
176
     1
290
     0
176
     1
 90
       50
176
     1
 40
0.0
176
     1
 40
1.0
176
     1
 90
        0
176
     1
 62
    18
420
        0
176
     1
 90
       50
176
     1
 90
        3
176
     1
 62
     5
420
      255
176
     1
290
     0
176
     1
 90
       50
176
     1
 90
       50
176
     1
 90
       50
176
     1
290
     0
176
     1
 90
       50
176
     1
 62
   256
176
     0
 40
1.0
176
     0
 90
        2
176
     1
  1
strokes_ogs.tif
176
     1
290
     0
176
     1
 40
1.0
176
     1
 40
1.0
176
     1
  0
VISUALSTYLE
  5
26D
102
{ACAD_REACTORS
330
20E
102
}
330
20E
100
AcDbVisualStyle
  2
JitterOff
 70
    20
177
     3
291
     1
 70
    58
 90
        2
176
     0
 90
        2
176
     0
 90
        0
176
     0
 90
        0
176
     0
 40
0.6
176
     0
 40
30.0
176
     0
 62
     7
420
 16777215
176
     0
 90
        1
176
     0
 90
        4
176
     0
 62
     7
176
     0
 62
   257
176
     0
 90
        1
176
     0
 90
        1
176
     0
 40
1.0
176
     0
 90
       10
176
     2
 62
     7
176
     0
 40
1.0
176
     0
 90
        1
176
     0
 90
        6
176
     0
 90
        2
176
     0
 62
     7
176
     0
 90
        5
176
     0
 90
        0
176
     0
 90
        0
176
     0
290
     0
176
     0
 90
        1
176
     0
 40
0.0
176
     0
 90
        0
176
     0
290
     0
176
     0
290
     1
176
     0
290
     1
176
     0
290
     0
176
     0
290
     0
176
     0
290
     0
176
     0
290
     0
176
     0
290
     0
176
     0
290
     0
176
     0
 90
       50
176
     0
 40
0.0
176
     0
 40
1.0
176
     0
 90
        0
176
     0
 62
    18
420
        0
176
     0
 90
       50
176
     0
 90
        3
176
     0
 62
     5
420
      255
176
     0
290
     0
176
     0
 90
       50
176
     0
 90
       50
176
     0
 90
       50
176
     0
290
     0
176
     0
 90
       50
176
     0
 62
   256
176
     0
 40
1.0
176
     0
 90
        2
176
     0
  1
strokes_ogs.tif
176
     0
290
     0
176
     0
 40
1.0
176
     0
 40
1.0
176
     0
  0
VISUALSTYLE
  5
21C
102
{ACAD_REACTORS
330
20E
102
}
330
20E
100
AcDbVisualStyle
  2
Linepattern
 70
    14
177
     3
291
     1
 70
    58
 90
        2
176
     1
 90
        2
176
     1
 90
        0
176
     1
 90
        0
176
     1
 40
-0.6
176
     1
 40
-30.0
176
     1
 62
     7
176
     1
 90
        1
176
     1
 90
        4
176
     1
 62
     7
176
     1
 62
   257
176
     1
 90
        7
176
     1
 90
        7
176
     1
 40
1.0
176
     1
 90
        8
176
     1
 62
     7
176
     1
 40
1.0
176
     1
 90
        1
176
     1
 90
        6
176
     1
 90
        2
176
     1
 62
     7
176
     1
 90
        5
176
     1
 90
        0
176
     1
 90
        0
176
     1
290
     0
176
     1
 90
        1
176
     1
 40
0.0
176
     1
 90
        0
176
     1
290
     0
176
     1
290
     1
176
     1
290
     1
176
     1
290
     0
176
     1
290
     0
176
     1
290
     0
176
     1
290
     0
176
     1
290
     0
176
     1
290
     0
176
     1
 90
       50
176
     1
 40
0.0
176
     1
 40
1.0
176
     1
 90
        0
176
     1
 62
    18
420
        0
176
     1
 90
       50
176
     1
 90
        3
176
     1
 62
     5
420
      255
176
     1
290
     0
176
     1
 90
       50
176
     1
 90
       50
176
     1
 90
       50
176
     1
290
     0
176
     1
 90
       50
176
     1
 62
   256
176
     0
 40
1.0
176
     0
 90
        2
176
     1
  1
strokes_ogs.tif
176
     1
290
     0
176
     1
 40
1.0
176
     1
 40
1.0
176
     1
  0
VISUALSTYLE
  5
26E
102
{ACAD_REACTORS
330
20E
102
}
330
20E
100
AcDbVisualStyle
  2
OverhangOff
 70
    21
177
     3
291
     1
 70
    58
 90
        2
176
     0
 90
        2
176
     0
 90
        0
176
     0
 90
        0
176
     0
 40
0.6
176
     0
 40
30.0
176
     0
 62
     7
420
 16777215
176
     0
 90
        1
176
     0
 90
        4
176
     0
 62
     7
176
     0
 62
   257
176
     0
 90
        1
176
     0
 90
        1
176
     0
 40
1.0
176
     0
 90
        9
176
     2
 62
     7
176
     0
 40
1.0
176
     0
 90
        1
176
     0
 90
        6
176
     0
 90
        2
176
     0
 62
     7
176
     0
 90
        5
176
     0
 90
        0
176
     0
 90
        0
176
     0
290
     0
176
     0
 90
        1
176
     0
 40
0.0
176
     0
 90
        0
176
     0
290
     0
176
     0
290
     1
176
     0
290
     1
176
     0
290
     0
176
     0
290
     0
176
     0
290
     0
176
     0
290
     0
176
     0
290
     0
176
     0
290
     0
176
     0
 90
       50
176
     0
 40
0.0
176
     0
 40
1.0
176
     0
 90
        0
176
     0
 62
    18
420
        0
176
     0
 90
       50
176
     0
 90
        3
176
     0
 62
     5
420
      255
176
     0
290
     0
176
     0
 90
       50
176
     0
 90
       50
176
     0
 90
       50
176
     0
290
     0
176
     0
 90
       50
176
     0
 62
   256
176
     0
 40
1.0
176
     0
 90
        2
176
     0
  1
strokes_ogs.tif
176
     0
290
     0
176
     0
 40
1.0
176
     0
 40
1.0
176
     0
  0
VISUALSTYLE
  5
217
102
{ACAD_REACTORS
330
20E
102
}
330
20E
100
AcDbVisualStyle
  2
Realistic
 70
     8
177
     3
291
     0
 70
    58
 90
        2
176
     1
 90
        2
176
     1
 90
        0
176
     1
 90
        0
176
     1
 40
-0.6
176
     1
 40
-30.0
176
     1
 62
     7
176
     1
 90
        1
176
     1
 90
        0
176
     1
 62
     7
176
     1
 62
   257
176
     1
 90
        1
176
     1
 90
        1
176
     1
 40
1.0
176
     1
 90
        8
176
     1
 62
     8
176
     1
 40
1.0
176
     1
 90
        1
176
     1
 90
        6
176
     1
 90
        2
176
     1
 62
     7
176
     1
 90
        5
176
     1
 90
        0
176
     1
 90
        0
176
     1
290
     0
176
     1
 90
       13
176
     1
 40
0.0
176
     1
 90
        0
176
     1
290
     0
176
     1
290
     1
176
     1
290
     1
176
     1
290
     0
176
     1
290
     0
176
     1
290
     0
176
     1
290
     0
176
     1
290
     0
176
     1
290
     0
176
     1
 90
       50
176
     1
 40
0.0
176
     1
 40
1.0
176
     1
 90
        0
176
     1
 62
    18
420
        0
176
     1
 90
       50
176
     1
 90
        3
176
     1
 62
     5
420
      255
176
     1
290
     0
176
     1
 90
       50
176
     1
 90
       50
176
     1
 90
       50
176
     1
290
     0
176
     1
 90
       50
176
     1
 62
   256
176
     0
 40
1.0
176
     0
 90
        2
176
     1
  1
strokes_ogs.tif
176
     1
290
     0
176
     1
 40
1.0
176
     1
 40
1.0
176
     1
  0
VISUALSTYLE
  5
274
102
{ACAD_REACTORS
330
20E
102
}
330
20E
100
AcDbVisualStyle
  2
Shaded
 70
    27
177
     3
291
     0
 70
    58
 90
        2
176
     1
 90
        2
176
     1
 90
        1
176
     1
 90
        2
176
     1
 40
0.6
176
     1
 40
30.0
176
     1
 62
     7
420
 16777215
176
     1
 90
        0
176
     1
 90
        4
176
     1
 62
     7
176
     1
 62
   257
176
     1
 90
        1
176
     1
 90
        1
176
     1
 40
1.0
176
     1
 90
        8
176
     1
 62
   257
176
     1
 40
1.0
176
     1
 90
        1
176
     1
 90
        6
176
     1
 90
        2
176
     1
 62
     8
420
  7895160
176
     1
 90
        3
176
     1
 90
        0
176
     1
 90
        0
176
     1
290
     0
176
     1
 90
        5
176
     1
 40
0.0
176
     1
 90
        0
176
     1
290
     0
176
     1
290
     1
176
     1
290
     1
176
     1
290
     0
176
     1
290
     0
176
     1
290
     0
176
     1
290
     0
176
     1
290
     0
176
     1
290
     0
176
     1
 90
       50
176
     1
 40
0.0
176
     1
 40
1.0
176
     1
 90
        0
176
     1
 62
    18
420
        0
176
     1
 90
       50
176
     1
 90
        3
176
     1
 62
     5
420
      255
176
     1
290
     0
176
     1
 90
       50
176
     1
 90
       50
176
     1
 90
       50
176
     1
290
     0
176
     1
 90
       50
176
     1
 62
   256
176
     0
 40
1.0
176
     0
 90
        2
176
     1
  1
strokes_ogs.tif
176
     1
290
     0
176
     1
 40
1.0
176
     1
 40
1.0
176
     1
  0
VISUALSTYLE
  5
273
102
{ACAD_REACTORS
330
20E
102
}
330
20E
100
AcDbVisualStyle
  2
Shaded with edges
 70
    26
177
     3
291
     0
 70
    58
 90
        2
176
     1
 90
        2
176
     1
 90
        1
176
     1
 90
        2
176
     1
 40
0.6
176
     1
 40
30.0
176
     1
 62
     7
420
 16777215
176
     1
 90
        1
176
     1
 90
       10
176
     1
 62
     7
176
     1
 62
   257
176
     1
 90
        2
176
     1
 90
        1
176
     1
 40
1.0
176
     1
 90
        8
176
     1
 62
   257
176
     1
 40
1.0
176
     1
 90
        1
176
     1
 90
        6
176
     1
 90
        2
176
     1
 62
     7
176
     1
 90
        3
176
     1
 90
        0
176
     1
 90
        0
176
     1
290
     0
176
     1
 90
        5
176
     1
 40
0.0
176
     1
 90
        0
176
     1
290
     0
176
     1
290
     1
176
     1
290
     1
176
     1
290
     0
176
     1
290
     0
176
     1
290
     0
176
     1
290
     0
176
     1
290
     0
176
     1
290
     0
176
     1
 90
       50
176
     1
 40
0.0
176
     1
 40
1.0
176
     1
 90
        0
176
     1
 62
    18
420
        0
176
     1
 90
       50
176
     1
 90
        3
176
     1
 62
     5
420
      255
176
     1
290
     0
176
     1
 90
       50
176
     1
 90
       50
176
     1
 90
       50
176
     1
290
     0
176
     1
 90
       50
176
     1
 62
   256
176
     0
 40
1.0
176
     0
 90
        2
176
     1
  1
strokes_ogs.tif
176
     1
290
     0
176
     1
 40
1.0
176
     1
 40
1.0
176
     1
  0
VISUALSTYLE
  5
270
102
{ACAD_REACTORS
330
20E
102
}
330
20E
100
AcDbVisualStyle
  2
Shades of Gray
 70
    23
177
     3
291
     0
 70
    58
 90
        2
176
     1
 90
        2
176
     1
 90
        3
176
     1
 90
        0
176
     1
 40
0.6
176
     1
 40
30.0
176
     1
 62
     7
420
 16777215
176
     1
 90
        2
176
     1
 90
        2
176
     1
 62
     7
176
     1
 62
     7
176
     1
 90
        1
176
     1
 90
        1
176
     1
 40
40.0
176
     1
 90
        8
176
     1
 62
     7
176
     1
 40
1.0
176
     1
 90
        1
176
     1
 90
        6
176
     1
 90
        2
176
     1
 62
     7
176
     1
 90
        3
176
     1
 90
        0
176
     1
 90
        0
176
     1
290
     0
176
     1
 90
        1
176
     1
 40
0.0
176
     1
 90
        0
176
     1
290
     0
176
     1
290
     1
176
     1
290
     1
176
     1
290
     0
176
     1
290
     0
176
     1
290
     0
176
     1
290
     0
176
     1
290
     0
176
     1
290
     0
176
     1
 90
       50
176
     1
 40
0.0
176
     1
 40
1.0
176
     1
 90
        0
176
     1
 62
    18
420
        0
176
     1
 90
       50
176
     1
 90
        3
176
     1
 62
     5
420
      255
176
     1
290
     0
176
     1
 90
       50
176
     1
 90
       50
176
     1
 90
       50
176
     1
290
     0
176
     1
 90
       50
176
     1
 62
   256
176
     0
 40
1.0
176
     0
 90
        2
176
     1
  1
strokes_ogs.tif
176
     1
290
     0
176
     1
 40
1.0
176
     1
 40
1.0
176
     1
  0
VISUALSTYLE
  5
271
102
{ACAD_REACTORS
330
20E
102
}
330
20E
100
AcDbVisualStyle
  2
Sketchy
 70
    24
177
     3
291
     0
 70
    58
 90
        1
176
     1
 90
        2
176
     1
 90
        2
176
     1
 90
        0
176
     1
 40
0.6
176
     1
 40
30.0
176
     1
 62
     7
420
 16777215
176
     1
 90
        2
176
     1
 90
        2
176
     1
 62
     7
176
     1
 62
     7
176
     1
 90
        1
176
     1
 90
        1
176
     1
 40
40.0
176
     1
 90
       11
176
     1
 62
     7
176
     1
 40
1.0
176
     1
 90
        1
176
     1
 90
        6
176
     1
 90
        2
176
     1
 62
     7
176
     1
 90
        6
176
     1
 90
        0
176
     1
 90
        0
176
     1
290
     0
176
     1
 90
        1
176
     1
 40
0.0
176
     1
 90
        0
176
     1
290
     0
176
     1
290
     1
176
     1
290
     1
176
     1
290
     0
176
     1
290
     0
176
     1
290
     0
176
     1
290
     0
176
     1
290
     0
176
     1
290
     0
176
     1
 90
       50
176
     1
 40
0.0
176
     1
 40
1.0
176
     1
 90
        0
176
     1
 62
    18
420
        0
176
     1
 90
       50
176
     1
 90
        3
176
     1
 62
     5
420
      255
176
     1
290
     0
176
     1
 90
       50
176
     1
 90
       50
176
     1
 90
       50
176
     1
290
     0
176
     1
 90
       50
176
     1
 62
   256
176
     0
 40
1.0
176
     0
 90
        2
176
     1
  1
strokes_ogs.tif
176
     1
290
     0
176
     1
 40
1.0
176
     1
 40
1.0
176
     1
  0
VISUALSTYLE
  5
21B
102
{ACAD_REACTORS
330
20E
102
}
330
20E
100
AcDbVisualStyle
  2
Thicken
 70
    13
177
     3
291
     1
 70
    58
 90
        2
176
     1
 90
        2
176
     1
 90
        0
176
     1
 90
        0
176
     1
 40
-0.6
176
     1
 40
-30.0
176
     1
 62
     7
176
     1
 90
        1
176
     1
 90
        4
176
     1
 62
     7
176
     1
 62
   257
176
     1
 90
        1
176
     1
 90
        1
176
     1
 40
1.0
176
     1
 90
       12
176
     1
 62
     7
176
     1
 40
1.0
176
     1
 90
        1
176
     1
 90
        6
176
     1
 90
        2
176
     1
 62
     7
176
     1
 90
        5
176
     1
 90
        0
176
     1
 90
        0
176
     1
290
     0
176
     1
 90
        1
176
     1
 40
0.0
176
     1
 90
        0
176
     1
290
     0
176
     1
290
     1
176
     1
290
     1
176
     1
290
     0
176
     1
290
     0
176
     1
290
     0
176
     1
290
     0
176
     1
290
     0
176
     1
290
     0
176
     1
 90
       50
176
     1
 40
0.0
176
     1
 40
1.0
176
     1
 90
        0
176
     1
 62
    18
420
        0
176
     1
 90
       50
176
     1
 90
        3
176
     1
 62
     5
420
      255
176
     1
290
     0
176
     1
 90
       50
176
     1
 90
       50
176
     1
 90
       50
176
     1
290
     0
176
     1
 90
       50
176
     1
 62
   256
176
     0
 40
1.0
176
     0
 90
        2
176
     1
  1
strokes_ogs.tif
176
     1
290
     0
176
     1
 40
1.0
176
     1
 40
1.0
176
     1
  0
VISUALSTYLE
  5
26B
102
{ACAD_REACTORS
330
20E
102
}
330
20E
100
AcDbVisualStyle
  2
Wireframe
 70
     5
177
     3
291
     0
 70
    58
 90
        0
176
     1
 90
        2
176
     1
 90
        0
176
     1
 90
        0
176
     1
 40
0.6
176
     1
 40
30.0
176
     1
 62
     7
420
 16777215
176
     1
 90
        1
176
     1
 90
        4
176
     1
 62
     7
176
     1
 62
   257
176
     1
 90
        1
176
     1
 90
        1
176
     1
 40
1.0
176
     1
 90
        0
176
     1
 62
   257
176
     1
 40
1.0
176
     1
 90
        1
176
     1
 90
        6
176
     1
 90
        2
176
     1
 62
     7
176
     1
 90
        3
176
     1
 90
        0
176
     1
 90
        0
176
     1
290
     0
176
     1
 90
        1
176
     1
 40
0.0
176
     1
 90
        0
176
     1
290
     0
176
     1
290
     1
176
     1
290
     1
176
     1
290
     0
176
     1
290
     0
176
     1
290
     0
176
     1
290
     0
176
     1
290
     0
176
     1
290
     0
176
     1
 90
       50
176
     1
 40
0.0
176
     1
 40
1.0
176
     1
 90
        0
176
     1
 62
    18
420
        0
176
     1
 90
       50
176
     1
 90
        3
176
     1
 62
     5
420
      255
176
     1
290
     0
176
     1
 90
       50
176
     1
 90
       50
176
     1
 90
       50
176
     1
290
     0
176
     1
 90
       50
176
     1
 62
   256
176
     0
 40
1.0
176
     0
 90
        2
176
     1
  1
strokes_ogs.tif
176
     1
290
     0
176
     1
 40
1.0
176
     1
 40
1.0
176
     1
  0
VISUALSTYLE
  5
272
102
{ACAD_REACTORS
330
20E
102
}
330
20E
100
AcDbVisualStyle
  2
X-Ray
 70
    25
177
     3
291
     0
 70
    58
 90
        2
176
     1
 90
        2
176
     1
 90
        1
176
     1
 90
        1
176
     1
 40
0.5
176
     1
 40
30.0
176
     1
 62
     7
420
 16777215
176
     1
 90
        1
176
     1
 90
        0
176
     1
 62
     7
176
     1
 62
   257
176
     1
 90
        1
176
     1
 90
        1
176
     1
 40
1.0
176
     1
 90
        8
176
     1
 62
     7
176
     1
 40
1.0
176
     1
 90
        1
176
     1
 90
        6
176
     1
 90
        2
176
     1
 62
     7
176
     1
 90
        3
176
     1
 90
        0
176
     1
 90
        0
176
     1
290
     0
176
     1
 90
       13
176
     1
 40
0.0
176
     1
 90
        0
176
     1
290
     0
176
     1
290
     1
176
     1
290
     1
176
     1
290
     0
176
     1
290
     0
176
     1
290
     0
176
     1
290
     0
176
     1
290
     0
176
     1
290
     0
176
     1
 90
       50
176
     1
 40
0.0
176
     1
 40
1.0
176
     1
 90
        0
176
     1
 62
    18
420
        0
176
     1
 90
       50
176
     1
 90
        3
176
     1
 62
     5
420
      255
176
     1
290
     0
176
     1
 90
       50
176
     1
 90
       50
176
     1
 90
       50
176
     1
290
     0
176
     1
 90
       50
176
     1
 62
   256
176
     0
 40
1.0
176
     0
 90
        2
176
     1
  1
strokes_ogs.tif
176
     1
290
     0
176
     1
 40
1.0
176
     1
 40
1.0
176
     1
  0
DICTIONARYVAR
  5
29E
102
{ACAD_REACTORS
330
22A
102
}
330
22A
100
DictionaryVariables
280
     0
  1
1:1
  0
DICTIONARYVAR
  5
2A0
102
{ACAD_REACTORS
330
22A
102
}
330
22A
100
DictionaryVariables
280
     0
  1
Standard
  0
DICTIONARYVAR
  5
29F
102
{ACAD_REACTORS
330
22A
102
}
330
22A
100
DictionaryVariables
280
     0
  1
Standard
  0
DICTIONARYVAR
  5
22E
102
{ACAD_REACTORS
330
22A
102
}
330
22A
100
DictionaryVariables
280
     0
  1
2
  0
DICTIONARYVAR
  5
22F
102
{ACAD_REACTORS
330
22A
102
}
330
22A
100
DictionaryVariables
280
     0
  1
1
  0
DICTIONARYVAR
  5
22D
102
{ACAD_REACTORS
330
22A
102
}
330
22A
100
DictionaryVariables
280
     0
  1
0
  0
DICTIONARY
  5
325
330
276
100
AcDbDictionary
280
     1
281
     1
  3
ACAD_ROUNDTRIP_2008_TABLESTYLE_CELLSTYLEMAP
360
326
  0
CELLSTYLEMAP
  5
326
102
{ACAD_REACTORS
330
325
102
}
330
325
100
AcDbCellStyleMap
 90
        3
300
CELLSTYLE
  1
TABLEFORMAT_BEGIN
 90
        5
170
     1
 91
        0
 92
    32768
 62
   257
 93
        1
300
CONTENTFORMAT
  1
CONTENTFORMAT_BEGIN
 90
        0
 91
        0
 92
        4
 93
        0
300

 40
0.0
140
1.0
 94
        5
 62
     0
340
11
144
0.25
309
CONTENTFORMAT_END
171
     1
301
MARGIN
  1
CELLMARGIN_BEGIN
 40
0.06
 40
0.06
 40
0.06
 40
0.06
 40
0.06
 40
0.06
309
CELLMARGIN_END
 94
        6
 95
        1
302
GRIDFORMAT
  1
GRIDFORMAT_BEGIN
 90
        0
 91
        1
 62
     0
 92
       -2
340
14
 93
        0
 40
0.045
309
GRIDFORMAT_END
 95
        2
302
GRIDFORMAT
  1
GRIDFORMAT_BEGIN
 90
        0
 91
        1
 62
     0
 92
       -2
340
14
 93
        0
 40
0.045
309
GRIDFORMAT_END
 95
        4
302
GRIDFORMAT
  1
GRIDFORMAT_BEGIN
 90
        0
 91
        1
 62
     0
 92
       -2
340
14
 93
        0
 40
0.045
309
GRIDFORMAT_END
 95
        8
302
GRIDFORMAT
  1
GRIDFORMAT_BEGIN
 90
        0
 91
        1
 62
     0
 92
       -2
340
14
 93
        0
 40
0.045
309
GRIDFORMAT_END
 95
       16
302
GRIDFORMAT
  1
GRIDFORMAT_BEGIN
 90
        0
 91
        1
 62
     0
 92
       -2
340
14
 93
        0
 40
0.045
309
GRIDFORMAT_END
 95
       32
302
GRIDFORMAT
  1
GRIDFORMAT_BEGIN
 90
        0
 91
        1
 62
     0
 92
       -2
340
14
 93
        0
 40
0.045
309
GRIDFORMAT_END
309
TABLEFORMAT_END
  1
CELLSTYLE_BEGIN
 90
        1
 91
        1
300
_TITLE
309
CELLSTYLE_END
300
CELLSTYLE
  1
TABLEFORMAT_BEGIN
 90
        5
170
     1
 91
        0
 92
        0
 62
   257
 93
        1
300
CONTENTFORMAT
  1
CONTENTFORMAT_BEGIN
 90
        0
 91
        0
 92
        4
 93
        0
300

 40
0.0
140
1.0
 94
        5
 62
     0
340
11
144
0.18
309
CONTENTFORMAT_END
171
     1
301
MARGIN
  1
CELLMARGIN_BEGIN
 40
0.06
 40
0.06
 40
0.06
 40
0.06
 40
0.06
 40
0.06
309
CELLMARGIN_END
 94
        6
 95
        1
302
GRIDFORMAT
  1
GRIDFORMAT_BEGIN
 90
        0
 91
        1
 62
     0
 92
       -2
340
14
 93
        0
 40
0.045
309
GRIDFORMAT_END
 95
        2
302
GRIDFORMAT
  1
GRIDFORMAT_BEGIN
 90
        0
 91
        1
 62
     0
 92
       -2
340
14
 93
        0
 40
0.045
309
GRIDFORMAT_END
 95
        4
302
GRIDFORMAT
  1
GRIDFORMAT_BEGIN
 90
        0
 91
        1
 62
     0
 92
       -2
340
14
 93
        0
 40
0.045
309
GRIDFORMAT_END
 95
        8
302
GRIDFORMAT
  1
GRIDFORMAT_BEGIN
 90
        0
 91
        1
 62
     0
 92
       -2
340
14
 93
        0
 40
0.045
309
GRIDFORMAT_END
 95
       16
302
GRIDFORMAT
  1
GRIDFORMAT_BEGIN
 90
        0
 91
        1
 62
     0
 92
       -2
340
14
 93
        0
 40
0.045
309
GRIDFORMAT_END
 95
       32
302
GRIDFORMAT
  1
GRIDFORMAT_BEGIN
 90
        0
 91
        1
 62
     0
 92
       -2
340
14
 93
        0
 40
0.045
309
GRIDFORMAT_END
309
TABLEFORMAT_END
  1
CELLSTYLE_BEGIN
 90
        2
 91
        1
300
_HEADER
309
CELLSTYLE_END
300
CELLSTYLE
  1
TABLEFORMAT_BEGIN
 90
        5
170
     1
 91
        0
 92
        0
 62
   257
 93
        1
300
CONTENTFORMAT
  1
CONTENTFORMAT_BEGIN
 90
        0
 91
        0
 92
        4
 93
        0
300

 40
0.0
140
1.0
 94
        2
 62
     0
340
11
144
0.18
309
CONTENTFORMAT_END
171
     1
301
MARGIN
  1
CELLMARGIN_BEGIN
 40
0.06
 40
0.06
 40
0.06
 40
0.06
 40
0.06
 40
0.06
309
CELLMARGIN_END
 94
        6
 95
        1
302
GRIDFORMAT
  1
GRIDFORMAT_BEGIN
 90
        0
 91
        1
 62
     0
 92
       -2
340
14
 93
        0
 40
0.045
309
GRIDFORMAT_END
 95
        2
302
GRIDFORMAT
  1
GRIDFORMAT_BEGIN
 90
        0
 91
        1
 62
     0
 92
       -2
340
14
 93
        0
 40
0.045
309
GRIDFORMAT_END
 95
        4
302
GRIDFORMAT
  1
GRIDFORMAT_BEGIN
 90
        0
 91
        1
 62
     0
 92
       -2
340
14
 93
        0
 40
0.045
309
GRIDFORMAT_END
 95
        8
302
GRIDFORMAT
  1
GRIDFORMAT_BEGIN
 90
        0
 91
        1
 62
     0
 92
       -2
340
14
 93
        0
 40
0.045
309
GRIDFORMAT_END
 95
       16
302
GRIDFORMAT
  1
GRIDFORMAT_BEGIN
 90
        0
 91
        1
 62
     0
 92
       -2
340
14
 93
        0
 40
0.045
309
GRIDFORMAT_END
 95
       32
302
GRIDFORMAT
  1
GRIDFORMAT_BEGIN
 90
        0
 91
        1
 62
     0
 92
       -2
340
14
 93
        0
 40
0.045
309
GRIDFORMAT_END
309
TABLEFORMAT_END
  1
CELLSTYLE_BEGIN
 90
        3
 91
        2
300
_DATA
309
CELLSTYLE_END
  0
ENDSEC
  0
EOF
