  0
SECTION
  2
HEADER
  9
$ACADVER
  1
AC1027
  9
$ACADMAINTVER
 70
   105
  9
$DWGCODEPAGE
  3
ANSI_1252
  9
$REQUIREDVERSIONS
160
                 0
  9
$LASTSAVEDBY
  1
matthias.ochs
  9
$INSBASE
 10
0.0
 20
0.0
 30
0.0
  9
$EXTMIN
 10
-35.77806313251003
 20
-45.94683996496569
 30
0.0
  9
$EXTMAX
 10
53.23041225441364
 20
48.33004985295977
 30
0.0
  9
$LIMMIN
 10
-54.857781772
 20
-21.034999552
  9
$LIMMAX
 10
65.838927276
 20
33.535000026
  9
$ORTHOMODE
 70
     0
  9
$REGENMODE
 70
     1
  9
$FILLMODE
 70
     1
  9
$QTEXTMODE
 70
     0
  9
$MIRRTEXT
 70
     1
  9
$LTSCALE
 40
1.0
  9
$ATTMODE
 70
     1
  9
$TEXTSIZE
 40
0.2
  9
$TRACEWID
 40
0.05
  9
$TEXTSTYLE
  7
Standard
  9
$CLAYER
  8
1
  9
$CELTYPE
  6
ByLayer
  9
$CECOLOR
 62
   256
  9
$CELTSCALE
 40
1.0
  9
$DISPSILH
 70
     0
  9
$DIMSCALE
 40
1.0
  9
$DIMASZ
 40
0.18
  9
$DIMEXO
 40
0.0625
  9
$DIMDLI
 40
0.38
  9
$DIMRND
 40
0.0
  9
$DIMDLE
 40
0.0
  9
$DIMEXE
 40
0.18
  9
$DIMTP
 40
0.0
  9
$DIMTM
 40
0.0
  9
$DIMTXT
 40
0.18
  9
$DIMCEN
 40
0.09
  9
$DIMTSZ
 40
0.0
  9
$DIMTOL
 70
     0
  9
$DIMLIM
 70
     0
  9
$DIMTIH
 70
     1
  9
$DIMTOH
 70
     1
  9
$DIMSE1
 70
     0
  9
$DIMSE2
 70
     0
  9
$DIMTAD
 70
     0
  9
$DIMZIN
 70
     0
  9
$DIMBLK
  1

  9
$DIMASO
 70
     1
  9
$DIMSHO
 70
     1
  9
$DIMPOST
  1

  9
$DIMAPOST
  1

  9
$DIMALT
 70
     0
  9
$DIMALTD
 70
     2
  9
$DIMALTF
 40
25.4
  9
$DIMLFAC
 40
1.0
  9
$DIMTOFL
 70
     0
  9
$DIMTVP
 40
0.0
  9
$DIMTIX
 70
     0
  9
$DIMSOXD
 70
     0
  9
$DIMSAH
 70
     0
  9
$DIMBLK1
  1

  9
$DIMBLK2
  1

  9
$DIMSTYLE
  2
Standard
  9
$DIMCLRD
 70
     0
  9
$DIMCLRE
 70
     0
  9
$DIMCLRT
 70
     0
  9
$DIMTFAC
 40
1.0
  9
$DIMGAP
 40
0.09
  9
$DIMJUST
 70
     0
  9
$DIMSD1
 70
     0
  9
$DIMSD2
 70
     0
  9
$DIMTOLJ
 70
     1
  9
$DIMTZIN
 70
     0
  9
$DIMALTZ
 70
     0
  9
$DIMALTTZ
 70
     0
  9
$DIMUPT
 70
     0
  9
$DIMDEC
 70
     4
  9
$DIMTDEC
 70
     4
  9
$DIMALTU
 70
     2
  9
$DIMALTTD
 70
     2
  9
$DIMTXSTY
  7
Standard
  9
$DIMAUNIT
 70
     0
  9
$DIMADEC
 70
     0
  9
$DIMALTRND
 40
0.0
  9
$DIMAZIN
 70
     0
  9
$DIMDSEP
 70
    46
  9
$DIMATFIT
 70
     3
  9
$DIMFRAC
 70
     0
  9
$DIMLDRBLK
  1

  9
$DIMLUNIT
 70
     2
  9
$DIMLWD
 70
    -2
  9
$DIMLWE
 70
    -2
  9
$DIMTMOVE
 70
     2
  9
$DIMFXL
 40
1.0
  9
$DIMFXLON
 70
     0
  9
$DIMJOGANG
 40
0.7853981633974483
  9
$DIMTFILL
 70
     0
  9
$DIMTFILLCLR
 70
     0
  9
$DIMARCSYM
 70
     0
  9
$DIMLTYPE
  6

  9
$DIMLTEX1
  6

  9
$DIMLTEX2
  6

  9
$DIMTXTDIRECTION
 70
     0
  9
$LUNITS
 70
     2
  9
$LUPREC
 70
     4
  9
$SKETCHINC
 40
0.1
  9
$FILLETRAD
 40
0.5
  9
$AUNITS
 70
     2
  9
$AUPREC
 70
     0
  9
$MENU
  1
.
  9
$ELEVATION
 40
0.0
  9
$PELEVATION
 40
0.0
  9
$THICKNESS
 40
0.0
  9
$LIMCHECK
 70
     0
  9
$CHAMFERA
 40
0.5
  9
$CHAMFERB
 40
0.5
  9
$CHAMFERC
 40
1.0
  9
$CHAMFERD
 40
0.0
  9
$SKPOLY
 70
     0
  9
$TDCREATE
 40
2458327.549559607
  9
$TDUCREATE
 40
2458327.466226273
  9
$TDUPDATE
 40
2458680.445333646
  9
$TDUUPDATE
 40
2458680.362000313
  9
$TDINDWG
 40
0.0127917593
  9
$TDUSRTIMER
 40
0.0087366319
  9
$USRTIMER
 70
     1
  9
$ANGBASE
 50
0.0
  9
$ANGDIR
 70
     0
  9
$PDMODE
 70
     0
  9
$PDSIZE
 40
0.0
  9
$PLINEWID
 40
0.0
  9
$SPLFRAME
 70
     0
  9
$SPLINETYPE
 70
     6
  9
$SPLINESEGS
 70
     8
  9
$HANDSEED
  5
323
  9
$SURFTAB1
 70
     6
  9
$SURFTAB2
 70
     6
  9
$SURFTYPE
 70
     6
  9
$SURFU
 70
     6
  9
$SURFV
 70
     6
  9
$UCSBASE
  2

  9
$UCSNAME
  2

  9
$UCSORG
 10
0.0
 20
0.0
 30
0.0
  9
$UCSXDIR
 10
1.0
 20
0.0
 30
0.0
  9
$UCSYDIR
 10
0.0
 20
1.0
 30
0.0
  9
$UCSORTHOREF
  2

  9
$UCSORTHOVIEW
 70
     0
  9
$UCSORGTOP
 10
0.0
 20
0.0
 30
0.0
  9
$UCSORGBOTTOM
 10
0.0
 20
0.0
 30
0.0
  9
$UCSORGLEFT
 10
0.0
 20
0.0
 30
0.0
  9
$UCSORGRIGHT
 10
0.0
 20
0.0
 30
0.0
  9
$UCSORGFRONT
 10
0.0
 20
0.0
 30
0.0
  9
$UCSORGBACK
 10
0.0
 20
0.0
 30
0.0
  9
$PUCSBASE
  2

  9
$PUCSNAME
  2

  9
$PUCSORG
 10
0.0
 20
0.0
 30
0.0
  9
$PUCSXDIR
 10
1.0
 20
0.0
 30
0.0
  9
$PUCSYDIR
 10
0.0
 20
1.0
 30
0.0
  9
$PUCSORTHOREF
  2

  9
$PUCSORTHOVIEW
 70
     0
  9
$PUCSORGTOP
 10
0.0
 20
0.0
 30
0.0
  9
$PUCSORGBOTTOM
 10
0.0
 20
0.0
 30
0.0
  9
$PUCSORGLEFT
 10
0.0
 20
0.0
 30
0.0
  9
$PUCSORGRIGHT
 10
0.0
 20
0.0
 30
0.0
  9
$PUCSORGFRONT
 10
0.0
 20
0.0
 30
0.0
  9
$PUCSORGBACK
 10
0.0
 20
0.0
 30
0.0
  9
$USERI1
 70
     0
  9
$USERI2
 70
     0
  9
$USERI3
 70
     0
  9
$USERI4
 70
     0
  9
$USERI5
 70
     0
  9
$USERR1
 40
0.0
  9
$USERR2
 40
0.0
  9
$USERR3
 40
0.0
  9
$USERR4
 40
0.0
  9
$USERR5
 40
0.0
  9
$WORLDVIEW
 70
     1
  9
$SHADEDGE
 70
     3
  9
$SHADEDIF
 70
    70
  9
$TILEMODE
 70
     1
  9
$MAXACTVP
 70
    64
  9
$PINSBASE
 10
0.0
 20
0.0
 30
0.0
  9
$PLIMCHECK
 70
     0
  9
$PEXTMIN
 10
1.000000000000000E+20
 20
1.000000000000000E+20
 30
1.000000000000000E+20
  9
$PEXTMAX
 10
-1.000000000000000E+20
 20
-1.000000000000000E+20
 30
-1.000000000000000E+20
  9
$PLIMMIN
 10
0.0
 20
0.0
  9
$PLIMMAX
 10
0.0
 20
0.0
  9
$UNITMODE
 70
     0
  9
$VISRETAIN
 70
     1
  9
$PLINEGEN
 70
     0
  9
$PSLTSCALE
 70
     1
  9
$TREEDEPTH
 70
  3020
  9
$CMLSTYLE
  2
Standard
  9
$CMLJUST
 70
     0
  9
$CMLSCALE
 40
1.0
  9
$PROXYGRAPHICS
 70
     1
  9
$MEASUREMENT
 70
     0
  9
$CELWEIGHT
370
    -1
  9
$ENDCAPS
280
     0
  9
$JOINSTYLE
280
     0
  9
$LWDISPLAY
290
     0
  9
$INSUNITS
 70
     0
  9
$HYPERLINKBASE
  1

  9
$STYLESHEET
  1

  9
$XEDIT
290
     1
  9
$CEPSNTYPE
380
     0
  9
$PSTYLEMODE
290
     1
  9
$FINGERPRINTGUID
  2
{6E54F52F-FD34-42C8-BBCF-A345991A0C07}
  9
$VERSIONGUID
  2
{FAEB1C32-E019-11D5-929B-00C0DF256EC4}
  9
$EXTNAMES
290
     1
  9
$PSVPSCALE
 40
0.0
  9
$OLESTARTUP
290
     0
  9
$SORTENTS
280
   127
  9
$INDEXCTL
280
     0
  9
$HIDETEXT
280
     1
  9
$XCLIPFRAME
280
     2
  9
$HALOGAP
280
     0
  9
$OBSCOLOR
 70
   257
  9
$OBSLTYPE
280
     0
  9
$INTERSECTIONDISPLAY
280
     0
  9
$INTERSECTIONCOLOR
 70
   257
  9
$DIMASSOC
280
     2
  9
$PROJECTNAME
  1

  9
$CAMERADISPLAY
290
     0
  9
$LENSLENGTH
 40
50.0
  9
$CAMERAHEIGHT
 40
0.0
  9
$STEPSPERSEC
 40
2.0
  9
$STEPSIZE
 40
6.0
  9
$3DDWFPREC
 40
2.0
  9
$PSOLWIDTH
 40
0.25
  9
$PSOLHEIGHT
 40
4.0
  9
$LOFTANG1
 40
1.570796326794897
  9
$LOFTANG2
 40
1.570796326794897
  9
$LOFTMAG1
 40
0.0
  9
$LOFTMAG2
 40
0.0
  9
$LOFTPARAM
 70
     7
  9
$LOFTNORMALS
280
     1
  9
$LATITUDE
 40
37.795
  9
$LONGITUDE
 40
-122.394
  9
$NORTHDIRECTION
 40
0.0
  9
$TIMEZONE
 70
 -8000
  9
$LIGHTGLYPHDISPLAY
280
     1
  9
$TILEMODELIGHTSYNCH
280
     1
  9
$SOLIDHIST
280
     0
  9
$SHOWHIST
280
     1
  9
$DWFFRAME
280
     2
  9
$DGNFRAME
280
     2
  9
$REALWORLDSCALE
290
     1
  9
$INTERFERECOLOR
 62
   256
  9
$CSHADOW
280
     0
  9
$SHADOWPLANELOCATION
 40
0.0
  0
ENDSEC
  0
SECTION
  2
CLASSES
  0
CLASS
  1
ACDBDICTIONARYWDFLT
  2
AcDbDictionaryWithDefault
  3
ObjectDBX Classes
 90
        0
 91
       10
280
     0
281
     0
  0
CLASS
  1
SCALE
  2
AcDbScale
  3
ObjectDBX Classes
 90
     1153
 91
       10
280
     0
281
     0
  0
CLASS
  1
VISUALSTYLE
  2
AcDbVisualStyle
  3
ObjectDBX Classes
 90
     4095
 91
       10
280
     0
281
     0
  0
CLASS
  1
MATERIAL
  2
AcDbMaterial
  3
ObjectDBX Classes
 90
     1153
 91
       10
280
     0
281
     0
  0
CLASS
  1
DICTIONARYVAR
  2
AcDbDictionaryVar
  3
ObjectDBX Classes
 90
        0
 91
       10
280
     0
281
     0
  0
CLASS
  1
ACDBPLACEHOLDER
  2
AcDbPlaceHolder
  3
ObjectDBX Classes
 90
        0
 91
        1
280
     0
281
     0
  0
CLASS
  1
LAYOUT
  2
AcDbLayout
  3
ObjectDBX Classes
 90
        0
 91
        1
280
     0
281
     0
  0
CLASS
  1
TABLESTYLE
  2
AcDbTableStyle
  3
ObjectDBX Classes
 90
     4095
 91
       10
280
     0
281
     0
  0
CLASS
  1
MLEADERSTYLE
  2
AcDbMLeaderStyle
  3
ACDB_MLEADERSTYLE_CLASS
 90
     4095
 91
       10
280
     0
281
     0
  0
CLASS
  1
CELLSTYLEMAP
  2
AcDbCellStyleMap
  3
ObjectDBX Classes
 90
     1152
 91
        7
280
     0
281
     0
  0
CLASS
  1
SUN
  2
AcDbSun
  3
SCENEOE
 90
     1153
 91
       10
280
     0
281
     0
  0
CLASS
  1
SORTENTSTABLE
  2
AcDbSortentsTable
  3
ObjectDBX Classes
 90
        0
 91
        6
280
     0
281
     0
  0
ENDSEC
  0
SECTION
  2
TABLES
  0
TABLE
  2
VPORT
  5
8
330
0
100
AcDbSymbolTable
 70
     1
  0
VPORT
  5
1B5
330
8
100
AcDbSymbolTableRecord
100
AcDbViewportTableRecord
  2
*Active
 70
     0
 10
0.0
 20
0.0
 11
1.0
 21
1.0
 12
-51.89435879636162
 22
39.20853725385086
 13
0.0
 23
0.0
 14
0.5
 24
0.5
 15
0.5
 25
0.5
 16
0.0
 26
0.0
 36
1.0
 17
0.0
 27
0.0
 37
0.0
 40
234.7302875067465
 41
1.831002331002331
 42
50.0
 43
0.0
 44
0.0
 50
0.0
 51
0.0
 71
    16
 72
   100
 73
     1
 74
     3
 75
     0
 76
     0
 77
     0
 78
     0
281
     0
 65
     1
110
0.0
120
0.0
130
0.0
111
1.0
121
0.0
131
0.0
112
0.0
122
1.0
132
0.0
 79
     0
146
0.0
348
1E6
 60
     3
 61
     5
292
     1
282
     1
141
0.0
142
0.0
 63
   256
361
285
  0
ENDTAB
  0
TABLE
  2
LTYPE
  5
5
330
0
100
AcDbSymbolTable
 70
     8
  0
LTYPE
  5
14
330
5
100
AcDbSymbolTableRecord
100
AcDbLinetypeTableRecord
  2
ByBlock
 70
     0
  3

 72
    65
 73
     0
 40
0.0
  0
LTYPE
  5
15
330
5
100
AcDbSymbolTableRecord
100
AcDbLinetypeTableRecord
  2
ByLayer
 70
     0
  3

 72
    65
 73
     0
 40
0.0
  0
LTYPE
  5
16
330
5
100
AcDbSymbolTableRecord
100
AcDbLinetypeTableRecord
  2
Continuous
 70
     0
  3
Solid line
 72
    65
 73
     0
 40
0.0
  0
LTYPE
  5
20
330
5
100
AcDbSymbolTableRecord
100
AcDbLinetypeTableRecord
  2
PUNKT
 70
     0
  3
..............
 72
    65
 73
     2
 40
1.5
 49
0.7
 74
     0
 49
-0.8
 74
     0
  0
LTYPE
  5
21
330
5
100
AcDbSymbolTableRecord
100
AcDbLinetypeTableRecord
  2
GESTRICHELT
 70
     0
  3
-- -- -- -- --
 72
    65
 73
     7
 40
2.8
 49
0.9
 74
     0
 49
0.0
 74
     0
 49
0.9
 74
     0
 49
0.0
 74
     0
 49
0.2
 74
     0
 49
0.0
 74
     0
 49
-0.8
 74
     0
  0
LTYPE
  5
22
330
5
100
AcDbSymbolTableRecord
100
AcDbLinetypeTableRecord
  2
STRICHPUNKT
 70
     0
  3
--.--.--.--.--
 72
    65
 73
     4
 40
8.8
 49
5.5
 74
     0
 49
-1.3
 74
     0
 49
0.7
 74
     0
 49
-1.3
 74
     0
  0
LTYPE
  5
25
330
5
100
AcDbSymbolTableRecord
100
AcDbLinetypeTableRecord
  2
PHANTOM
 70
     0
  3
--..--..--..--
 72
    65
 73
     6
 40
14.2
 49
7.0
 74
     0
 49
-1.8
 74
     0
 49
0.9
 74
     0
 49
-1.8
 74
     0
 49
0.9
 74
     0
 49
-1.8
 74
     0
  0
LTYPE
  5
22D
330
5
100
AcDbSymbolTableRecord
100
AcDbLinetypeTableRecord
  2
DASH
 70
     0
  3
DASH _ _ _ _ _
 72
    65
 73
     2
 40
0.75
 49
0.4
 74
     0
 49
-0.35
 74
     0
  0
LTYPE
  5
22E
330
5
100
AcDbSymbolTableRecord
100
AcDbLinetypeTableRecord
  2
LONGDASH_DASH
 70
     0
  3
LONGDASH_DASH __ . __ . __
 72
    65
 73
     4
 40
0.85
 49
0.4
 74
     0
 49
-0.2
 74
     0
 49
0.05
 74
     0
 49
-0.2
 74
     0
  0
LTYPE
  5
22F
330
5
100
AcDbSymbolTableRecord
100
AcDbLinetypeTableRecord
  2
LONGDASH_DASH_DASH
 70
     0
  3
LONGDASH_DASH_DASH __ . . __ . . __
 72
    65
 73
     6
 40
1.1
 49
0.4
 74
     0
 49
-0.2
 74
     0
 49
0.05
 74
     0
 49
-0.2
 74
     0
 49
0.05
 74
     0
 49
-0.2
 74
     0
  0
ENDTAB
  0
TABLE
  2
LAYER
  5
2
102
{ACAD_XDICTIONARY
360
24C
102
}
330
0
100
AcDbSymbolTable
 70
    17
  0
LAYER
  5
1F7
330
2
100
AcDbSymbolTableRecord
100
AcDbLayerTableRecord
  2
200
 70
     0
 62
     2
  6
Continuous
370
    50
390
F
347
1F5
348
0
  0
LAYER
  5
230
330
2
100
AcDbSymbolTableRecord
100
AcDbLayerTableRecord
  2
0
 70
     0
 62
     1
  6
Continuous
370
    -3
390
F
347
1F5
348
0
  0
LAYER
  5
231
330
2
100
AcDbSymbolTableRecord
100
AcDbLayerTableRecord
  2
1
 70
     0
 62
     4
  6
Continuous
370
    50
390
F
347
1F5
348
0
  0
LAYER
  5
232
330
2
100
AcDbSymbolTableRecord
100
AcDbLayerTableRecord
  2
2
 70
     0
 62
     7
  6
Continuous
370
    25
390
F
347
1F5
348
0
  0
LAYER
  5
233
330
2
100
AcDbSymbolTableRecord
100
AcDbLayerTableRecord
  2
3
 70
     0
 62
     1
  6
DASH
370
    35
390
F
347
1F5
348
0
  0
LAYER
  5
234
330
2
100
AcDbSymbolTableRecord
100
AcDbLayerTableRecord
  2
4
 70
     0
 62
     2
  6
LONGDASH_DASH
370
    25
390
F
347
1F5
348
0
  0
LAYER
  5
235
330
2
100
AcDbSymbolTableRecord
100
AcDbLayerTableRecord
  2
6
 70
     0
 62
     5
  6
Continuous
370
    -3
390
F
347
1F5
348
0
  0
LAYER
  5
236
330
2
100
AcDbSymbolTableRecord
100
AcDbLayerTableRecord
  2
CUT
 70
     0
 62
     1
  6
Continuous
370
    25
390
F
347
1F5
348
0
  0
LAYER
  5
237
330
2
100
AcDbSymbolTableRecord
100
AcDbLayerTableRecord
  2
NOCUT
 70
     0
 62
     7
  6
Continuous
370
    25
390
F
347
1F5
348
0
  0
LAYER
  5
238
330
2
100
AcDbSymbolTableRecord
100
AcDbLayerTableRecord
  2
SK1
 70
     0
 62
     4
  6
Continuous
370
    50
390
F
347
1F5
348
0
  0
LAYER
  5
239
330
2
100
AcDbSymbolTableRecord
100
AcDbLayerTableRecord
  2
SK2
 70
     0
 62
     7
  6
Continuous
370
    25
390
F
347
1F5
348
0
  0
LAYER
  5
23A
330
2
100
AcDbSymbolTableRecord
100
AcDbLayerTableRecord
  2
SK3
 70
     0
 62
     1
  6
DASH
370
    35
390
F
347
1F5
348
0
  0
LAYER
  5
23B
330
2
100
AcDbSymbolTableRecord
100
AcDbLayerTableRecord
  2
SK4
 70
     0
 62
     2
  6
LONGDASH_DASH
370
    25
390
F
347
1F5
348
0
  0
LAYER
  5
23C
330
2
100
AcDbSymbolTableRecord
100
AcDbLayerTableRecord
  2
SK6
 70
     0
 62
     5
  6
Continuous
370
    -3
390
F
347
1F5
348
0
  0
LAYER
  5
23D
330
2
100
AcDbSymbolTableRecord
100
AcDbLayerTableRecord
  2
INFTOTAL
 70
     0
 62
     9
  6
Continuous
370
    18
390
F
347
1F5
348
0
  0
LAYER
  5
2E5
330
2
100
AcDbSymbolTableRecord
100
AcDbLayerTableRecord
  2
7
 70
     0
 62
     5
  6
Continuous
370
    18
390
F
347
1F5
348
0
1001
AcAecLayerStandard
1000

1000

  0
LAYER
  5
2E7
330
2
100
AcDbSymbolTableRecord
100
AcDbLayerTableRecord
  2
11
 70
     0
 62
     4
  6
Continuous
370
    50
390
F
347
1F5
348
0
1001
AcAecLayerStandard
1000

1000

  0
ENDTAB
  0
TABLE
  2
STYLE
  5
3
330
0
100
AcDbSymbolTable
 70
     3
  0
STYLE
  5
11
330
3
100
AcDbSymbolTableRecord
100
AcDbTextStyleTableRecord
  2
Standard
 70
     0
 40
0.0
 41
1.0
 50
0.0
 71
     0
 42
0.2
  3
txt
  4

  0
STYLE
  5
1F6
330
3
100
AcDbSymbolTableRecord
100
AcDbTextStyleTableRecord
  2
BMG_Text
 70
     0
 40
3.5
 41
1.0
 50
0.0
 71
     0
 42
0.2
  3
monos.ttf
  4

1001
ACAD
1000
Monospac821 BT
1071
       49
  0
STYLE
  5
2EC
330
3
100
AcDbSymbolTableRecord
100
AcDbTextStyleTableRecord
  2
SLDTEXTSTYLE0
 70
     0
 40
0.0
 41
0.605
 50
0.0
 71
     0
 42
0.2
  3
TXT
  4

  0
ENDTAB
  0
TABLE
  2
VIEW
  5
6
330
0
100
AcDbSymbolTable
 70
     0
  0
ENDTAB
  0
TABLE
  2
UCS
  5
7
330
0
100
AcDbSymbolTable
 70
     0
  0
ENDTAB
  0
TABLE
  2
APPID
  5
9
330
0
100
AcDbSymbolTable
 70
     3
  0
APPID
  5
12
330
9
100
AcDbSymbolTableRecord
100
AcDbRegAppTableRecord
  2
ACAD
 70
     0
  0
APPID
  5
2E6
330
9
100
AcDbSymbolTableRecord
100
AcDbRegAppTableRecord
  2
AcAecLayerStandard
 70
     0
  0
APPID
  5
2EF
330
9
100
AcDbSymbolTableRecord
100
AcDbRegAppTableRecord
  2
PE_URL
 70
     0
  0
ENDTAB
  0
TABLE
  2
DIMSTYLE
  5
A
330
0
100
AcDbSymbolTable
 70
     6
100
AcDbDimStyleTable
  0
DIMSTYLE
105
28
330
A
100
AcDbSymbolTableRecord
100
AcDbDimStyleTableRecord
  2
Standard
 70
     0
178
     0
340
11
  0
DIMSTYLE
105
2E8
330
A
100
AcDbSymbolTableRecord
100
AcDbDimStyleTableRecord
  2
Matthias
 70
     0
 41
3.0
 44
2.0
 73
     0
 77
     1
140
3.0
147
2.0
178
     0
340
11
  0
DIMSTYLE
105
2EA
102
{ACAD_REACTORS
102
}
330
A
100
AcDbSymbolTableRecord
100
AcDbDimStyleTableRecord
  2
ISO-25
 70
     0
 41
2.5
 42
0.625
 43
3.75
 44
1.25
 73
     0
 74
     0
 77
     1
 78
     8
140
2.5
141
2.5
143
0.0393700787
147
0.625
171
     3
172
     1
178
     0
271
     2
272
     2
274
     3
278
    44
283
     0
284
     8
340
11
  0
DIMSTYLE
105
2EB
330
A
100
AcDbSymbolTableRecord
100
AcDbDimStyleTableRecord
  2
SLDDIMSTYLE0
 70
     0
 41
3.5
 44
0.0
 45
0.000000001
 73
     0
 74
     0
 77
     1
 78
    12
 79
     3
140
3.5
144
0.5
147
0.875
173
     1
178
     0
271
     2
272
     1
276
     2
284
    12
340
2EC
  0
DIMSTYLE
105
2ED
330
A
100
AcDbSymbolTableRecord
100
AcDbDimStyleTableRecord
  2
SLDDIMSTYLE1
 70
     0
 41
3.5
 44
0.0
 45
0.000000001
 73
     0
 74
     0
 77
     1
 78
    12
 79
     3
140
3.5
144
0.5
147
0.875
173
     1
178
     0
271
     2
272
     3
276
     2
284
    12
340
2EC
  0
DIMSTYLE
105
2EE
330
A
100
AcDbSymbolTableRecord
100
AcDbDimStyleTableRecord
  2
SLDDIMSTYLE2
 70
     0
 41
3.5
 44
0.0
 45
0.000000001
 73
     0
 74
     0
 77
     1
 78
    12
 79
     3
140
3.5
147
0.875
173
     1
178
     0
271
     2
272
     0
276
     2
284
    12
340
2EC
  0
ENDTAB
  0
TABLE
  2
BLOCK_RECORD
  5
1
330
0
100
AcDbSymbolTable
 70
     1
  0
BLOCK_RECORD
  5
1D
102
{ACAD_XDICTIONARY
360
301
102
}
330
1
100
AcDbSymbolTableRecord
100
AcDbBlockTableRecord
  2
*Model_Space
340
1E
 70
     0
280
     1
281
     0
  0
BLOCK_RECORD
  5
1B
330
1
100
AcDbSymbolTableRecord
100
AcDbBlockTableRecord
  2
*Paper_Space
340
1C
 70
     0
280
     1
281
     0
  0
ENDTAB
  0
ENDSEC
  0
SECTION
  2
BLOCKS
  0
BLOCK
  5
1DF
330
1D
100
AcDbEntity
  8
0
100
AcDbBlockBegin
  2
*Model_Space
 70
     0
 10
0.0
 20
0.0
 30
0.0
  3
*Model_Space
  1

  0
ENDBLK
  5
1E0
330
1D
100
AcDbEntity
  8
0
100
AcDbBlockEnd
  0
BLOCK
  5
1DD
330
1B
100
AcDbEntity
 67
     1
  8
0
100
AcDbBlockBegin
  2
*Paper_Space
 70
     0
 10
0.0
 20
0.0
 30
0.0
  3
*Paper_Space
  1

  0
ENDBLK
  5
1DE
330
1B
100
AcDbEntity
 67
     1
  8
0
100
AcDbBlockEnd
  0
ENDSEC
  0
SECTION
  2
ENTITIES
  0
ARC
  5
29
330
1D
100
AcDbEntity
  8
1
100
AcDbCircle
 10
24.21502477482083
 20
-1.998250421000002
 30
0.0
 40
8.008861816
100
AcDbArc
 50
180.012517252
 51
202.2797097329999
  0
ARC
  5
2A
330
1D
100
AcDbEntity
  8
1
100
AcDbCircle
 10
17.53235797082083
 20
-18.713862094
 30
0.0
 40
0.806317232
100
AcDbArc
 50
260.507481333
 51
357.8965352989999
  0
LINE
  5
2B
330
1D
100
AcDbEntity
  8
1
100
AcDbLine
 10
16.20616314982082
 20
-1.305036364000002
 30
0.0
 11
16.15593133582082
 21
-1.541288221000002
 31
0.0
  0
LINE
  5
2C
330
1D
100
AcDbEntity
  8
1
100
AcDbLine
 10
16.15593133582082
 20
-1.541288221000002
 30
0.0
 11
16.06845406882082
 21
-1.764161629000002
 31
0.0
  0
LINE
  5
2D
330
1D
100
AcDbEntity
  8
1
100
AcDbLine
 10
16.06845406882082
 20
-1.764161629000002
 30
0.0
 11
16.00889412782082
 21
-1.842034632000002
 31
0.0
  0
LINE
  5
2E
330
1D
100
AcDbEntity
  8
1
100
AcDbLine
 10
16.00889412782082
 20
-1.842034632000002
 30
0.0
 11
15.98189322382082
 21
-1.860028715000002
 31
0.0
  0
LINE
  5
2F
330
1D
100
AcDbEntity
  8
1
100
AcDbLine
 10
15.98189322382082
 20
-1.860028715000002
 30
0.0
 11
15.95017982682082
 21
-1.868373948000002
 31
0.0
  0
LINE
  5
30
330
1D
100
AcDbEntity
  8
1
100
AcDbLine
 10
15.95017982682082
 20
-1.868373948000002
 30
0.0
 11
15.92235563382082
 21
-1.864602906000002
 31
0.0
  0
LINE
  5
31
330
1D
100
AcDbEntity
  8
1
100
AcDbLine
 10
15.92235563382082
 20
-1.864602906000002
 30
0.0
 11
15.89195726482082
 21
-1.848676126000002
 31
0.0
  0
LINE
  5
32
330
1D
100
AcDbEntity
  8
1
100
AcDbLine
 10
15.89195726482082
 20
-1.848676126000002
 30
0.0
 11
15.84999932082082
 21
-1.805919805000002
 31
0.0
  0
LINE
  5
33
330
1D
100
AcDbEntity
  8
1
100
AcDbLine
 10
15.84999932082082
 20
-1.805919805000002
 30
0.0
 11
15.80629793982082
 21
-1.733978629000002
 31
0.0
  0
LINE
  5
34
330
1D
100
AcDbEntity
  8
1
100
AcDbLine
 10
16.20616314982082
 20
2.000000094999998
 30
0.0
 11
16.20616314982082
 21
-2.000000095000002
 31
0.0
  0
LINE
  5
35
330
1D
100
AcDbEntity
  8
1
100
AcDbLine
 10
15.36993233582082
 20
-19.16481182
 30
0.0
 11
16.75204111382082
 21
-19.412722439
 31
0.0
  0
LINE
  5
36
330
1D
100
AcDbEntity
  8
1
100
AcDbLine
 10
16.75204111382082
 20
-19.412722439
 30
0.0
 11
17.39938108282082
 21
-19.528800622
 31
0.0
  0
LINE
  5
37
330
1D
100
AcDbEntity
  8
1
100
AcDbLine
 10
15.36993233582082
 20
-0.000000000000002
 30
0.0
 11
15.36993233582082
 21
-19.16481182
 31
0.0
  0
ARC
  5
38
330
1D
100
AcDbEntity
  8
1
100
AcDbCircle
 10
19.17596848382082
 20
0.035914428999998
 30
0.0
 40
3.806205592
100
AcDbArc
 50
180.540637044
 51
207.710348843
  0
ARC
  5
3A
330
1D
100
AcDbEntity
  8
1
100
AcDbCircle
 10
-0.1526486161791755
 20
12.471695992
 30
0.0
 40
0.23991131
100
AcDbArc
 50
11.00644934799984
 51
53.90337251800011
  0
ARC
  5
3B
330
1D
100
AcDbEntity
  8
1
100
AcDbCircle
 10
-19.38407597317918
 20
-16.467798102
 30
0.0
 40
34.986515051
100
AcDbArc
 50
56.37732784899999
 51
59.06009047800001
  0
ARC
  5
3C
330
1D
100
AcDbEntity
  8
1
100
AcDbCircle
 10
15.63133992082082
 20
-16.467798102
 30
0.0
 40
34.980486158
100
AcDbArc
 50
116.563028469
 51
118.744007418
  0
ARC
  5
3D
330
1D
100
AcDbEntity
  8
1
100
AcDbCircle
 10
-0.0717714921791755
 20
14.964928384
 30
0.0
 40
0.156803305
100
AcDbArc
 50
292.6821748170001
 51
67.3178251829999
  0
ARC
  5
3E
330
1D
100
AcDbEntity
  8
1
100
AcDbCircle
 10
-15.05394895417917
 20
-16.467798102
 30
0.0
 40
34.977327837
100
AcDbArc
 50
64.528097096
 51
66.652549519
  0
ARC
  5
3F
330
1D
100
AcDbEntity
  8
1
100
AcDbCircle
 10
14.49449652582082
 20
-24.16255717
 30
0.0
 40
43.302984159
100
AcDbArc
 50
111.162050608
 51
111.240985639
  0
ARC
  5
40
330
1D
100
AcDbEntity
  8
1
100
AcDbCircle
 10
-32.76102468617918
 20
-259.092125454
 30
0.0
 40
277.120445099
100
AcDbArc
 50
83.26858471900003
 51
83.44762446199998
  0
LINE
  5
41
330
1D
100
AcDbEntity
  8
1
100
AcDbLine
 10
-0.2782762231791755
 20
16.117997467
 30
0.0
 11
0.6713002738208245
 21
16.039302572
 31
0.0
  0
LINE
  5
42
330
1D
100
AcDbEntity
  8
1
100
AcDbLine
 10
0.6713002738208245
 20
16.039302572
 30
0.0
 11
1.634472217820824
 21
16.021916642
 31
0.0
  0
LINE
  5
43
330
1D
100
AcDbEntity
  8
1
100
AcDbLine
 10
1.634472217820824
 20
16.021916642
 30
0.0
 11
2.594574522820825
 21
16.056308522
 31
0.0
  0
LINE
  5
44
330
1D
100
AcDbEntity
  8
1
100
AcDbLine
 10
2.594574522820825
 20
16.056308522
 30
0.0
 11
3.355934452820824
 21
16.11581631
 31
0.0
  0
LINE
  5
45
330
1D
100
AcDbEntity
  8
1
100
AcDbLine
 10
3.355934452820824
 20
16.11581631
 30
0.0
 11
4.110495727820824
 21
16.205651685
 31
0.0
  0
LINE
  5
46
330
1D
100
AcDbEntity
  8
1
100
AcDbLine
 10
4.110495727820824
 20
16.205651685
 30
0.0
 11
4.846128803820824
 21
16.329515725
 31
0.0
  0
LINE
  5
47
330
1D
100
AcDbEntity
  8
1
100
AcDbLine
 10
4.846128803820824
 20
16.329515725
 30
0.0
 11
5.550696682820824
 21
16.491109505
 31
0.0
  0
LINE
  5
48
330
1D
100
AcDbEntity
  8
1
100
AcDbLine
 10
5.550696682820824
 20
16.491109505
 30
0.0
 11
5.934494715820825
 21
16.603749245
 31
0.0
  0
LINE
  5
49
330
1D
100
AcDbEntity
  8
1
100
AcDbLine
 10
5.934494715820825
 20
16.603749245
 30
0.0
 11
6.290312093820824
 21
16.736388206
 31
0.0
  0
LINE
  5
4A
330
1D
100
AcDbEntity
  8
1
100
AcDbLine
 10
6.290312093820824
 20
16.736388206
 30
0.0
 11
6.626977753820825
 21
16.914837062
 31
0.0
  0
LINE
  5
4B
330
1D
100
AcDbEntity
  8
1
100
AcDbLine
 10
6.626977753820825
 20
16.914837062
 30
0.0
 11
6.792082619820825
 21
17.07034558
 31
0.0
  0
LINE
  5
4C
330
1D
100
AcDbEntity
  8
1
100
AcDbLine
 10
6.792082619820825
 20
17.07034558
 30
0.0
 11
6.834573280820824
 21
17.202371731
 31
0.0
  0
LINE
  5
4D
330
1D
100
AcDbEntity
  8
1
100
AcDbLine
 10
6.834573280820824
 20
17.202371731
 30
0.0
 11
6.780780088820825
 21
17.330324277
 31
0.0
  0
LINE
  5
4E
330
1D
100
AcDbEntity
  8
1
100
AcDbLine
 10
6.780780088820825
 20
17.330324277
 30
0.0
 11
6.603839975820825
 21
17.465785145
 31
0.0
  0
LINE
  5
4F
330
1D
100
AcDbEntity
  8
1
100
AcDbLine
 10
6.603839975820825
 20
17.465785145
 30
0.0
 11
6.406261753820824
 21
17.554409802
 31
0.0
  0
LINE
  5
50
330
1D
100
AcDbEntity
  8
1
100
AcDbLine
 10
6.406261753820824
 20
17.554409802
 30
0.0
 11
6.180259567820825
 21
17.627764493
 31
0.0
  0
LINE
  5
51
330
1D
100
AcDbEntity
  8
1
100
AcDbLine
 10
6.180259567820825
 20
17.627764493
 30
0.0
 11
5.674082022820825
 21
17.742944881
 31
0.0
  0
LINE
  5
52
330
1D
100
AcDbEntity
  8
1
100
AcDbLine
 10
5.674082022820825
 20
17.742944881
 30
0.0
 11
5.133017134820824
 21
17.824886366
 31
0.0
  0
LINE
  5
53
330
1D
100
AcDbEntity
  8
1
100
AcDbLine
 10
5.133017134820824
 20
17.824886366
 30
0.0
 11
4.361561667820824
 21
17.901631072
 31
0.0
  0
ARC
  5
54
330
1D
100
AcDbEntity
  8
1
100
AcDbCircle
 10
-39.48796932017918
 20
-564.848260631
 30
0.0
 40
584.397311936
100
AcDbArc
 50
85.696837583
 51
86.216342435
  0
ARC
  5
55
330
1D
100
AcDbEntity
  8
1
100
AcDbCircle
 10
-12.70168557417917
 20
-37.508271152
 30
0.0
 40
57.014018926
100
AcDbArc
 50
78.078224415
 51
78.35546562200001
  0
ARC
  5
56
330
1D
100
AcDbEntity
  8
1
100
AcDbCircle
 10
8.948949520820824
 20
-37.508271152
 30
0.0
 40
57.017989819
100
AcDbArc
 50
99.04138533499999
 51
100.246803522
  0
LINE
  5
57
330
1D
100
AcDbEntity
  8
1
100
AcDbLine
 10
-0.0113051561791755
 20
18.80127564
 30
0.0
 11
0.0405639228208245
 21
18.813071772
 31
0.0
  0
LINE
  5
58
330
1D
100
AcDbEntity
  8
1
100
AcDbLine
 10
0.0405639228208245
 20
18.813071772
 30
0.0
 11
0.0748738468208245
 21
18.828544765
 31
0.0
  0
LINE
  5
59
330
1D
100
AcDbEntity
  8
1
100
AcDbLine
 10
0.0748738468208245
 20
18.828544765
 30
0.0
 11
0.0885847778208245
 21
18.846316263
 31
0.0
  0
LINE
  5
5A
330
1D
100
AcDbEntity
  8
1
100
AcDbLine
 10
0.0885847778208245
 20
18.846316263
 30
0.0
 11
0.0788468688208245
 21
18.86441186
 31
0.0
  0
LINE
  5
5B
330
1D
100
AcDbEntity
  8
1
100
AcDbLine
 10
0.0788468688208245
 20
18.86441186
 30
0.0
 11
0.0459544178208245
 21
18.880425021
 31
0.0
  0
LINE
  5
5C
330
1D
100
AcDbEntity
  8
1
100
AcDbLine
 10
0.0459544178208245
 20
18.880425021
 30
0.0
 11
-0.0113051561791755
 21
18.893174827
 31
0.0
  0
ARC
  5
5D
330
1D
100
AcDbEntity
  8
1
100
AcDbCircle
 10
-8.371558555179176
 20
-37.508271152
 30
0.0
 40
57.017689742
100
AcDbArc
 50
81.568573479
 51
82.767924027
  0
ARC
  5
5E
330
1D
100
AcDbEntity
  8
1
100
AcDbCircle
 10
4.618822501820825
 20
-37.508271152
 30
0.0
 40
57.012493804
100
AcDbArc
 50
94.658263533
 51
95.85151243599998
  0
LINE
  5
5F
330
1D
100
AcDbEntity
  8
1
100
AcDbLine
 10
-0.0113051561791755
 20
19.315900281
 30
0.0
 11
0.0404428508208245
 21
19.321791827
 31
0.0
  0
LINE
  5
60
330
1D
100
AcDbEntity
  8
1
100
AcDbLine
 10
0.0404428508208245
 20
19.321791827
 30
0.0
 11
0.0749651168208245
 21
19.32952553
 31
0.0
  0
LINE
  5
61
330
1D
100
AcDbEntity
  8
1
100
AcDbLine
 10
0.0749651168208245
 20
19.32952553
 30
0.0
 11
0.0885773268208245
 21
19.338190555
 31
0.0
  0
LINE
  5
62
330
1D
100
AcDbEntity
  8
1
100
AcDbLine
 10
0.0885773268208245
 20
19.338190555
 30
0.0
 11
0.0794187008208245
 21
19.346766173
 31
0.0
  0
LINE
  5
63
330
1D
100
AcDbEntity
  8
1
100
AcDbLine
 10
0.0794187008208245
 20
19.346766173
 30
0.0
 11
0.0483535048208245
 21
19.354270771
 31
0.0
  0
LINE
  5
64
330
1D
100
AcDbEntity
  8
1
100
AcDbLine
 10
0.0483535048208245
 20
19.354270771
 30
0.0
 11
-0.0009004201791755
 21
19.359907135
 31
0.0
  0
LINE
  5
65
330
1D
100
AcDbEntity
  8
1
100
AcDbLine
 10
-0.0009004201791755
 20
19.359907135
 30
0.0
 11
-0.0113051561791755
 21
19.360681995
 31
0.0
  0
ARC
  5
66
330
1D
100
AcDbEntity
  8
1
100
AcDbCircle
 10
-4.041431536179176
 20
-37.508271152
 30
0.0
 40
57.011576096
100
AcDbArc
 50
85.946401968
 51
87.13693913300001
  0
ARC
  5
67
330
1D
100
AcDbEntity
  8
1
100
AcDbCircle
 10
0.2886954828208245
 20
-37.508271152
 30
0.0
 40
57.008291271
100
AcDbArc
 50
90.30151426800002
 51
91.49016387
  0
LINE
  5
68
330
1D
100
AcDbEntity
  8
1
100
AcDbLine
 10
-0.0113051561791755
 20
19.499231129
 30
0.0
 11
0.0403906968208245
 21
19.499564543
 31
0.0
  0
LINE
  5
69
330
1D
100
AcDbEntity
  8
1
100
AcDbLine
 10
0.0403906968208245
 20
19.499564543
 30
0.0
 11
0.0619005238208245
 21
19.499743357
 31
0.0
  0
LINE
  5
6A
330
1D
100
AcDbEntity
  8
1
100
AcDbLine
 10
0.0619005238208245
 20
19.499743357
 30
0.0
 11
9.534712117820824
 21
19.499743357
 31
0.0
  0
LINE
  5
6B
330
1D
100
AcDbEntity
  8
1
100
AcDbLine
 10
8.606164884820824
 20
16.035642474
 30
0.0
 11
8.340141904820824
 21
16.496405005
 31
0.0
  0
LINE
  5
6C
330
1D
100
AcDbEntity
  8
1
100
AcDbLine
 10
8.340141904820824
 20
16.496405005
 30
0.0
 11
8.091620337820824
 21
16.926858574
 31
0.0
  0
LINE
  5
6D
330
1D
100
AcDbEntity
  8
1
100
AcDbLine
 10
8.091620337820824
 20
16.926858574
 30
0.0
 11
7.861054670820825
 21
17.326209694
 31
0.0
  0
LINE
  5
6E
330
1D
100
AcDbEntity
  8
1
100
AcDbLine
 10
7.861054670820825
 20
17.326209694
 30
0.0
 11
7.648869585820824
 21
17.693724483
 31
0.0
  0
LINE
  5
6F
330
1D
100
AcDbEntity
  8
1
100
AcDbLine
 10
7.648869585820824
 20
17.693724483
 30
0.0
 11
7.455452513820824
 21
18.028730526
 31
0.0
  0
LINE
  5
70
330
1D
100
AcDbEntity
  8
1
100
AcDbLine
 10
7.455452513820824
 20
18.028730526
 30
0.0
 11
7.281164806820825
 21
18.330609425
 31
0.0
  0
LINE
  5
71
330
1D
100
AcDbEntity
  8
1
100
AcDbLine
 10
7.281164806820825
 20
18.330609425
 30
0.0
 11
7.126319390820824
 21
18.598807975
 31
0.0
  0
LINE
  5
72
330
1D
100
AcDbEntity
  8
1
100
AcDbLine
 10
7.126319390820824
 20
18.598807975
 30
0.0
 11
6.991203111820824
 21
18.832834437
 31
0.0
  0
LINE
  5
73
330
1D
100
AcDbEntity
  8
1
100
AcDbLine
 10
6.991203111820824
 20
18.832834437
 30
0.0
 11
6.876069289820824
 21
19.032254815
 31
0.0
  0
LINE
  5
74
330
1D
100
AcDbEntity
  8
1
100
AcDbLine
 10
6.876069289820824
 20
19.032254815
 30
0.0
 11
6.781122815820824
 21
19.196705892
 31
0.0
  0
LINE
  5
75
330
1D
100
AcDbEntity
  8
1
100
AcDbLine
 10
6.781122815820824
 20
19.196705892
 30
0.0
 11
6.706538778820825
 21
19.325885921
 31
0.0
  0
LINE
  5
76
330
1D
100
AcDbEntity
  8
1
100
AcDbLine
 10
6.706538778820825
 20
19.325885921
 30
0.0
 11
6.652458738820824
 21
19.419554621
 31
0.0
  0
LINE
  5
77
330
1D
100
AcDbEntity
  8
1
100
AcDbLine
 10
6.652458738820824
 20
19.419554621
 30
0.0
 11
6.618979555820824
 21
19.477544352
 31
0.0
  0
LINE
  5
78
330
1D
100
AcDbEntity
  8
1
100
AcDbLine
 10
6.618979555820824
 20
19.477544352
 30
0.0
 11
6.606164556820825
 21
19.499743357
 31
0.0
  0
LINE
  5
79
330
1D
100
AcDbEntity
  8
1
100
AcDbLine
 10
8.606164884820824
 20
11.171068064
 30
0.0
 11
8.606164884820824
 21
16.035642474
 31
0.0
  0
ARC
  5
7A
330
1D
100
AcDbEntity
  8
1
100
AcDbCircle
 10
13.60616404082082
 20
11.171065042
 30
0.0
 40
4.999999156
100
AcDbArc
 50
179.999965366
 51
224.999966347
  0
LINE
  5
7B
330
1D
100
AcDbEntity
  8
1
100
AcDbLine
 10
16.20616314982082
 20
1.500000012999998
 30
0.0
 11
15.41697157582082
 21
2.289192750999998
 31
0.0
  0
LINE
  5
7C
330
1D
100
AcDbEntity
  8
1
100
AcDbLine
 10
15.41697157582082
 20
2.289192750999998
 30
0.0
 11
14.63156489782082
 21
3.074600360999998
 31
0.0
  0
LINE
  5
7D
330
1D
100
AcDbEntity
  8
1
100
AcDbLine
 10
14.63156489782082
 20
3.074600360999998
 30
0.0
 11
13.85123951482082
 21
3.854923880999998
 31
0.0
  0
LINE
  5
7E
330
1D
100
AcDbEntity
  8
1
100
AcDbLine
 10
13.85123951482082
 20
3.854923880999998
 30
0.0
 11
13.07729182882082
 21
4.628872963999998
 31
0.0
  0
LINE
  5
7F
330
1D
100
AcDbEntity
  8
1
100
AcDbLine
 10
13.07729182882082
 20
4.628872963999998
 30
0.0
 11
12.31099588882083
 21
5.395168437999998
 31
0.0
  0
LINE
  5
80
330
1D
100
AcDbEntity
  8
1
100
AcDbLine
 10
12.31099588882083
 20
5.395168437999998
 30
0.0
 11
10.80642191782082
 21
6.899742408999998
 31
0.0
  0
LINE
  5
82
330
1D
100
AcDbEntity
  8
1
100
AcDbLine
 10
10.80642191782082
 20
6.899742408999998
 30
0.0
 11
10.07062865482082
 21
7.635533808999998
 31
0.0
  0
LINE
  5
84
330
1D
100
AcDbEntity
  8
1
100
AcDbLine
 10
9.682829659820824
 20
-19.16481182
 30
0.0
 11
15.36993233582082
 21
-19.16481182
 31
0.0
  0
LINE
  5
85
330
1D
100
AcDbEntity
  8
1
100
AcDbLine
 10
9.682829659820824
 20
-19.449679181
 30
0.0
 11
9.682829659820824
 21
-19.16481182
 31
0.0
  0
ARC
  5
86
330
1D
100
AcDbEntity
  8
1
100
AcDbCircle
 10
9.523319903820825
 20
-19.15758577
 30
0.0
 40
0.342347464
100
AcDbArc
 50
271.9071954240002
 51
298.6386401030001
  0
LINE
  5
87
330
1D
100
AcDbEntity
  8
1
100
AcDbLine
 10
9.534712117820824
 20
-19.499743358
 30
0.0
 11
0.0619005238208245
 21
-19.499743358
 31
0.0
  0
ARC
  5
88
330
1D
100
AcDbEntity
  8
1
100
AcDbCircle
 10
-0.1165763551791755
 20
-39.775608899
 30
0.0
 40
20.276651041
100
AcDbArc
 50
89.495670962
 51
89.702533596
  0
ARC
  5
89
330
1D
100
AcDbEntity
  8
1
100
AcDbCircle
 10
0.2886954828208245
 20
37.508271151
 30
0.0
 40
57.008756748
100
AcDbArc
 50
268.50983613
 51
269.698485732
  0
ARC
  5
8A
330
1D
100
AcDbEntity
  8
1
100
AcDbCircle
 10
-4.041431536179176
 20
37.508271151
 30
0.0
 40
57.010003324
100
AcDbArc
 50
272.8630608669999
 51
274.053598032
  0
LINE
  5
8B
330
1D
100
AcDbEntity
  8
1
100
AcDbLine
 10
-0.0113051561791755
 20
-19.360681996
 30
0.0
 11
0.0404037358208245
 21
-19.355481491
 31
0.0
  0
LINE
  5
8C
330
1D
100
AcDbEntity
  8
1
100
AcDbLine
 10
0.0404037358208245
 20
-19.355481491
 30
0.0
 11
0.0749278638208245
 21
-19.348366186
 31
0.0
  0
LINE
  5
8D
330
1D
100
AcDbEntity
  8
1
100
AcDbLine
 10
0.0749278638208245
 20
-19.348366186
 30
0.0
 11
0.0885680138208245
 21
-19.339999184
 31
0.0
  0
LINE
  5
8E
330
1D
100
AcDbEntity
  8
1
100
AcDbLine
 10
0.0885680138208245
 20
-19.339999184
 30
0.0
 11
0.0795323218208245
 21
-19.331248478
 31
0.0
  0
LINE
  5
8F
330
1D
100
AcDbEntity
  8
1
100
AcDbLine
 10
0.0795323218208245
 20
-19.331248478
 30
0.0
 11
0.0485807478208245
 21
-19.32316646
 31
0.0
  0
LINE
  5
90
330
1D
100
AcDbEntity
  8
1
100
AcDbLine
 10
0.0485807478208245
 20
-19.32316646
 30
0.0
 11
-0.0006824911791755
 21
-19.316809252
 31
0.0
  0
LINE
  5
91
330
1D
100
AcDbEntity
  8
1
100
AcDbLine
 10
-0.0006824911791755
 20
-19.316809252
 30
0.0
 11
-0.0113051561791755
 21
-19.315900281
 31
0.0
  0
ARC
  5
92
330
1D
100
AcDbEntity
  8
1
100
AcDbCircle
 10
4.618822501820825
 20
37.508271151
 30
0.0
 40
57.014399146
100
AcDbArc
 50
264.148487564
 51
265.3417364670001
  0
ARC
  5
93
330
1D
100
AcDbEntity
  8
1
100
AcDbCircle
 10
-8.371558555179176
 20
37.508271151
 30
0.0
 40
57.016445711
100
AcDbArc
 50
277.232075973
 51
278.4314265209999
  0
LINE
  5
94
330
1D
100
AcDbEntity
  8
1
100
AcDbLine
 10
-0.0113051561791755
 20
-18.893174828
 30
0.0
 11
0.0404819668208245
 21
-18.882144243
 31
0.0
  0
LINE
  5
95
330
1D
100
AcDbEntity
  8
1
100
AcDbLine
 10
0.0404819668208245
 20
-18.882144243
 30
0.0
 11
0.0747937528208245
 21
-18.867360428
 31
0.0
  0
LINE
  5
96
330
1D
100
AcDbEntity
  8
1
100
AcDbLine
 10
0.0747937528208245
 20
-18.867360428
 30
0.0
 11
0.0885680138208245
 21
-18.849974499
 31
0.0
  0
LINE
  5
97
330
1D
100
AcDbEntity
  8
1
100
AcDbLine
 10
0.0885680138208245
 20
-18.849974499
 30
0.0
 11
0.0790983258208245
 21
-18.831731752
 31
0.0
  0
LINE
  5
98
330
1D
100
AcDbEntity
  8
1
100
AcDbLine
 10
0.0790983258208245
 20
-18.831731752
 30
0.0
 11
0.0464591948208245
 21
-18.815036864
 31
0.0
  0
LINE
  5
99
330
1D
100
AcDbEntity
  8
1
100
AcDbLine
 10
0.0464591948208245
 20
-18.815036864
 30
0.0
 11
-0.0113051561791755
 21
-18.801275641
 31
0.0
  0
ARC
  5
9A
330
1D
100
AcDbEntity
  8
1
100
AcDbCircle
 10
8.948949520820824
 20
37.508271151
 30
0.0
 40
57.017611823
100
AcDbArc
 50
259.753196478
 51
260.958614665
  0
ARC
  5
9B
330
1D
100
AcDbEntity
  8
1
100
AcDbCircle
 10
-12.70168557417917
 20
37.508271151
 30
0.0
 40
57.014921249
100
AcDbArc
 50
281.6445343780001
 51
282.861778057
  0
LINE
  5
9C
330
1D
100
AcDbEntity
  8
1
100
AcDbLine
 10
-0.0113051561791755
 20
-18.071195111
 30
0.0
 11
0.0406402918208245
 21
-18.053637818
 31
0.0
  0
LINE
  5
9D
330
1D
100
AcDbEntity
  8
1
100
AcDbLine
 10
0.0406402918208245
 20
-18.053637818
 30
0.0
 11
0.0745795488208245
 21
-18.030574546
 31
0.0
  0
LINE
  5
9E
330
1D
100
AcDbEntity
  8
1
100
AcDbLine
 10
0.0745795488208245
 20
-18.030574546
 30
0.0
 11
0.0885736018208245
 21
-18.002914265
 31
0.0
  0
LINE
  5
9F
330
1D
100
AcDbEntity
  8
1
100
AcDbLine
 10
0.0885736018208245
 20
-18.002914265
 30
0.0
 11
0.0781763168208245
 21
-17.973195762
 31
0.0
  0
LINE
  5
A0
330
1D
100
AcDbEntity
  8
1
100
AcDbLine
 10
0.0781763168208245
 20
-17.973195762
 30
0.0
 11
0.0421639358208245
 21
-17.946025357
 31
0.0
  0
LINE
  5
A1
330
1D
100
AcDbEntity
  8
1
100
AcDbLine
 10
0.0421639358208245
 20
-17.946025357
 30
0.0
 11
-0.0113051561791755
 21
-17.926849425
 31
0.0
  0
ARC
  5
A2
330
1D
100
AcDbEntity
  8
1
100
AcDbCircle
 10
10.16436950682082
 20
24.162557169
 30
0.0
 40
43.29786638
100
AcDbArc
 50
254.791808239
 51
256.408777439
  0
ARC
  5
A3
330
1D
100
AcDbEntity
  8
1
100
AcDbCircle
 10
-13.91710556017918
 20
24.162557169
 30
0.0
 40
43.297304671
100
AcDbArc
 50
287.089084438
 51
288.732853185
  0
LINE
  5
A4
330
1D
100
AcDbEntity
  8
1
100
AcDbLine
 10
-0.0113051561791755
 20
-16.842924059
 30
0.0
 11
0.0409029248208245
 21
-16.817489639
 31
0.0
  0
LINE
  5
A5
330
1D
100
AcDbEntity
  8
1
100
AcDbLine
 10
0.0409029248208245
 20
-16.817489639
 30
0.0
 11
0.0742852508208245
 21
-16.78497158
 31
0.0
  0
LINE
  5
A6
330
1D
100
AcDbEntity
  8
1
100
AcDbLine
 10
0.0742852508208245
 20
-16.78497158
 30
0.0
 11
0.0885959538208245
 21
-16.744434834
 31
0.0
  0
LINE
  5
A7
330
1D
100
AcDbEntity
  8
1
100
AcDbLine
 10
0.0885959538208245
 20
-16.744434834
 30
0.0
 11
0.0763658258208245
 21
-16.699176282
 31
0.0
  0
LINE
  5
A8
330
1D
100
AcDbEntity
  8
1
100
AcDbLine
 10
0.0763658258208245
 20
-16.699176282
 30
0.0
 11
0.0340670168208245
 21
-16.657849774
 31
0.0
  0
LINE
  5
A9
330
1D
100
AcDbEntity
  8
1
100
AcDbLine
 10
0.0340670168208245
 20
-16.657849774
 30
0.0
 11
-0.0113051561791755
 21
-16.63598232
 31
0.0
  0
ARC
  5
AA
330
1D
100
AcDbEntity
  8
1
100
AcDbCircle
 10
14.49449652582082
 20
24.162557169
 30
0.0
 40
43.303078035
100
AcDbArc
 50
248.759014361
 51
250.427305833
  0
ARC
  5
AB
330
1D
100
AcDbEntity
  8
1
100
AcDbCircle
 10
-15.05394895417917
 20
16.467798101
 30
0.0
 40
34.973260297
100
AcDbArc
 50
293.347450481
 51
295.471902904
  0
ARC
  5
AC
330
1D
100
AcDbEntity
  8
1
100
AcDbCircle
 10
-0.0718289351791755
 20
-14.964928385
 30
0.0
 40
0.156825465
100
AcDbArc
 50
292.7015383460001
 51
67.29846165399992
  0
ARC
  5
AD
330
1D
100
AcDbEntity
  8
1
100
AcDbCircle
 10
15.63133992082082
 20
16.467798101
 30
0.0
 40
34.987063284
100
AcDbArc
 50
241.255992582
 51
243.436971531
  0
ARC
  5
AE
330
1D
100
AcDbEntity
  8
1
100
AcDbCircle
 10
-19.38407597317918
 20
16.467798101
 30
0.0
 40
34.991229485
100
AcDbArc
 50
301.3222843589999
 51
303.622672151
  0
ARC
  5
AF
330
1D
100
AcDbEntity
  8
1
100
AcDbCircle
 10
-0.1726911671791755
 20
-12.456986122
 30
0.0
 40
0.263712778
100
AcDbArc
 50
307.732551046
 51
52.26744895400002
  0
ARC
  5
B0
330
1D
100
AcDbEntity
  8
1
100
AcDbCircle
 10
11.40369539982082
 20
4.467841766999998
 30
0.0
 40
20.221897657
100
AcDbArc
 50
231.467030901
 51
234.505203419
  0
ARC
  5
B1
330
1D
100
AcDbEntity
  8
1
100
AcDbCircle
 10
19.96146693982082
 20
16.467798101
 30
0.0
 40
34.972862207
100
AcDbArc
 50
234.505296738
 51
235.180525909
  0
ARC
  5
B2
330
1D
100
AcDbEntity
  8
1
100
AcDbCircle
 10
-15.15643145317918
 20
4.467841766999998
 30
0.0
 40
20.220826768
100
AcDbArc
 50
312.8914974
 51
318.468956415
  0
ARC
  5
B3
330
1D
100
AcDbEntity
  8
1
100
AcDbCircle
 10
-0.5353808981791756
 20
-8.593345527000002
 30
0.0
 40
0.631720075
100
AcDbArc
 50
326.0577949360001
 51
33.94220506399999
  0
ARC
  5
B4
330
1D
100
AcDbEntity
  8
1
100
AcDbCircle
 10
12.47717273282082
 20
1.850553074999998
 30
0.0
 40
16.061987692
100
AcDbArc
 50
211.664060808
 51
218.787977819
  0
ARC
  5
B5
330
1D
100
AcDbEntity
  8
1
100
AcDbCircle
 10
15.73382241882083
 20
4.467841766999998
 30
0.0
 40
20.233988242
100
AcDbArc
 50
218.787977819
 51
218.908255546
  0
LINE
  5
B6
330
1D
100
AcDbEntity
  8
1
100
AcDbLine
 10
-1.193837094179176
 20
-5.356071517000002
 30
0.0
 11
6.906162184820825
 21
-5.356071517000002
 31
0.0
  0
ARC
  5
B7
330
1D
100
AcDbEntity
  8
1
100
AcDbCircle
 10
-25.57456426517918
 20
-0.000000000000002
 30
0.0
 40
32.919374098
100
AcDbArc
 50
350.636193962
 51
0.0
  0
ARC
  5
B8
330
1D
100
AcDbEntity
  8
1
100
AcDbCircle
 10
-25.57456426517918
 20
-0.000000000000002
 30
0.0
 40
32.913740696
100
AcDbArc
 50
0.0
 51
9.363806038000002
  0
LINE
  5
B9
330
1D
100
AcDbEntity
  8
1
100
AcDbLine
 10
6.906162184820825
 20
5.356071515999998
 30
0.0
 11
-1.388413979179175
 21
5.356071515999998
 31
0.0
  0
ARC
  5
BA
330
1D
100
AcDbEntity
  8
1
100
AcDbCircle
 10
15.73382241882083
 20
-4.467841768000002
 30
0.0
 40
20.23398204
100
AcDbArc
 50
141.091744454
 51
141.212022181
  0
ARC
  5
BB
330
1D
100
AcDbEntity
  8
1
100
AcDbCircle
 10
12.47717273282082
 20
-1.850553076000002
 30
0.0
 40
16.055954342
100
AcDbArc
 50
141.212022181
 51
148.335939192
  0
ARC
  5
BC
330
1D
100
AcDbEntity
  8
1
100
AcDbCircle
 10
-0.5398083101791755
 20
8.593345525999997
 30
0.0
 40
0.63539787
100
AcDbArc
 50
326.2807099949999
 51
33.71929000500003
  0
ARC
  5
BD
330
1D
100
AcDbEntity
  8
1
100
AcDbCircle
 10
-15.15643145317918
 20
-4.467841768000002
 30
0.0
 40
20.23135964
100
AcDbArc
 50
41.53104358499999
 51
47.1085026
  0
ARC
  5
BE
330
1D
100
AcDbEntity
  8
1
100
AcDbCircle
 10
19.96146693982082
 20
-16.467798102
 30
0.0
 40
34.979035305
100
AcDbArc
 50
124.819474091
 51
125.494703262
  0
ARC
  5
BF
330
1D
100
AcDbEntity
  8
1
100
AcDbCircle
 10
11.40369539982082
 20
-4.467841768000002
 30
0.0
 40
20.233988242
100
AcDbArc
 50
125.494796581
 51
128.532969099
  0
LINE
  5
C0
330
1D
100
AcDbEntity
  8
1
100
AcDbLine
 10
-0.0113051561791755
 20
12.248422019
 30
0.0
 11
0.0480741088208245
 21
12.313027866
 31
0.0
  0
LINE
  5
C1
330
1D
100
AcDbEntity
  8
1
100
AcDbLine
 10
0.0480741088208245
 20
12.313027866
 30
0.0
 11
0.0828888088208245
 21
12.402115389
 31
0.0
  0
LINE
  5
C2
330
1D
100
AcDbEntity
  8
1
100
AcDbLine
 10
2.806163561820824
 20
19.116157665
 30
0.0
 11
2.541071903820824
 21
19.120642915
 31
0.0
  0
LINE
  5
C3
330
1D
100
AcDbEntity
  8
1
100
AcDbLine
 10
2.541071903820824
 20
19.120642915
 30
0.0
 11
2.283510920820825
 21
19.133625552
 31
0.0
  0
LINE
  5
C4
330
1D
100
AcDbEntity
  8
1
100
AcDbLine
 10
2.283510920820825
 20
19.133625552
 30
0.0
 11
2.041037362820824
 21
19.15439777
 31
0.0
  0
LINE
  5
C5
330
1D
100
AcDbEntity
  8
1
100
AcDbLine
 10
2.041037362820824
 20
19.15439777
 30
0.0
 11
1.819865014820824
 21
19.181527197
 31
0.0
  0
LINE
  5
C6
330
1D
100
AcDbEntity
  8
1
100
AcDbLine
 10
1.819865014820824
 20
19.181527197
 30
0.0
 11
1.624326389820824
 21
19.213845953
 31
0.0
  0
LINE
  5
C7
330
1D
100
AcDbEntity
  8
1
100
AcDbLine
 10
1.624326389820824
 20
19.213845953
 30
0.0
 11
1.461641099820824
 21
19.249213859
 31
0.0
  0
LINE
  5
C8
330
1D
100
AcDbEntity
  8
1
100
AcDbLine
 10
1.461641099820824
 20
19.249213859
 30
0.0
 11
1.334854569820825
 21
19.286384806
 31
0.0
  0
LINE
  5
C9
330
1D
100
AcDbEntity
  8
1
100
AcDbLine
 10
1.334854569820825
 20
19.286384806
 30
0.0
 11
1.249850895820825
 21
19.323006272
 31
0.0
  0
LINE
  5
CA
330
1D
100
AcDbEntity
  8
1
100
AcDbLine
 10
1.249850895820825
 20
19.323006272
 30
0.0
 11
1.209582370820824
 21
19.357612356
 31
0.0
  0
LINE
  5
CB
330
1D
100
AcDbEntity
  8
1
100
AcDbLine
 10
1.209582370820824
 20
19.357612356
 30
0.0
 11
1.215296965820825
 21
19.388826564
 31
0.0
  0
LINE
  5
CC
330
1D
100
AcDbEntity
  8
1
100
AcDbLine
 10
1.215296965820825
 20
19.388826564
 30
0.0
 11
1.267236825820824
 21
19.415531307
 31
0.0
  0
LINE
  5
CD
330
1D
100
AcDbEntity
  8
1
100
AcDbLine
 10
1.267236825820824
 20
19.415531307
 30
0.0
 11
1.363353040820825
 21
19.437627866
 31
0.0
  0
LINE
  5
CE
330
1D
100
AcDbEntity
  8
1
100
AcDbLine
 10
1.363353040820825
 20
19.437627866
 30
0.0
 11
1.500270497820825
 21
19.454862922
 31
0.0
  0
LINE
  5
CF
330
1D
100
AcDbEntity
  8
1
100
AcDbLine
 10
1.500270497820825
 20
19.454862922
 30
0.0
 11
1.674249005820825
 21
19.467856735
 31
0.0
  0
LINE
  5
D0
330
1D
100
AcDbEntity
  8
1
100
AcDbLine
 10
1.674249005820825
 20
19.467856735
 30
0.0
 11
1.879888754820825
 21
19.477060064
 31
0.0
  0
LINE
  5
D1
330
1D
100
AcDbEntity
  8
1
100
AcDbLine
 10
1.879888754820825
 20
19.477060064
 30
0.0
 11
2.111626025820824
 21
19.483227282
 31
0.0
  0
LINE
  5
D2
330
1D
100
AcDbEntity
  8
1
100
AcDbLine
 10
2.111626025820824
 20
19.483227282
 30
0.0
 11
2.363125961820824
 21
19.486980512
 31
0.0
  0
LINE
  5
D3
330
1D
100
AcDbEntity
  8
1
100
AcDbLine
 10
2.363125961820824
 20
19.486980512
 30
0.0
 11
2.627094444820825
 21
19.488826394
 31
0.0
  0
LINE
  5
D4
330
1D
100
AcDbEntity
  8
1
100
AcDbLine
 10
2.627094444820825
 20
19.488826394
 30
0.0
 11
2.896347251820825
 21
19.489085301
 31
0.0
  0
LINE
  5
D5
330
1D
100
AcDbEntity
  8
1
100
AcDbLine
 10
2.896347251820825
 20
19.489085301
 30
0.0
 11
3.163059410820825
 21
19.487777724
 31
0.0
  0
LINE
  5
D6
330
1D
100
AcDbEntity
  8
1
100
AcDbLine
 10
3.163059410820825
 20
19.487777724
 30
0.0
 11
3.419622015820825
 21
19.484702497
 31
0.0
  0
LINE
  5
D7
330
1D
100
AcDbEntity
  8
1
100
AcDbLine
 10
3.419622015820825
 20
19.484702497
 30
0.0
 11
3.658882510820824
 21
19.479395821
 31
0.0
  0
LINE
  5
D8
330
1D
100
AcDbEntity
  8
1
100
AcDbLine
 10
3.658882510820824
 20
19.479395821
 30
0.0
 11
3.873682748820825
 21
19.471250474
 31
0.0
  0
LINE
  5
D9
330
1D
100
AcDbEntity
  8
1
100
AcDbLine
 10
3.873682748820825
 20
19.471250474
 30
0.0
 11
4.058397543820824
 21
19.459633156
 31
0.0
  0
LINE
  5
DA
330
1D
100
AcDbEntity
  8
1
100
AcDbLine
 10
4.058397543820824
 20
19.459633156
 30
0.0
 11
4.207260143820824
 21
19.443910569
 31
0.0
  0
LINE
  5
DB
330
1D
100
AcDbEntity
  8
1
100
AcDbLine
 10
4.207260143820824
 20
19.443910569
 30
0.0
 11
4.316791128820824
 21
19.423753023
 31
0.0
  0
LINE
  5
DC
330
1D
100
AcDbEntity
  8
1
100
AcDbLine
 10
4.316791128820824
 20
19.423753023
 30
0.0
 11
4.383499902820825
 21
19.398927688
 31
0.0
  0
LINE
  5
DD
330
1D
100
AcDbEntity
  8
1
100
AcDbLine
 10
4.383499902820825
 20
19.398927688
 30
0.0
 11
4.406164568820825
 21
19.369816407
 31
0.0
  0
LINE
  5
DE
330
1D
100
AcDbEntity
  8
1
100
AcDbLine
 10
4.406164568820825
 20
19.369816407
 30
0.0
 11
4.383492451820825
 21
19.336787983
 31
0.0
  0
LINE
  5
DF
330
1D
100
AcDbEntity
  8
1
100
AcDbLine
 10
4.383492451820825
 20
19.336787983
 30
0.0
 11
4.316657018820824
 21
19.301157444
 31
0.0
  0
LINE
  5
E0
330
1D
100
AcDbEntity
  8
1
100
AcDbLine
 10
4.316657018820824
 20
19.301157444
 30
0.0
 11
4.205863159820825
 21
19.263951107
 31
0.0
  0
LINE
  5
E1
330
1D
100
AcDbEntity
  8
1
100
AcDbLine
 10
4.205863159820825
 20
19.263951107
 30
0.0
 11
4.055178892820824
 21
19.227262586
 31
0.0
  0
LINE
  5
E2
330
1D
100
AcDbEntity
  8
1
100
AcDbLine
 10
4.055178892820824
 20
19.227262586
 30
0.0
 11
3.867327403820824
 21
19.192870706
 31
0.0
  0
LINE
  5
E3
330
1D
100
AcDbEntity
  8
1
100
AcDbLine
 10
3.867327403820824
 20
19.192870706
 30
0.0
 11
3.648503851820824
 21
19.162870943
 31
0.0
  0
LINE
  5
E4
330
1D
100
AcDbEntity
  8
1
100
AcDbLine
 10
3.648503851820824
 20
19.162870943
 30
0.0
 11
3.406572323820825
 21
19.139379263
 31
0.0
  0
LINE
  5
E5
330
1D
100
AcDbEntity
  8
1
100
AcDbLine
 10
3.406572323820825
 20
19.139379263
 30
0.0
 11
3.146995958820825
 21
19.123516976
 31
0.0
  0
LINE
  5
E6
330
1D
100
AcDbEntity
  8
1
100
AcDbLine
 10
3.146995958820825
 20
19.123516976
 30
0.0
 11
2.806163561820824
 21
19.116157665
 31
0.0
  0
LINE
  5
E7
330
1D
100
AcDbEntity
  8
1
100
AcDbLine
 10
6.906162184820825
 20
5.356071515999998
 30
0.0
 11
6.906162184820825
 21
-5.356071517000002
 31
0.0
  0
LINE
  5
E8
330
1D
100
AcDbEntity
  8
1
100
AcDbLine
 10
-1.193837094179176
 20
-5.356071517000002
 30
0.0
 11
-1.390929165179176
 21
-5.328401458000002
 31
0.0
  0
LINE
  5
E9
330
1D
100
AcDbEntity
  8
1
100
AcDbLine
 10
-1.293836924179176
 20
6.107091437999998
 30
0.0
 11
-1.351243648179175
 21
5.764989647999998
 31
0.0
  0
LINE
  5
EA
330
1D
100
AcDbEntity
  8
1
100
AcDbLine
 10
-1.351243648179175
 20
5.764989647999998
 30
0.0
 11
-1.390929165179176
 21
5.328401456999998
 31
0.0
  0
LINE
  5
EB
330
1D
100
AcDbEntity
  8
1
100
AcDbLine
 10
-1.193837094179176
 20
6.580992600999998
 30
0.0
 11
-1.293836924179176
 21
6.107091437999998
 31
0.0
  0
LINE
  5
EC
330
1D
100
AcDbEntity
  8
1
100
AcDbLine
 10
-1.293836924179176
 20
-6.107091438000002
 30
0.0
 11
-1.193837094179176
 21
-6.580992602000002
 31
0.0
  0
LINE
  5
ED
330
1D
100
AcDbEntity
  8
1
100
AcDbLine
 10
-1.390929165179176
 20
-5.328401458000002
 30
0.0
 11
-1.376473176179176
 21
-5.541814492000002
 31
0.0
  0
LINE
  5
EE
330
1D
100
AcDbEntity
  8
1
100
AcDbLine
 10
-1.376473176179176
 20
-5.541814492000002
 30
0.0
 11
-1.293836924179176
 21
-6.107091438000002
 31
0.0
  0
ARC
  5
EF
330
1D
100
AcDbEntity
  8
1
100
AcDbCircle
 10
24.20616372782083
 20
-2.000000000000002
 30
0.0
 40
8.0
100
AcDbArc
 50
223.199204506
 51
226.567463442
  0
LINE
  5
F0
330
1D
100
AcDbEntity
  8
1
100
AcDbLine
 10
18.70616449082083
 20
-7.809475065000002
 30
0.0
 11
18.70616449082083
 21
-10.909519159
 31
0.0
  0
LINE
  5
F1
330
1D
100
AcDbEntity
  8
1
100
AcDbLine
 10
18.70616449082083
 20
-10.909519159
 30
0.0
 11
18.56952829382082
 21
-11.035728269
 31
0.0
  0
LINE
  5
F2
330
1D
100
AcDbEntity
  8
1
100
AcDbLine
 10
18.33829952482083
 20
-10.994748213
 30
0.0
 11
18.56952829382082
 21
-11.035728269
 31
0.0
  0
LINE
  5
F3
330
1D
100
AcDbEntity
  8
1
100
AcDbLine
 10
18.33829952482083
 20
-18.727116287
 30
0.0
 11
18.33829952482083
 21
-10.994748213
 31
0.0
  0
LINE
  5
F4
330
1D
100
AcDbEntity
  8
1
100
AcDbLine
 10
18.33829952482083
 20
-18.727116287
 30
0.0
 11
18.33813188682083
 21
-18.743457273
 31
0.0
  0
ARC
  5
F5
330
1D
100
AcDbEntity
  8
1
100
AcDbCircle
 10
76.41394216382082
 20
-4.250000000000002
 30
0.0
 40
59.535246936
100
AcDbArc
 50
180.942165545
 51
185.344722231
  0
ARC
  5
F6
330
1D
100
AcDbEntity
  8
1
100
AcDbCircle
 10
26.84591341582082
 20
-8.887261527000003
 30
0.0
 40
9.749492362
100
AcDbArc
 50
185.345024151
 51
192.606993773
  0
ARC
  5
F7
330
1D
100
AcDbEntity
  8
1
100
AcDbCircle
 10
20.01376933182082
 20
-10.415302318
 30
0.0
 40
2.748556607
100
AcDbArc
 50
192.606993773
 51
207.00288411
  0
ARC
  5
F8
330
1D
100
AcDbEntity
  8
1
100
AcDbCircle
 10
17.66563179882083
 20
-11.611887615
 30
0.0
 40
0.113112385
100
AcDbArc
 50
207.0026238010002
 51
332.9973761989998
  0
ARC
  5
FA
330
1D
100
AcDbEntity
  8
1
100
AcDbCircle
 10
15.31749426582082
 20
-10.415302318
 30
0.0
 40
2.748556607
100
AcDbArc
 50
332.9971158899999
 51
347.393006227
  0
ARC
  5
FB
330
1D
100
AcDbEntity
  8
1
100
AcDbCircle
 10
8.485350182820824
 20
-8.887261527000003
 30
0.0
 40
9.749492362
100
AcDbArc
 50
347.393006227
 51
354.654975849
  0
ARC
  5
FC
330
1D
100
AcDbEntity
  8
1
100
AcDbCircle
 10
-41.08267856517917
 20
-4.250000000000002
 30
0.0
 40
59.533964523
100
AcDbArc
 50
354.655277769
 51
356.894024687
  0
ARC
  5
FD
330
1D
100
AcDbEntity
  8
1
100
AcDbCircle
 10
24.20616372782083
 20
-2.000000000000002
 30
0.0
 40
8.0
100
AcDbArc
 50
202.292171449
 51
203.804576214
  0
LINE
  5
FE
330
1D
100
AcDbEntity
  8
1
100
AcDbLine
 10
16.71900896482082
 20
-4.815611523000002
 30
0.0
 11
16.84906629882082
 21
-5.130257458000002
 31
0.0
  0
ARC
  5
FF
330
1D
100
AcDbEntity
  8
1
100
AcDbCircle
 10
23.81917187382082
 20
-2.264481149000002
 30
0.0
 40
7.537189672
100
AcDbArc
 50
203.370648496
 51
223.747364981
  0
LINE
  5
100
330
1D
100
AcDbEntity
  8
1
100
AcDbLine
 10
-1.293836924179176
 20
-11.09571755
 30
0.0
 11
-1.193837094179176
 21
-11.35073416
 31
0.0
  0
LINE
  5
101
330
1D
100
AcDbEntity
  8
1
100
AcDbLine
 10
-1.393836754179175
 20
-10.663127527
 30
0.0
 11
-1.381591725179176
 21
-10.788289831
 31
0.0
  0
LINE
  5
102
330
1D
100
AcDbEntity
  8
1
100
AcDbLine
 10
-1.381591725179176
 20
-10.788289831
 30
0.0
 11
-1.293836924179176
 21
-11.09571755
 31
0.0
  0
LINE
  5
103
330
1D
100
AcDbEntity
  8
1
100
AcDbLine
 10
-1.293836924179176
 20
11.095717549
 30
0.0
 11
-1.387382689179176
 21
10.750360787
 31
0.0
  0
LINE
  5
104
330
1D
100
AcDbEntity
  8
1
100
AcDbLine
 10
-1.387382689179176
 20
10.750360787
 30
0.0
 11
-1.393836754179175
 21
10.663127526
 31
0.0
  0
LINE
  5
105
330
1D
100
AcDbEntity
  8
1
100
AcDbLine
 10
-1.193837094179176
 20
11.350734159
 30
0.0
 11
-1.293836924179176
 21
11.095717549
 31
0.0
  0
LINE
  5
106
330
1D
100
AcDbEntity
  8
1
100
AcDbLine
 10
0.0807840198208245
 20
12.511109933
 30
0.0
 11
0.0847328278208245
 21
12.491876259
 31
0.0
  0
LINE
  5
107
330
1D
100
AcDbEntity
  8
1
100
AcDbLine
 10
0.0847328278208245
 20
12.491876259
 30
0.0
 11
0.0846247938208245
 21
12.395725585
 31
0.0
  0
LINE
  5
108
330
1D
100
AcDbEntity
  8
1
100
AcDbLine
 10
-1.193837094179176
 20
-13.423694298
 30
0.0
 11
-1.293836924179176
 21
-13.339244761
 31
0.0
  0
ARC
  5
109
330
1D
100
AcDbEntity
  8
1
100
AcDbCircle
 10
-0.7415775021791755
 20
13.665967446
 30
0.0
 40
0.653559746
100
AcDbArc
 50
147.672171422
 51
176.384893098
  0
LINE
  5
10A
330
1D
100
AcDbEntity
  8
1
100
AcDbLine
 10
-1.193837094179176
 20
14.208056032
 30
0.0
 11
-1.293836924179176
 21
14.015466906
 31
0.0
  0
LINE
  5
10B
330
1D
100
AcDbEntity
  8
1
100
AcDbLine
 10
-1.293836924179176
 20
-14.015466907
 30
0.0
 11
-1.193837094179176
 21
-14.208056033
 31
0.0
  0
ARC
  5
10C
330
1D
100
AcDbEntity
  8
1
100
AcDbCircle
 10
-0.6209194541791755
 20
-13.626829689
 30
0.0
 40
0.77708224
100
AcDbArc
 50
185.934753576
 51
210.0081819039999
  0
LINE
  5
10D
330
1D
100
AcDbEntity
  8
1
100
AcDbLine
 10
-1.293836924179176
 20
-13.339244761
 30
0.0
 11
-1.314273867179176
 21
-13.323813677
 31
0.0
  0
LINE
  5
10E
330
1D
100
AcDbEntity
  8
1
100
AcDbLine
 10
-1.314273867179176
 20
-13.323813677
 30
0.0
 11
-1.344696450179176
 21
-13.30952067
 31
0.0
  0
LINE
  5
10F
330
1D
100
AcDbEntity
  8
1
100
AcDbLine
 10
-1.344696450179176
 20
-13.30952067
 30
0.0
 11
-1.367459836179175
 21
-13.31021078
 31
0.0
  0
LINE
  5
110
330
1D
100
AcDbEntity
  8
1
100
AcDbLine
 10
-1.367459836179175
 20
-13.31021078
 30
0.0
 11
-1.380885783179175
 21
-13.320662082
 31
0.0
  0
LINE
  5
111
330
1D
100
AcDbEntity
  8
1
100
AcDbLine
 10
-1.380885783179175
 20
-13.320662082
 30
0.0
 11
-1.391875389179176
 21
-13.349624351
 31
0.0
  0
LINE
  5
112
330
1D
100
AcDbEntity
  8
1
100
AcDbLine
 10
-1.391875389179176
 20
-13.349624351
 30
0.0
 11
-1.393836754179175
 21
-13.375914656
 31
0.0
  0
LINE
  5
113
330
1D
100
AcDbEntity
  8
1
100
AcDbLine
 10
-1.293836924179176
 20
15.560111962
 30
0.0
 11
-1.193837094179176
 21
15.641799196
 31
0.0
  0
LINE
  5
114
330
1D
100
AcDbEntity
  8
1
100
AcDbLine
 10
-1.193837094179176
 20
-15.641799197
 30
0.0
 11
-1.293836924179176
 21
-15.560111963
 31
0.0
  0
ARC
  5
115
330
1D
100
AcDbEntity
  8
1
100
AcDbCircle
 10
-0.9015092801791755
 20
15.735094443
 30
0.0
 40
0.496307194
100
AcDbArc
 50
142.2316601689997
 51
172.7392884209999
  0
LINE
  5
116
330
1D
100
AcDbEntity
  8
1
100
AcDbLine
 10
-1.193837094179176
 20
16.198720783
 30
0.0
 11
-1.293836924179176
 21
16.039067879
 31
0.0
  0
LINE
  5
117
330
1D
100
AcDbEntity
  8
1
100
AcDbLine
 10
-1.393836754179175
 20
15.563762746
 30
0.0
 11
-1.391540113179176
 21
15.544406138
 31
0.0
  0
LINE
  5
118
330
1D
100
AcDbEntity
  8
1
100
AcDbLine
 10
-1.391540113179176
 20
15.544406138
 30
0.0
 11
-1.380520704179176
 21
15.527453273
 31
0.0
  0
LINE
  5
119
330
1D
100
AcDbEntity
  8
1
100
AcDbLine
 10
-1.380520704179176
 20
15.527453273
 30
0.0
 11
-1.363078895179175
 21
15.523367561
 31
0.0
  0
LINE
  5
11A
330
1D
100
AcDbEntity
  8
1
100
AcDbLine
 10
-1.363078895179175
 20
15.523367561
 30
0.0
 11
-1.339468005179175
 21
15.53011313
 31
0.0
  0
LINE
  5
11B
330
1D
100
AcDbEntity
  8
1
100
AcDbLine
 10
-1.339468005179175
 20
15.53011313
 30
0.0
 11
-1.305014658179176
 21
15.551353804
 31
0.0
  0
LINE
  5
11C
330
1D
100
AcDbEntity
  8
1
100
AcDbLine
 10
-1.305014658179176
 20
15.551353804
 30
0.0
 11
-1.293836924179176
 21
15.560111962
 31
0.0
  0
LINE
  5
11D
330
1D
100
AcDbEntity
  8
1
100
AcDbLine
 10
-1.293836924179176
 20
-16.03906788
 30
0.0
 11
-1.193837094179176
 21
-16.198720783
 31
0.0
  0
ARC
  5
11E
330
1D
100
AcDbEntity
  8
1
100
AcDbCircle
 10
-0.8548519921791755
 20
-15.715754503
 30
0.0
 40
0.54519658
100
AcDbArc
 50
188.657323039
 51
216.3717283709997
  0
LINE
  5
11F
330
1D
100
AcDbEntity
  8
1
100
AcDbLine
 10
-1.293836924179176
 20
-15.560111963
 30
0.0
 11
-1.320727932179176
 21
-15.540443361
 31
0.0
  0
LINE
  5
120
330
1D
100
AcDbEntity
  8
1
100
AcDbLine
 10
-1.320727932179176
 20
-15.540443361
 30
0.0
 11
-1.350191253179176
 21
-15.525947325
 31
0.0
  0
LINE
  5
121
330
1D
100
AcDbEntity
  8
1
100
AcDbLine
 10
-1.350191253179176
 20
-15.525947325
 30
0.0
 11
-1.373964193179176
 21
-15.524390154
 31
0.0
  0
LINE
  5
122
330
1D
100
AcDbEntity
  8
1
100
AcDbLine
 10
-1.373964193179176
 20
-15.524390154
 30
0.0
 11
-1.387019473179176
 21
-15.534139239
 31
0.0
  0
LINE
  5
123
330
1D
100
AcDbEntity
  8
1
100
AcDbLine
 10
-1.387019473179176
 20
-15.534139239
 30
0.0
 11
-1.393795776179175
 21
-15.560837463
 31
0.0
  0
LINE
  5
124
330
1D
100
AcDbEntity
  8
1
100
AcDbLine
 10
-1.393795776179175
 20
-15.560837463
 30
0.0
 11
-1.393836754179175
 21
-15.563762747
 31
0.0
  0
LINE
  5
125
330
1D
100
AcDbEntity
  8
1
100
AcDbLine
 10
-1.393836754179175
 20
19.269371405
 30
0.0
 11
-1.393836754179175
 21
-19.269371406
 31
0.0
  0
LINE
  5
126
330
1D
100
AcDbEntity
  8
1
100
AcDbLine
 10
-1.193837094179176
 20
-17.223129049
 30
0.0
 11
-1.293836924179176
 21
-17.14055799
 31
0.0
  0
LINE
  5
127
330
1D
100
AcDbEntity
  8
1
100
AcDbLine
 10
-1.293836924179176
 20
-17.480563373
 30
0.0
 11
-1.193837094179176
 21
-17.618974671
 31
0.0
  0
ARC
  5
128
330
1D
100
AcDbEntity
  8
1
100
AcDbCircle
 10
-0.9831214641791756
 20
-17.19853365
 30
0.0
 40
0.419624668
100
AcDbArc
 50
191.8277522760002
 51
222.2293484609999
  0
LINE
  5
129
330
1D
100
AcDbEntity
  8
1
100
AcDbLine
 10
-1.293836924179176
 20
-17.14055799
 30
0.0
 11
-1.326360571179175
 21
-17.116155476
 31
0.0
  0
LINE
  5
12A
330
1D
100
AcDbEntity
  8
1
100
AcDbLine
 10
-1.326360571179175
 20
-17.116155476
 30
0.0
 11
-1.357269305179176
 21
-17.099438236
 31
0.0
  0
LINE
  5
12B
330
1D
100
AcDbEntity
  8
1
100
AcDbLine
 10
-1.357269305179176
 20
-17.099438236
 30
0.0
 11
-1.380561682179176
 21
-17.09609665
 31
0.0
  0
LINE
  5
12C
330
1D
100
AcDbEntity
  8
1
100
AcDbLine
 10
-1.380561682179176
 20
-17.09609665
 30
0.0
 11
-1.391398552179175
 21
-17.105100677
 31
0.0
  0
LINE
  5
12D
330
1D
100
AcDbEntity
  8
1
100
AcDbLine
 10
-1.391398552179175
 20
-17.105100677
 30
0.0
 11
-1.393836754179175
 21
-17.118595541
 31
0.0
  0
LINE
  5
12E
330
1D
100
AcDbEntity
  8
1
100
AcDbLine
 10
-1.293836924179176
 20
18.247747793
 30
0.0
 11
-1.193837094179176
 21
18.333205953
 31
0.0
  0
LINE
  5
12F
330
1D
100
AcDbEntity
  8
1
100
AcDbLine
 10
-1.193837094179176
 20
-18.333205954
 30
0.0
 11
-1.293836924179176
 21
-18.247747794
 31
0.0
  0
LINE
  5
130
330
1D
100
AcDbEntity
  8
1
100
AcDbLine
 10
-1.393836754179175
 20
18.203347921
 30
0.0
 11
-1.391767356179175
 21
18.195409327
 31
0.0
  0
LINE
  5
131
330
1D
100
AcDbEntity
  8
1
100
AcDbLine
 10
-1.391767356179175
 20
18.195409327
 30
0.0
 11
-1.378963533179175
 21
18.19229871
 31
0.0
  0
LINE
  5
132
330
1D
100
AcDbEntity
  8
1
100
AcDbLine
 10
-1.378963533179175
 20
18.19229871
 30
0.0
 11
-1.357490960179176
 21
18.201053142
 31
0.0
  0
LINE
  5
133
330
1D
100
AcDbEntity
  8
1
100
AcDbLine
 10
-1.357490960179176
 20
18.201053142
 30
0.0
 11
-1.328670251179175
 21
18.219908699
 31
0.0
  0
LINE
  5
134
330
1D
100
AcDbEntity
  8
1
100
AcDbLine
 10
-1.328670251179175
 20
18.219908699
 30
0.0
 11
-1.293836924179176
 21
18.247747793
 31
0.0
  0
ARC
  5
135
330
1D
100
AcDbEntity
  8
1
100
AcDbCircle
 10
-1.064054093179176
 20
18.222815301
 30
0.0
 40
0.34242926
100
AcDbArc
 50
132.1471803160002
 51
164.3798635319998
  0
LINE
  5
136
330
1D
100
AcDbEntity
  8
1
100
AcDbLine
 10
-1.193837094179176
 20
18.599946051
 30
0.0
 11
-1.293836924179176
 21
18.47670041
 31
0.0
  0
LINE
  5
137
330
1D
100
AcDbEntity
  8
1
100
AcDbLine
 10
-1.293836924179176
 20
-18.247747794
 30
0.0
 11
-1.331492159179176
 21
-18.217856065
 31
0.0
  0
LINE
  5
138
330
1D
100
AcDbEntity
  8
1
100
AcDbLine
 10
-1.331492159179176
 20
-18.217856065
 30
0.0
 11
-1.363160851179176
 21
-18.198087812
 31
0.0
  0
LINE
  5
139
330
1D
100
AcDbEntity
  8
1
100
AcDbLine
 10
-1.363160851179176
 20
-18.198087812
 30
0.0
 11
-1.385395247179176
 21
-18.191952259
 31
0.0
  0
LINE
  5
13A
330
1D
100
AcDbEntity
  8
1
100
AcDbLine
 10
-1.385395247179176
 20
-18.191952259
 30
0.0
 11
-1.393443736179176
 21
-18.199345097
 31
0.0
  0
LINE
  5
13B
330
1D
100
AcDbEntity
  8
1
100
AcDbLine
 10
-1.393443736179176
 20
-18.199345097
 30
0.0
 11
-1.393836754179175
 21
-18.203347922
 31
0.0
  0
LINE
  5
13C
330
1D
100
AcDbEntity
  8
1
100
AcDbLine
 10
-1.293836924179176
 20
-18.476700411
 30
0.0
 11
-1.193837094179176
 21
-18.599946052
 31
0.0
  0
ARC
  5
13D
330
1D
100
AcDbEntity
  8
1
100
AcDbCircle
 10
-0.9569498631791755
 20
-18.156572144
 30
0.0
 40
0.464731104
100
AcDbArc
 50
199.9341093200001
 51
223.538846832
  0
LINE
  5
13E
330
1D
100
AcDbEntity
  8
1
100
AcDbLine
 10
-1.293836924179176
 20
18.96475628
 30
0.0
 11
-1.193837094179176
 21
19.054573029
 31
0.0
  0
LINE
  5
13F
330
1D
100
AcDbEntity
  8
1
100
AcDbLine
 10
-1.193837094179176
 20
-19.05457303
 30
0.0
 11
-1.293836924179176
 21
-18.964756281
 31
0.0
  0
ARC
  5
140
330
1D
100
AcDbEntity
  8
1
100
AcDbCircle
 10
-1.003108966179175
 20
18.775373819
 30
0.0
 40
0.433772027
100
AcDbArc
 50
132.084984826
 51
154.2591492939999
  0
LINE
  5
141
330
1D
100
AcDbEntity
  8
1
100
AcDbLine
 10
-1.193837094179176
 20
19.209051504
 30
0.0
 11
-1.293836924179176
 21
19.097298383
 31
0.0
  0
ARC
  5
142
330
1D
100
AcDbEntity
  8
1
100
AcDbCircle
 10
-1.432185259179175
 20
19.066594209
 30
0.0
 40
0.171788316
100
AcDbArc
 50
282.898885571
 51
323.6432905950004
  0
LINE
  5
143
330
1D
100
AcDbEntity
  8
1
100
AcDbLine
 10
-1.293836924179176
 20
-19.097298384
 30
0.0
 11
-1.193837094179176
 21
-19.209051505
 31
0.0
  0
ARC
  5
144
330
1D
100
AcDbEntity
  8
1
100
AcDbCircle
 10
-0.9750165751791755
 20
-18.754336658
 30
0.0
 40
0.46826185
100
AcDbArc
 50
206.5666797169999
 51
227.089186163
  0
LINE
  5
145
330
1D
100
AcDbEntity
  8
1
100
AcDbLine
 10
-1.293836924179176
 20
-18.964756281
 30
0.0
 11
-1.336318272179176
 21
-18.928360194
 31
0.0
  0
LINE
  5
146
330
1D
100
AcDbEntity
  8
1
100
AcDbLine
 10
-1.336318272179176
 20
-18.928360194
 30
0.0
 11
-1.368214208179175
 21
-18.904790283
 31
0.0
  0
LINE
  5
147
330
1D
100
AcDbEntity
  8
1
100
AcDbLine
 10
-1.368214208179175
 20
-18.904790283
 30
0.0
 11
-1.386592927179175
 21
-18.895419315
 31
0.0
  0
LINE
  5
148
330
1D
100
AcDbEntity
  8
1
100
AcDbLine
 10
-1.386592927179175
 20
-18.895419315
 30
0.0
 11
-1.393780875179176
 21
-18.898226321
 31
0.0
  0
LINE
  5
149
330
1D
100
AcDbEntity
  8
1
100
AcDbLine
 10
-1.393780875179176
 20
-18.898226321
 30
0.0
 11
-1.393836754179175
 21
-18.89914088
 31
0.0
  0
ARC
  5
14A
330
1D
100
AcDbEntity
  8
1
100
AcDbCircle
 10
17.56047305182082
 20
-18.79142803
 30
0.0
 40
0.754764176
100
AcDbArc
 50
257.6763588879999
 51
344.7876954059999
  0
LINE
  5
14B
330
1D
100
AcDbEntity
  8
1
100
AcDbLine
 10
-1.293836924179176
 20
19.335035234
 30
0.0
 11
-1.193837094179176
 21
19.430570304
 31
0.0
  0
LINE
  5
14C
330
1D
100
AcDbEntity
  8
1
100
AcDbLine
 10
-1.193837094179176
 20
-19.430570305
 30
0.0
 11
-1.293836924179176
 21
-19.335035235
 31
0.0
  0
LINE
  5
14D
330
1D
100
AcDbEntity
  8
1
100
AcDbLine
 10
-1.193837094179176
 20
19.481206312
 30
0.0
 11
-1.293836924179176
 21
19.378472119
 31
0.0
  0
ARC
  5
14E
330
1D
100
AcDbEntity
  8
1
100
AcDbCircle
 10
-1.793407821179176
 20
19.809325173
 30
0.0
 40
0.688855592
100
AcDbArc
 50
305.4540982729999
 51
316.4870368360002
  0
ARC
  5
14F
330
1D
100
AcDbEntity
  8
1
100
AcDbCircle
 10
-0.6630059531791755
 20
18.699883932
 30
0.0
 40
0.926514782
100
AcDbArc
 50
132.911230669
 51
142.0731022729999
  0
ARC
  5
150
330
1D
100
AcDbEntity
  8
1
100
AcDbCircle
 10
-1.617644796179176
 20
-19.606923048
 30
0.0
 40
0.42281736
100
AcDbArc
 50
40.01876268400014
 51
58.04010220699994
  0
LINE
  5
151
330
1D
100
AcDbEntity
  8
1
100
AcDbLine
 10
-1.293836924179176
 20
-19.37847212
 30
0.0
 11
-1.193837094179176
 21
-19.481206313
 31
0.0
  0
ARC
  5
152
330
1D
100
AcDbEntity
  8
1
100
AcDbCircle
 10
-0.6403857771791756
 20
-18.679150671
 30
0.0
 40
0.95710443
100
AcDbArc
 50
218.073605142
 51
226.9420619160001
  0
ARC
  5
153
330
1D
100
AcDbEntity
  8
1
100
AcDbCircle
 10
9.523319903820825
 20
19.157585769
 30
0.0
 40
0.332808729
100
AcDbArc
 50
61.36135989699997
 51
88.09280457700012
  0
LINE
  5
154
330
1D
100
AcDbEntity
  8
1
100
AcDbLine
 10
9.682829659820824
 20
19.449679181
 30
0.0
 11
9.682829659820824
 21
18.908914178
 31
0.0
  0
LINE
  5
157
330
1D
100
AcDbEntity
  8
1
100
AcDbLine
 10
8.664450776820825
 20
12.530148029
 30
0.0
 11
9.481164794820824
 21
12.674891389
 31
0.0
  0
LINE
  5
158
330
1D
100
AcDbEntity
  8
1
100
AcDbLine
 10
18.70616449082083
 20
7.809475063999998
 30
0.0
 11
18.70616449082083
 21
10.853104293
 31
0.0
  0
ARC
  5
159
330
1D
100
AcDbEntity
  8
1
100
AcDbCircle
 10
24.20616372782083
 20
1.999999999999998
 30
0.0
 40
8.0
100
AcDbArc
 50
133.432536558
 51
180.0
  0
LINE
  5
15A
330
1D
100
AcDbEntity
  8
1
100
AcDbLine
 10
8.606164884820824
 20
12.518698349
 30
0.0
 11
8.664450776820825
 21
12.530148029
 31
0.0
  0
LINE
  5
15B
330
1D
100
AcDbEntity
  8
1
100
AcDbLine
 10
9.682829659820824
 20
19.164811819
 30
0.0
 11
10.99893746982082
 21
19.164811819
 31
0.0
  0
ARC
  5
15D
330
1D
100
AcDbEntity
  8
1
100
AcDbCircle
 10
9.881163727820825
 20
18.561547091
 30
0.0
 40
0.4
100
AcDbArc
 50
100.0000000000001
 51
180.0
  0
ARC
  5
15F
330
1D
100
AcDbEntity
  8
1
100
AcDbCircle
 10
18.60616372782082
 20
20.099999997
 30
0.0
 40
0.4
100
AcDbArc
 50
0.0
 51
100.0000000000001
  0
LINE
  5
160
330
1D
100
AcDbEntity
  8
1
100
AcDbLine
 10
19.00616211882082
 20
11.240403167
 30
0.0
 11
19.00616211882082
 21
20.099999383
 31
0.0
  0
ARC
  5
161
330
1D
100
AcDbEntity
  8
1
100
AcDbCircle
 10
18.60616372782082
 20
11.240402809
 30
0.0
 40
0.4
100
AcDbArc
 50
280.0000000000001
 51
0.0
  0
LINE
  5
162
330
1D
100
AcDbEntity
  8
1
100
AcDbLine
 10
9.950622152820824
 20
9.308027102999997
 30
0.0
 11
18.67562456182083
 21
10.846479795
 31
0.0
  0
ARC
  5
163
330
1D
100
AcDbEntity
  8
1
100
AcDbCircle
 10
9.881163727820825
 20
9.701949901999997
 30
0.0
 40
0.4
100
AcDbArc
 50
180.0
 51
280.0000000000001
  0
LINE
  5
164
330
1D
100
AcDbEntity
  8
CUT
100
AcDbLine
 10
18.51870788382082
 20
-11.313785799
 30
0.0
 11
18.33829952482083
 21
-11.281974614
 31
0.0
  0
LINE
  5
165
330
1D
100
AcDbEntity
  8
CUT
100
AcDbLine
 10
18.51870788382082
 20
-19.995775074
 30
0.0
 11
18.51870788382082
 21
-11.313785799
 31
0.0
  0
LINE
  5
166
330
1D
100
AcDbEntity
  8
CUT
100
AcDbLine
 10
13.80607781982082
 20
-19.16481182
 30
0.0
 11
18.51870788382082
 21
-19.995775074
 31
0.0
  0
LINE
  5
167
330
1D
100
AcDbEntity
  8
CUT
100
AcDbLine
 10
18.51870788382082
 20
-11.313785799
 30
0.0
 11
18.60616279882083
 21
-11.240403168
 31
0.0
  0
LINE
  5
168
330
1D
100
AcDbEntity
  8
CUT
100
AcDbLine
 10
18.60616279882083
 20
-11.240403168
 30
0.0
 11
19.00616211882082
 21
-11.240403168
 31
0.0
  0
LINE
  5
169
330
1D
100
AcDbEntity
  8
CUT
100
AcDbLine
 10
19.00616211882082
 20
-11.240403168
 30
0.0
 11
19.00616211882082
 21
-20.099999384
 31
0.0
  0
LINE
  5
16A
330
1D
100
AcDbEntity
  8
CUT
100
AcDbLine
 10
18.60616279882083
 20
-20.099999384
 30
0.0
 11
19.00616211882082
 21
-20.099999384
 31
0.0
  0
LINE
  5
16B
330
1D
100
AcDbEntity
  8
CUT
100
AcDbLine
 10
18.51870788382082
 20
-19.995775074
 30
0.0
 11
18.60616279882083
 21
-20.099999384
 31
0.0
  0
LINE
  5
16C
330
1D
100
AcDbEntity
  8
CUT
100
AcDbLine
 10
18.60616279882083
 20
-11.240403168
 30
0.0
 11
18.65640206382082
 21
-10.955482722
 31
0.0
  0
LINE
  5
16D
330
1D
100
AcDbEntity
  8
CUT
100
AcDbLine
 10
18.60616279882083
 20
-20.099999384
 30
0.0
 11
18.53670476082083
 21
-20.493922756
 31
0.0
  0
LINE
  5
16E
330
1D
100
AcDbEntity
  8
CUT
100
AcDbLine
 10
18.53670476082083
 20
-20.493922756
 30
0.0
 11
10.99893746982082
 21
-19.16481182
 31
0.0
  0
ARC
  5
16F
330
1D
100
AcDbEntity
  8
CUT
100
AcDbCircle
 10
18.60616372782082
 20
-20.099999998
 30
0.0
 40
0.4
100
AcDbArc
 50
259.9999999999999
 51
0.0
  0
ARC
  5
170
330
1D
100
AcDbEntity
  8
CUT
100
AcDbCircle
 10
18.60616372782082
 20
-11.240402809
 30
0.0
 40
0.4
100
AcDbArc
 50
0.0
 51
75.52248781399994
  0
ARC
  5
172
330
1D
100
AcDbEntity
  8
1
100
AcDbCircle
 10
14.91965923282083
 20
13.22173955
 30
0.0
 40
0.6
100
AcDbArc
 50
59.81364678599994
 51
180.1863532140001
  0
ARC
  5
173
330
1D
100
AcDbEntity
  8
1
100
AcDbCircle
 10
15.34705119882083
 20
13.95647495
 30
0.0
 40
0.25
100
AcDbArc
 50
239.8136467859999
 51
60.18635321300005
  0
ARC
  5
176
330
1D
100
AcDbEntity
  8
1
100
AcDbCircle
 10
13.21966822382082
 20
13.22173955
 30
0.0
 40
0.6
100
AcDbArc
 50
359.8136467859999
 51
120.1863532140001
  0
ARC
  5
177
330
1D
100
AcDbEntity
  8
1
100
AcDbCircle
 10
14.06966372782082
 20
13.21897495
 30
0.0
 40
0.25
100
AcDbArc
 50
179.8136467870001
 51
0.186353212999859
  0
ARC
  5
179
330
1D
100
AcDbEntity
  8
1
100
AcDbCircle
 10
12.36967271982082
 20
14.69397495
 30
0.0
 40
0.6
100
AcDbArc
 50
299.8136467859999
 51
60.18635321400006
  0
ARC
  5
17A
330
1D
100
AcDbEntity
  8
1
100
AcDbCircle
 10
12.79227625782083
 20
13.95647495
 30
0.0
 40
0.25
100
AcDbArc
 50
119.8136467869999
 51
300.1863532140002
  0
ARC
  5
17B
330
1D
100
AcDbEntity
  8
1
100
AcDbCircle
 10
15.76965473682082
 20
14.69397495
 30
0.0
 40
0.6
100
AcDbArc
 50
119.8136467869999
 51
240.186353213
  0
ARC
  5
17C
330
1D
100
AcDbEntity
  8
1
100
AcDbCircle
 10
15.34705119882083
 20
15.43147495
 30
0.0
 40
0.25
100
AcDbArc
 50
299.8136467859999
 51
120.1863532140001
  0
ARC
  5
17F
330
1D
100
AcDbEntity
  8
1
100
AcDbCircle
 10
13.21966822382082
 20
16.166210349
 30
0.0
 40
0.6
100
AcDbArc
 50
239.813646786
 51
0.1863532139998849
  0
ARC
  5
180
330
1D
100
AcDbEntity
  8
1
100
AcDbCircle
 10
12.79227625782083
 20
15.43147495
 30
0.0
 40
0.25
100
AcDbArc
 50
59.81364678599987
 51
240.1863532140001
  0
ARC
  5
181
330
1D
100
AcDbEntity
  8
1
100
AcDbCircle
 10
14.06966372782082
 20
16.16897495
 30
0.0
 40
0.25
100
AcDbArc
 50
359.8136467869998
 51
180.1863532130003
  0
ARC
  5
182
330
1D
100
AcDbEntity
  8
1
100
AcDbCircle
 10
14.91965923282083
 20
16.166210349
 30
0.0
 40
0.6
100
AcDbArc
 50
179.8136467860001
 51
300.186353214
  0
ARC
  5
184
330
1D
100
AcDbEntity
  8
1
100
AcDbCircle
 10
169.1404697678208
 20
-0.000000000000002
 30
0.0
 40
152.419571853
100
AcDbArc
 50
181.892906421
 51
185.345567256
  0
ARC
  5
185
330
1D
100
AcDbEntity
  8
1
100
AcDbCircle
 10
42.24851831482083
 20
-11.873009157
 30
0.0
 40
24.961050063
100
AcDbArc
 50
185.346011244
 51
192.608482125
  0
ARC
  5
186
330
1D
100
AcDbEntity
  8
1
100
AcDbCircle
 10
24.75734929282082
 20
-15.785467528
 30
0.0
 40
7.037648481
100
AcDbArc
 50
192.608482125
 51
204.740350667
  0
LINE
  5
187
330
1D
100
AcDbEntity
  8
1
100
AcDbLine
 10
17.39938108282082
 20
-19.50913854
 30
0.0
 11
17.25375948582083
 21
-19.152346999
 31
0.0
  0
LINE
  5
188
330
1D
100
AcDbEntity
  8
1
100
AcDbLine
 10
17.25375948582083
 20
-19.152346999
 30
0.0
 11
17.09885073882083
 21
-18.642090261
 31
0.0
  0
LINE
  5
189
330
1D
100
AcDbEntity
  8
1
100
AcDbLine
 10
17.09885073882083
 20
-18.642090261
 30
0.0
 11
16.94810686682083
 21
-18.0067271
 31
0.0
  0
LINE
  5
18A
330
1D
100
AcDbEntity
  8
1
100
AcDbLine
 10
16.94810686682083
 20
-18.0067271
 30
0.0
 11
16.80298445782082
 21
-17.252946273
 31
0.0
  0
LINE
  5
18B
330
1D
100
AcDbEntity
  8
1
100
AcDbLine
 10
16.80298445782082
 20
-17.252946273
 30
0.0
 11
16.66493637582083
 21
-16.387438402
 31
0.0
  0
LINE
  5
18C
330
1D
100
AcDbEntity
  8
1
100
AcDbLine
 10
16.66493637582083
 20
-16.387438402
 30
0.0
 11
16.53449161082083
 21
-15.411560424
 31
0.0
  0
LINE
  5
18D
330
1D
100
AcDbEntity
  8
1
100
AcDbLine
 10
16.53449161082083
 20
-15.411560424
 30
0.0
 11
16.41203014282083
 21
-14.329800383
 31
0.0
  0
LINE
  5
18E
330
1D
100
AcDbEntity
  8
1
100
AcDbLine
 10
16.41203014282083
 20
-14.329800383
 30
0.0
 11
16.29872916382082
 21
-13.153207489
 31
0.0
  0
LINE
  5
18F
330
1D
100
AcDbEntity
  8
1
100
AcDbLine
 10
16.29872916382082
 20
-13.153207489
 30
0.0
 11
16.19575841382083
 21
-11.892831885
 31
0.0
  0
LINE
  5
190
330
1D
100
AcDbEntity
  8
1
100
AcDbLine
 10
16.19575841382083
 20
-11.892831885
 30
0.0
 11
16.10059214882082
 21
-10.503571481
 31
0.0
  0
LINE
  5
191
330
1D
100
AcDbEntity
  8
1
100
AcDbLine
 10
16.10059214882082
 20
-10.503571481
 30
0.0
 11
16.01723505282082
 21
-9.033897892000002
 31
0.0
  0
LINE
  5
192
330
1D
100
AcDbEntity
  8
1
100
AcDbLine
 10
16.01723505282082
 20
-9.033897892000002
 30
0.0
 11
15.94652531782083
 21
-7.499807049000002
 31
0.0
  0
LINE
  5
193
330
1D
100
AcDbEntity
  8
1
100
AcDbLine
 10
15.94652531782083
 20
-7.499807049000002
 30
0.0
 11
15.88929740782083
 21
-5.917292089000002
 31
0.0
  0
LINE
  5
194
330
1D
100
AcDbEntity
  8
1
100
AcDbLine
 10
15.88929740782083
 20
-5.917292089000002
 30
0.0
 11
15.85164217382082
 21
-4.544414580000002
 31
0.0
  0
LINE
  5
195
330
1D
100
AcDbEntity
  8
1
100
AcDbLine
 10
15.85164217382082
 20
-4.544414580000002
 30
0.0
 11
15.82390366182083
 21
-3.146388336000002
 31
0.0
  0
LINE
  5
196
330
1D
100
AcDbEntity
  8
1
100
AcDbLine
 10
15.82390366182083
 20
-3.146388336000002
 30
0.0
 11
15.80629793982082
 21
-1.733978629000002
 31
0.0
  0
LINE
  5
197
330
1D
100
AcDbEntity
  8
1
100
AcDbLine
 10
17.39938108282082
 20
-19.50913854
 30
0.0
 11
17.39938108282082
 21
-19.528800622
 31
0.0
  0
LINE
  5
198
330
1D
100
AcDbEntity
  8
1
100
AcDbLine
 10
16.20616314982082
 20
-0.000000000000002
 30
0.0
 11
15.36993233582082
 21
-0.000000000000002
 31
0.0
  0
LINE
  5
199
330
1D
100
AcDbEntity
  8
SK2
100
AcDbLine
 10
30.98730920582083
 20
-20.499999998
 30
0.0
 11
18.60616372782082
 21
-20.499999998
 31
0.0
  0
LINE
  5
19A
330
1D
100
AcDbEntity
  8
SK2
100
AcDbLine
 10
28.98730920582083
 20
-20.499999998
 30
0.0
 11
28.53730920582083
 21
-16.999999998
 31
0.0
  0
LINE
  5
19B
330
1D
100
AcDbEntity
  8
SK2
100
AcDbLine
 10
28.53730920582083
 20
-16.999999998
 30
0.0
 11
29.43730920582082
 21
-16.999999998
 31
0.0
  0
LINE
  5
19C
330
1D
100
AcDbEntity
  8
SK2
100
AcDbLine
 10
29.43730920582082
 20
-16.999999998
 30
0.0
 11
28.98730920582083
 21
-20.499999998
 31
0.0
  0
LINE
  5
19D
330
1D
100
AcDbEntity
  8
SK2
100
AcDbLine
 10
30.98730920582083
 20
20.499999997
 30
0.0
 11
18.60616372782082
 21
20.499999997
 31
0.0
  0
LINE
  5
19E
330
1D
100
AcDbEntity
  8
SK2
100
AcDbLine
 10
28.98730920582083
 20
20.499999997
 30
0.0
 11
29.43730920582082
 21
16.999999997
 31
0.0
  0
LINE
  5
19F
330
1D
100
AcDbEntity
  8
SK2
100
AcDbLine
 10
29.43730920582082
 20
16.999999997
 30
0.0
 11
28.53730920582083
 21
16.999999997
 31
0.0
  0
LINE
  5
1A0
330
1D
100
AcDbEntity
  8
SK2
100
AcDbLine
 10
28.53730920582083
 20
16.999999997
 30
0.0
 11
28.98730920582083
 21
20.499999997
 31
0.0
  0
LINE
  5
1A1
330
1D
100
AcDbEntity
  8
SK2
100
AcDbLine
 10
28.98730920582083
 20
-16.999999998
 30
0.0
 11
28.98730920582083
 21
16.999999997
 31
0.0
  0
TEXT
  5
1A2
330
1D
100
AcDbEntity
  8
SK2
100
AcDbText
 10
27.48730920582083
 20
-2.848906709000002
 30
0.0
 40
3.5
  1
41
 50
90.0
  7
BMG_Text
100
AcDbText
  0
CIRCLE
  5
1A3
330
1D
100
AcDbEntity
  8
SK2
100
AcDbCircle
 10
26.23730920582083
 20
-5.098906709000002
 30
0.0
 40
1.25
  0
LINE
  5
1A4
330
1D
100
AcDbEntity
  8
SK2
100
AcDbLine
 10
27.48730920582083
 20
-6.348906709000002
 30
0.0
 11
24.98730920582083
 21
-3.848906709000002
 31
0.0
  0
TEXT
  5
1A5
330
1D
100
AcDbEntity
  8
SK2
100
AcDbText
 10
27.48730920582083
 20
1.214843290999998
 30
0.0
 40
3.5
  1
-54
 50
90.0
  7
BMG_Text
100
AcDbText
  0
LINE
  5
1A6
330
1D
100
AcDbEntity
  8
SK4
100
AcDbLine
 10
-5.010356920179175
 20
-0.000000442000002
 30
0.0
 11
22.07933969182082
 21
-0.000000442000002
 31
0.0
  0
TEXT
  5
1A7
330
1D
100
AcDbEntity
  8
SK6
100
AcDbText
 10
-3.099956646808001
 20
-31.72511859643272
 30
0.0
 40
3.5
  1
639.443
  7
BMG_Text
100
AcDbText
  0
LINE
  5
1A8
330
1D
100
AcDbEntity
  8
2
100
AcDbLine
 10
19.00616369782082
 20
29.999999614
 30
0.0
 11
19.00616369782082
 21
18.749999614
 31
0.0
  0
LINE
  5
1A9
330
1D
100
AcDbEntity
  8
2
100
AcDbLine
 10
19.00616369782082
 20
27.999999614
 30
0.0
 11
15.50616369882082
 21
27.549999609
 31
0.0
  0
LINE
  5
1AA
330
1D
100
AcDbEntity
  8
2
100
AcDbLine
 10
15.50616369882082
 20
27.549999609
 30
0.0
 11
15.50616369682082
 21
28.449999609
 31
0.0
  0
LINE
  5
1AB
330
1D
100
AcDbEntity
  8
2
100
AcDbLine
 10
15.50616369682082
 20
28.449999609
 30
0.0
 11
19.00616369782082
 21
27.999999614
 31
0.0
  0
LINE
  5
1AC
330
1D
100
AcDbEntity
  8
2
100
AcDbLine
 10
-17.99383629817918
 20
27.999999558
 30
0.0
 11
15.50616369782082
 21
27.999999609
 31
0.0
  0
TEXT
  5
1AD
330
1D
100
AcDbEntity
  8
2
100
AcDbText
 10
-1.158524216179176
 20
29.499999583
 30
0.0
 40
3.5
  1
47
 50
0.000000087
  7
BMG_Text
100
AcDbText
  0
ARC
  5
1AE
330
1D
100
AcDbEntity
  8
3
100
AcDbCircle
 10
8.943663727820825
 20
10.954698843
 30
0.0
 40
1.6
100
AcDbArc
 50
100.05
 51
270.1463175739999
  0
LINE
  5
1AF
330
1D
100
AcDbEntity
  8
3
100
AcDbLine
 10
10.07063026382082
 20
-7.635534376000002
 30
0.0
 11
16.20616382782082
 21
-1.499999881000002
 31
0.0
  0
ARC
  5
1B0
330
1D
100
AcDbEntity
  8
3
100
AcDbCircle
 10
13.60616372782082
 20
-11.171067812
 30
0.0
 40
5.0
100
AcDbArc
 50
135.0
 51
180.0
  0
LINE
  5
1B1
330
1D
100
AcDbEntity
  8
3
100
AcDbLine
 10
8.606163699820824
 20
-16.035643042
 30
0.0
 11
8.606163699820824
 21
-11.171069563
 31
0.0
  0
LINE
  5
1B2
330
1D
100
AcDbEntity
  8
3
100
AcDbLine
 10
6.606163371820824
 20
-19.499742061
 30
0.0
 11
8.606163699820824
 21
-16.035643042
 31
0.0
  0
ARC
  5
1B3
330
1D
100
AcDbEntity
  8
1
100
AcDbCircle
 10
8.943664540820825
 20
10.954694972
 30
0.0
 40
1.599996188
100
AcDbArc
 50
270.14628969
 51
280.049859624
  0
LINE
  5
1B4
330
1D
100
AcDbEntity
  8
1
100
AcDbLine
 10
9.577120569820824
 20
9.442030816999997
 30
0.0
 11
9.222871933820825
 21
9.379249318999998
 31
0.0
  0
LINE
  5
251
330
1D
100
AcDbEntity
  8
1
100
AcDbLine
 10
9.811704456754052
 20
18.95547019220488
 30
0.0
 11
10.99893746982082
 21
19.164811819
 31
0.0
  0
LINE
  5
252
330
1D
100
AcDbEntity
  8
3
100
AcDbLine
 10
10.99893746982082
 20
19.164811819
 30
0.0
 11
12.63912630991312
 21
19.164811819
 31
0.0
  0
LINE
  5
253
330
1D
100
AcDbEntity
  8
3
100
AcDbLine
 10
12.63912630991312
 20
19.164811819
 30
0.0
 11
18.60616372782082
 21
20.099999997
 31
0.0
  0
LINE
  5
254
330
1D
100
AcDbEntity
  8
3
100
AcDbLine
 10
18.60616372782082
 20
20.099999997
 30
0.0
 11
18.60616372782082
 21
10.83423198095405
 31
0.0
  0
LINE
  5
257
330
1D
100
AcDbEntity
  8
1
100
AcDbLine
 10
18.53670445675405
 20
20.49392309820488
 30
0.0
 11
9.811704456754052
 21
18.95547019220488
 31
0.0
  0
ARC
  5
258
330
1D
100
AcDbEntity
  8
1
100
AcDbCircle
 10
9.881316720039736
 20
18.56128210070368
 30
0.0
 40
0.4002875449987323
100
AcDbArc
 50
100.0149796471628
 51
181.4915072601008
  0
LINE
  5
259
330
1D
100
AcDbEntity
  8
1
100
AcDbLine
 10
9.481164794820824
 20
18.5508631072441
 30
0.0
 11
9.481164794820822
 21
9.701799207291147
 31
0.0
  0
LINE
  5
25B
330
1D
100
AcDbEntity
  8
1
100
AcDbLine
 10
9.950622152820824
 20
9.308027102999997
 30
0.0
 11
18.6756229988876
 21
10.84647970779511
 31
0.0
  0
LINE
  5
25F
330
1D
100
AcDbEntity
  8
1
100
AcDbLine
 10
9.950622152820824
 20
9.308027102999997
 30
0.0
 11
9.6260306544681
 21
9.2649909189948
 31
0.0
  0
LINE
  5
261
330
1D
100
AcDbEntity
  8
1
100
AcDbLine
 10
9.6260306544681
 20
9.2649909189948
 30
0.0
 11
9.577120569820824
 21
9.442030816999997
 31
0.0
  0
LINE
  5
26B
330
1D
100
AcDbEntity
  8
NOCUT
100
AcDbLine
 10
16.20616314982082
 20
-0.000000000000002
 30
0.0
 11
0.0
 21
0.0
 31
0.0
  0
LINE
  5
26D
330
1D
100
AcDbEntity
  8
NOCUT
100
AcDbLine
 10
0.0
 20
0.0
 30
0.0
 11
-0.0000414218328223
 21
19.49930377480242
 31
0.0
  0
LINE
  5
26F
330
1D
100
AcDbEntity
  8
NOCUT
100
AcDbLine
 10
9.534712117820824
 20
19.499743357
 30
0.0
 11
9.534396008926839
 21
19.4902101367097
 31
0.0
  0
ARC
  5
270
330
1D
100
AcDbEntity
  8
NOCUT
100
AcDbCircle
 10
9.523319903820834
 20
19.15758576900005
 30
0.0
 40
0.3328087289999501
100
AcDbArc
 50
61.36135989699721
 51
88.09280457700136
  0
LINE
  5
271
330
1D
100
AcDbEntity
  8
NOCUT
100
AcDbLine
 10
9.682829755479048
 20
19.44967866059883
 30
0.0
 11
9.682829755479048
 21
19.16898790071076
 31
0.0
  0
LINE
  5
272
330
1D
100
AcDbEntity
  8
NOCUT
100
AcDbLine
 10
9.682829755479048
 20
19.16898790071076
 30
0.0
 11
9.682829659820824
 21
19.164811819
 31
0.0
  0
LINE
  5
273
330
1D
100
AcDbEntity
  8
NOCUT
100
AcDbLine
 10
9.682829659820824
 20
19.164811819
 30
0.0
 11
12.63912630991312
 21
19.164811819
 31
0.0
  0
ARC
  5
278
330
1D
100
AcDbEntity
  8
NOCUT
100
AcDbCircle
 10
24.22421772954559
 20
1.987393359047693
 30
0.0
 40
8.021568102604798
100
AcDbArc
 50
133.4642749902463
 51
181.6958804711878
  0
LINE
  5
279
330
1D
100
AcDbEntity
  8
NOCUT
100
AcDbLine
 10
18.70616449082083
 20
10.853104293
 30
0.0
 11
18.70616449082083
 21
7.809475063999998
 31
0.0
  0
LINE
  5
27A
330
1D
100
AcDbEntity
  8
NOCUT
100
AcDbLine
 10
16.20616314982082
 20
1.500000012999998
 30
0.0
 11
16.20616314982082
 21
-0.000000000000002
 31
0.0
  0
LWPOLYLINE
  5
27C
330
1D
100
AcDbEntity
  8
INFTOTAL
100
AcDbPolyline
 90
        4
 70
     1
 43
0.0
 10
-35.77806313251003
 20
48.33004985295977
 10
-35.77806313251003
 20
-45.94683996496569
 10
53.23041225441364
 20
-45.94683996496569
 10
53.23041225441364
 20
48.33004985295977
  0
LINE
  5
2BD
330
1D
100
AcDbEntity
  8
4
100
AcDbLine
 10
22.07933969182082
 20
-0.000000442000002
 30
0.0
 11
0.0
 21
0.0
 31
0.0
  0
ARC
  5
2D6
330
1D
100
AcDbEntity
  8
CUT
100
AcDbCircle
 10
18.60616372782083
 20
20.099999997
 30
0.0
 40
0.4
100
AcDbArc
 50
0.0
 51
100.0000000000006
  0
LINE
  5
2D7
330
1D
100
AcDbEntity
  8
CUT
100
AcDbLine
 10
19.00616211882082
 20
11.240403167
 30
0.0
 11
19.00616211882082
 21
20.099999383
 31
0.0
  0
ARC
  5
2D8
330
1D
100
AcDbEntity
  8
CUT
100
AcDbCircle
 10
18.60616372782083
 20
11.240402809
 30
0.0
 40
0.4
100
AcDbArc
 50
280.0000000000006
 51
0.0
  0
ARC
  5
2D9
330
1D
100
AcDbEntity
  8
CUT
100
AcDbCircle
 10
9.881163727820827
 20
9.701949901999997
 30
0.0
 40
0.4
100
AcDbArc
 50
180.0
 51
279.9999999999995
  0
LINE
  5
2DA
330
1D
100
AcDbEntity
  8
CUT
100
AcDbLine
 10
18.53670445675405
 20
20.49392309820488
 30
0.0
 11
9.81170445675405
 21
18.95547019220488
 31
0.0
  0
ARC
  5
2DB
330
1D
100
AcDbEntity
  8
CUT
100
AcDbCircle
 10
9.881316720039734
 20
18.56128210070368
 30
0.0
 40
0.4002875449987323
100
AcDbArc
 50
100.0149796471628
 51
181.4915072601008
  0
LINE
  5
2DC
330
1D
100
AcDbEntity
  8
CUT
100
AcDbLine
 10
9.481164794820828
 20
18.5508631072441
 30
0.0
 11
9.48116479482082
 21
9.701799207291147
 31
0.0
  0
LINE
  5
2DD
330
1D
100
AcDbEntity
  8
CUT
100
AcDbLine
 10
9.950622152820827
 20
9.308027102999997
 30
0.0
 11
18.6756229988876
 21
10.84647970779511
 31
0.0
  0
CIRCLE
  5
2DE
330
1D
100
AcDbEntity
  8
1
100
AcDbCircle
 10
14.06966372782082
 20
14.69397495
 30
0.0
 40
2.65
  0
HATCH
  5
303
330
1D
100
AcDbEntity
  8
7
100
AcDbHatch
 10
0.0
 20
0.0
 30
0.0
210
0.0
220
0.0
230
1.0
  2
ANSI37
 70
     0
 71
     0
 91
        2
 92
        7
 72
     1
 73
     1
 93
        9
 10
19.00616332557084
 20
11.2404028985
 42
0.0
 10
19.00616332557084
 20
20.09999984349999
 42
0.4663084313288599
 10
18.53670445675405
 20
20.49392309820488
 42
0.0
 10
9.811704456754924
 20
18.95547019220503
 42
0.3712835262613778
 10
9.48116479482082
 20
18.55086310724402
 42
0.0
 10
9.481163727820828
 20
9.701949901999997
 42
0.0
 10
9.48116479482082
 20
9.701799207291147
 42
0.4661947269266192
 10
9.950622787370904
 20
9.308026876346334
 42
0.0
 10
18.6756229988876
 20
10.84647970779512
 42
0.3639710798517261
 97
        0
 92
       22
 72
     1
 73
     1
 93
        2
 10
11.41966372782083
 20
14.69397495
 42
-1.0
 10
16.71966372782083
 20
14.69397495
 42
-1.0
 97
        0
 75
     0
 76
     1
 52
90.0
 41
5.0
 77
     0
 78
     2
 53
135.0
 43
-48.20633568640582
 44
2.378313098821636
 45
-0.4419417382415922
 46
-0.4419417382415922
 79
     0
 53
225.0
 43
-48.20633568640582
 44
2.378313098821636
 45
0.4419417382415922
 46
-0.4419417382415923
 79
     0
 47
0.0
 98
        2
 10
18.71717986056802
 20
18.46986959415176
 10
18.71717986056802
 20
18.46986959415176
1001
ACAD
1010
0.0
1020
0.0
1030
0.0
1001
PE_URL
1000

  0
LINE
  5
30C
330
1D
100
AcDbEntity
  8
NOCUT
100
AcDbLine
 10
0.0619005238208245
 20
19.499743357
 30
0.0
 11
9.534712117820824
 21
19.499743357
 31
0.0
  0
LINE
  5
30F
330
1D
100
AcDbEntity
  8
NOCUT
100
AcDbLine
 10
0.0619005238208245
 20
19.499743357
 30
0.0
 11
0.0403906968208245
 21
19.499564543
 31
0.0
  0
LINE
  5
310
330
1D
100
AcDbEntity
  8
NOCUT
100
AcDbLine
 10
0.0403906968208245
 20
19.499564543
 30
0.0
 11
-0.0000414218328223
 21
19.49930377480242
 31
0.0
  0
LINE
  5
312
330
1D
100
AcDbEntity
  8
NOCUT
100
AcDbLine
 10
12.63912630991312
 20
19.164811819
 30
0.0
 11
18.60616372782082
 21
20.099999997
 31
0.0
  0
LINE
  5
313
330
1D
100
AcDbEntity
  8
NOCUT
100
AcDbLine
 10
18.60616372782082
 20
20.099999997
 30
0.0
 11
18.60616372782082
 21
10.83423198095405
 31
0.0
  0
LINE
  5
317
330
1D
100
AcDbEntity
  8
NOCUT
100
AcDbLine
 10
18.6756229988876
 20
10.84647970779511
 30
0.0
 11
18.60616372782082
 21
10.83423216783665
 31
0.0
  0
ARC
  5
318
330
1D
100
AcDbEntity
  8
NOCUT
100
AcDbCircle
 10
18.60616372782082
 20
11.240402809
 30
0.0
 40
0.4000001855234821
100
AcDbArc
 50
280.0002226415169
 51
284.4776115119057
  0
ENDSEC
  0
SECTION
  2
OBJECTS
  0
DICTIONARY
  5
C
330
0
100
AcDbDictionary
281
     1
  3
ACAD_COLOR
350
2F1
  3
ACAD_DETAILVIEWSTYLE
350
283
  3
ACAD_GROUP
350
D
  3
ACAD_LAYOUT
350
1A
  3
ACAD_MATERIAL
350
1F2
  3
ACAD_MLEADERSTYLE
350
1FF
  3
ACAD_MLINESTYLE
350
17
  3
ACAD_PLOTSETTINGS
350
19
  3
ACAD_PLOTSTYLENAME
350
E
  3
ACAD_SCALELIST
350
1BB
  3
ACAD_SECTIONVIEWSTYLE
350
284
  3
ACAD_TABLESTYLE
350
248
  3
ACAD_VISUALSTYLE
350
1E1
  3
ACDB_RECOMPOSE_DATA
350
322
  3
AcDbVariableDictionary
350
1FD
  3
APPDATA
350
24B
  0
SUN
  5
285
330
1B5
100
AcDbSun
 90
        1
290
     0
 63
     7
421
 16777215
 40
1.0
291
     1
 91
  2455826
 92
 54000000
292
     0
 70
     2
 71
   256
280
     1
  0
DICTIONARY
  5
24C
330
2
100
AcDbDictionary
280
     1
281
     1
  3
ACAD_LAYERSTATES
360
24D
  0
DICTIONARY
  5
301
330
1D
100
AcDbDictionary
280
     1
281
     1
  3
ACAD_SORTENTS
360
302
  0
DICTIONARY
  5
2F1
102
{ACAD_REACTORS
330
C
102
}
330
C
100
AcDbDictionary
281
     1
  0
DICTIONARY
  5
283
102
{ACAD_REACTORS
330
C
102
}
330
C
100
AcDbDictionary
281
     1
  0
DICTIONARY
  5
D
102
{ACAD_REACTORS
330
C
102
}
330
C
100
AcDbDictionary
281
     1
  0
DICTIONARY
  5
1A
102
{ACAD_REACTORS
330
C
102
}
330
C
100
AcDbDictionary
281
     1
  3
Layout1
350
1C
  3
Model
350
1E
  0
DICTIONARY
  5
1F2
102
{ACAD_REACTORS
330
C
102
}
330
C
100
AcDbDictionary
281
     1
  3
ByBlock
350
1F4
  3
ByLayer
350
1F3
  3
Global
350
1F5
  0
DICTIONARY
  5
1FF
102
{ACAD_REACTORS
330
C
102
}
330
C
100
AcDbDictionary
281
     1
  3
Standard
350
24A
  0
DICTIONARY
  5
17
102
{ACAD_REACTORS
330
C
102
}
330
C
100
AcDbDictionary
281
     1
  3
Standard
350
18
  0
DICTIONARY
  5
19
102
{ACAD_REACTORS
330
C
102
}
330
C
100
AcDbDictionary
281
     1
  0
ACDBDICTIONARYWDFLT
  5
E
102
{ACAD_REACTORS
330
C
102
}
330
C
100
AcDbDictionary
281
     1
  3
Normal
350
F
100
AcDbDictionaryWithDefault
340
F
  0
DICTIONARY
  5
1BB
102
{ACAD_REACTORS
330
C
102
}
330
C
100
AcDbDictionary
281
     1
  3
A0
350
1BC
  3
A1
350
1BD
  3
A2
350
1BE
  3
A3
350
1BF
  3
A4
350
1C0
  3
A5
350
1C1
  3
A6
350
1C2
  3
A7
350
1C3
  3
A8
350
1C4
  3
A9
350
1C5
  3
B0
350
1C6
  3
B1
350
1C7
  3
B2
350
1C8
  3
B3
350
1C9
  3
B4
350
1CA
  3
B5
350
1CB
  3
B6
350
1CC
  3
B7
350
1CD
  3
B8
350
1CE
  3
B9
350
1CF
  3
C0
350
1D0
  3
C1
350
1D1
  3
C2
350
1D2
  3
C3
350
1D3
  3
C4
350
1D4
  3
C5
350
1D5
  3
C6
350
1D6
  3
C7
350
1D7
  3
C8
350
1D8
  3
C9
350
1D9
  3
D0
350
1DA
  3
D1
350
1DB
  3
D2
350
1DC
  0
DICTIONARY
  5
284
102
{ACAD_REACTORS
330
C
102
}
330
C
100
AcDbDictionary
281
     1
  0
DICTIONARY
  5
248
102
{ACAD_REACTORS
330
C
102
}
330
C
100
AcDbDictionary
281
     1
  3
Standard
350
249
  0
DICTIONARY
  5
1E1
102
{ACAD_REACTORS
330
C
102
}
330
C
100
AcDbDictionary
281
     1
  3
2dWireframe
350
1E6
  3
3D Hidden
350
1E8
  3
3dWireframe
350
1E7
  3
Basic
350
1E9
  3
Brighten
350
1ED
  3
ColorChange
350
1F1
  3
Conceptual
350
1EB
  3
Dim
350
1EC
  3
EdgeColorOff
350
242
  3
Facepattern
350
1F0
  3
Flat
350
1E2
  3
FlatWithEdges
350
1E3
  3
Gouraud
350
1E4
  3
GouraudWithEdges
350
1E5
  3
Hidden
350
23F
  3
JitterOff
350
240
  3
Linepattern
350
1EF
  3
OverhangOff
350
241
  3
Realistic
350
1EA
  3
Shaded
350
247
  3
Shaded with edges
350
246
  3
Shades of Gray
350
243
  3
Sketchy
350
244
  3
Thicken
350
1EE
  3
Wireframe
350
23E
  3
X-Ray
350
245
  0
XRECORD
  5
322
102
{ACAD_REACTORS
330
C
102
}
330
C
100
AcDbXrecord
280
     1
 90
        1
330
249
  0
DICTIONARY
  5
1FD
102
{ACAD_REACTORS
330
C
102
}
330
C
100
AcDbDictionary
281
     1
  3
CANNOSCALE
350
27D
  3
CMLEADERSTYLE
350
282
  3
CTABLESTYLE
350
281
  3
DIMASSOC
350
201
  3
HIDETEXT
350
202
  3
MSLTSCALE
350
200
  0
DICTIONARY
  5
24B
102
{ACAD_REACTORS
330
C
102
}
330
C
100
AcDbDictionary
281
     1
  0
DICTIONARY
  5
24D
102
{ACAD_REACTORS
330
24C
102
}
330
24C
100
AcDbDictionary
281
     1
  0
SORTENTSTABLE
  5
302
102
{ACAD_REACTORS
330
301
102
}
330
301
100
AcDbSortentsTable
330
1D
331
2D6
  5
2D8
331
2D7
  5
2D9
331
2D8
  5
2DA
331
2D9
  5
2DB
331
2DA
  5
2DC
331
2DB
  5
2DD
331
2DC
  5
2DE
331
2DD
  5
2FD
331
2DE
  5
2FE
331
0
  5
2FF
331
0
  5
300
331
0
  5
303
331
0
  5
2D6
331
303
  5
2D7
  0
LAYOUT
  5
1C
102
{ACAD_REACTORS
330
1A
102
}
330
1A
100
AcDbPlotSettings
  1

  2
none_device
  4

  6

 40
0.0
 41
0.0
 42
0.0
 43
0.0
 44
0.0
 45
0.0
 46
0.0
 47
0.0
 48
0.0
 49
0.0
140
0.0
141
0.0
142
1.0
143
1.0
 70
   688
 72
     0
 73
     0
 74
     5
  7

 75
    16
 76
     0
 77
     2
 78
   300
147
1.0
148
0.0
149
0.0
100
AcDbLayout
  1
Layout1
 70
     1
 71
     1
 10
0.0
 20
0.0
 11
12.0
 21
9.0
 12
0.0
 22
0.0
 32
0.0
 14
1.000000000000000E+20
 24
1.000000000000000E+20
 34
1.000000000000000E+20
 15
-1.000000000000000E+20
 25
-1.000000000000000E+20
 35
-1.000000000000000E+20
146
0.0
 13
0.0
 23
0.0
 33
0.0
 16
1.0
 26
0.0
 36
0.0
 17
0.0
 27
1.0
 37
0.0
 76
     0
330
1B
  0
LAYOUT
  5
1E
102
{ACAD_REACTORS
330
1A
102
}
330
1A
100
AcDbPlotSettings
  1

  2
none_device
  4

  6

 40
0.0
 41
0.0
 42
0.0
 43
0.0
 44
0.0
 45
0.0
 46
0.0
 47
0.0
 48
0.0
 49
0.0
140
0.0
141
0.0
142
1.0
143
1.0
 70
  1712
 72
     0
 73
     0
 74
     0
  7

 75
     0
 76
     0
 77
     2
 78
   300
147
1.0
148
0.0
149
0.0
100
AcDbLayout
  1
Model
 70
     1
 71
     0
 10
0.0
 20
0.0
 11
12.0
 21
9.0
 12
0.0
 22
0.0
 32
0.0
 14
-35.77806313251003
 24
-45.94683996496569
 34
0.0
 15
53.23041225441364
 25
48.33004985295977
 35
0.0
146
0.0
 13
0.0
 23
0.0
 33
0.0
 16
1.0
 26
0.0
 36
0.0
 17
0.0
 27
1.0
 37
0.0
 76
     0
330
1D
331
1B5
  0
MATERIAL
  5
1F4
102
{ACAD_REACTORS
330
1F2
102
}
330
1F2
100
AcDbMaterial
  1
ByBlock
 72
     1
 94
      127
  0
MATERIAL
  5
1F3
102
{ACAD_REACTORS
330
1F2
102
}
330
1F2
100
AcDbMaterial
  1
ByLayer
 72
     1
 94
      127
  0
MATERIAL
  5
1F5
102
{ACAD_REACTORS
330
1F2
102
}
330
1F2
100
AcDbMaterial
  1
Global
 72
     1
 94
      127
  0
MLEADERSTYLE
  5
24A
102
{ACAD_REACTORS
330
1FF
102
}
330
1FF
100
AcDbMLeaderStyle
179
     2
170
     2
171
     1
172
     0
 90
        2
 40
0.0
 41
0.0
173
     1
 91
-1056964608
340
14
 92
       -2
290
     1
 42
0.09
291
     1
 43
0.36
  3
Standard
341
0
 44
0.18
300

342
11
174
     1
178
     1
175
     1
176
     0
 93
-1056964608
 45
0.18
292
     0
297
     0
 46
0.18
343
0
 94
-1056964608
 47
1.0
 49
1.0
140
1.0
293
     1
141
0.0
294
     1
177
     0
142
1.0
295
     0
296
     0
143
0.125
271
     0
272
     9
273
     9
298
     0
  0
MLINESTYLE
  5
18
102
{ACAD_REACTORS
330
17
102
}
330
17
100
AcDbMlineStyle
  2
Standard
 70
     0
  3

 62
   256
 51
90.0
 52
90.0
 71
     2
 49
0.5
 62
   256
  6
BYLAYER
 49
-0.5
 62
   256
  6
BYLAYER
  0
ACDBPLACEHOLDER
  5
F
102
{ACAD_REACTORS
330
E
102
}
330
E
  0
SCALE
  5
1BC
102
{ACAD_REACTORS
330
1BB
102
}
330
1BB
100
AcDbScale
 70
     0
300
1:1
140
1.0
141
1.0
290
     1
  0
SCALE
  5
1BD
102
{ACAD_REACTORS
330
1BB
102
}
330
1BB
100
AcDbScale
 70
     0
300
1:2
140
1.0
141
2.0
290
     0
  0
SCALE
  5
1BE
102
{ACAD_REACTORS
330
1BB
102
}
330
1BB
100
AcDbScale
 70
     0
300
1:4
140
1.0
141
4.0
290
     0
  0
SCALE
  5
1BF
102
{ACAD_REACTORS
330
1BB
102
}
330
1BB
100
AcDbScale
 70
     0
300
1:5
140
1.0
141
5.0
290
     0
  0
SCALE
  5
1C0
102
{ACAD_REACTORS
330
1BB
102
}
330
1BB
100
AcDbScale
 70
     0
300
1:8
140
1.0
141
8.0
290
     0
  0
SCALE
  5
1C1
102
{ACAD_REACTORS
330
1BB
102
}
330
1BB
100
AcDbScale
 70
     0
300
1:10
140
1.0
141
10.0
290
     0
  0
SCALE
  5
1C2
102
{ACAD_REACTORS
330
1BB
102
}
330
1BB
100
AcDbScale
 70
     0
300
1:16
140
1.0
141
16.0
290
     0
  0
SCALE
  5
1C3
102
{ACAD_REACTORS
330
1BB
102
}
330
1BB
100
AcDbScale
 70
     0
300
1:20
140
1.0
141
20.0
290
     0
  0
SCALE
  5
1C4
102
{ACAD_REACTORS
330
1BB
102
}
330
1BB
100
AcDbScale
 70
     0
300
1:30
140
1.0
141
30.0
290
     0
  0
SCALE
  5
1C5
102
{ACAD_REACTORS
330
1BB
102
}
330
1BB
100
AcDbScale
 70
     0
300
1:40
140
1.0
141
40.0
290
     0
  0
SCALE
  5
1C6
102
{ACAD_REACTORS
330
1BB
102
}
330
1BB
100
AcDbScale
 70
     0
300
1:50
140
1.0
141
50.0
290
     0
  0
SCALE
  5
1C7
102
{ACAD_REACTORS
330
1BB
102
}
330
1BB
100
AcDbScale
 70
     0
300
1:100
140
1.0
141
100.0
290
     0
  0
SCALE
  5
1C8
102
{ACAD_REACTORS
330
1BB
102
}
330
1BB
100
AcDbScale
 70
     0
300
2:1
140
2.0
141
1.0
290
     0
  0
SCALE
  5
1C9
102
{ACAD_REACTORS
330
1BB
102
}
330
1BB
100
AcDbScale
 70
     0
300
4:1
140
4.0
141
1.0
290
     0
  0
SCALE
  5
1CA
102
{ACAD_REACTORS
330
1BB
102
}
330
1BB
100
AcDbScale
 70
     0
300
8:1
140
8.0
141
1.0
290
     0
  0
SCALE
  5
1CB
102
{ACAD_REACTORS
330
1BB
102
}
330
1BB
100
AcDbScale
 70
     0
300
10:1
140
10.0
141
1.0
290
     0
  0
SCALE
  5
1CC
102
{ACAD_REACTORS
330
1BB
102
}
330
1BB
100
AcDbScale
 70
     0
300
100:1
140
100.0
141
1.0
290
     0
  0
SCALE
  5
1CD
102
{ACAD_REACTORS
330
1BB
102
}
330
1BB
100
AcDbScale
 70
     0
300
1/128" = 1'-0"
140
0.0078125
141
12.0
290
     0
  0
SCALE
  5
1CE
102
{ACAD_REACTORS
330
1BB
102
}
330
1BB
100
AcDbScale
 70
     0
300
1/64" = 1'-0"
140
0.015625
141
12.0
290
     0
  0
SCALE
  5
1CF
102
{ACAD_REACTORS
330
1BB
102
}
330
1BB
100
AcDbScale
 70
     0
300
1/32" = 1'-0"
140
0.03125
141
12.0
290
     0
  0
SCALE
  5
1D0
102
{ACAD_REACTORS
330
1BB
102
}
330
1BB
100
AcDbScale
 70
     0
300
1/16" = 1'-0"
140
0.0625
141
12.0
290
     0
  0
SCALE
  5
1D1
102
{ACAD_REACTORS
330
1BB
102
}
330
1BB
100
AcDbScale
 70
     0
300
3/32" = 1'-0"
140
0.09375
141
12.0
290
     0
  0
SCALE
  5
1D2
102
{ACAD_REACTORS
330
1BB
102
}
330
1BB
100
AcDbScale
 70
     0
300
1/8" = 1'-0"
140
0.125
141
12.0
290
     0
  0
SCALE
  5
1D3
102
{ACAD_REACTORS
330
1BB
102
}
330
1BB
100
AcDbScale
 70
     0
300
3/16" = 1'-0"
140
0.1875
141
12.0
290
     0
  0
SCALE
  5
1D4
102
{ACAD_REACTORS
330
1BB
102
}
330
1BB
100
AcDbScale
 70
     0
300
1/4" = 1'-0"
140
0.25
141
12.0
290
     0
  0
SCALE
  5
1D5
102
{ACAD_REACTORS
330
1BB
102
}
330
1BB
100
AcDbScale
 70
     0
300
3/8" = 1'-0"
140
0.375
141
12.0
290
     0
  0
SCALE
  5
1D6
102
{ACAD_REACTORS
330
1BB
102
}
330
1BB
100
AcDbScale
 70
     0
300
1/2" = 1'-0"
140
0.5
141
12.0
290
     0
  0
SCALE
  5
1D7
102
{ACAD_REACTORS
330
1BB
102
}
330
1BB
100
AcDbScale
 70
     0
300
3/4" = 1'-0"
140
0.75
141
12.0
290
     0
  0
SCALE
  5
1D8
102
{ACAD_REACTORS
330
1BB
102
}
330
1BB
100
AcDbScale
 70
     0
300
1" = 1'-0"
140
1.0
141
12.0
290
     0
  0
SCALE
  5
1D9
102
{ACAD_REACTORS
330
1BB
102
}
330
1BB
100
AcDbScale
 70
     0
300
1-1/2" = 1'-0"
140
1.5
141
12.0
290
     0
  0
SCALE
  5
1DA
102
{ACAD_REACTORS
330
1BB
102
}
330
1BB
100
AcDbScale
 70
     0
300
3" = 1'-0"
140
3.0
141
12.0
290
     0
  0
SCALE
  5
1DB
102
{ACAD_REACTORS
330
1BB
102
}
330
1BB
100
AcDbScale
 70
     0
300
6" = 1'-0"
140
6.0
141
12.0
290
     0
  0
SCALE
  5
1DC
102
{ACAD_REACTORS
330
1BB
102
}
330
1BB
100
AcDbScale
 70
     0
300
1'-0" = 1'-0"
140
12.0
141
12.0
290
     0
  0
TABLESTYLE
  5
249
102
{ACAD_REACTORS
330
248
102
}
102
{ACAD_XDICTIONARY
360
320
102
}
330
248
100
AcDbTableStyle
  3
Standard
 70
     0
 71
     0
 40
0.06
 41
0.06
280
     0
281
     0
  7
Standard
140
0.18
170
     2
 62
     0
 63
   257
283
     0
 90
        4
 91
        0
  1

274
    -2
284
     1
 64
     0
275
    -2
285
     1
 65
     0
276
    -2
286
     1
 66
     0
277
    -2
287
     1
 67
     0
278
    -2
288
     1
 68
     0
279
    -2
289
     1
 69
     0
  7
Standard
140
0.25
170
     5
 62
     0
 63
   257
283
     0
 90
        4
 91
        0
  1

274
    -2
284
     1
 64
     0
275
    -2
285
     1
 65
     0
276
    -2
286
     1
 66
     0
277
    -2
287
     1
 67
     0
278
    -2
288
     1
 68
     0
279
    -2
289
     1
 69
     0
  7
Standard
140
0.18
170
     5
 62
     0
 63
   257
283
     0
 90
        4
 91
        0
  1

274
    -2
284
     1
 64
     0
275
    -2
285
     1
 65
     0
276
    -2
286
     1
 66
     0
277
    -2
287
     1
 67
     0
278
    -2
288
     1
 68
     0
279
    -2
289
     1
 69
     0
  0
VISUALSTYLE
  5
1E6
102
{ACAD_REACTORS
330
1E1
102
}
330
1E1
100
AcDbVisualStyle
  2
2dWireframe
 70
     4
177
     3
291
     0
 70
    58
 90
        0
176
     1
 90
        2
176
     1
 90
        0
176
     1
 90
        0
176
     1
 40
-0.6
176
     1
 40
-30.0
176
     1
 62
     7
176
     1
 90
        1
176
     1
 90
        4
176
     1
 62
     7
176
     1
 62
   257
176
     1
 90
        1
176
     1
 90
        1
176
     1
 40
1.0
176
     1
 90
        0
176
     1
 62
   257
176
     1
 40
1.0
176
     1
 90
        1
176
     1
 90
        6
176
     1
 90
        2
176
     1
 62
     7
176
     1
 90
        5
176
     1
 90
        0
176
     1
 90
        0
176
     1
290
     0
176
     1
 90
        1
176
     1
 40
0.0
176
     1
 90
        0
176
     1
290
     1
176
     1
290
     1
176
     1
290
     0
176
     1
290
     0
176
     1
290
     0
176
     1
290
     0
176
     1
290
     0
176
     1
290
     0
176
     1
290
     0
176
     1
 90
       50
176
     1
 40
0.0
176
     1
 40
1.0
176
     1
 90
        0
176
     1
 62
    18
420
        0
176
     1
 90
       50
176
     1
 90
        3
176
     1
 62
     5
420
      255
176
     1
290
     0
176
     1
 90
       50
176
     1
 90
       50
176
     1
 90
       50
176
     1
290
     0
176
     1
 90
       50
176
     1
 62
   256
176
     0
 40
1.0
176
     0
 90
        2
176
     1
  1
strokes_ogs.tif
176
     1
290
     0
176
     1
 40
1.0
176
     1
 40
1.0
176
     1
  0
VISUALSTYLE
  5
1E8
102
{ACAD_REACTORS
330
1E1
102
}
330
1E1
100
AcDbVisualStyle
  2
3D Hidden
 70
     6
177
     3
291
     0
 70
    58
 90
        1
176
     1
 90
        2
176
     1
 90
        2
176
     1
 90
        0
176
     1
 40
-0.6
176
     1
 40
-30.0
176
     1
 62
     7
176
     1
 90
        2
176
     1
 90
        2
176
     1
 62
     7
176
     1
 62
   257
176
     1
 90
        2
176
     1
 90
        1
176
     1
 40
40.0
176
     1
 90
        0
176
     1
 62
   257
176
     1
 40
1.0
176
     1
 90
        1
176
     1
 90
        6
176
     1
 90
        2
176
     1
 62
     7
176
     1
 90
        3
176
     1
 90
        0
176
     1
 90
        0
176
     1
290
     0
176
     1
 90
        1
176
     1
 40
0.0
176
     1
 90
        0
176
     1
290
     0
176
     1
290
     1
176
     1
290
     1
176
     1
290
     0
176
     1
290
     0
176
     1
290
     0
176
     1
290
     0
176
     1
290
     0
176
     1
290
     0
176
     1
 90
       50
176
     1
 40
0.0
176
     1
 40
1.0
176
     1
 90
        0
176
     1
 62
    18
420
        0
176
     1
 90
       50
176
     1
 90
        3
176
     1
 62
     5
420
      255
176
     1
290
     0
176
     1
 90
       50
176
     1
 90
       50
176
     1
 90
       50
176
     1
290
     0
176
     1
 90
       50
176
     1
 62
   256
176
     0
 40
1.0
176
     0
 90
        2
176
     1
  1
strokes_ogs.tif
176
     1
290
     0
176
     1
 40
1.0
176
     1
 40
1.0
176
     1
  0
VISUALSTYLE
  5
1E7
102
{ACAD_REACTORS
330
1E1
102
}
330
1E1
100
AcDbVisualStyle
  2
3dWireframe
 70
     5
177
     3
291
     0
 70
    58
 90
        0
176
     1
 90
        2
176
     1
 90
        0
176
     1
 90
        0
176
     1
 40
-0.6
176
     1
 40
-30.0
176
     1
 62
     7
176
     1
 90
        1
176
     1
 90
        4
176
     1
 62
     7
176
     1
 62
   257
176
     1
 90
        1
176
     1
 90
        1
176
     1
 40
1.0
176
     1
 90
        0
176
     1
 62
   257
176
     1
 40
1.0
176
     1
 90
        1
176
     1
 90
        6
176
     1
 90
        2
176
     1
 62
     7
176
     1
 90
        5
176
     1
 90
        0
176
     1
 90
        0
176
     1
290
     0
176
     1
 90
        1
176
     1
 40
0.0
176
     1
 90
        0
176
     1
290
     0
176
     1
290
     1
176
     1
290
     1
176
     1
290
     0
176
     1
290
     0
176
     1
290
     0
176
     1
290
     0
176
     1
290
     0
176
     1
290
     0
176
     1
 90
       50
176
     1
 40
0.0
176
     1
 40
1.0
176
     1
 90
        0
176
     1
 62
    18
420
        0
176
     1
 90
       50
176
     1
 90
        3
176
     1
 62
     5
420
      255
176
     1
290
     0
176
     1
 90
       50
176
     1
 90
       50
176
     1
 90
       50
176
     1
290
     0
176
     1
 90
       50
176
     1
 62
   256
176
     0
 40
1.0
176
     0
 90
        2
176
     1
  1
strokes_ogs.tif
176
     1
290
     0
176
     1
 40
1.0
176
     1
 40
1.0
176
     1
  0
VISUALSTYLE
  5
1E9
102
{ACAD_REACTORS
330
1E1
102
}
330
1E1
100
AcDbVisualStyle
  2
Basic
 70
     7
177
     3
291
     1
 70
    58
 90
        1
176
     1
 90
        0
176
     1
 90
        1
176
     1
 90
        0
176
     1
 40
-0.6
176
     1
 40
-30.0
176
     1
 62
     7
176
     1
 90
        0
176
     1
 90
        4
176
     1
 62
     7
176
     1
 62
   257
176
     1
 90
        1
176
     1
 90
        1
176
     1
 40
1.0
176
     1
 90
        8
176
     1
 62
     7
176
     1
 40
1.0
176
     1
 90
        1
176
     1
 90
        6
176
     1
 90
        2
176
     1
 62
     7
176
     1
 90
        5
176
     1
 90
        0
176
     1
 90
        0
176
     1
290
     0
176
     1
 90
        1
176
     1
 40
0.0
176
     1
 90
        0
176
     1
290
     0
176
     1
290
     1
176
     1
290
     1
176
     1
290
     0
176
     1
290
     0
176
     1
290
     0
176
     1
290
     0
176
     1
290
     0
176
     1
290
     0
176
     1
 90
       50
176
     1
 40
0.0
176
     1
 40
1.0
176
     1
 90
        0
176
     1
 62
    18
420
        0
176
     1
 90
       50
176
     1
 90
        3
176
     1
 62
     5
420
      255
176
     1
290
     0
176
     1
 90
       50
176
     1
 90
       50
176
     1
 90
       50
176
     1
290
     0
176
     1
 90
       50
176
     1
 62
   256
176
     0
 40
1.0
176
     0
 90
        2
176
     1
  1
strokes_ogs.tif
176
     1
290
     0
176
     1
 40
1.0
176
     1
 40
1.0
176
     1
  0
VISUALSTYLE
  5
1ED
102
{ACAD_REACTORS
330
1E1
102
}
330
1E1
100
AcDbVisualStyle
  2
Brighten
 70
    12
177
     3
291
     1
 70
    58
 90
        2
176
     1
 90
        2
176
     1
 90
        0
176
     1
 90
        0
176
     1
 40
-0.6
176
     1
 40
-30.0
176
     1
 62
     7
176
     1
 90
        1
176
     1
 90
        4
176
     1
 62
     7
176
     1
 62
   257
176
     1
 90
        1
176
     1
 90
        1
176
     1
 40
1.0
176
     1
 90
        8
176
     1
 62
     7
176
     1
 40
1.0
176
     1
 90
        1
176
     1
 90
        6
176
     1
 90
        2
176
     1
 62
     7
176
     1
 90
        5
176
     1
 90
        0
176
     1
 90
        0
176
     1
290
     0
176
     1
 90
        1
176
     1
 40
50.0
176
     1
 90
        0
176
     1
290
     0
176
     1
290
     1
176
     1
290
     1
176
     1
290
     0
176
     1
290
     0
176
     1
290
     0
176
     1
290
     0
176
     1
290
     0
176
     1
290
     0
176
     1
 90
       50
176
     1
 40
0.0
176
     1
 40
1.0
176
     1
 90
        0
176
     1
 62
    18
420
        0
176
     1
 90
       50
176
     1
 90
        3
176
     1
 62
     5
420
      255
176
     1
290
     0
176
     1
 90
       50
176
     1
 90
       50
176
     1
 90
       50
176
     1
290
     0
176
     1
 90
       50
176
     1
 62
   256
176
     0
 40
1.0
176
     0
 90
        2
176
     1
  1
strokes_ogs.tif
176
     1
290
     0
176
     1
 40
1.0
176
     1
 40
1.0
176
     1
  0
VISUALSTYLE
  5
1F1
102
{ACAD_REACTORS
330
1E1
102
}
330
1E1
100
AcDbVisualStyle
  2
ColorChange
 70
    16
177
     3
291
     1
 70
    58
 90
        2
176
     1
 90
        2
176
     1
 90
        3
176
     1
 90
        0
176
     1
 40
-0.6
176
     1
 40
-30.0
176
     1
 62
     8
176
     1
 90
        1
176
     1
 90
        4
176
     1
 62
     7
176
     1
 62
   257
176
     1
 90
        1
176
     1
 90
        1
176
     1
 40
1.0
176
     1
 90
        8
176
     1
 62
     8
176
     1
 40
1.0
176
     1
 90
        1
176
     1
 90
        6
176
     1
 90
        2
176
     1
 62
     7
176
     1
 90
        5
176
     1
 90
        0
176
     1
 90
        0
176
     1
290
     0
176
     1
 90
        1
176
     1
 40
0.0
176
     1
 90
        0
176
     1
290
     0
176
     1
290
     1
176
     1
290
     1
176
     1
290
     0
176
     1
290
     0
176
     1
290
     0
176
     1
290
     0
176
     1
290
     0
176
     1
290
     0
176
     1
 90
       50
176
     1
 40
0.0
176
     1
 40
1.0
176
     1
 90
        0
176
     1
 62
    18
420
        0
176
     1
 90
       50
176
     1
 90
        3
176
     1
 62
     5
420
      255
176
     1
290
     0
176
     1
 90
       50
176
     1
 90
       50
176
     1
 90
       50
176
     1
290
     0
176
     1
 90
       50
176
     1
 62
   256
176
     0
 40
1.0
176
     0
 90
        2
176
     1
  1
strokes_ogs.tif
176
     1
290
     0
176
     1
 40
1.0
176
     1
 40
1.0
176
     1
  0
VISUALSTYLE
  5
1EB
102
{ACAD_REACTORS
330
1E1
102
}
330
1E1
100
AcDbVisualStyle
  2
Conceptual
 70
     9
177
     3
291
     0
 70
    58
 90
        3
176
     1
 90
        2
176
     1
 90
        0
176
     1
 90
        0
176
     1
 40
-0.6
176
     1
 40
-30.0
176
     1
 62
     7
176
     1
 90
        2
176
     1
 90
        2
176
     1
 62
     7
176
     1
 62
   257
176
     1
 90
        1
176
     1
 90
        1
176
     1
 40
40.0
176
     1
 90
        8
176
     1
 62
     7
176
     1
 40
1.0
176
     1
 90
        1
176
     1
 90
        6
176
     1
 90
        2
176
     1
 62
     7
176
     1
 90
        3
176
     1
 90
        0
176
     1
 90
        0
176
     1
290
     0
176
     1
 90
        1
176
     1
 40
0.0
176
     1
 90
        0
176
     1
290
     0
176
     1
290
     1
176
     1
290
     1
176
     1
290
     0
176
     1
290
     0
176
     1
290
     0
176
     1
290
     0
176
     1
290
     0
176
     1
290
     0
176
     1
 90
       50
176
     1
 40
0.0
176
     1
 40
1.0
176
     1
 90
        0
176
     1
 62
    18
420
        0
176
     1
 90
       50
176
     1
 90
        3
176
     1
 62
     5
420
      255
176
     1
290
     0
176
     1
 90
       50
176
     1
 90
       50
176
     1
 90
       50
176
     1
290
     0
176
     1
 90
       50
176
     1
 62
   256
176
     0
 40
1.0
176
     0
 90
        2
176
     1
  1
strokes_ogs.tif
176
     1
290
     0
176
     1
 40
1.0
176
     1
 40
1.0
176
     1
  0
VISUALSTYLE
  5
1EC
102
{ACAD_REACTORS
330
1E1
102
}
330
1E1
100
AcDbVisualStyle
  2
Dim
 70
    11
177
     3
291
     1
 70
    58
 90
        2
176
     1
 90
        2
176
     1
 90
        0
176
     1
 90
        0
176
     1
 40
-0.6
176
     1
 40
-30.0
176
     1
 62
     7
176
     1
 90
        1
176
     1
 90
        4
176
     1
 62
     7
176
     1
 62
   257
176
     1
 90
        1
176
     1
 90
        1
176
     1
 40
1.0
176
     1
 90
        8
176
     1
 62
     7
176
     1
 40
1.0
176
     1
 90
        1
176
     1
 90
        6
176
     1
 90
        2
176
     1
 62
     7
176
     1
 90
        5
176
     1
 90
        0
176
     1
 90
        0
176
     1
290
     0
176
     1
 90
        1
176
     1
 40
-50.0
176
     1
 90
        0
176
     1
290
     0
176
     1
290
     1
176
     1
290
     1
176
     1
290
     0
176
     1
290
     0
176
     1
290
     0
176
     1
290
     0
176
     1
290
     0
176
     1
290
     0
176
     1
 90
       50
176
     1
 40
0.0
176
     1
 40
1.0
176
     1
 90
        0
176
     1
 62
    18
420
        0
176
     1
 90
       50
176
     1
 90
        3
176
     1
 62
     5
420
      255
176
     1
290
     0
176
     1
 90
       50
176
     1
 90
       50
176
     1
 90
       50
176
     1
290
     0
176
     1
 90
       50
176
     1
 62
   256
176
     0
 40
1.0
176
     0
 90
        2
176
     1
  1
strokes_ogs.tif
176
     1
290
     0
176
     1
 40
1.0
176
     1
 40
1.0
176
     1
  0
VISUALSTYLE
  5
242
102
{ACAD_REACTORS
330
1E1
102
}
330
1E1
100
AcDbVisualStyle
  2
EdgeColorOff
 70
    22
177
     3
291
     1
 70
    58
 90
        2
176
     0
 90
        2
176
     0
 90
        0
176
     0
 90
        0
176
     0
 40
0.6
176
     0
 40
30.0
176
     0
 62
     7
420
 16777215
176
     0
 90
        1
176
     0
 90
        4
176
     0
 62
     7
176
     0
 62
   257
176
     0
 90
        1
176
     0
 90
        1
176
     0
 40
1.0
176
     0
 90
        8
176
     2
 62
     7
176
     0
 40
1.0
176
     0
 90
        1
176
     0
 90
        6
176
     0
 90
        2
176
     0
 62
     7
176
     0
 90
        5
176
     0
 90
        0
176
     0
 90
        0
176
     0
290
     0
176
     0
 90
        1
176
     0
 40
0.0
176
     0
 90
        0
176
     0
290
     0
176
     0
290
     1
176
     0
290
     1
176
     0
290
     0
176
     0
290
     0
176
     0
290
     0
176
     0
290
     0
176
     0
290
     0
176
     0
290
     0
176
     0
 90
       50
176
     0
 40
0.0
176
     0
 40
1.0
176
     0
 90
        0
176
     0
 62
    18
420
        0
176
     0
 90
       50
176
     0
 90
        3
176
     0
 62
     5
420
      255
176
     0
290
     0
176
     0
 90
       50
176
     0
 90
       50
176
     0
 90
       50
176
     0
290
     0
176
     0
 90
       50
176
     0
 62
   256
176
     0
 40
1.0
176
     0
 90
        2
176
     0
  1
strokes_ogs.tif
176
     0
290
     0
176
     0
 40
1.0
176
     0
 40
1.0
176
     0
  0
VISUALSTYLE
  5
1F0
102
{ACAD_REACTORS
330
1E1
102
}
330
1E1
100
AcDbVisualStyle
  2
Facepattern
 70
    15
177
     3
291
     1
 70
    58
 90
        2
176
     1
 90
        2
176
     1
 90
        0
176
     1
 90
        0
176
     1
 40
-0.6
176
     1
 40
-30.0
176
     1
 62
     7
176
     1
 90
        1
176
     1
 90
        4
176
     1
 62
     7
176
     1
 62
   257
176
     1
 90
        1
176
     1
 90
        1
176
     1
 40
1.0
176
     1
 90
        8
176
     1
 62
     7
176
     1
 40
1.0
176
     1
 90
        1
176
     1
 90
        6
176
     1
 90
        2
176
     1
 62
     7
176
     1
 90
        5
176
     1
 90
        0
176
     1
 90
        0
176
     1
290
     0
176
     1
 90
        1
176
     1
 40
0.0
176
     1
 90
        0
176
     1
290
     0
176
     1
290
     1
176
     1
290
     1
176
     1
290
     0
176
     1
290
     0
176
     1
290
     0
176
     1
290
     0
176
     1
290
     0
176
     1
290
     0
176
     1
 90
       50
176
     1
 40
0.0
176
     1
 40
1.0
176
     1
 90
        0
176
     1
 62
    18
420
        0
176
     1
 90
       50
176
     1
 90
        3
176
     1
 62
     5
420
      255
176
     1
290
     0
176
     1
 90
       50
176
     1
 90
       50
176
     1
 90
       50
176
     1
290
     0
176
     1
 90
       50
176
     1
 62
   256
176
     0
 40
1.0
176
     0
 90
        2
176
     1
  1
strokes_ogs.tif
176
     1
290
     0
176
     1
 40
1.0
176
     1
 40
1.0
176
     1
  0
VISUALSTYLE
  5
1E2
102
{ACAD_REACTORS
330
1E1
102
}
330
1E1
100
AcDbVisualStyle
  2
Flat
 70
     0
177
     3
291
     1
 70
    58
 90
        2
176
     1
 90
        1
176
     1
 90
        1
176
     1
 90
        2
176
     1
 40
-0.6
176
     1
 40
30.0
176
     1
 62
     7
176
     1
 90
        0
176
     1
 90
        4
176
     1
 62
     7
176
     1
 62
   257
176
     1
 90
        1
176
     1
 90
        1
176
     1
 40
1.0
176
     1
 90
        8
176
     1
 62
     7
176
     1
 40
1.0
176
     1
 90
        1
176
     1
 90
        6
176
     1
 90
        2
176
     1
 62
     7
176
     1
 90
        5
176
     1
 90
        0
176
     1
 90
        0
176
     1
290
     0
176
     1
 90
       13
176
     1
 40
0.0
176
     1
 90
        0
176
     1
290
     0
176
     1
290
     1
176
     1
290
     1
176
     1
290
     0
176
     1
290
     0
176
     1
290
     0
176
     1
290
     0
176
     1
290
     0
176
     1
290
     0
176
     1
 90
       50
176
     1
 40
0.0
176
     1
 40
1.0
176
     1
 90
        0
176
     1
 62
    18
420
        0
176
     1
 90
       50
176
     1
 90
        3
176
     1
 62
     5
420
      255
176
     1
290
     0
176
     1
 90
       50
176
     1
 90
       50
176
     1
 90
       50
176
     1
290
     0
176
     1
 90
       50
176
     1
 62
   256
176
     0
 40
1.0
176
     0
 90
        2
176
     1
  1
strokes_ogs.tif
176
     1
290
     0
176
     1
 40
1.0
176
     1
 40
1.0
176
     1
  0
VISUALSTYLE
  5
1E3
102
{ACAD_REACTORS
330
1E1
102
}
330
1E1
100
AcDbVisualStyle
  2
FlatWithEdges
 70
     1
177
     3
291
     1
 70
    58
 90
        2
176
     1
 90
        1
176
     1
 90
        1
176
     1
 90
        2
176
     1
 40
-0.6
176
     1
 40
30.0
176
     1
 62
     7
176
     1
 90
        1
176
     1
 90
        4
176
     1
 62
     7
176
     1
 62
   257
176
     1
 90
        1
176
     1
 90
        1
176
     1
 40
1.0
176
     1
 90
        0
176
     1
 62
   257
176
     1
 40
1.0
176
     1
 90
        1
176
     1
 90
        6
176
     1
 90
        2
176
     1
 62
     7
176
     1
 90
        5
176
     1
 90
        0
176
     1
 90
        0
176
     1
290
     0
176
     1
 90
       13
176
     1
 40
0.0
176
     1
 90
        0
176
     1
290
     0
176
     1
290
     1
176
     1
290
     1
176
     1
290
     0
176
     1
290
     0
176
     1
290
     0
176
     1
290
     0
176
     1
290
     0
176
     1
290
     0
176
     1
 90
       50
176
     1
 40
0.0
176
     1
 40
1.0
176
     1
 90
        0
176
     1
 62
    18
420
        0
176
     1
 90
       50
176
     1
 90
        3
176
     1
 62
     5
420
      255
176
     1
290
     0
176
     1
 90
       50
176
     1
 90
       50
176
     1
 90
       50
176
     1
290
     0
176
     1
 90
       50
176
     1
 62
   256
176
     0
 40
1.0
176
     0
 90
        2
176
     1
  1
strokes_ogs.tif
176
     1
290
     0
176
     1
 40
1.0
176
     1
 40
1.0
176
     1
  0
VISUALSTYLE
  5
1E4
102
{ACAD_REACTORS
330
1E1
102
}
330
1E1
100
AcDbVisualStyle
  2
Gouraud
 70
     2
177
     3
291
     1
 70
    58
 90
        2
176
     1
 90
        2
176
     1
 90
        1
176
     1
 90
        2
176
     1
 40
-0.6
176
     1
 40
30.0
176
     1
 62
     7
176
     1
 90
        0
176
     1
 90
        4
176
     1
 62
     7
176
     1
 62
   257
176
     1
 90
        1
176
     1
 90
        1
176
     1
 40
1.0
176
     1
 90
        0
176
     1
 62
     7
176
     1
 40
1.0
176
     1
 90
        1
176
     1
 90
        6
176
     1
 90
        2
176
     1
 62
     7
176
     1
 90
        5
176
     1
 90
        0
176
     1
 90
        0
176
     1
290
     0
176
     1
 90
       13
176
     1
 40
0.0
176
     1
 90
        0
176
     1
290
     0
176
     1
290
     1
176
     1
290
     1
176
     1
290
     0
176
     1
290
     0
176
     1
290
     0
176
     1
290
     0
176
     1
290
     0
176
     1
290
     0
176
     1
 90
       50
176
     1
 40
0.0
176
     1
 40
1.0
176
     1
 90
        0
176
     1
 62
    18
420
        0
176
     1
 90
       50
176
     1
 90
        3
176
     1
 62
     5
420
      255
176
     1
290
     0
176
     1
 90
       50
176
     1
 90
       50
176
     1
 90
       50
176
     1
290
     0
176
     1
 90
       50
176
     1
 62
   256
176
     0
 40
1.0
176
     0
 90
        2
176
     1
  1
strokes_ogs.tif
176
     1
290
     0
176
     1
 40
1.0
176
     1
 40
1.0
176
     1
  0
VISUALSTYLE
  5
1E5
102
{ACAD_REACTORS
330
1E1
102
}
330
1E1
100
AcDbVisualStyle
  2
GouraudWithEdges
 70
     3
177
     3
291
     1
 70
    58
 90
        2
176
     1
 90
        2
176
     1
 90
        1
176
     1
 90
        2
176
     1
 40
-0.6
176
     1
 40
30.0
176
     1
 62
     7
176
     1
 90
        1
176
     1
 90
        4
176
     1
 62
     7
176
     1
 62
   257
176
     1
 90
        1
176
     1
 90
        1
176
     1
 40
1.0
176
     1
 90
        0
176
     1
 62
   257
176
     1
 40
1.0
176
     1
 90
        1
176
     1
 90
        6
176
     1
 90
        2
176
     1
 62
     7
176
     1
 90
        5
176
     1
 90
        0
176
     1
 90
        0
176
     1
290
     0
176
     1
 90
       13
176
     1
 40
0.0
176
     1
 90
        0
176
     1
290
     0
176
     1
290
     1
176
     1
290
     1
176
     1
290
     0
176
     1
290
     0
176
     1
290
     0
176
     1
290
     0
176
     1
290
     0
176
     1
290
     0
176
     1
 90
       50
176
     1
 40
0.0
176
     1
 40
1.0
176
     1
 90
        0
176
     1
 62
    18
420
        0
176
     1
 90
       50
176
     1
 90
        3
176
     1
 62
     5
420
      255
176
     1
290
     0
176
     1
 90
       50
176
     1
 90
       50
176
     1
 90
       50
176
     1
290
     0
176
     1
 90
       50
176
     1
 62
   256
176
     0
 40
1.0
176
     0
 90
        2
176
     1
  1
strokes_ogs.tif
176
     1
290
     0
176
     1
 40
1.0
176
     1
 40
1.0
176
     1
  0
VISUALSTYLE
  5
23F
102
{ACAD_REACTORS
330
1E1
102
}
330
1E1
100
AcDbVisualStyle
  2
Hidden
 70
     6
177
     3
291
     0
 70
    58
 90
        1
176
     1
 90
        2
176
     1
 90
        2
176
     1
 90
        0
176
     1
 40
0.6
176
     1
 40
30.0
176
     1
 62
     7
420
 16777215
176
     1
 90
        2
176
     1
 90
        2
176
     1
 62
     7
176
     1
 62
   257
176
     1
 90
        2
176
     1
 90
        1
176
     1
 40
40.0
176
     1
 90
        0
176
     1
 62
   257
176
     1
 40
1.0
176
     1
 90
        1
176
     1
 90
        6
176
     1
 90
        2
176
     1
 62
     7
176
     1
 90
        3
176
     1
 90
        0
176
     1
 90
        0
176
     1
290
     0
176
     1
 90
        1
176
     1
 40
0.0
176
     1
 90
        0
176
     1
290
     0
176
     1
290
     1
176
     1
290
     1
176
     1
290
     0
176
     1
290
     0
176
     1
290
     0
176
     1
290
     0
176
     1
290
     0
176
     1
290
     0
176
     1
 90
       50
176
     1
 40
0.0
176
     1
 40
1.0
176
     1
 90
        0
176
     1
 62
    18
420
        0
176
     1
 90
       50
176
     1
 90
        3
176
     1
 62
     5
420
      255
176
     1
290
     0
176
     1
 90
       50
176
     1
 90
       50
176
     1
 90
       50
176
     1
290
     0
176
     1
 90
       50
176
     1
 62
   256
176
     0
 40
1.0
176
     0
 90
        2
176
     1
  1
strokes_ogs.tif
176
     1
290
     0
176
     1
 40
1.0
176
     1
 40
1.0
176
     1
  0
VISUALSTYLE
  5
240
102
{ACAD_REACTORS
330
1E1
102
}
330
1E1
100
AcDbVisualStyle
  2
JitterOff
 70
    20
177
     3
291
     1
 70
    58
 90
        2
176
     0
 90
        2
176
     0
 90
        0
176
     0
 90
        0
176
     0
 40
0.6
176
     0
 40
30.0
176
     0
 62
     7
420
 16777215
176
     0
 90
        1
176
     0
 90
        4
176
     0
 62
     7
176
     0
 62
   257
176
     0
 90
        1
176
     0
 90
        1
176
     0
 40
1.0
176
     0
 90
       10
176
     2
 62
     7
176
     0
 40
1.0
176
     0
 90
        1
176
     0
 90
        6
176
     0
 90
        2
176
     0
 62
     7
176
     0
 90
        5
176
     0
 90
        0
176
     0
 90
        0
176
     0
290
     0
176
     0
 90
        1
176
     0
 40
0.0
176
     0
 90
        0
176
     0
290
     0
176
     0
290
     1
176
     0
290
     1
176
     0
290
     0
176
     0
290
     0
176
     0
290
     0
176
     0
290
     0
176
     0
290
     0
176
     0
290
     0
176
     0
 90
       50
176
     0
 40
0.0
176
     0
 40
1.0
176
     0
 90
        0
176
     0
 62
    18
420
        0
176
     0
 90
       50
176
     0
 90
        3
176
     0
 62
     5
420
      255
176
     0
290
     0
176
     0
 90
       50
176
     0
 90
       50
176
     0
 90
       50
176
     0
290
     0
176
     0
 90
       50
176
     0
 62
   256
176
     0
 40
1.0
176
     0
 90
        2
176
     0
  1
strokes_ogs.tif
176
     0
290
     0
176
     0
 40
1.0
176
     0
 40
1.0
176
     0
  0
VISUALSTYLE
  5
1EF
102
{ACAD_REACTORS
330
1E1
102
}
330
1E1
100
AcDbVisualStyle
  2
Linepattern
 70
    14
177
     3
291
     1
 70
    58
 90
        2
176
     1
 90
        2
176
     1
 90
        0
176
     1
 90
        0
176
     1
 40
-0.6
176
     1
 40
-30.0
176
     1
 62
     7
176
     1
 90
        1
176
     1
 90
        4
176
     1
 62
     7
176
     1
 62
   257
176
     1
 90
        7
176
     1
 90
        7
176
     1
 40
1.0
176
     1
 90
        8
176
     1
 62
     7
176
     1
 40
1.0
176
     1
 90
        1
176
     1
 90
        6
176
     1
 90
        2
176
     1
 62
     7
176
     1
 90
        5
176
     1
 90
        0
176
     1
 90
        0
176
     1
290
     0
176
     1
 90
        1
176
     1
 40
0.0
176
     1
 90
        0
176
     1
290
     0
176
     1
290
     1
176
     1
290
     1
176
     1
290
     0
176
     1
290
     0
176
     1
290
     0
176
     1
290
     0
176
     1
290
     0
176
     1
290
     0
176
     1
 90
       50
176
     1
 40
0.0
176
     1
 40
1.0
176
     1
 90
        0
176
     1
 62
    18
420
        0
176
     1
 90
       50
176
     1
 90
        3
176
     1
 62
     5
420
      255
176
     1
290
     0
176
     1
 90
       50
176
     1
 90
       50
176
     1
 90
       50
176
     1
290
     0
176
     1
 90
       50
176
     1
 62
   256
176
     0
 40
1.0
176
     0
 90
        2
176
     1
  1
strokes_ogs.tif
176
     1
290
     0
176
     1
 40
1.0
176
     1
 40
1.0
176
     1
  0
VISUALSTYLE
  5
241
102
{ACAD_REACTORS
330
1E1
102
}
330
1E1
100
AcDbVisualStyle
  2
OverhangOff
 70
    21
177
     3
291
     1
 70
    58
 90
        2
176
     0
 90
        2
176
     0
 90
        0
176
     0
 90
        0
176
     0
 40
0.6
176
     0
 40
30.0
176
     0
 62
     7
420
 16777215
176
     0
 90
        1
176
     0
 90
        4
176
     0
 62
     7
176
     0
 62
   257
176
     0
 90
        1
176
     0
 90
        1
176
     0
 40
1.0
176
     0
 90
        9
176
     2
 62
     7
176
     0
 40
1.0
176
     0
 90
        1
176
     0
 90
        6
176
     0
 90
        2
176
     0
 62
     7
176
     0
 90
        5
176
     0
 90
        0
176
     0
 90
        0
176
     0
290
     0
176
     0
 90
        1
176
     0
 40
0.0
176
     0
 90
        0
176
     0
290
     0
176
     0
290
     1
176
     0
290
     1
176
     0
290
     0
176
     0
290
     0
176
     0
290
     0
176
     0
290
     0
176
     0
290
     0
176
     0
290
     0
176
     0
 90
       50
176
     0
 40
0.0
176
     0
 40
1.0
176
     0
 90
        0
176
     0
 62
    18
420
        0
176
     0
 90
       50
176
     0
 90
        3
176
     0
 62
     5
420
      255
176
     0
290
     0
176
     0
 90
       50
176
     0
 90
       50
176
     0
 90
       50
176
     0
290
     0
176
     0
 90
       50
176
     0
 62
   256
176
     0
 40
1.0
176
     0
 90
        2
176
     0
  1
strokes_ogs.tif
176
     0
290
     0
176
     0
 40
1.0
176
     0
 40
1.0
176
     0
  0
VISUALSTYLE
  5
1EA
102
{ACAD_REACTORS
330
1E1
102
}
330
1E1
100
AcDbVisualStyle
  2
Realistic
 70
     8
177
     3
291
     0
 70
    58
 90
        2
176
     1
 90
        2
176
     1
 90
        0
176
     1
 90
        0
176
     1
 40
-0.6
176
     1
 40
-30.0
176
     1
 62
     7
176
     1
 90
        1
176
     1
 90
        0
176
     1
 62
     7
176
     1
 62
   257
176
     1
 90
        1
176
     1
 90
        1
176
     1
 40
1.0
176
     1
 90
        8
176
     1
 62
     8
176
     1
 40
1.0
176
     1
 90
        1
176
     1
 90
        6
176
     1
 90
        2
176
     1
 62
     7
176
     1
 90
        5
176
     1
 90
        0
176
     1
 90
        0
176
     1
290
     0
176
     1
 90
       13
176
     1
 40
0.0
176
     1
 90
        0
176
     1
290
     0
176
     1
290
     1
176
     1
290
     1
176
     1
290
     0
176
     1
290
     0
176
     1
290
     0
176
     1
290
     0
176
     1
290
     0
176
     1
290
     0
176
     1
 90
       50
176
     1
 40
0.0
176
     1
 40
1.0
176
     1
 90
        0
176
     1
 62
    18
420
        0
176
     1
 90
       50
176
     1
 90
        3
176
     1
 62
     5
420
      255
176
     1
290
     0
176
     1
 90
       50
176
     1
 90
       50
176
     1
 90
       50
176
     1
290
     0
176
     1
 90
       50
176
     1
 62
   256
176
     0
 40
1.0
176
     0
 90
        2
176
     1
  1
strokes_ogs.tif
176
     1
290
     0
176
     1
 40
1.0
176
     1
 40
1.0
176
     1
  0
VISUALSTYLE
  5
247
102
{ACAD_REACTORS
330
1E1
102
}
330
1E1
100
AcDbVisualStyle
  2
Shaded
 70
    27
177
     3
291
     0
 70
    58
 90
        2
176
     1
 90
        2
176
     1
 90
        1
176
     1
 90
        2
176
     1
 40
0.6
176
     1
 40
30.0
176
     1
 62
     7
420
 16777215
176
     1
 90
        0
176
     1
 90
        4
176
     1
 62
     7
176
     1
 62
   257
176
     1
 90
        1
176
     1
 90
        1
176
     1
 40
1.0
176
     1
 90
        8
176
     1
 62
   257
176
     1
 40
1.0
176
     1
 90
        1
176
     1
 90
        6
176
     1
 90
        2
176
     1
 62
     8
420
  7895160
176
     1
 90
        3
176
     1
 90
        0
176
     1
 90
        0
176
     1
290
     0
176
     1
 90
        5
176
     1
 40
0.0
176
     1
 90
        0
176
     1
290
     0
176
     1
290
     1
176
     1
290
     1
176
     1
290
     0
176
     1
290
     0
176
     1
290
     0
176
     1
290
     0
176
     1
290
     0
176
     1
290
     0
176
     1
 90
       50
176
     1
 40
0.0
176
     1
 40
1.0
176
     1
 90
        0
176
     1
 62
    18
420
        0
176
     1
 90
       50
176
     1
 90
        3
176
     1
 62
     5
420
      255
176
     1
290
     0
176
     1
 90
       50
176
     1
 90
       50
176
     1
 90
       50
176
     1
290
     0
176
     1
 90
       50
176
     1
 62
   256
176
     0
 40
1.0
176
     0
 90
        2
176
     1
  1
strokes_ogs.tif
176
     1
290
     0
176
     1
 40
1.0
176
     1
 40
1.0
176
     1
  0
VISUALSTYLE
  5
246
102
{ACAD_REACTORS
330
1E1
102
}
330
1E1
100
AcDbVisualStyle
  2
Shaded with edges
 70
    26
177
     3
291
     0
 70
    58
 90
        2
176
     1
 90
        2
176
     1
 90
        1
176
     1
 90
        2
176
     1
 40
0.6
176
     1
 40
30.0
176
     1
 62
     7
420
 16777215
176
     1
 90
        1
176
     1
 90
       10
176
     1
 62
     7
176
     1
 62
   257
176
     1
 90
        2
176
     1
 90
        1
176
     1
 40
1.0
176
     1
 90
        8
176
     1
 62
   257
176
     1
 40
1.0
176
     1
 90
        1
176
     1
 90
        6
176
     1
 90
        2
176
     1
 62
     7
176
     1
 90
        3
176
     1
 90
        0
176
     1
 90
        0
176
     1
290
     0
176
     1
 90
        5
176
     1
 40
0.0
176
     1
 90
        0
176
     1
290
     0
176
     1
290
     1
176
     1
290
     1
176
     1
290
     0
176
     1
290
     0
176
     1
290
     0
176
     1
290
     0
176
     1
290
     0
176
     1
290
     0
176
     1
 90
       50
176
     1
 40
0.0
176
     1
 40
1.0
176
     1
 90
        0
176
     1
 62
    18
420
        0
176
     1
 90
       50
176
     1
 90
        3
176
     1
 62
     5
420
      255
176
     1
290
     0
176
     1
 90
       50
176
     1
 90
       50
176
     1
 90
       50
176
     1
290
     0
176
     1
 90
       50
176
     1
 62
   256
176
     0
 40
1.0
176
     0
 90
        2
176
     1
  1
strokes_ogs.tif
176
     1
290
     0
176
     1
 40
1.0
176
     1
 40
1.0
176
     1
  0
VISUALSTYLE
  5
243
102
{ACAD_REACTORS
330
1E1
102
}
330
1E1
100
AcDbVisualStyle
  2
Shades of Gray
 70
    23
177
     3
291
     0
 70
    58
 90
        2
176
     1
 90
        2
176
     1
 90
        3
176
     1
 90
        0
176
     1
 40
0.6
176
     1
 40
30.0
176
     1
 62
     7
420
 16777215
176
     1
 90
        2
176
     1
 90
        2
176
     1
 62
     7
176
     1
 62
     7
176
     1
 90
        1
176
     1
 90
        1
176
     1
 40
40.0
176
     1
 90
        8
176
     1
 62
     7
176
     1
 40
1.0
176
     1
 90
        1
176
     1
 90
        6
176
     1
 90
        2
176
     1
 62
     7
176
     1
 90
        3
176
     1
 90
        0
176
     1
 90
        0
176
     1
290
     0
176
     1
 90
        1
176
     1
 40
0.0
176
     1
 90
        0
176
     1
290
     0
176
     1
290
     1
176
     1
290
     1
176
     1
290
     0
176
     1
290
     0
176
     1
290
     0
176
     1
290
     0
176
     1
290
     0
176
     1
290
     0
176
     1
 90
       50
176
     1
 40
0.0
176
     1
 40
1.0
176
     1
 90
        0
176
     1
 62
    18
420
        0
176
     1
 90
       50
176
     1
 90
        3
176
     1
 62
     5
420
      255
176
     1
290
     0
176
     1
 90
       50
176
     1
 90
       50
176
     1
 90
       50
176
     1
290
     0
176
     1
 90
       50
176
     1
 62
   256
176
     0
 40
1.0
176
     0
 90
        2
176
     1
  1
strokes_ogs.tif
176
     1
290
     0
176
     1
 40
1.0
176
     1
 40
1.0
176
     1
  0
VISUALSTYLE
  5
244
102
{ACAD_REACTORS
330
1E1
102
}
330
1E1
100
AcDbVisualStyle
  2
Sketchy
 70
    24
177
     3
291
     0
 70
    58
 90
        1
176
     1
 90
        2
176
     1
 90
        2
176
     1
 90
        0
176
     1
 40
0.6
176
     1
 40
30.0
176
     1
 62
     7
420
 16777215
176
     1
 90
        2
176
     1
 90
        2
176
     1
 62
     7
176
     1
 62
     7
176
     1
 90
        1
176
     1
 90
        1
176
     1
 40
40.0
176
     1
 90
       11
176
     1
 62
     7
176
     1
 40
1.0
176
     1
 90
        1
176
     1
 90
        6
176
     1
 90
        2
176
     1
 62
     7
176
     1
 90
        6
176
     1
 90
        0
176
     1
 90
        0
176
     1
290
     0
176
     1
 90
        1
176
     1
 40
0.0
176
     1
 90
        0
176
     1
290
     0
176
     1
290
     1
176
     1
290
     1
176
     1
290
     0
176
     1
290
     0
176
     1
290
     0
176
     1
290
     0
176
     1
290
     0
176
     1
290
     0
176
     1
 90
       50
176
     1
 40
0.0
176
     1
 40
1.0
176
     1
 90
        0
176
     1
 62
    18
420
        0
176
     1
 90
       50
176
     1
 90
        3
176
     1
 62
     5
420
      255
176
     1
290
     0
176
     1
 90
       50
176
     1
 90
       50
176
     1
 90
       50
176
     1
290
     0
176
     1
 90
       50
176
     1
 62
   256
176
     0
 40
1.0
176
     0
 90
        2
176
     1
  1
strokes_ogs.tif
176
     1
290
     0
176
     1
 40
1.0
176
     1
 40
1.0
176
     1
  0
VISUALSTYLE
  5
1EE
102
{ACAD_REACTORS
330
1E1
102
}
330
1E1
100
AcDbVisualStyle
  2
Thicken
 70
    13
177
     3
291
     1
 70
    58
 90
        2
176
     1
 90
        2
176
     1
 90
        0
176
     1
 90
        0
176
     1
 40
-0.6
176
     1
 40
-30.0
176
     1
 62
     7
176
     1
 90
        1
176
     1
 90
        4
176
     1
 62
     7
176
     1
 62
   257
176
     1
 90
        1
176
     1
 90
        1
176
     1
 40
1.0
176
     1
 90
       12
176
     1
 62
     7
176
     1
 40
1.0
176
     1
 90
        1
176
     1
 90
        6
176
     1
 90
        2
176
     1
 62
     7
176
     1
 90
        5
176
     1
 90
        0
176
     1
 90
        0
176
     1
290
     0
176
     1
 90
        1
176
     1
 40
0.0
176
     1
 90
        0
176
     1
290
     0
176
     1
290
     1
176
     1
290
     1
176
     1
290
     0
176
     1
290
     0
176
     1
290
     0
176
     1
290
     0
176
     1
290
     0
176
     1
290
     0
176
     1
 90
       50
176
     1
 40
0.0
176
     1
 40
1.0
176
     1
 90
        0
176
     1
 62
    18
420
        0
176
     1
 90
       50
176
     1
 90
        3
176
     1
 62
     5
420
      255
176
     1
290
     0
176
     1
 90
       50
176
     1
 90
       50
176
     1
 90
       50
176
     1
290
     0
176
     1
 90
       50
176
     1
 62
   256
176
     0
 40
1.0
176
     0
 90
        2
176
     1
  1
strokes_ogs.tif
176
     1
290
     0
176
     1
 40
1.0
176
     1
 40
1.0
176
     1
  0
VISUALSTYLE
  5
23E
102
{ACAD_REACTORS
330
1E1
102
}
330
1E1
100
AcDbVisualStyle
  2
Wireframe
 70
     5
177
     3
291
     0
 70
    58
 90
        0
176
     1
 90
        2
176
     1
 90
        0
176
     1
 90
        0
176
     1
 40
0.6
176
     1
 40
30.0
176
     1
 62
     7
420
 16777215
176
     1
 90
        1
176
     1
 90
        4
176
     1
 62
     7
176
     1
 62
   257
176
     1
 90
        1
176
     1
 90
        1
176
     1
 40
1.0
176
     1
 90
        0
176
     1
 62
   257
176
     1
 40
1.0
176
     1
 90
        1
176
     1
 90
        6
176
     1
 90
        2
176
     1
 62
     7
176
     1
 90
        3
176
     1
 90
        0
176
     1
 90
        0
176
     1
290
     0
176
     1
 90
        1
176
     1
 40
0.0
176
     1
 90
        0
176
     1
290
     0
176
     1
290
     1
176
     1
290
     1
176
     1
290
     0
176
     1
290
     0
176
     1
290
     0
176
     1
290
     0
176
     1
290
     0
176
     1
290
     0
176
     1
 90
       50
176
     1
 40
0.0
176
     1
 40
1.0
176
     1
 90
        0
176
     1
 62
    18
420
        0
176
     1
 90
       50
176
     1
 90
        3
176
     1
 62
     5
420
      255
176
     1
290
     0
176
     1
 90
       50
176
     1
 90
       50
176
     1
 90
       50
176
     1
290
     0
176
     1
 90
       50
176
     1
 62
   256
176
     0
 40
1.0
176
     0
 90
        2
176
     1
  1
strokes_ogs.tif
176
     1
290
     0
176
     1
 40
1.0
176
     1
 40
1.0
176
     1
  0
VISUALSTYLE
  5
245
102
{ACAD_REACTORS
330
1E1
102
}
330
1E1
100
AcDbVisualStyle
  2
X-Ray
 70
    25
177
     3
291
     0
 70
    58
 90
        2
176
     1
 90
        2
176
     1
 90
        1
176
     1
 90
        1
176
     1
 40
0.5
176
     1
 40
30.0
176
     1
 62
     7
420
 16777215
176
     1
 90
        1
176
     1
 90
        0
176
     1
 62
     7
176
     1
 62
   257
176
     1
 90
        1
176
     1
 90
        1
176
     1
 40
1.0
176
     1
 90
        8
176
     1
 62
     7
176
     1
 40
1.0
176
     1
 90
        1
176
     1
 90
        6
176
     1
 90
        2
176
     1
 62
     7
176
     1
 90
        3
176
     1
 90
        0
176
     1
 90
        0
176
     1
290
     0
176
     1
 90
       13
176
     1
 40
0.0
176
     1
 90
        0
176
     1
290
     0
176
     1
290
     1
176
     1
290
     1
176
     1
290
     0
176
     1
290
     0
176
     1
290
     0
176
     1
290
     0
176
     1
290
     0
176
     1
290
     0
176
     1
 90
       50
176
     1
 40
0.0
176
     1
 40
1.0
176
     1
 90
        0
176
     1
 62
    18
420
        0
176
     1
 90
       50
176
     1
 90
        3
176
     1
 62
     5
420
      255
176
     1
290
     0
176
     1
 90
       50
176
     1
 90
       50
176
     1
 90
       50
176
     1
290
     0
176
     1
 90
       50
176
     1
 62
   256
176
     0
 40
1.0
176
     0
 90
        2
176
     1
  1
strokes_ogs.tif
176
     1
290
     0
176
     1
 40
1.0
176
     1
 40
1.0
176
     1
  0
DICTIONARYVAR
  5
27D
102
{ACAD_REACTORS
330
1FD
102
}
330
1FD
100
DictionaryVariables
280
     0
  1
1:1
  0
DICTIONARYVAR
  5
282
102
{ACAD_REACTORS
330
1FD
102
}
330
1FD
100
DictionaryVariables
280
     0
  1
Standard
  0
DICTIONARYVAR
  5
281
102
{ACAD_REACTORS
330
1FD
102
}
330
1FD
100
DictionaryVariables
280
     0
  1
Standard
  0
DICTIONARYVAR
  5
201
102
{ACAD_REACTORS
330
1FD
102
}
330
1FD
100
DictionaryVariables
280
     0
  1
2
  0
DICTIONARYVAR
  5
202
102
{ACAD_REACTORS
330
1FD
102
}
330
1FD
100
DictionaryVariables
280
     0
  1
1
  0
DICTIONARYVAR
  5
200
102
{ACAD_REACTORS
330
1FD
102
}
330
1FD
100
DictionaryVariables
280
     0
  1
0
  0
DICTIONARY
  5
320
330
249
100
AcDbDictionary
280
     1
281
     1
  3
ACAD_ROUNDTRIP_2008_TABLESTYLE_CELLSTYLEMAP
360
321
  0
CELLSTYLEMAP
  5
321
102
{ACAD_REACTORS
330
320
102
}
330
320
100
AcDbCellStyleMap
 90
        3
300
CELLSTYLE
  1
TABLEFORMAT_BEGIN
 90
        5
170
     1
 91
        0
 92
    32768
 62
   257
 93
        1
300
CONTENTFORMAT
  1
CONTENTFORMAT_BEGIN
 90
        0
 91
        0
 92
        4
 93
        0
300

 40
0.0
140
1.0
 94
        5
 62
     0
340
11
144
0.25
309
CONTENTFORMAT_END
171
     1
301
MARGIN
  1
CELLMARGIN_BEGIN
 40
0.06
 40
0.06
 40
0.06
 40
0.06
 40
0.06
 40
0.06
309
CELLMARGIN_END
 94
        6
 95
        1
302
GRIDFORMAT
  1
GRIDFORMAT_BEGIN
 90
        0
 91
        1
 62
     0
 92
       -2
340
14
 93
        0
 40
0.045
309
GRIDFORMAT_END
 95
        2
302
GRIDFORMAT
  1
GRIDFORMAT_BEGIN
 90
        0
 91
        1
 62
     0
 92
       -2
340
14
 93
        0
 40
0.045
309
GRIDFORMAT_END
 95
        4
302
GRIDFORMAT
  1
GRIDFORMAT_BEGIN
 90
        0
 91
        1
 62
     0
 92
       -2
340
14
 93
        0
 40
0.045
309
GRIDFORMAT_END
 95
        8
302
GRIDFORMAT
  1
GRIDFORMAT_BEGIN
 90
        0
 91
        1
 62
     0
 92
       -2
340
14
 93
        0
 40
0.045
309
GRIDFORMAT_END
 95
       16
302
GRIDFORMAT
  1
GRIDFORMAT_BEGIN
 90
        0
 91
        1
 62
     0
 92
       -2
340
14
 93
        0
 40
0.045
309
GRIDFORMAT_END
 95
       32
302
GRIDFORMAT
  1
GRIDFORMAT_BEGIN
 90
        0
 91
        1
 62
     0
 92
       -2
340
14
 93
        0
 40
0.045
309
GRIDFORMAT_END
309
TABLEFORMAT_END
  1
CELLSTYLE_BEGIN
 90
        1
 91
        1
300
_TITLE
309
CELLSTYLE_END
300
CELLSTYLE
  1
TABLEFORMAT_BEGIN
 90
        5
170
     1
 91
        0
 92
        0
 62
   257
 93
        1
300
CONTENTFORMAT
  1
CONTENTFORMAT_BEGIN
 90
        0
 91
        0
 92
        4
 93
        0
300

 40
0.0
140
1.0
 94
        5
 62
     0
340
11
144
0.18
309
CONTENTFORMAT_END
171
     1
301
MARGIN
  1
CELLMARGIN_BEGIN
 40
0.06
 40
0.06
 40
0.06
 40
0.06
 40
0.06
 40
0.06
309
CELLMARGIN_END
 94
        6
 95
        1
302
GRIDFORMAT
  1
GRIDFORMAT_BEGIN
 90
        0
 91
        1
 62
     0
 92
       -2
340
14
 93
        0
 40
0.045
309
GRIDFORMAT_END
 95
        2
302
GRIDFORMAT
  1
GRIDFORMAT_BEGIN
 90
        0
 91
        1
 62
     0
 92
       -2
340
14
 93
        0
 40
0.045
309
GRIDFORMAT_END
 95
        4
302
GRIDFORMAT
  1
GRIDFORMAT_BEGIN
 90
        0
 91
        1
 62
     0
 92
       -2
340
14
 93
        0
 40
0.045
309
GRIDFORMAT_END
 95
        8
302
GRIDFORMAT
  1
GRIDFORMAT_BEGIN
 90
        0
 91
        1
 62
     0
 92
       -2
340
14
 93
        0
 40
0.045
309
GRIDFORMAT_END
 95
       16
302
GRIDFORMAT
  1
GRIDFORMAT_BEGIN
 90
        0
 91
        1
 62
     0
 92
       -2
340
14
 93
        0
 40
0.045
309
GRIDFORMAT_END
 95
       32
302
GRIDFORMAT
  1
GRIDFORMAT_BEGIN
 90
        0
 91
        1
 62
     0
 92
       -2
340
14
 93
        0
 40
0.045
309
GRIDFORMAT_END
309
TABLEFORMAT_END
  1
CELLSTYLE_BEGIN
 90
        2
 91
        1
300
_HEADER
309
CELLSTYLE_END
300
CELLSTYLE
  1
TABLEFORMAT_BEGIN
 90
        5
170
     1
 91
        0
 92
        0
 62
   257
 93
        1
300
CONTENTFORMAT
  1
CONTENTFORMAT_BEGIN
 90
        0
 91
        0
 92
        4
 93
        0
300

 40
0.0
140
1.0
 94
        2
 62
     0
340
11
144
0.18
309
CONTENTFORMAT_END
171
     1
301
MARGIN
  1
CELLMARGIN_BEGIN
 40
0.06
 40
0.06
 40
0.06
 40
0.06
 40
0.06
 40
0.06
309
CELLMARGIN_END
 94
        6
 95
        1
302
GRIDFORMAT
  1
GRIDFORMAT_BEGIN
 90
        0
 91
        1
 62
     0
 92
       -2
340
14
 93
        0
 40
0.045
309
GRIDFORMAT_END
 95
        2
302
GRIDFORMAT
  1
GRIDFORMAT_BEGIN
 90
        0
 91
        1
 62
     0
 92
       -2
340
14
 93
        0
 40
0.045
309
GRIDFORMAT_END
 95
        4
302
GRIDFORMAT
  1
GRIDFORMAT_BEGIN
 90
        0
 91
        1
 62
     0
 92
       -2
340
14
 93
        0
 40
0.045
309
GRIDFORMAT_END
 95
        8
302
GRIDFORMAT
  1
GRIDFORMAT_BEGIN
 90
        0
 91
        1
 62
     0
 92
       -2
340
14
 93
        0
 40
0.045
309
GRIDFORMAT_END
 95
       16
302
GRIDFORMAT
  1
GRIDFORMAT_BEGIN
 90
        0
 91
        1
 62
     0
 92
       -2
340
14
 93
        0
 40
0.045
309
GRIDFORMAT_END
 95
       32
302
GRIDFORMAT
  1
GRIDFORMAT_BEGIN
 90
        0
 91
        1
 62
     0
 92
       -2
340
14
 93
        0
 40
0.045
309
GRIDFORMAT_END
309
TABLEFORMAT_END
  1
CELLSTYLE_BEGIN
 90
        3
 91
        2
300
_DATA
309
CELLSTYLE_END
  0
ENDSEC
  0
EOF
