  0
SECTION
  2
HEADER
  9
$ACADVER
  1
AC1027
  9
$ACADMAINTVER
 70
   105
  9
$DWGCODEPAGE
  3
ANSI_1252
  9
$REQUIREDVERSIONS
160
                 0
  9
$LASTSAVEDBY
  1
matthias.ochs
  9
$INSBASE
 10
0.0
 20
0.0
 30
0.0
  9
$EXTMIN
 10
-28.06464422374557
 20
-61.61775960550733
 30
0.0
  9
$EXTMAX
 10
65.56470602282694
 20
57.1042565071466
 30
0.0
  9
$LIMMIN
 10
-52.767345442
 20
-21.040000208
  9
$LIMMAX
 10
69.05737179
 20
34.040000071
  9
$ORTHOMODE
 70
     0
  9
$REGENMODE
 70
     1
  9
$FILLMODE
 70
     1
  9
$QTEXTMODE
 70
     0
  9
$MIRRTEXT
 70
     1
  9
$LTSCALE
 40
1.0
  9
$ATTMODE
 70
     1
  9
$TEXTSIZE
 40
0.2
  9
$TRACEWID
 40
0.05
  9
$TEXTSTYLE
  7
Standard
  9
$CLAYER
  8
SK2
  9
$CELTYPE
  6
ByLayer
  9
$CECOLOR
 62
   256
  9
$CELTSCALE
 40
1.0
  9
$DISPSILH
 70
     0
  9
$DIMSCALE
 40
1.0
  9
$DIMASZ
 40
0.18
  9
$DIMEXO
 40
0.0625
  9
$DIMDLI
 40
0.38
  9
$DIMRND
 40
0.0
  9
$DIMDLE
 40
0.0
  9
$DIMEXE
 40
0.18
  9
$DIMTP
 40
0.0
  9
$DIMTM
 40
0.0
  9
$DIMTXT
 40
0.18
  9
$DIMCEN
 40
0.09
  9
$DIMTSZ
 40
0.0
  9
$DIMTOL
 70
     0
  9
$DIMLIM
 70
     0
  9
$DIMTIH
 70
     1
  9
$DIMTOH
 70
     1
  9
$DIMSE1
 70
     0
  9
$DIMSE2
 70
     0
  9
$DIMTAD
 70
     0
  9
$DIMZIN
 70
     0
  9
$DIMBLK
  1

  9
$DIMASO
 70
     1
  9
$DIMSHO
 70
     1
  9
$DIMPOST
  1

  9
$DIMAPOST
  1

  9
$DIMALT
 70
     0
  9
$DIMALTD
 70
     2
  9
$DIMALTF
 40
25.4
  9
$DIMLFAC
 40
1.0
  9
$DIMTOFL
 70
     0
  9
$DIMTVP
 40
0.0
  9
$DIMTIX
 70
     0
  9
$DIMSOXD
 70
     0
  9
$DIMSAH
 70
     0
  9
$DIMBLK1
  1

  9
$DIMBLK2
  1

  9
$DIMSTYLE
  2
Standard
  9
$DIMCLRD
 70
     0
  9
$DIMCLRE
 70
     0
  9
$DIMCLRT
 70
     0
  9
$DIMTFAC
 40
1.0
  9
$DIMGAP
 40
0.09
  9
$DIMJUST
 70
     0
  9
$DIMSD1
 70
     0
  9
$DIMSD2
 70
     0
  9
$DIMTOLJ
 70
     1
  9
$DIMTZIN
 70
     0
  9
$DIMALTZ
 70
     0
  9
$DIMALTTZ
 70
     0
  9
$DIMUPT
 70
     0
  9
$DIMDEC
 70
     4
  9
$DIMTDEC
 70
     4
  9
$DIMALTU
 70
     2
  9
$DIMALTTD
 70
     2
  9
$DIMTXSTY
  7
Standard
  9
$DIMAUNIT
 70
     0
  9
$DIMADEC
 70
     0
  9
$DIMALTRND
 40
0.0
  9
$DIMAZIN
 70
     0
  9
$DIMDSEP
 70
    46
  9
$DIMATFIT
 70
     3
  9
$DIMFRAC
 70
     0
  9
$DIMLDRBLK
  1

  9
$DIMLUNIT
 70
     2
  9
$DIMLWD
 70
    -2
  9
$DIMLWE
 70
    -2
  9
$DIMTMOVE
 70
     2
  9
$DIMFXL
 40
1.0
  9
$DIMFXLON
 70
     0
  9
$DIMJOGANG
 40
0.7853981633974483
  9
$DIMTFILL
 70
     0
  9
$DIMTFILLCLR
 70
     0
  9
$DIMARCSYM
 70
     0
  9
$DIMLTYPE
  6

  9
$DIMLTEX1
  6

  9
$DIMLTEX2
  6

  9
$DIMTXTDIRECTION
 70
     0
  9
$LUNITS
 70
     2
  9
$LUPREC
 70
     4
  9
$SKETCHINC
 40
0.1
  9
$FILLETRAD
 40
0.5
  9
$AUNITS
 70
     2
  9
$AUPREC
 70
     0
  9
$MENU
  1
.
  9
$ELEVATION
 40
0.0
  9
$PELEVATION
 40
0.0
  9
$THICKNESS
 40
0.0
  9
$LIMCHECK
 70
     0
  9
$CHAMFERA
 40
0.5
  9
$CHAMFERB
 40
0.5
  9
$CHAMFERC
 40
1.0
  9
$CHAMFERD
 40
0.0
  9
$SKPOLY
 70
     0
  9
$TDCREATE
 40
2458327.549559074
  9
$TDUCREATE
 40
2458327.466225741
  9
$TDUPDATE
 40
2458680.469591123
  9
$TDUUPDATE
 40
2458680.38625779
  9
$TDINDWG
 40
0.0036484491
  9
$TDUSRTIMER
 40
0.0064949653
  9
$USRTIMER
 70
     1
  9
$ANGBASE
 50
0.0
  9
$ANGDIR
 70
     0
  9
$PDMODE
 70
     0
  9
$PDSIZE
 40
0.0
  9
$PLINEWID
 40
0.0
  9
$SPLFRAME
 70
     0
  9
$SPLINETYPE
 70
     6
  9
$SPLINESEGS
 70
     8
  9
$HANDSEED
  5
370
  9
$SURFTAB1
 70
     6
  9
$SURFTAB2
 70
     6
  9
$SURFTYPE
 70
     6
  9
$SURFU
 70
     6
  9
$SURFV
 70
     6
  9
$UCSBASE
  2

  9
$UCSNAME
  2

  9
$UCSORG
 10
0.0
 20
0.0
 30
0.0
  9
$UCSXDIR
 10
1.0
 20
0.0
 30
0.0
  9
$UCSYDIR
 10
0.0
 20
1.0
 30
0.0
  9
$UCSORTHOREF
  2

  9
$UCSORTHOVIEW
 70
     0
  9
$UCSORGTOP
 10
0.0
 20
0.0
 30
0.0
  9
$UCSORGBOTTOM
 10
0.0
 20
0.0
 30
0.0
  9
$UCSORGLEFT
 10
0.0
 20
0.0
 30
0.0
  9
$UCSORGRIGHT
 10
0.0
 20
0.0
 30
0.0
  9
$UCSORGFRONT
 10
0.0
 20
0.0
 30
0.0
  9
$UCSORGBACK
 10
0.0
 20
0.0
 30
0.0
  9
$PUCSBASE
  2

  9
$PUCSNAME
  2

  9
$PUCSORG
 10
0.0
 20
0.0
 30
0.0
  9
$PUCSXDIR
 10
1.0
 20
0.0
 30
0.0
  9
$PUCSYDIR
 10
0.0
 20
1.0
 30
0.0
  9
$PUCSORTHOREF
  2

  9
$PUCSORTHOVIEW
 70
     0
  9
$PUCSORGTOP
 10
0.0
 20
0.0
 30
0.0
  9
$PUCSORGBOTTOM
 10
0.0
 20
0.0
 30
0.0
  9
$PUCSORGLEFT
 10
0.0
 20
0.0
 30
0.0
  9
$PUCSORGRIGHT
 10
0.0
 20
0.0
 30
0.0
  9
$PUCSORGFRONT
 10
0.0
 20
0.0
 30
0.0
  9
$PUCSORGBACK
 10
0.0
 20
0.0
 30
0.0
  9
$USERI1
 70
     0
  9
$USERI2
 70
     0
  9
$USERI3
 70
     0
  9
$USERI4
 70
     0
  9
$USERI5
 70
     0
  9
$USERR1
 40
0.0
  9
$USERR2
 40
0.0
  9
$USERR3
 40
0.0
  9
$USERR4
 40
0.0
  9
$USERR5
 40
0.0
  9
$WORLDVIEW
 70
     1
  9
$SHADEDGE
 70
     3
  9
$SHADEDIF
 70
    70
  9
$TILEMODE
 70
     1
  9
$MAXACTVP
 70
    64
  9
$PINSBASE
 10
0.0
 20
0.0
 30
0.0
  9
$PLIMCHECK
 70
     0
  9
$PEXTMIN
 10
1.000000000000000E+20
 20
1.000000000000000E+20
 30
1.000000000000000E+20
  9
$PEXTMAX
 10
-1.000000000000000E+20
 20
-1.000000000000000E+20
 30
-1.000000000000000E+20
  9
$PLIMMIN
 10
0.0
 20
0.0
  9
$PLIMMAX
 10
0.0
 20
0.0
  9
$UNITMODE
 70
     0
  9
$VISRETAIN
 70
     1
  9
$PLINEGEN
 70
     0
  9
$PSLTSCALE
 70
     1
  9
$TREEDEPTH
 70
  3020
  9
$CMLSTYLE
  2
Standard
  9
$CMLJUST
 70
     0
  9
$CMLSCALE
 40
1.0
  9
$PROXYGRAPHICS
 70
     1
  9
$MEASUREMENT
 70
     0
  9
$CELWEIGHT
370
    -1
  9
$ENDCAPS
280
     0
  9
$JOINSTYLE
280
     0
  9
$LWDISPLAY
290
     0
  9
$INSUNITS
 70
     0
  9
$HYPERLINKBASE
  1

  9
$STYLESHEET
  1

  9
$XEDIT
290
     1
  9
$CEPSNTYPE
380
     0
  9
$PSTYLEMODE
290
     1
  9
$FINGERPRINTGUID
  2
{059A2587-BCA1-4853-9D34-BDBCD6D3A52E}
  9
$VERSIONGUID
  2
{FAEB1C32-E019-11D5-929B-00C0DF256EC4}
  9
$EXTNAMES
290
     1
  9
$PSVPSCALE
 40
0.0
  9
$OLESTARTUP
290
     0
  9
$SORTENTS
280
   127
  9
$INDEXCTL
280
     0
  9
$HIDETEXT
280
     1
  9
$XCLIPFRAME
280
     2
  9
$HALOGAP
280
     0
  9
$OBSCOLOR
 70
   257
  9
$OBSLTYPE
280
     0
  9
$INTERSECTIONDISPLAY
280
     0
  9
$INTERSECTIONCOLOR
 70
   257
  9
$DIMASSOC
280
     2
  9
$PROJECTNAME
  1

  9
$CAMERADISPLAY
290
     0
  9
$LENSLENGTH
 40
50.0
  9
$CAMERAHEIGHT
 40
0.0
  9
$STEPSPERSEC
 40
2.0
  9
$STEPSIZE
 40
6.0
  9
$3DDWFPREC
 40
2.0
  9
$PSOLWIDTH
 40
0.25
  9
$PSOLHEIGHT
 40
4.0
  9
$LOFTANG1
 40
1.570796326794897
  9
$LOFTANG2
 40
1.570796326794897
  9
$LOFTMAG1
 40
0.0
  9
$LOFTMAG2
 40
0.0
  9
$LOFTPARAM
 70
     7
  9
$LOFTNORMALS
280
     1
  9
$LATITUDE
 40
37.795
  9
$LONGITUDE
 40
-122.394
  9
$NORTHDIRECTION
 40
0.0
  9
$TIMEZONE
 70
 -8000
  9
$LIGHTGLYPHDISPLAY
280
     1
  9
$TILEMODELIGHTSYNCH
280
     1
  9
$SOLIDHIST
280
     0
  9
$SHOWHIST
280
     1
  9
$DWFFRAME
280
     2
  9
$DGNFRAME
280
     2
  9
$REALWORLDSCALE
290
     1
  9
$INTERFERECOLOR
 62
   256
  9
$CSHADOW
280
     0
  9
$SHADOWPLANELOCATION
 40
0.0
  0
ENDSEC
  0
SECTION
  2
CLASSES
  0
CLASS
  1
ACDBDICTIONARYWDFLT
  2
AcDbDictionaryWithDefault
  3
ObjectDBX Classes
 90
        0
 91
       12
280
     0
281
     0
  0
CLASS
  1
SCALE
  2
AcDbScale
  3
ObjectDBX Classes
 90
     1153
 91
       12
280
     0
281
     0
  0
CLASS
  1
VISUALSTYLE
  2
AcDbVisualStyle
  3
ObjectDBX Classes
 90
     4095
 91
       12
280
     0
281
     0
  0
CLASS
  1
MATERIAL
  2
AcDbMaterial
  3
ObjectDBX Classes
 90
     1153
 91
       12
280
     0
281
     0
  0
CLASS
  1
DICTIONARYVAR
  2
AcDbDictionaryVar
  3
ObjectDBX Classes
 90
        0
 91
        9
280
     0
281
     0
  0
CLASS
  1
ACDBPLACEHOLDER
  2
AcDbPlaceHolder
  3
ObjectDBX Classes
 90
        0
 91
        1
280
     0
281
     0
  0
CLASS
  1
LAYOUT
  2
AcDbLayout
  3
ObjectDBX Classes
 90
        0
 91
        1
280
     0
281
     0
  0
CLASS
  1
TABLESTYLE
  2
AcDbTableStyle
  3
ObjectDBX Classes
 90
     4095
 91
       12
280
     0
281
     0
  0
CLASS
  1
MLEADERSTYLE
  2
AcDbMLeaderStyle
  3
ACDB_MLEADERSTYLE_CLASS
 90
     4095
 91
       12
280
     0
281
     0
  0
CLASS
  1
SUN
  2
AcDbSun
  3
SCENEOE
 90
     1153
 91
       12
280
     0
281
     0
  0
CLASS
  1
DIMASSOC
  2
AcDbDimAssoc
  3
"AcDbDimAssoc|Product Desc:     AcDim ARX App For Dimension|Company:          Autodesk, Inc.|WEB Address:      www.autodesk.com"
 90
        0
 91
        8
280
     0
281
     0
  0
CLASS
  1
CENTERLINE
  2
CFxDbCenterline
  3
CFxDbCenterline|Description: FxCenterline entity
 90
     3071
 91
        5
280
     0
281
     1
  0
CLASS
  1
SORTENTSTABLE
  2
AcDbSortentsTable
  3
ObjectDBX Classes
 90
        0
 91
        8
280
     0
281
     0
  0
CLASS
  1
CELLSTYLEMAP
  2
AcDbCellStyleMap
  3
ObjectDBX Classes
 90
     1152
 91
        7
280
     0
281
     0
  0
ENDSEC
  0
SECTION
  2
TABLES
  0
TABLE
  2
VPORT
  5
8
330
0
100
AcDbSymbolTable
 70
     1
  0
VPORT
  5
1BE
330
8
100
AcDbSymbolTableRecord
100
AcDbViewportTableRecord
  2
*Active
 70
     0
 10
0.0
 20
0.0
 11
1.0
 21
1.0
 12
-17.35712175999382
 22
-10.14891659298996
 13
0.0
 23
0.0
 14
0.5
 24
0.5
 15
0.5
 25
0.5
 16
0.0
 26
0.0
 36
1.0
 17
0.0
 27
0.0
 37
0.0
 40
202.9059469165031
 41
1.831002331002331
 42
50.0
 43
0.0
 44
0.0
 50
0.0
 51
0.0
 71
    16
 72
   100
 73
     1
 74
     3
 75
     0
 76
     0
 77
     0
 78
     0
281
     0
 65
     1
110
0.0
120
0.0
130
0.0
111
1.0
121
0.0
131
0.0
112
0.0
122
1.0
132
0.0
 79
     0
146
0.0
348
1EF
 60
     3
 61
     5
292
     1
282
     1
141
0.0
142
0.0
 63
   256
361
27A
  0
ENDTAB
  0
TABLE
  2
LTYPE
  5
5
330
0
100
AcDbSymbolTable
 70
     9
  0
LTYPE
  5
14
330
5
100
AcDbSymbolTableRecord
100
AcDbLinetypeTableRecord
  2
ByBlock
 70
     0
  3

 72
    65
 73
     0
 40
0.0
  0
LTYPE
  5
15
330
5
100
AcDbSymbolTableRecord
100
AcDbLinetypeTableRecord
  2
ByLayer
 70
     0
  3

 72
    65
 73
     0
 40
0.0
  0
LTYPE
  5
16
330
5
100
AcDbSymbolTableRecord
100
AcDbLinetypeTableRecord
  2
Continuous
 70
     0
  3
Solid line
 72
    65
 73
     0
 40
0.0
  0
LTYPE
  5
20
330
5
100
AcDbSymbolTableRecord
100
AcDbLinetypeTableRecord
  2
PUNKT
 70
     0
  3
..............
 72
    65
 73
     2
 40
1.5
 49
0.7
 74
     0
 49
-0.8
 74
     0
  0
LTYPE
  5
21
330
5
100
AcDbSymbolTableRecord
100
AcDbLinetypeTableRecord
  2
GESTRICHELT
 70
     0
  3
-- -- -- -- --
 72
    65
 73
     7
 40
2.8
 49
0.9
 74
     0
 49
0.0
 74
     0
 49
0.9
 74
     0
 49
0.0
 74
     0
 49
0.2
 74
     0
 49
0.0
 74
     0
 49
-0.8
 74
     0
  0
LTYPE
  5
22
330
5
100
AcDbSymbolTableRecord
100
AcDbLinetypeTableRecord
  2
STRICHPUNKT
 70
     0
  3
--.--.--.--.--
 72
    65
 73
     4
 40
8.8
 49
5.5
 74
     0
 49
-1.3
 74
     0
 49
0.7
 74
     0
 49
-1.3
 74
     0
  0
LTYPE
  5
25
330
5
100
AcDbSymbolTableRecord
100
AcDbLinetypeTableRecord
  2
PHANTOM
 70
     0
  3
--..--..--..--
 72
    65
 73
     6
 40
14.2
 49
7.0
 74
     0
 49
-1.8
 74
     0
 49
0.9
 74
     0
 49
-1.8
 74
     0
 49
0.9
 74
     0
 49
-1.8
 74
     0
  0
LTYPE
  5
236
330
5
100
AcDbSymbolTableRecord
100
AcDbLinetypeTableRecord
  2
DASH
 70
     0
  3
DASH _ _ _ _ _
 72
    65
 73
     2
 40
0.75
 49
0.4
 74
     0
 49
-0.35
 74
     0
  0
LTYPE
  5
237
330
5
100
AcDbSymbolTableRecord
100
AcDbLinetypeTableRecord
  2
LONGDASH_DASH
 70
     0
  3
LONGDASH_DASH __ . __ . __
 72
    65
 73
     4
 40
0.85
 49
0.4
 74
     0
 49
-0.2
 74
     0
 49
0.05
 74
     0
 49
-0.2
 74
     0
  0
LTYPE
  5
238
330
5
100
AcDbSymbolTableRecord
100
AcDbLinetypeTableRecord
  2
LONGDASH_DASH_DASH
 70
     0
  3
LONGDASH_DASH_DASH __ . . __ . . __
 72
    65
 73
     6
 40
1.1
 49
0.4
 74
     0
 49
-0.2
 74
     0
 49
0.05
 74
     0
 49
-0.2
 74
     0
 49
0.05
 74
     0
 49
-0.2
 74
     0
  0
LTYPE
  5
29B
330
5
100
AcDbSymbolTableRecord
100
AcDbLinetypeTableRecord
  2
CENTER
 70
     0
  3
 Center ____ _ ____ _ ____ _ ____ _ ____ _ ____
 72
    65
 73
     4
 40
2.0
 49
1.25
 74
     0
 49
-0.25
 74
     0
 49
0.25
 74
     0
 49
-0.25
 74
     0
  0
ENDTAB
  0
TABLE
  2
LAYER
  5
2
102
{ACAD_XDICTIONARY
360
255
102
}
330
0
100
AcDbSymbolTable
 70
    17
  0
LAYER
  5
200
330
2
100
AcDbSymbolTableRecord
100
AcDbLayerTableRecord
  2
200
 70
     0
 62
     2
  6
Continuous
370
    50
390
F
347
1FE
348
0
  0
LAYER
  5
239
330
2
100
AcDbSymbolTableRecord
100
AcDbLayerTableRecord
  2
0
 70
     0
 62
     1
  6
Continuous
370
    -3
390
F
347
1FE
348
0
  0
LAYER
  5
23A
330
2
100
AcDbSymbolTableRecord
100
AcDbLayerTableRecord
  2
1
 70
     0
 62
     4
  6
Continuous
370
    50
390
F
347
1FE
348
0
  0
LAYER
  5
23B
330
2
100
AcDbSymbolTableRecord
100
AcDbLayerTableRecord
  2
2
 70
     0
 62
     7
  6
Continuous
370
    25
390
F
347
1FE
348
0
  0
LAYER
  5
23C
330
2
100
AcDbSymbolTableRecord
100
AcDbLayerTableRecord
  2
3
 70
     0
 62
     1
  6
DASH
370
    35
390
F
347
1FE
348
0
  0
LAYER
  5
23D
330
2
100
AcDbSymbolTableRecord
100
AcDbLayerTableRecord
  2
4
 70
     0
 62
     2
  6
LONGDASH_DASH
370
    25
390
F
347
1FE
348
0
  0
LAYER
  5
23E
330
2
100
AcDbSymbolTableRecord
100
AcDbLayerTableRecord
  2
6
 70
     0
 62
     5
  6
Continuous
370
    -3
390
F
347
1FE
348
0
  0
LAYER
  5
23F
330
2
100
AcDbSymbolTableRecord
100
AcDbLayerTableRecord
  2
CUT
 70
     0
 62
     1
  6
Continuous
370
    25
390
F
347
1FE
348
0
  0
LAYER
  5
240
330
2
100
AcDbSymbolTableRecord
100
AcDbLayerTableRecord
  2
NOCUT
 70
     0
 62
     7
  6
Continuous
370
    25
390
F
347
1FE
348
0
  0
LAYER
  5
241
330
2
100
AcDbSymbolTableRecord
100
AcDbLayerTableRecord
  2
SK1
 70
     0
 62
     4
  6
Continuous
370
    50
390
F
347
1FE
348
0
  0
LAYER
  5
242
330
2
100
AcDbSymbolTableRecord
100
AcDbLayerTableRecord
  2
SK2
 70
     0
 62
     7
  6
Continuous
370
    25
390
F
347
1FE
348
0
  0
LAYER
  5
243
330
2
100
AcDbSymbolTableRecord
100
AcDbLayerTableRecord
  2
SK3
 70
     0
 62
     1
  6
DASH
370
    35
390
F
347
1FE
348
0
  0
LAYER
  5
244
330
2
100
AcDbSymbolTableRecord
100
AcDbLayerTableRecord
  2
SK4
 70
     0
 62
     2
  6
LONGDASH_DASH
370
    25
390
F
347
1FE
348
0
  0
LAYER
  5
245
330
2
100
AcDbSymbolTableRecord
100
AcDbLayerTableRecord
  2
SK6
 70
     0
 62
     5
  6
Continuous
370
    -3
390
F
347
1FE
348
0
  0
LAYER
  5
246
330
2
100
AcDbSymbolTableRecord
100
AcDbLayerTableRecord
  2
INFTOTAL
 70
     0
 62
     9
  6
Continuous
370
    18
390
F
347
1FE
348
0
  0
LAYER
  5
284
330
2
100
AcDbSymbolTableRecord
100
AcDbLayerTableRecord
  2
Defpoints
 70
     0
 62
     7
  6
Continuous
290
     0
370
    -3
390
F
347
1FE
348
0
  0
LAYER
  5
324
330
2
100
AcDbSymbolTableRecord
100
AcDbLayerTableRecord
  2
7
 70
     0
 62
     5
  6
Continuous
370
    18
390
F
347
1FE
348
0
1001
AcAecLayerStandard
1000

1000

  0
ENDTAB
  0
TABLE
  2
STYLE
  5
3
330
0
100
AcDbSymbolTable
 70
     3
  0
STYLE
  5
11
330
3
100
AcDbSymbolTableRecord
100
AcDbTextStyleTableRecord
  2
Standard
 70
     0
 40
0.0
 41
1.0
 50
0.0
 71
     0
 42
0.2
  3
txt
  4

  0
STYLE
  5
1FF
330
3
100
AcDbSymbolTableRecord
100
AcDbTextStyleTableRecord
  2
BMG_Text
 70
     0
 40
3.5
 41
1.0
 50
0.0
 71
     0
 42
0.2
  3
monos.ttf
  4

1001
ACAD
1000
Monospac821 BT
1071
       49
  0
STYLE
  5
2CD
330
3
100
AcDbSymbolTableRecord
100
AcDbTextStyleTableRecord
  2
SLDTEXTSTYLE0
 70
     0
 40
0.0
 41
0.605
 50
0.0
 71
     0
 42
0.2
  3
TXT
  4

  0
ENDTAB
  0
TABLE
  2
VIEW
  5
6
330
0
100
AcDbSymbolTable
 70
     0
  0
ENDTAB
  0
TABLE
  2
UCS
  5
7
330
0
100
AcDbSymbolTable
 70
     0
  0
ENDTAB
  0
TABLE
  2
APPID
  5
9
330
0
100
AcDbSymbolTable
 70
     5
  0
APPID
  5
12
330
9
100
AcDbSymbolTableRecord
100
AcDbRegAppTableRecord
  2
ACAD
 70
     0
  0
APPID
  5
297
330
9
100
AcDbSymbolTableRecord
100
AcDbRegAppTableRecord
  2
FX_DIMP_FAV_VERSION
 70
     0
  0
APPID
  5
299
330
9
100
AcDbSymbolTableRecord
100
AcDbRegAppTableRecord
  2
FX_DIMP_RECENT_VERSION
 70
     0
  0
APPID
  5
325
330
9
100
AcDbSymbolTableRecord
100
AcDbRegAppTableRecord
  2
AcAecLayerStandard
 70
     0
  0
APPID
  5
32D
330
9
100
AcDbSymbolTableRecord
100
AcDbRegAppTableRecord
  2
PE_URL
 70
     0
  0
ENDTAB
  0
TABLE
  2
DIMSTYLE
  5
A
330
0
100
AcDbSymbolTable
 70
     6
100
AcDbDimStyleTable
  0
DIMSTYLE
105
28
330
A
100
AcDbSymbolTableRecord
100
AcDbDimStyleTableRecord
  2
Standard
 70
     0
178
     0
340
11
  0
DIMSTYLE
105
2C9
330
A
100
AcDbSymbolTableRecord
100
AcDbDimStyleTableRecord
  2
Matthias
 70
     0
 41
3.0
 44
2.0
 73
     0
 77
     1
140
3.0
147
2.0
178
     0
340
11
  0
DIMSTYLE
105
2CB
102
{ACAD_REACTORS
102
}
330
A
100
AcDbSymbolTableRecord
100
AcDbDimStyleTableRecord
  2
ISO-25
 70
     0
 41
2.5
 42
0.625
 43
3.75
 44
1.25
 73
     0
 74
     0
 77
     1
 78
     8
140
2.5
141
2.5
143
0.0393700787
147
0.625
171
     3
172
     1
178
     0
271
     2
272
     2
274
     3
278
    44
283
     0
284
     8
340
11
  0
DIMSTYLE
105
2CC
330
A
100
AcDbSymbolTableRecord
100
AcDbDimStyleTableRecord
  2
SLDDIMSTYLE0
 70
     0
 41
3.5
 44
0.0
 45
0.000000001
 73
     0
 74
     0
 77
     1
 78
    12
 79
     3
140
3.5
144
0.5
147
0.875
173
     1
178
     0
271
     2
272
     1
276
     2
284
    12
340
2CD
  0
DIMSTYLE
105
2CE
330
A
100
AcDbSymbolTableRecord
100
AcDbDimStyleTableRecord
  2
SLDDIMSTYLE1
 70
     0
 41
3.5
 44
0.0
 45
0.000000001
 73
     0
 74
     0
 77
     1
 78
    12
 79
     3
140
3.5
144
0.5
147
0.875
173
     1
178
     0
271
     2
272
     3
276
     2
284
    12
340
2CD
  0
DIMSTYLE
105
2CF
330
A
100
AcDbSymbolTableRecord
100
AcDbDimStyleTableRecord
  2
SLDDIMSTYLE2
 70
     0
 41
3.5
 44
0.0
 45
0.000000001
 73
     0
 74
     0
 77
     1
 78
    12
 79
     3
140
3.5
147
0.875
173
     1
178
     0
271
     2
272
     0
276
     2
284
    12
340
2CD
  0
ENDTAB
  0
TABLE
  2
BLOCK_RECORD
  5
1
330
0
100
AcDbSymbolTable
 70
     3
  0
BLOCK_RECORD
  5
1D
102
{ACAD_XDICTIONARY
360
33C
102
}
330
1
100
AcDbSymbolTableRecord
100
AcDbBlockTableRecord
  2
*Model_Space
340
1E
 70
     0
280
     1
281
     0
  0
BLOCK_RECORD
  5
1B
330
1
100
AcDbSymbolTableRecord
100
AcDbBlockTableRecord
  2
*Paper_Space
340
1C
 70
     0
280
     1
281
     0
  0
BLOCK_RECORD
  5
288
330
1
100
AcDbSymbolTableRecord
100
AcDbBlockTableRecord
  2
*D0
340
0
 70
     0
280
     1
281
     0
  0
ENDTAB
  0
ENDSEC
  0
SECTION
  2
BLOCKS
  0
BLOCK
  5
1E8
330
1D
100
AcDbEntity
  8
0
100
AcDbBlockBegin
  2
*Model_Space
 70
     0
 10
0.0
 20
0.0
 30
0.0
  3
*Model_Space
  1

  0
ENDBLK
  5
1E9
330
1D
100
AcDbEntity
  8
0
100
AcDbBlockEnd
  0
BLOCK
  5
1E6
330
1B
100
AcDbEntity
 67
     1
  8
0
100
AcDbBlockBegin
  2
*Paper_Space
 70
     0
 10
0.0
 20
0.0
 30
0.0
  3
*Paper_Space
  1

  0
ENDBLK
  5
1E7
330
1B
100
AcDbEntity
 67
     1
  8
0
100
AcDbBlockEnd
  0
BLOCK
  5
289
330
288
100
AcDbEntity
  8
0
100
AcDbBlockBegin
  2
*D0
 70
     1
 10
0.0
 20
0.0
 30
0.0
  3
*D0
  1

  0
LINE
  5
28B
330
288
100
AcDbEntity
  8
NOCUT
 62
     0
370
    -2
100
AcDbLine
 10
5.662499791
 20
-15.499678283
 30
0.0
 11
5.968588353187996
 21
-15.499678283
 31
0.0
  0
ARC
  5
28C
330
288
100
AcDbEntity
  8
NOCUT
 62
     0
370
    -2
100
AcDbCircle
 10
4.457377504109762
 20
-15.499678283
 30
0.0
 40
1.331210849078234
100
AcDbArc
 50
344.4936463164047
 51
352.2468231582023
  0
ARC
  5
28D
330
288
100
AcDbEntity
  8
NOCUT
 62
     0
370
    -2
100
AcDbCircle
 10
4.457377504109762
 20
-15.499678283
 30
0.0
 40
1.331210849078234
100
AcDbArc
 50
97.75317684179761
 51
105.5063536835952
  0
SOLID
  5
28E
330
288
100
AcDbEntity
  8
NOCUT
 62
     0
100
AcDbTrace
 10
5.806350340829189
 20
-15.68129466936157
 30
0.0
 11
5.746487621596184
 21
-15.67723821203646
 31
0.0
 12
5.788588353187996
 22
-15.499678283
 32
0.0
 13
5.788588353187996
 23
-15.499678283
 33
0.0
  0
SOLID
  5
28F
330
288
100
AcDbEntity
  8
NOCUT
 62
     0
100
AcDbTrace
 10
4.279817575073298
 20
-14.21056816551358
 30
0.0
 11
4.275761117748195
 21
-14.15070544628057
 31
0.0
 12
4.457377504109762
 22
-14.16846743392177
 32
0.0
 13
4.457377504109762
 23
-14.16846743392177
 33
0.0
  0
MTEXT
  5
290
330
288
100
AcDbEntity
  8
NOCUT
 62
     0
100
AcDbMText
 10
5.398685722682083
 20
-14.55837006442768
 30
0.0
 40
0.18
 41
0.0
 46
0.0
 71
     5
 72
     1
  1
\A1;90.00000000%%d
 73
     1
 44
1.0
  0
POINT
  5
291
330
288
100
AcDbEntity
  8
Defpoints
 62
     0
100
AcDbPoint
 10
5.610239917204965
 20
-14.83407285846088
 30
0.0
  0
POINT
  5
292
330
288
100
AcDbEntity
  8
Defpoints
 62
     0
100
AcDbPoint
 10
0.255737444
 20
-15.499678283
 30
0.0
  0
POINT
  5
293
330
288
100
AcDbEntity
  8
Defpoints
 62
     0
100
AcDbPoint
 10
4.457377504109762
 20
-9.920111459433892
 30
0.0
  0
POINT
  5
294
330
288
100
AcDbEntity
  8
Defpoints
 62
     0
100
AcDbPoint
 10
4.457377504109762
 20
-15.499678283
 30
0.0
  0
POINT
  5
295
330
288
100
AcDbEntity
  8
Defpoints
 62
     0
100
AcDbPoint
 10
5.599999791
 20
-15.499678283
 30
0.0
  0
ENDBLK
  5
28A
330
288
100
AcDbEntity
  8
0
100
AcDbBlockEnd
  0
ENDSEC
  0
SECTION
  2
ENTITIES
  0
LINE
  5
29
330
1D
100
AcDbEntity
  8
SK2
100
AcDbLine
 10
30.78078677870382
 20
-20.4999999975
 30
0.0
 11
17.09076049570382
 21
-20.4999999975
 31
0.0
  0
LINE
  5
2A
330
1D
100
AcDbEntity
  8
SK2
100
AcDbLine
 10
28.78078677870382
 20
-20.4999999975
 30
0.0
 11
28.33078677870382
 21
-16.9999999975
 31
0.0
  0
LINE
  5
2B
330
1D
100
AcDbEntity
  8
SK2
100
AcDbLine
 10
28.33078677870382
 20
-16.9999999975
 30
0.0
 11
29.23078677870382
 21
-16.9999999975
 31
0.0
  0
LINE
  5
2C
330
1D
100
AcDbEntity
  8
SK2
100
AcDbLine
 10
29.23078677870382
 20
-16.9999999975
 30
0.0
 11
28.78078677870382
 21
-20.4999999975
 31
0.0
  0
LINE
  5
2D
330
1D
100
AcDbEntity
  8
SK2
100
AcDbLine
 10
30.78078677870382
 20
20.4999999975
 30
0.0
 11
17.09076049570382
 21
20.4999999975
 31
0.0
  0
LINE
  5
2E
330
1D
100
AcDbEntity
  8
SK2
100
AcDbLine
 10
28.78078677870382
 20
20.4999999975
 30
0.0
 11
29.23078677870382
 21
16.9999999975
 31
0.0
  0
LINE
  5
2F
330
1D
100
AcDbEntity
  8
SK2
100
AcDbLine
 10
29.23078677870382
 20
16.9999999975
 30
0.0
 11
28.33078677870382
 21
16.9999999975
 31
0.0
  0
LINE
  5
30
330
1D
100
AcDbEntity
  8
SK2
100
AcDbLine
 10
28.33078677870382
 20
16.9999999975
 30
0.0
 11
28.78078677870382
 21
20.4999999975
 31
0.0
  0
LINE
  5
31
330
1D
100
AcDbEntity
  8
SK2
100
AcDbLine
 10
28.78078677870382
 20
-16.9999999975
 30
0.0
 11
28.78078677870382
 21
16.9999999975
 31
0.0
  0
TEXT
  5
32
330
1D
100
AcDbEntity
  8
SK2
100
AcDbText
 10
27.28078677870382
 20
-2.8489067085
 30
0.0
 40
3.5
  1
41
 50
90.0
  7
BMG_Text
100
AcDbText
  0
CIRCLE
  5
33
330
1D
100
AcDbEntity
  8
SK2
100
AcDbCircle
 10
26.03078677870382
 20
-5.0989067085
 30
0.0
 40
1.25
  0
LINE
  5
34
330
1D
100
AcDbEntity
  8
SK2
100
AcDbLine
 10
27.28078677870382
 20
-6.3489067085
 30
0.0
 11
24.78078677870382
 21
-3.8489067085
 31
0.0
  0
TEXT
  5
35
330
1D
100
AcDbEntity
  8
SK2
100
AcDbText
 10
27.28078677870382
 20
1.214843291499999
 30
0.0
 40
3.5
  1
-54
 50
90.0
  7
BMG_Text
100
AcDbText
  0
LINE
  5
36
330
1D
100
AcDbEntity
  8
2
100
AcDbLine
 10
17.49075655470382
 20
30.5000003295
 30
0.0
 11
17.49075655470382
 21
20.1000064335
 31
0.0
  0
LINE
  5
37
330
1D
100
AcDbEntity
  8
2
100
AcDbLine
 10
17.49075655470382
 20
28.5000003295
 30
0.0
 11
13.99075655670382
 21
28.0500003155
 31
0.0
  0
LINE
  5
38
330
1D
100
AcDbEntity
  8
2
100
AcDbLine
 10
13.99075655670382
 20
28.0500003155
 30
0.0
 11
13.99075655270382
 21
28.9500003155
 31
0.0
  0
LINE
  5
39
330
1D
100
AcDbEntity
  8
2
100
AcDbLine
 10
13.99075655270382
 20
28.9500003155
 30
0.0
 11
17.49075655470382
 21
28.5000003295
 31
0.0
  0
LINE
  5
3A
330
1D
100
AcDbEntity
  8
2
100
AcDbLine
 10
-12.50923956929618
 20
28.5000002075
 30
0.0
 11
13.99075655470382
 21
28.5000003155
 31
0.0
  0
TEXT
  5
3B
330
1D
100
AcDbEntity
  8
2
100
AcDbText
 10
0.8260706517038191
 20
30.0000002625
 30
0.0
 40
3.5
  1
40
 50
0.000000233
  7
BMG_Text
100
AcDbText
  0
LINE
  5
3E
330
1D
100
AcDbEntity
  8
1
100
AcDbLine
 10
1.919820045703819
 20
17.4553020785
 30
0.0
 11
0.7907613097891799
 21
15.4996780755
 31
0.0
  0
LINE
  5
3F
330
1D
100
AcDbEntity
  8
1
100
AcDbLine
 10
7.965760377703819
 20
18.5213809755
 30
0.0
 11
5.235855539703819
 21
18.0400178225
 31
0.0
  0
LINE
  5
40
330
1D
100
AcDbEntity
  8
1
100
AcDbLine
 10
5.235855539703819
 20
18.0400178225
 30
0.0
 11
1.919820045703819
 21
17.4553020785
 31
0.0
  0
LINE
  5
41
330
1D
100
AcDbEntity
  8
1
100
AcDbLine
 10
7.466966358703819
 20
11.8978287955
 30
0.0
 11
7.965760377703819
 21
12.4922687115
 31
0.0
  0
ARC
  5
42
330
1D
100
AcDbEntity
  8
1
100
AcDbCircle
 10
9.07565980070382
 20
10.5479749505
 30
0.0
 40
2.1
100
AcDbArc
 50
140.0
 51
148.206473549
  0
ARC
  5
43
330
1D
100
AcDbEntity
  8
3
100
AcDbCircle
 10
9.07565980070382
 20
10.5479749505
 30
0.0
 40
2.1
100
AcDbArc
 50
148.206473549
 51
214.630408245
  0
ARC
  5
44
330
1D
100
AcDbEntity
  8
1
100
AcDbCircle
 10
9.07565980070382
 20
10.5479749505
 30
0.0
 40
2.1
100
AcDbArc
 50
214.630408245
 51
320.0
  0
LINE
  5
45
330
1D
100
AcDbEntity
  8
1
100
AcDbLine
 10
11.18314692470382
 20
9.7925601455
 30
0.0
 11
10.68435290570382
 21
9.1981211605
 31
0.0
  0
LINE
  5
46
330
1D
100
AcDbEntity
  8
1
100
AcDbLine
 10
17.19076048070382
 20
10.1636027845
 30
0.0
 11
17.19076048070382
 21
10.8531046585
 31
0.0
  0
LINE
  5
47
330
1D
100
AcDbEntity
  8
3
100
AcDbLine
 10
7.876547125703819
 20
-8.4142131805
 30
0.0
 11
14.29076057670382
 21
-2.000000894500001
 31
0.0
  0
ARC
  5
48
330
1D
100
AcDbEntity
  8
3
100
AcDbCircle
 10
9.29076049570382
 20
-9.828427124500001
 30
0.0
 40
2.0
100
AcDbArc
 50
135.0
 51
180.0
  0
LINE
  5
49
330
1D
100
AcDbEntity
  8
3
100
AcDbLine
 10
7.290760127703819
 20
-12.5551899965
 30
0.0
 11
7.290760127703819
 21
-9.8284265105
 31
0.0
  0
LINE
  5
4A
330
1D
100
AcDbEntity
  8
3
100
AcDbLine
 10
7.290760127703819
 20
-12.5551899965
 30
0.0
 11
5.590760221703819
 21
-15.4996780755
 31
0.0
  0
LINE
  5
4B
102
{ACAD_REACTORS
102
}
330
1D
100
AcDbEntity
  8
1
100
AcDbLine
 10
0.2464978747038191
 20
-15.4996780755
 30
0.0
 11
5.590760221703819
 21
-15.4996780755
 31
0.0
  0
ARC
  5
4C
330
1D
100
AcDbEntity
  8
1
100
AcDbCircle
 10
22.29076049570382
 20
4.0000000005
 30
0.0
 40
8.0
100
AcDbArc
 50
129.605652394
 51
180.0
  0
ARC
  5
4E
330
1D
100
AcDbEntity
  8
1
100
AcDbCircle
 10
8.36576049570382
 20
18.5615470915
 30
0.0
 40
0.4
100
AcDbArc
 50
100.0000000000001
 51
180.0
  0
LINE
  5
4F
330
1D
100
AcDbEntity
  8
1
100
AcDbLine
 10
17.02130121670382
 20
20.4939230985
 30
0.0
 11
8.296301660703818
 21
18.9554701955
 31
0.0
  0
ARC
  5
50
330
1D
100
AcDbEntity
  8
1
100
AcDbCircle
 10
8.36576049570382
 20
9.7019499025
 30
0.0
 40
0.4
100
AcDbArc
 50
180.0
 51
280.0000000000001
  0
ARC
  5
52
330
1D
100
AcDbEntity
  8
1
100
AcDbCircle
 10
17.09076049570382
 20
11.2404028095
 30
0.0
 40
0.4
100
AcDbArc
 50
280.0000000000001
 51
0.0
  0
LINE
  5
53
330
1D
100
AcDbEntity
  8
1
100
AcDbLine
 10
17.49076049570382
 20
11.2404026015
 30
0.0
 11
17.49076049570382
 21
20.1000000105
 31
0.0
  0
ARC
  5
54
330
1D
100
AcDbEntity
  8
1
100
AcDbCircle
 10
17.09076049570382
 20
20.0999999975
 30
0.0
 40
0.4
100
AcDbArc
 50
0.0
 51
100.0000000000001
  0
CIRCLE
  5
55
330
1D
100
AcDbEntity
  8
1
100
AcDbCircle
 10
12.55426049570389
 20
14.69397495049999
 30
0.0
 40
2.65
  0
ARC
  5
56
330
1D
100
AcDbEntity
  8
1
100
AcDbCircle
 10
14.25425150370382
 20
14.6939749505
 30
0.0
 40
0.6
100
AcDbArc
 50
119.8136467859999
 51
240.1863532140001
  0
ARC
  5
57
330
1D
100
AcDbEntity
  8
1
100
AcDbCircle
 10
13.83164796570382
 20
15.4314749505
 30
0.0
 40
0.25
100
AcDbArc
 50
299.8136467859999
 51
120.1863532129999
  0
ARC
  5
5A
330
1D
100
AcDbEntity
  8
1
100
AcDbCircle
 10
13.40425599970382
 20
13.2217395505
 30
0.0
 40
0.6
100
AcDbArc
 50
59.81364678699996
 51
180.1863532140001
  0
ARC
  5
5B
330
1D
100
AcDbEntity
  8
1
100
AcDbCircle
 10
13.83164796570382
 20
13.9564749505
 30
0.0
 40
0.25
100
AcDbArc
 50
239.8136467870001
 51
60.18635321400011
  0
ARC
  5
5C
330
1D
100
AcDbEntity
  8
1
100
AcDbCircle
 10
11.70426499170382
 20
13.2217395505
 30
0.0
 40
0.6
100
AcDbArc
 50
359.8136467859999
 51
120.1863532130001
  0
ARC
  5
5D
330
1D
100
AcDbEntity
  8
1
100
AcDbCircle
 10
12.55426049570382
 20
13.2189749505
 30
0.0
 40
0.25
100
AcDbArc
 50
179.8136467859999
 51
0.1863532140001308
  0
ARC
  5
60
330
1D
100
AcDbEntity
  8
1
100
AcDbCircle
 10
10.85426948770382
 20
14.6939749505
 30
0.0
 40
0.6
100
AcDbArc
 50
299.8136467859999
 51
60.18635321400006
  0
ARC
  5
61
330
1D
100
AcDbEntity
  8
1
100
AcDbCircle
 10
11.27687302470382
 20
13.9564749505
 30
0.0
 40
0.25
100
AcDbArc
 50
119.8136467869999
 51
300.1863532129999
  0
ARC
  5
62
330
1D
100
AcDbEntity
  8
1
100
AcDbCircle
 10
13.40425599970382
 20
16.1662103495
 30
0.0
 40
0.6
100
AcDbArc
 50
179.8136467860001
 51
300.1863532140002
  0
ARC
  5
63
330
1D
100
AcDbEntity
  8
1
100
AcDbCircle
 10
12.55426049570382
 20
16.1689749505
 30
0.0
 40
0.25
100
AcDbArc
 50
359.813646785999
 51
180.186353214001
  0
ARC
  5
65
330
1D
100
AcDbEntity
  8
1
100
AcDbCircle
 10
11.70426499170382
 20
16.1662103495
 30
0.0
 40
0.6
100
AcDbArc
 50
239.8136467869999
 51
0.1863532139998849
  0
ARC
  5
67
330
1D
100
AcDbEntity
  8
1
100
AcDbCircle
 10
11.27687302470382
 20
15.4314749505
 30
0.0
 40
0.25
100
AcDbArc
 50
59.81364678700013
 51
240.186353213
  0
LINE
  5
68
330
1D
100
AcDbEntity
  8
1
100
AcDbLine
 10
6.437170391703819
 20
0.0000005664999994
 30
0.0
 11
6.437170391703819
 21
-9.637938246500001
 31
0.0
  0
LINE
  5
69
330
1D
100
AcDbEntity
  8
1
100
AcDbLine
 10
13.69076043170382
 20
0.0000005664999994
 30
0.0
 11
13.69076043170382
 21
-11.8833821195
 31
0.0
  0
ARC
  5
6A
330
1D
100
AcDbEntity
  8
1
100
AcDbCircle
 10
67.35666539970381
 20
174.3153343565
 30
0.0
 40
193.778201492
100
AcDbArc
 50
251.676765456
 51
253.922042647
  0
ARC
  5
6B
330
1D
100
AcDbEntity
  8
1
100
AcDbCircle
 10
0.1027540217038191
 20
11.8277713295
 30
0.0
 40
0.173997888
100
AcDbArc
 50
21.28224367000013
 51
66.084009986
  0
ARC
  5
6C
330
1D
100
AcDbEntity
  8
1
100
AcDbCircle
 10
-11.83317197029618
 20
-13.0897882345
 30
0.0
 40
27.802733359
100
AcDbArc
 50
64.4153108
 51
67.308604942
  0
ARC
  5
6D
330
1D
100
AcDbEntity
  8
1
100
AcDbCircle
 10
-26.14995837829618
 20
-205.9450227965
 30
0.0
 40
220.275945526
100
AcDbArc
 50
83.35417966599998
 51
83.472605757
  0
LINE
  5
6E
330
1D
100
AcDbEntity
  8
1
100
AcDbLine
 10
-0.6570861882961808
 20
12.8507843315
 30
0.0
 11
0.0020722647038191
 21
12.7907065745
 31
0.0
  0
LINE
  5
6F
330
1D
100
AcDbEntity
  8
1
100
AcDbLine
 10
0.0020722647038191
 20
12.7907065745
 30
0.0
 11
0.6704061077038191
 21
12.7632549105
 31
0.0
  0
LINE
  5
70
330
1D
100
AcDbEntity
  8
1
100
AcDbLine
 10
0.6704061077038191
 20
12.7632549105
 30
0.0
 11
1.341509704703819
 21
12.7648605105
 31
0.0
  0
LINE
  5
71
330
1D
100
AcDbEntity
  8
1
100
AcDbLine
 10
1.341509704703819
 20
12.7648605105
 30
0.0
 11
2.008971830703819
 21
12.7919545475
 31
0.0
  0
LINE
  5
72
330
1D
100
AcDbEntity
  8
1
100
AcDbLine
 10
2.008971830703819
 20
12.7919545475
 30
0.0
 11
2.538406362703819
 21
12.8299115305
 31
0.0
  0
LINE
  5
73
330
1D
100
AcDbEntity
  8
1
100
AcDbLine
 10
2.538406362703819
 20
12.8299115305
 30
0.0
 11
3.065638316703819
 21
12.8832651375
 31
0.0
  0
LINE
  5
74
330
1D
100
AcDbEntity
  8
1
100
AcDbLine
 10
3.065638316703819
 20
12.8832651375
 30
0.0
 11
3.585704674703819
 21
12.9536843005
 31
0.0
  0
LINE
  5
75
330
1D
100
AcDbEntity
  8
1
100
AcDbLine
 10
3.585704674703819
 20
12.9536843005
 30
0.0
 11
4.093644281703819
 21
13.0428230465
 31
0.0
  0
LINE
  5
76
330
1D
100
AcDbEntity
  8
1
100
AcDbLine
 10
4.093644281703819
 20
13.0428230465
 30
0.0
 11
4.584495050703819
 21
13.1523503065
 31
0.0
  0
LINE
  5
77
330
1D
100
AcDbEntity
  8
1
100
AcDbLine
 10
4.584495050703819
 20
13.1523503065
 30
0.0
 11
4.912654009703819
 21
13.2427929045
 31
0.0
  0
LINE
  5
78
330
1D
100
AcDbEntity
  8
1
100
AcDbLine
 10
4.912654009703819
 20
13.2427929045
 30
0.0
 11
5.219876838703819
 21
13.3489301505
 31
0.0
  0
LINE
  5
79
330
1D
100
AcDbEntity
  8
1
100
AcDbLine
 10
5.219876838703819
 20
13.3489301505
 30
0.0
 11
5.391715166703819
 21
13.4234210555
 31
0.0
  0
LINE
  5
7A
330
1D
100
AcDbEntity
  8
1
100
AcDbLine
 10
5.391715166703819
 20
13.4234210555
 30
0.0
 11
5.54285485070382
 21
13.5067893265
 31
0.0
  0
LINE
  5
7B
330
1D
100
AcDbEntity
  8
1
100
AcDbLine
 10
5.54285485070382
 20
13.5067893265
 30
0.0
 11
5.626891811703819
 21
13.5680629015
 31
0.0
  0
LINE
  5
7C
330
1D
100
AcDbEntity
  8
1
100
AcDbLine
 10
5.626891811703819
 20
13.5680629015
 30
0.0
 11
5.691184734703819
 21
13.6336205605
 31
0.0
  0
LINE
  5
7D
330
1D
100
AcDbEntity
  8
1
100
AcDbLine
 10
5.691184734703819
 20
13.6336205605
 30
0.0
 11
5.723673922703819
 21
13.6879986225
 31
0.0
  0
LINE
  5
7E
330
1D
100
AcDbEntity
  8
1
100
AcDbLine
 10
5.723673922703819
 20
13.6879986225
 30
0.0
 11
5.736880076703819
 21
13.7433229085
 31
0.0
  0
LINE
  5
7F
330
1D
100
AcDbEntity
  8
1
100
AcDbLine
 10
5.736880076703819
 20
13.7433229085
 30
0.0
 11
5.728616451703819
 21
13.7982299625
 31
0.0
  0
LINE
  5
80
330
1D
100
AcDbEntity
  8
1
100
AcDbLine
 10
5.728616451703819
 20
13.7982299625
 30
0.0
 11
5.699856278703819
 21
13.8509092925
 31
0.0
  0
LINE
  5
81
330
1D
100
AcDbEntity
  8
1
100
AcDbLine
 10
5.699856278703819
 20
13.8509092925
 30
0.0
 11
5.641157810703819
 21
13.9095490875
 31
0.0
  0
LINE
  5
82
330
1D
100
AcDbEntity
  8
1
100
AcDbLine
 10
5.641157810703819
 20
13.9095490875
 30
0.0
 11
5.561976765703819
 21
13.9624631105
 31
0.0
  0
LINE
  5
83
330
1D
100
AcDbEntity
  8
1
100
AcDbLine
 10
5.561976765703819
 20
13.9624631105
 30
0.0
 11
5.405260321703819
 21
14.0356725155
 31
0.0
  0
LINE
  5
84
330
1D
100
AcDbEntity
  8
1
100
AcDbLine
 10
5.405260321703819
 20
14.0356725155
 30
0.0
 11
5.224371400703819
 21
14.0968045295
 31
0.0
  0
LINE
  5
85
330
1D
100
AcDbEntity
  8
1
100
AcDbLine
 10
5.224371400703819
 20
14.0968045295
 30
0.0
 11
4.955414754703819
 21
14.1654579045
 31
0.0
  0
LINE
  5
86
330
1D
100
AcDbEntity
  8
1
100
AcDbLine
 10
4.955414754703819
 20
14.1654579045
 30
0.0
 11
4.66908428570382
 21
14.2208566965
 31
0.0
  0
LINE
  5
87
330
1D
100
AcDbEntity
  8
1
100
AcDbLine
 10
4.66908428570382
 20
14.2208566965
 30
0.0
 11
4.37291811870382
 21
14.2659327095
 31
0.0
  0
LINE
  5
88
330
1D
100
AcDbEntity
  8
1
100
AcDbLine
 10
4.37291811870382
 20
14.2659327095
 30
0.0
 11
3.916082044703819
 21
14.3195321855
 31
0.0
  0
LINE
  5
89
330
1D
100
AcDbEntity
  8
1
100
AcDbLine
 10
3.916082044703819
 20
14.3195321855
 30
0.0
 11
3.450043571703819
 21
14.3590910435
 31
0.0
  0
ARC
  5
8A
330
1D
100
AcDbEntity
  8
1
100
AcDbCircle
 10
-29.65125716329618
 20
-448.9819507575
 30
0.0
 40
464.521922949
100
AcDbArc
 50
85.913705021
 51
86.332843174
  0
ARC
  5
8B
330
1D
100
AcDbEntity
  8
1
100
AcDbCircle
 10
9.133546287703819
 20
-29.8142668125
 30
0.0
 40
45.320090876
100
AcDbArc
 50
101.403102252
 51
101.549818258
  0
LINE
  5
8C
330
1D
100
AcDbEntity
  8
1
100
AcDbLine
 10
0.1732921947038192
 20
14.6112261415
 30
0.0
 11
0.2252711707038191
 21
14.6264476775
 31
0.0
  0
LINE
  5
8D
330
1D
100
AcDbEntity
  8
1
100
AcDbLine
 10
0.2252711707038191
 20
14.6264476775
 30
0.0
 11
0.2594097307038191
 21
14.6462475955
 31
0.0
  0
LINE
  5
8E
330
1D
100
AcDbEntity
  8
1
100
AcDbLine
 10
0.2594097307038191
 20
14.6462475955
 30
0.0
 11
0.2731933047038191
 21
14.6692475375
 31
0.0
  0
LINE
  5
8F
330
1D
100
AcDbEntity
  8
1
100
AcDbLine
 10
0.2731933047038191
 20
14.6692475375
 30
0.0
 11
0.2629040527038191
 21
14.6929292085
 31
0.0
  0
LINE
  5
90
330
1D
100
AcDbEntity
  8
1
100
AcDbLine
 10
0.2629040527038191
 20
14.6929292085
 30
0.0
 11
0.2283966887038191
 21
14.7138280865
 31
0.0
  0
LINE
  5
91
330
1D
100
AcDbEntity
  8
1
100
AcDbLine
 10
0.2283966887038191
 20
14.7138280865
 30
0.0
 11
0.1732921947038192
 21
14.7292917665
 31
0.0
  0
ARC
  5
92
330
1D
100
AcDbEntity
  8
1
100
AcDbCircle
 10
-8.18696178729618
 20
-29.8142668125
 30
0.0
 40
45.321325041
100
AcDbArc
 50
79.369985869
 51
81.015611602
  0
ARC
  5
93
330
1D
100
AcDbEntity
  8
1
100
AcDbCircle
 10
4.803419268703819
 20
-29.8142668125
 30
0.0
 40
45.319153566
100
AcDbArc
 50
95.86397611199999
 51
97.49627343700001
  0
LINE
  5
94
330
1D
100
AcDbEntity
  8
1
100
AcDbLine
 10
0.1732921947038192
 20
15.2677415015
 30
0.0
 11
0.2250700047038191
 21
15.2752032575
 31
0.0
  0
LINE
  5
95
330
1D
100
AcDbEntity
  8
1
100
AcDbLine
 10
0.2250700047038191
 20
15.2752032575
 30
0.0
 11
0.2595512917038191
 21
15.2849746945
 31
0.0
  0
LINE
  5
96
330
1D
100
AcDbEntity
  8
1
100
AcDbLine
 10
0.2595512917038191
 20
15.2849746945
 30
0.0
 11
0.2731765407038191
 21
15.2959493995
 31
0.0
  0
LINE
  5
97
330
1D
100
AcDbEntity
  8
1
100
AcDbLine
 10
0.2731765407038191
 20
15.2959493995
 30
0.0
 11
0.2638893927038191
 21
15.3068384235
 31
0.0
  0
LINE
  5
98
330
1D
100
AcDbEntity
  8
1
100
AcDbLine
 10
0.2638893927038191
 20
15.3068384235
 30
0.0
 11
0.2324647057038191
 21
15.3163565395
 31
0.0
  0
LINE
  5
99
330
1D
100
AcDbEntity
  8
1
100
AcDbLine
 10
0.2324647057038191
 20
15.3163565395
 30
0.0
 11
0.1827972727038192
 21
15.3234718445
 31
0.0
  0
LINE
  5
9A
330
1D
100
AcDbEntity
  8
1
100
AcDbLine
 10
0.1827972727038192
 20
15.3234718445
 30
0.0
 11
0.1732921947038192
 21
15.3243621885
 31
0.0
  0
ARC
  5
9B
330
1D
100
AcDbEntity
  8
1
100
AcDbCircle
 10
-3.856834769296181
 20
-29.8142668125
 30
0.0
 40
45.318181798
100
AcDbArc
 50
84.897970203
 51
86.523935107
  0
ARC
  5
9C
330
1D
100
AcDbEntity
  8
1
100
AcDbCircle
 10
0.4734830436753234
 20
-29.82111515887505
 30
0.0
 40
45.32114294805119
100
AcDbArc
 50
90.37950928294902
 51
92.00128305708971
  0
LINE
  5
9D
330
1D
100
AcDbEntity
  8
1
100
AcDbLine
 10
0.1732921947038192
 20
15.4990336005
 30
0.0
 11
0.2249880487038191
 21
15.4994508325
 31
0.0
  0
LINE
  5
9E
330
1D
100
AcDbEntity
  8
1
100
AcDbLine
 10
0.2249880487038191
 20
15.4994508325
 30
0.0
 11
0.2464978747038191
 21
15.4996780755
 31
0.0
  0
LINE
  5
9F
330
1D
100
AcDbEntity
  8
1
100
AcDbLine
 10
0.2464978747038191
 20
15.4996780755
 30
0.0
 11
5.590760220703819
 21
15.4996780755
 31
0.0
  0
LINE
  5
A0
330
1D
100
AcDbEntity
  8
1
100
AcDbLine
 10
5.590760220703819
 20
15.4996780755
 30
0.0
 11
5.598059927703819
 21
15.4870344405
 31
0.0
  0
LINE
  5
A1
330
1D
100
AcDbEntity
  8
1
100
AcDbLine
 10
5.598059927703819
 20
15.4870344405
 30
0.0
 11
5.615972985703819
 21
15.4560064975
 31
0.0
  0
LINE
  5
A2
330
1D
100
AcDbEntity
  8
1
100
AcDbLine
 10
5.615972985703819
 20
15.4560064975
 30
0.0
 11
5.644477975703819
 21
15.4066352245
 31
0.0
  0
LINE
  5
A3
330
1D
100
AcDbEntity
  8
1
100
AcDbLine
 10
5.644477975703819
 20
15.4066352245
 30
0.0
 11
5.683540438703819
 21
15.3389765025
 31
0.0
  0
LINE
  5
A4
330
1D
100
AcDbEntity
  8
1
100
AcDbLine
 10
5.683540438703819
 20
15.3389765025
 30
0.0
 11
5.73311473970382
 21
15.2531122865
 31
0.0
  0
LINE
  5
A5
330
1D
100
AcDbEntity
  8
1
100
AcDbLine
 10
5.73311473970382
 20
15.2531122865
 30
0.0
 11
5.793142204703819
 21
15.1491431595
 31
0.0
  0
LINE
  5
A6
330
1D
100
AcDbEntity
  8
1
100
AcDbLine
 10
5.793142204703819
 20
15.1491431595
 30
0.0
 11
5.863551122703819
 21
15.0271920565
 31
0.0
  0
LINE
  5
A7
330
1D
100
AcDbEntity
  8
1
100
AcDbLine
 10
5.863551122703819
 20
15.0271920565
 30
0.0
 11
5.944257673703819
 21
14.8874042635
 31
0.0
  0
LINE
  5
A8
330
1D
100
AcDbEntity
  8
1
100
AcDbLine
 10
5.944257673703819
 20
14.8874042635
 30
0.0
 11
6.035166864703819
 21
14.7299436925
 31
0.0
  0
LINE
  5
A9
330
1D
100
AcDbEntity
  8
1
100
AcDbLine
 10
6.035166864703819
 20
14.7299436925
 30
0.0
 11
6.136169729703819
 21
14.5550003355
 31
0.0
  0
LINE
  5
AA
330
1D
100
AcDbEntity
  8
1
100
AcDbLine
 10
6.136169729703819
 20
14.5550003355
 30
0.0
 11
6.247147989703819
 21
14.3627828065
 31
0.0
  0
LINE
  5
AB
330
1D
100
AcDbEntity
  8
1
100
AcDbLine
 10
6.247147989703819
 20
14.3627828065
 30
0.0
 11
6.367967535703819
 21
14.1535146235
 31
0.0
  0
LINE
  5
AC
330
1D
100
AcDbEntity
  8
1
100
AcDbLine
 10
6.367967535703819
 20
14.1535146235
 30
0.0
 11
6.498487738703819
 21
13.9274491075
 31
0.0
  0
LINE
  5
AD
330
1D
100
AcDbEntity
  8
1
100
AcDbLine
 10
6.498487738703819
 20
13.9274491075
 30
0.0
 11
6.638551202703819
 21
13.6848507525
 31
0.0
  0
LINE
  5
AE
330
1D
100
AcDbEntity
  8
1
100
AcDbLine
 10
6.638551202703819
 20
13.6848507525
 30
0.0
 11
6.787994017703819
 21
13.4260101315
 31
0.0
  0
LINE
  5
AF
330
1D
100
AcDbEntity
  8
1
100
AcDbLine
 10
6.787994017703819
 20
13.4260101315
 30
0.0
 11
6.94663643570382
 21
13.1512327195
 31
0.0
  0
LINE
  5
B0
330
1D
100
AcDbEntity
  8
1
100
AcDbLine
 10
6.94663643570382
 20
13.1512327195
 30
0.0
 11
7.114292194703819
 21
12.8608426155
 31
0.0
  0
LINE
  5
B1
330
1D
100
AcDbEntity
  8
1
100
AcDbLine
 10
7.114292194703819
 20
12.8608426155
 30
0.0
 11
7.290760127703819
 21
12.5551899965
 31
0.0
  0
LINE
  5
B2
330
1D
100
AcDbEntity
  8
1
100
AcDbLine
 10
7.290760127703819
 20
7.6380265955
 30
0.0
 11
7.290760127703819
 21
12.5551899965
 31
0.0
  0
LINE
  5
B3
330
1D
100
AcDbEntity
  8
1
100
AcDbLine
 10
7.313689288703819
 20
7.526454150499999
 30
0.0
 11
7.290760127703819
 21
7.6380265955
 31
0.0
  0
ARC
  5
B4
330
1D
100
AcDbEntity
  8
1
100
AcDbCircle
 10
9.290751785703819
 20
7.828421264499999
 30
0.0
 40
1.999990063
100
AcDbArc
 50
188.683972896
 51
225.000076007
  0
LINE
  5
B5
330
1D
100
AcDbEntity
  8
1
100
AcDbLine
 10
13.70194840970382
 20
0.5888125004999994
 30
0.0
 11
13.23922544470382
 21
1.051534533499999
 31
0.0
  0
LINE
  5
B6
330
1D
100
AcDbEntity
  8
1
100
AcDbLine
 10
13.23922544470382
 20
1.051534533499999
 30
0.0
 11
12.77744171870382
 21
1.5133177935
 31
0.0
  0
LINE
  5
B7
330
1D
100
AcDbEntity
  8
1
100
AcDbLine
 10
12.77744171870382
 20
1.5133177935
 30
0.0
 11
12.31701073970382
 21
1.973748773499999
 31
0.0
  0
LINE
  5
B8
330
1D
100
AcDbEntity
  8
1
100
AcDbLine
 10
12.31701073970382
 20
1.973748773499999
 30
0.0
 11
11.85834368470382
 21
2.432415828499999
 31
0.0
  0
LINE
  5
B9
330
1D
100
AcDbEntity
  8
1
100
AcDbLine
 10
11.85834368470382
 20
2.432415828499999
 30
0.0
 11
11.40185080270382
 21
2.888909176499999
 31
0.0
  0
LINE
  5
BA
330
1D
100
AcDbEntity
  8
1
100
AcDbLine
 10
11.40185080270382
 20
2.888909176499999
 30
0.0
 11
10.94793954670382
 21
3.342820897499999
 31
0.0
  0
LINE
  5
BB
330
1D
100
AcDbEntity
  8
1
100
AcDbLine
 10
10.94793954670382
 20
3.342820897499999
 30
0.0
 11
10.49701597270382
 21
3.7937449365
 31
0.0
  0
LINE
  5
BC
330
1D
100
AcDbEntity
  8
1
100
AcDbLine
 10
10.49701597270382
 20
3.7937449365
 30
0.0
 11
10.04948241370382
 21
4.241277098499999
 31
0.0
  0
LINE
  5
BD
330
1D
100
AcDbEntity
  8
1
100
AcDbLine
 10
10.04948241370382
 20
4.241277098499999
 30
0.0
 11
9.60574026870382
 21
4.685020640499999
 31
0.0
  0
LINE
  5
BE
330
1D
100
AcDbEntity
  8
1
100
AcDbLine
 10
9.60574026870382
 20
4.685020640499999
 30
0.0
 11
9.166183953703818
 21
5.124576956499999
 31
0.0
  0
LINE
  5
BF
330
1D
100
AcDbEntity
  8
1
100
AcDbLine
 10
9.166183953703818
 20
5.124576956499999
 30
0.0
 11
8.301201348703819
 21
5.989559561499999
 31
0.0
  0
LINE
  5
C1
330
1D
100
AcDbEntity
  8
1
100
AcDbLine
 10
8.301201348703819
 20
5.989559561499999
 30
0.0
 11
7.876547125703819
 21
6.4142128525
 31
0.0
  0
ARC
  5
C2
330
1D
100
AcDbEntity
  8
1
100
AcDbCircle
 10
29.19076049570382
 20
0.0000000004999994
 30
0.0
 40
15.5
100
AcDbArc
 50
177.822931119
 51
180.0
  0
ARC
  5
C3
330
1D
100
AcDbEntity
  8
1
100
AcDbCircle
 10
-19.72503348529618
 20
0.0000000004999994
 30
0.0
 40
26.162204143
100
AcDbArc
 50
0.0
 51
9.393636614
  0
LINE
  5
C4
330
1D
100
AcDbEntity
  8
1
100
AcDbLine
 10
6.090760302703819
 20
4.2708316895
 30
0.0
 11
0.2464978747038191
 21
4.2708316895
 31
0.0
  0
ARC
  5
C5
330
1D
100
AcDbEntity
  8
1
100
AcDbCircle
 10
-0.6369697002961808
 20
4.144234830499999
 30
0.0
 40
0.89249186
100
AcDbArc
 50
8.154710138999977
 51
24.78807697700002
  0
ARC
  5
C6
330
1D
100
AcDbEntity
  8
1
100
AcDbCircle
 10
-11.10247580329618
 20
-1.470952444500001
 30
0.0
 40
12.767755142
100
AcDbArc
 50
27.97600410400001
 51
38.462172001
  0
ARC
  5
C7
330
1D
100
AcDbEntity
  8
1
100
AcDbCircle
 10
10.30755226570382
 20
-3.551361404500001
 30
0.0
 40
16.072983535
100
AcDbArc
 50
129.088141397
 51
135.248540655
  0
ARC
  5
C8
330
1D
100
AcDbEntity
  8
1
100
AcDbCircle
 10
-0.0407646802961809
 20
9.1604661275
 30
0.0
 40
0.318874333
100
AcDbArc
 50
312.166638851
 51
47.833361149
  0
ARC
  5
C9
330
1D
100
AcDbEntity
  8
1
100
AcDbCircle
 10
-9.36096776529618
 20
-3.551361404500001
 30
0.0
 40
16.0797195
100
AcDbArc
 50
53.63429795099999
 51
54.50520341899999
  0
ARC
  5
CA
330
1D
100
AcDbEntity
  8
1
100
AcDbCircle
 10
-16.16329898929618
 20
-13.0897882345
 30
0.0
 40
27.798941754
100
AcDbArc
 50
54.505296738
 51
57.22949981799999
  0
ARC
  5
CB
330
1D
100
AcDbEntity
  8
1
100
AcDbCircle
 10
12.77975646970382
 20
-13.0897882345
 30
0.0
 40
27.805977263
100
AcDbArc
 50
116.960264028
 51
119.959024721
  0
ARC
  5
CC
330
1D
100
AcDbEntity
  8
1
100
AcDbCircle
 10
0.0985176907038191
 20
11.8548440215
 30
0.0
 40
0.177132432
100
AcDbArc
 50
294.9697041009999
 51
339.9631657899997
  0
LINE
  5
CD
330
1D
100
AcDbEntity
  8
1
100
AcDbLine
 10
4.140760821703819
 20
15.3704254035
 30
0.0
 11
4.12106521170382
 21
15.3388721945
 31
0.0
  0
LINE
  5
CE
330
1D
100
AcDbEntity
  8
1
100
AcDbLine
 10
4.12106521170382
 20
15.3388721945
 30
0.0
 11
4.063187238703819
 21
15.3049795035
 31
0.0
  0
LINE
  5
CF
330
1D
100
AcDbEntity
  8
1
100
AcDbLine
 10
4.063187238703819
 20
15.3049795035
 30
0.0
 11
3.968390708703819
 21
15.2700698075
 31
0.0
  0
LINE
  5
D0
330
1D
100
AcDbEntity
  8
1
100
AcDbLine
 10
3.968390708703819
 20
15.2700698075
 30
0.0
 11
3.839789961703819
 21
15.2357822355
 31
0.0
  0
LINE
  5
D1
330
1D
100
AcDbEntity
  8
1
100
AcDbLine
 10
3.839789961703819
 20
15.2357822355
 30
0.0
 11
3.679925647703819
 21
15.2038080695
 31
0.0
  0
LINE
  5
D2
330
1D
100
AcDbEntity
  8
1
100
AcDbLine
 10
3.679925647703819
 20
15.2038080695
 30
0.0
 11
3.493893032703819
 21
15.1760397555
 31
0.0
  0
LINE
  5
D3
330
1D
100
AcDbEntity
  8
1
100
AcDbLine
 10
3.493893032703819
 20
15.1760397555
 30
0.0
 11
3.288872611703819
 21
15.1544665995
 31
0.0
  0
LINE
  5
D4
330
1D
100
AcDbEntity
  8
1
100
AcDbLine
 10
3.288872611703819
 20
15.1544665995
 30
0.0
 11
3.069089797703819
 21
15.1400460005
 31
0.0
  0
LINE
  5
D5
330
1D
100
AcDbEntity
  8
1
100
AcDbLine
 10
3.069089797703819
 20
15.1400460005
 30
0.0
 11
2.845673893703819
 21
15.1339439745
 31
0.0
  0
LINE
  5
D6
330
1D
100
AcDbEntity
  8
1
100
AcDbLine
 10
2.845673893703819
 20
15.1339439745
 30
0.0
 11
2.620671947703819
 21
15.1360301375
 31
0.0
  0
LINE
  5
D7
330
1D
100
AcDbEntity
  8
1
100
AcDbLine
 10
2.620671947703819
 20
15.1360301375
 30
0.0
 11
2.403481935703819
 21
15.1461405755
 31
0.0
  0
LINE
  5
D8
330
1D
100
AcDbEntity
  8
1
100
AcDbLine
 10
2.403481935703819
 20
15.1461405755
 30
0.0
 11
2.197079432703819
 21
15.1634482745
 31
0.0
  0
LINE
  5
D9
330
1D
100
AcDbEntity
  8
1
100
AcDbLine
 10
2.197079432703819
 20
15.1634482745
 30
0.0
 11
2.005988803703819
 21
15.1871783735
 31
0.0
  0
LINE
  5
DA
330
1D
100
AcDbEntity
  8
1
100
AcDbLine
 10
2.005988803703819
 20
15.1871783735
 30
0.0
 11
1.836481576703819
 21
15.2157327235
 31
0.0
  0
LINE
  5
DB
330
1D
100
AcDbEntity
  8
1
100
AcDbLine
 10
1.836481576703819
 20
15.2157327235
 30
0.0
 11
1.690601070703819
 21
15.2482470575
 31
0.0
  0
LINE
  5
DC
330
1D
100
AcDbEntity
  8
1
100
AcDbLine
 10
1.690601070703819
 20
15.2482470575
 30
0.0
 11
1.575484012703819
 21
15.2824377715
 31
0.0
  0
LINE
  5
DD
330
1D
100
AcDbEntity
  8
1
100
AcDbLine
 10
1.575484012703819
 20
15.2824377715
 30
0.0
 11
1.493603994703819
 21
15.3171686535
 31
0.0
  0
LINE
  5
DE
330
1D
100
AcDbEntity
  8
1
100
AcDbLine
 10
1.493603994703819
 20
15.3171686535
 30
0.0
 11
1.448924725703819
 21
15.3504094185
 31
0.0
  0
LINE
  5
DF
330
1D
100
AcDbEntity
  8
1
100
AcDbLine
 10
1.448924725703819
 20
15.3504094185
 30
0.0
 11
1.443392669703819
 21
15.3808450405
 31
0.0
  0
LINE
  5
E0
330
1D
100
AcDbEntity
  8
1
100
AcDbLine
 10
1.443392669703819
 20
15.3808450405
 30
0.0
 11
1.476894204703819
 21
15.4076187015
 31
0.0
  0
LINE
  5
E1
330
1D
100
AcDbEntity
  8
1
100
AcDbLine
 10
1.476894204703819
 20
15.4076187015
 30
0.0
 11
1.548345272703819
 21
15.4299033885
 31
0.0
  0
LINE
  5
E2
330
1D
100
AcDbEntity
  8
1
100
AcDbLine
 10
1.548345272703819
 20
15.4299033885
 30
0.0
 11
1.655471583703819
 21
15.4479226175
 31
0.0
  0
LINE
  5
E3
330
1D
100
AcDbEntity
  8
1
100
AcDbLine
 10
1.655471583703819
 20
15.4479226175
 30
0.0
 11
1.794344817703819
 21
15.4616652135
 31
0.0
  0
LINE
  5
E4
330
1D
100
AcDbEntity
  8
1
100
AcDbLine
 10
1.794344817703819
 20
15.4616652135
 30
0.0
 11
1.961459477703819
 21
15.4717868265
 31
0.0
  0
LINE
  5
E5
330
1D
100
AcDbEntity
  8
1
100
AcDbLine
 10
1.961459477703819
 20
15.4717868265
 30
0.0
 11
2.151716572703819
 21
15.4787717465
 31
0.0
  0
LINE
  5
E6
330
1D
100
AcDbEntity
  8
1
100
AcDbLine
 10
2.151716572703819
 20
15.4787717465
 30
0.0
 11
2.359972407703819
 21
15.4832420945
 31
0.0
  0
LINE
  5
E7
330
1D
100
AcDbEntity
  8
1
100
AcDbLine
 10
2.359972407703819
 20
15.4832420945
 30
0.0
 11
2.580549639703819
 21
15.4856709835
 31
0.0
  0
LINE
  5
E8
330
1D
100
AcDbEntity
  8
1
100
AcDbLine
 10
2.580549639703819
 20
15.4856709835
 30
0.0
 11
2.807045427703819
 21
15.4863601625
 31
0.0
  0
LINE
  5
E9
330
1D
100
AcDbEntity
  8
1
100
AcDbLine
 10
2.807045427703819
 20
15.4863601625
 30
0.0
 11
3.033198488703819
 21
15.4854325655
 31
0.0
  0
LINE
  5
EA
330
1D
100
AcDbEntity
  8
1
100
AcDbLine
 10
3.033198488703819
 20
15.4854325655
 30
0.0
 11
3.252517503703819
 21
15.4827317295
 31
0.0
  0
LINE
  5
EB
330
1D
100
AcDbEntity
  8
1
100
AcDbLine
 10
3.252517503703819
 20
15.4827317295
 30
0.0
 11
3.458634090703819
 21
15.4779298305
 31
0.0
  0
LINE
  5
EC
330
1D
100
AcDbEntity
  8
1
100
AcDbLine
 10
3.458634090703819
 20
15.4779298305
 30
0.0
 11
3.645915609703819
 21
15.4705276785
 31
0.0
  0
LINE
  5
ED
330
1D
100
AcDbEntity
  8
1
100
AcDbLine
 10
3.645915609703819
 20
15.4705276785
 30
0.0
 11
3.808656779703819
 21
15.4599478545
 31
0.0
  0
LINE
  5
EE
330
1D
100
AcDbEntity
  8
1
100
AcDbLine
 10
3.808656779703819
 20
15.4599478545
 30
0.0
 11
3.942754191703819
 21
15.4457097945
 31
0.0
  0
LINE
  5
EF
330
1D
100
AcDbEntity
  8
1
100
AcDbLine
 10
3.942754191703819
 20
15.4457097945
 30
0.0
 11
4.044028070703819
 21
15.4273701905
 31
0.0
  0
LINE
  5
F0
330
1D
100
AcDbEntity
  8
1
100
AcDbLine
 10
4.044028070703819
 20
15.4273701905
 30
0.0
 11
4.110244174703819
 21
15.4048768875
 31
0.0
  0
LINE
  5
F1
330
1D
100
AcDbEntity
  8
1
100
AcDbLine
 10
4.110244174703819
 20
15.4048768875
 30
0.0
 11
4.140760821703819
 21
15.3704254035
 31
0.0
  0
LINE
  5
F2
330
1D
100
AcDbEntity
  8
1
100
AcDbLine
 10
8.367426765703819
 20
-18.2406179535
 30
0.0
 11
15.88397713170382
 21
-19.5898084945
 31
0.0
  0
ARC
  5
F3
330
1D
100
AcDbEntity
  8
1
100
AcDbCircle
 10
8.27103574170382
 20
-18.5347780875
 30
0.0
 40
0.309550342
100
AcDbArc
 50
71.85695376400012
 51
109.5548987829998
  0
LINE
  5
F4
330
1D
100
AcDbEntity
  8
1
100
AcDbLine
 10
8.167426173703818
 20
-18.5043251995
 30
0.0
 11
8.167426173703818
 21
-18.2430822325
 31
0.0
  0
ARC
  5
F5
330
1D
100
AcDbEntity
  8
1
100
AcDbCircle
 10
8.05034608070382
 20
-18.2072711715
 30
0.0
 40
0.325037349
100
AcDbArc
 50
264.5208253440001
 51
270.0
  0
ARC
  5
F6
330
1D
100
AcDbEntity
  8
1
100
AcDbCircle
 10
8.05034608070382
 20
-18.2072711715
 30
0.0
 40
0.325553417
100
AcDbArc
 50
270.0
 51
291.5113168099999
  0
LINE
  5
F7
330
1D
100
AcDbEntity
  8
1
100
AcDbLine
 10
8.019310494703818
 20
-18.5308234225
 30
0.0
 11
5.235855539703819
 21
-18.0400178225
 31
0.0
  0
LINE
  5
F8
330
1D
100
AcDbEntity
  8
1
100
AcDbLine
 10
5.235855539703819
 20
-18.0400178225
 30
0.0
 11
1.919820045703819
 21
-17.4553020785
 31
0.0
  0
LINE
  5
F9
330
1D
100
AcDbEntity
  8
1
100
AcDbLine
 10
1.919820045703819
 20
-9.0932710025
 30
0.0
 11
1.919820045703819
 21
-17.4553020785
 31
0.0
  0
LINE
  5
FA
330
1D
100
AcDbEntity
  8
1
100
AcDbLine
 10
1.919820045703819
 20
-9.0932710025
 30
0.0
 11
4.664417428703819
 21
-9.990841515500001
 31
0.0
  0
LINE
  5
FB
330
1D
100
AcDbEntity
  8
1
100
AcDbLine
 10
4.664417428703819
 20
-9.990841515500001
 30
0.0
 11
6.090760302703819
 21
-10.4357007815
 31
0.0
  0
ARC
  5
FC
330
1D
100
AcDbEntity
  8
1
100
AcDbCircle
 10
-9.629315325296181
 20
-3.103773346500001
 30
0.0
 40
17.345833784
100
AcDbArc
 50
334.995401444
 51
337.394211007
  0
ARC
  5
FD
330
1D
100
AcDbEntity
  8
1
100
AcDbCircle
 10
-13.40558285329618
 20
-1.531417217500001
 30
0.0
 40
21.434838348
100
AcDbArc
 50
337.394211007
 51
337.778113016
  0
ARC
  5
FE
330
1D
100
AcDbEntity
  8
1
100
AcDbCircle
 10
32.85070446770382
 20
0.1328126504999994
 30
0.0
 40
22.616197341
100
AcDbArc
 50
212.093957149
 51
217.074127667
  0
LINE
  5
FF
330
1D
100
AcDbEntity
  8
1
100
AcDbLine
 10
14.29076057570382
 20
0.0000005664999994
 30
0.0
 11
13.70194840970382
 21
0.5888125004999994
 31
0.0
  0
LINE
  5
100
330
1D
100
AcDbEntity
  8
1
100
AcDbLine
 10
14.29076057570382
 20
-4.0000000895
 30
0.0
 11
14.29076057570382
 21
4.0000000005
 31
0.0
  0
ARC
  5
101
330
1D
100
AcDbEntity
  8
1
100
AcDbCircle
 10
22.29076049570382
 20
-3.999999999500001
 30
0.0
 40
8.0
100
AcDbArc
 50
180.0
 51
230.394347606
  0
LINE
  5
102
330
1D
100
AcDbEntity
  8
1
100
AcDbLine
 10
15.79312242370382
 20
-8.666979514500001
 30
0.0
 11
15.79312242370382
 21
-13.4836574015
 31
0.0
  0
LINE
  5
103
330
1D
100
AcDbEntity
  8
1
100
AcDbLine
 10
15.79312242370382
 20
-13.4836574015
 30
0.0
 11
15.77833232270382
 21
-13.6719275195
 31
0.0
  0
LINE
  5
104
330
1D
100
AcDbEntity
  8
1
100
AcDbLine
 10
15.77833232270382
 20
-13.6719275195
 30
0.0
 11
15.73518368170382
 21
-13.8193130415
 31
0.0
  0
LINE
  5
105
330
1D
100
AcDbEntity
  8
1
100
AcDbLine
 10
15.73518368170382
 20
-13.8193130415
 30
0.0
 11
15.67639685470382
 21
-13.9124471615
 31
0.0
  0
LINE
  5
106
330
1D
100
AcDbEntity
  8
1
100
AcDbLine
 10
15.67639685470382
 20
-13.9124471615
 30
0.0
 11
15.59880941870382
 21
-13.9723605405
 31
0.0
  0
LINE
  5
107
330
1D
100
AcDbEntity
  8
1
100
AcDbLine
 10
15.59880941870382
 20
-13.9723605405
 30
0.0
 11
15.48930148370382
 21
-13.9978247615
 31
0.0
  0
LINE
  5
108
330
1D
100
AcDbEntity
  8
1
100
AcDbLine
 10
15.48930148370382
 20
-13.9978247615
 30
0.0
 11
15.40322562470382
 21
-13.9878931385
 31
0.0
  0
LINE
  5
109
330
1D
100
AcDbEntity
  8
1
100
AcDbLine
 10
15.40322562470382
 20
-13.9878931385
 30
0.0
 11
15.31903080370382
 21
-13.9594715015
 31
0.0
  0
LINE
  5
10A
330
1D
100
AcDbEntity
  8
1
100
AcDbLine
 10
15.31903080370382
 20
-13.9594715015
 30
0.0
 11
15.17063991870382
 21
-13.8736897075
 31
0.0
  0
LINE
  5
10B
330
1D
100
AcDbEntity
  8
1
100
AcDbLine
 10
15.17063991870382
 20
-13.8736897075
 30
0.0
 11
15.03238624670382
 21
-13.7578094305
 31
0.0
  0
LINE
  5
10C
330
1D
100
AcDbEntity
  8
1
100
AcDbLine
 10
15.03238624670382
 20
-13.7578094305
 30
0.0
 11
14.91582913070382
 21
-13.6358667095
 31
0.0
  0
LINE
  5
10D
330
1D
100
AcDbEntity
  8
1
100
AcDbLine
 10
14.91582913070382
 20
-13.6358667095
 30
0.0
 11
14.80647300170382
 21
-13.5011280815
 31
0.0
  0
LINE
  5
10E
330
1D
100
AcDbEntity
  8
1
100
AcDbLine
 10
6.090760302703819
 20
4.2708316895
 30
0.0
 11
6.090760302703819
 21
-10.4357007815
 31
0.0
  0
LINE
  5
10F
330
1D
100
AcDbEntity
  8
1
100
AcDbLine
 10
0.1732921947038192
 20
-4.5184245255
 30
0.0
 11
0.2186755437038191
 21
-4.3990345595
 31
0.0
  0
LINE
  5
110
330
1D
100
AcDbEntity
  8
1
100
AcDbLine
 10
0.2186755437038191
 20
-4.3990345595
 30
0.0
 11
0.2464978747038191
 21
-4.270830556500001
 31
0.0
  0
LINE
  5
111
330
1D
100
AcDbEntity
  8
1
100
AcDbLine
 10
0.2464978747038191
 20
4.2708316895
 30
0.0
 11
0.2464978747038191
 21
-4.270830556500001
 31
0.0
  0
ARC
  5
112
330
1D
100
AcDbEntity
  8
1
100
AcDbCircle
 10
-3.856834769296181
 20
29.8142668135
 30
0.0
 40
45.316250278
100
AcDbArc
 50
273.476064893
 51
275.1020297970001
  0
LINE
  5
113
330
1D
100
AcDbEntity
  8
1
100
AcDbLine
 10
0.1732921947038192
 20
-15.3243605905
 30
0.0
 11
0.2250085377038192
 21
-15.3177868505
 31
0.0
  0
LINE
  5
114
330
1D
100
AcDbEntity
  8
1
100
AcDbLine
 10
0.2250085377038192
 20
-15.3177868505
 30
0.0
 11
0.2594916867038191
 21
-15.3088112285
 31
0.0
  0
LINE
  5
115
330
1D
100
AcDbEntity
  8
1
100
AcDbLine
 10
0.2594916867038191
 20
-15.3088112285
 30
0.0
 11
0.2731635027038191
 21
-15.2982295415
 31
0.0
  0
LINE
  5
116
330
1D
100
AcDbEntity
  8
1
100
AcDbLine
 10
0.2731635027038191
 20
-15.2982295415
 30
0.0
 11
0.2640719317038192
 21
-15.2871272455
 31
0.0
  0
LINE
  5
117
330
1D
100
AcDbEntity
  8
1
100
AcDbLine
 10
0.2640719317038192
 20
-15.2871272455
 30
0.0
 11
0.2328316467038191
 21
-15.2768580165
 31
0.0
  0
LINE
  5
118
330
1D
100
AcDbEntity
  8
1
100
AcDbLine
 10
0.2328316467038191
 20
-15.2768580165
 30
0.0
 11
0.1831493127038192
 21
-15.2688058015
 31
0.0
  0
LINE
  5
119
330
1D
100
AcDbEntity
  8
1
100
AcDbLine
 10
0.1831493127038192
 20
-15.2688058015
 30
0.0
 11
0.1732921947038192
 21
-15.2677431625
 31
0.0
  0
ARC
  5
11A
330
1D
100
AcDbEntity
  8
1
100
AcDbCircle
 10
4.803419268703819
 20
29.8142668135
 30
0.0
 40
45.321028544
100
AcDbArc
 50
262.503726563
 51
264.136023888
  0
ARC
  5
11B
330
1D
100
AcDbEntity
  8
1
100
AcDbCircle
 10
-8.18696178729618
 20
29.8142668135
 30
0.0
 40
45.321979153
100
AcDbArc
 50
278.984388398
 51
280.630014131
  0
LINE
  5
11C
330
1D
100
AcDbEntity
  8
1
100
AcDbLine
 10
0.1732921947038192
 20
-14.7292924975
 30
0.0
 11
0.2251370597038191
 21
-14.7151191645
 31
0.0
  0
LINE
  5
11D
330
1D
100
AcDbEntity
  8
1
100
AcDbLine
 10
0.2251370597038191
 20
-14.7151191645
 30
0.0
 11
0.2592774827038191
 21
-14.6962608135
 31
0.0
  0
LINE
  5
11E
330
1D
100
AcDbEntity
  8
1
100
AcDbLine
 10
0.2592774827038191
 20
-14.6962608135
 30
0.0
 11
0.2731616397038191
 21
-14.6738541235
 31
0.0
  0
LINE
  5
11F
330
1D
100
AcDbEntity
  8
1
100
AcDbLine
 10
0.2731616397038191
 20
-14.6738541235
 30
0.0
 11
0.2633417747038191
 21
-14.6500206475
 31
0.0
  0
LINE
  5
120
330
1D
100
AcDbEntity
  8
1
100
AcDbLine
 10
0.2633417747038191
 20
-14.6500206475
 30
0.0
 11
0.2292702697038191
 21
-14.6281401555
 31
0.0
  0
LINE
  5
121
330
1D
100
AcDbEntity
  8
1
100
AcDbLine
 10
0.2292702697038191
 20
-14.6281401555
 30
0.0
 11
0.1732921947038192
 21
-14.6112268715
 31
0.0
  0
ARC
  5
122
330
1D
100
AcDbEntity
  8
1
100
AcDbCircle
 10
9.133546287703819
 20
29.8142668135
 30
0.0
 40
45.314610281
100
AcDbArc
 50
256.93612564
 51
258.596897748
  0
ARC
  5
123
330
1D
100
AcDbEntity
  8
1
100
AcDbCircle
 10
-10.04129603629618
 20
19.2061351855
 30
0.0
 40
34.416449843
100
AcDbArc
 50
285.042098795
 51
287.265414119
  0
LINE
  5
124
330
1D
100
AcDbEntity
  8
1
100
AcDbLine
 10
0.1732921947038192
 20
-13.6589923795
 30
0.0
 11
0.2254052807038191
 21
-13.6356487795
 31
0.0
  0
LINE
  5
125
330
1D
100
AcDbEntity
  8
1
100
AcDbLine
 10
0.2254052807038191
 20
-13.6356487795
 30
0.0
 11
0.2589310307038191
 21
-13.6055409835
 31
0.0
  0
LINE
  5
126
330
1D
100
AcDbEntity
  8
1
100
AcDbLine
 10
0.2589310307038191
 20
-13.6055409835
 30
0.0
 11
0.2731802667038191
 21
-13.5683658455
 31
0.0
  0
LINE
  5
127
330
1D
100
AcDbEntity
  8
1
100
AcDbLine
 10
0.2731802667038191
 20
-13.5683658455
 30
0.0
 11
0.2615797127038191
 21
-13.5271529595
 31
0.0
  0
LINE
  5
128
330
1D
100
AcDbEntity
  8
1
100
AcDbLine
 10
0.2615797127038191
 20
-13.5271529595
 30
0.0
 11
0.2211659007038191
 21
-13.4893282245
 31
0.0
  0
LINE
  5
129
330
1D
100
AcDbEntity
  8
1
100
AcDbLine
 10
0.2211659007038191
 20
-13.4893282245
 30
0.0
 11
0.1732921947038192
 21
-13.4674393495
 31
0.0
  0
ARC
  5
12A
330
1D
100
AcDbEntity
  8
1
100
AcDbCircle
 10
10.98788053670382
 20
19.2061351855
 30
0.0
 40
34.419685819
100
AcDbArc
 50
249.423399163
 51
251.686033119
  0
ARC
  5
12B
330
1D
100
AcDbEntity
  8
1
100
AcDbCircle
 10
-11.83317197029618
 20
13.0897882345
 30
0.0
 40
27.798953585
100
AcDbArc
 50
292.691395058
 51
295.5846892
  0
ARC
  5
12C
330
1D
100
AcDbEntity
  8
1
100
AcDbCircle
 10
0.1106952677038191
 20
-11.8405491975
 30
0.0
 40
0.15911202
100
AcDbArc
 50
293.1671079270001
 51
66.83289207299991
  0
ARC
  5
12D
330
1D
100
AcDbEntity
  8
1
100
AcDbCircle
 10
12.77975646970382
 20
13.0897882345
 30
0.0
 40
27.812449847
100
AcDbArc
 50
240.0409752789999
 51
243.0397359719999
  0
ARC
  5
12E
330
1D
100
AcDbEntity
  8
1
100
AcDbCircle
 10
-16.16329898929618
 20
13.0897882345
 30
0.0
 40
27.812201855
100
AcDbArc
 50
302.770500182
 51
305.494703262
  0
ARC
  5
12F
330
1D
100
AcDbEntity
  8
1
100
AcDbCircle
 10
-9.36096776529618
 20
3.551361404499999
 30
0.0
 40
16.083426551
100
AcDbArc
 50
305.4947965810001
 51
306.365702049
  0
ARC
  5
130
330
1D
100
AcDbEntity
  8
1
100
AcDbCircle
 10
-0.0420340282961809
 20
-9.1604663915
 30
0.0
 40
0.319728161
100
AcDbArc
 50
312.335182201
 51
47.66481779900001
  0
ARC
  5
131
330
1D
100
AcDbEntity
  8
1
100
AcDbCircle
 10
10.30755226570382
 20
3.551361404499999
 30
0.0
 40
16.076197055
100
AcDbArc
 50
224.751459345
 51
230.911858603
  0
ARC
  5
132
330
1D
100
AcDbEntity
  8
1
100
AcDbCircle
 10
-11.10247580329618
 20
1.4709524445
 30
0.0
 40
12.762444452
100
AcDbArc
 50
321.537827999
 51
332.023995896
  0
LINE
  5
133
330
1D
100
AcDbEntity
  8
1
100
AcDbLine
 10
0.2464978747038191
 20
-4.270830556500001
 30
0.0
 11
0.7907609247038191
 21
-4.270830556500001
 31
0.0
  0
LINE
  5
134
330
1D
100
AcDbEntity
  8
1
100
AcDbLine
 10
0.7907609247038191
 20
-4.270830556500001
 30
0.0
 11
0.7907609247038191
 21
-15.4996774085
 31
0.0
  0
LINE
  5
135
330
1D
100
AcDbEntity
  8
1
100
AcDbLine
 10
0.7907609247038191
 20
-15.4996774085
 30
0.0
 11
0.2464978747038191
 21
-15.4996774085
 31
0.0
  0
ARC
  5
136
330
1D
100
AcDbEntity
  8
1
100
AcDbCircle
 10
0.0722870427038191
 20
-31.1076355205
 30
0.0
 40
15.608930324
100
AcDbArc
 50
89.360510141
 51
89.629237289
  0
ARC
  5
137
330
1D
100
AcDbEntity
  8
1
100
AcDbCircle
 10
0.4732922497038191
 20
29.8142668135
 30
0.0
 40
45.314956041
100
AcDbArc
 50
267.998655645
 51
269.620674657
  0
LINE
  5
138
330
1D
100
AcDbEntity
  8
1
100
AcDbLine
 10
1.919820045703819
 20
-17.4553020785
 30
0.0
 11
0.7907609247038191
 21
-15.4996774085
 31
0.0
  0
ARC
  5
139
330
1D
100
AcDbEntity
  8
1
100
AcDbCircle
 10
37.22941973270382
 20
1.717018798499999
 30
0.0
 40
36.927363779
100
AcDbArc
 50
189.331833571
 51
197.022348495
  0
ARC
  5
13A
330
1D
100
AcDbEntity
  8
1
100
AcDbCircle
 10
16.01725465070382
 20
-18.7753902095
 30
0.0
 40
0.806000972
100
AcDbArc
 50
260.4820536559998
 51
357.9300374819999
  0
ARC
  5
13B
330
1D
100
AcDbEntity
  8
1
100
AcDbCircle
 10
0.4939407017038191
 20
-7.1885700625
 30
0.0
 40
1.704273151
100
AcDbArc
 50
182.052155976
 51
199.83347458
  0
LINE
  5
13C
330
1D
100
AcDbEntity
  8
1
100
AcDbLine
 10
-1.209239403296181
 20
15.3615964655
 30
0.0
 11
-1.209239403296181
 21
-7.249598756499999
 31
0.0
  0
LINE
  5
13D
330
1D
100
AcDbEntity
  8
1
100
AcDbLine
 10
-1.109239573296181
 20
-6.467259854500001
 30
0.0
 11
-1.131388286296181
 21
-6.4464848415
 31
0.0
  0
LINE
  5
13E
330
1D
100
AcDbEntity
  8
1
100
AcDbLine
 10
-1.131388286296181
 20
-6.4464848415
 30
0.0
 11
-1.147004703296181
 21
-6.438197001500001
 31
0.0
  0
LINE
  5
13F
330
1D
100
AcDbEntity
  8
1
100
AcDbLine
 10
-1.147004703296181
 20
-6.438197001500001
 30
0.0
 11
-1.162287707296181
 21
-6.4369434415
 31
0.0
  0
LINE
  5
140
330
1D
100
AcDbEntity
  8
1
100
AcDbLine
 10
-1.162287707296181
 20
-6.4369434415
 30
0.0
 11
-1.174052174296181
 21
-6.442403785500001
 31
0.0
  0
LINE
  5
141
330
1D
100
AcDbEntity
  8
1
100
AcDbLine
 10
-1.174052174296181
 20
-6.442403785500001
 30
0.0
 11
-1.187485570296181
 21
-6.4593529255
 31
0.0
  0
LINE
  5
142
330
1D
100
AcDbEntity
  8
1
100
AcDbLine
 10
-1.187485570296181
 20
-6.4593529255
 30
0.0
 11
-1.201675201296181
 21
-6.503771424500001
 31
0.0
  0
LINE
  5
143
330
1D
100
AcDbEntity
  8
1
100
AcDbLine
 10
-1.201675201296181
 20
-6.503771424500001
 30
0.0
 11
-1.209239403296181
 21
-6.6019011585
 31
0.0
  0
LINE
  5
145
330
1D
100
AcDbEntity
  8
1
100
AcDbLine
 10
-1.209239403296181
 20
6.6019004285
 30
0.0
 11
-1.206378380296181
 21
6.537136256499999
 31
0.0
  0
LINE
  5
146
330
1D
100
AcDbEntity
  8
1
100
AcDbLine
 10
-1.206378380296181
 20
6.537136256499999
 30
0.0
 11
-1.195396224296181
 21
6.478569105499999
 31
0.0
  0
LINE
  5
147
330
1D
100
AcDbEntity
  8
1
100
AcDbLine
 10
-1.195396224296181
 20
6.478569105499999
 30
0.0
 11
-1.184374953296181
 21
6.454049244499999
 31
0.0
  0
LINE
  5
148
330
1D
100
AcDbEntity
  8
1
100
AcDbLine
 10
-1.184374953296181
 20
6.454049244499999
 30
0.0
 11
-1.171327124296181
 21
6.4405171275
 31
0.0
  0
LINE
  5
149
330
1D
100
AcDbEntity
  8
1
100
AcDbLine
 10
-1.171327124296181
 20
6.4405171275
 30
0.0
 11
-1.158506537296181
 21
6.436493814499999
 31
0.0
  0
LINE
  5
14A
330
1D
100
AcDbEntity
  8
1
100
AcDbLine
 10
-1.158506537296181
 20
6.436493814499999
 30
0.0
 11
-1.143936927296181
 21
6.4393324855
 31
0.0
  0
LINE
  5
14B
330
1D
100
AcDbEntity
  8
1
100
AcDbLine
 10
-1.143936927296181
 20
6.4393324855
 30
0.0
 11
-1.125580559296181
 21
6.451013132499999
 31
0.0
  0
LINE
  5
14C
330
1D
100
AcDbEntity
  8
1
100
AcDbLine
 10
-1.125580559296181
 20
6.451013132499999
 30
0.0
 11
-1.109239573296181
 21
6.467259123499999
 31
0.0
  0
ARC
  5
14D
330
1D
100
AcDbEntity
  8
1
100
AcDbCircle
 10
0.5978087227038191
 20
7.168486704499999
 30
0.0
 40
1.808867679
100
AcDbArc
 50
160.684409787
 51
177.429882742
  0
LINE
  5
14F
330
1D
100
AcDbEntity
  8
1
100
AcDbLine
 10
17.19076048070382
 20
-10.1636027845
 30
0.0
 11
17.19076048070382
 21
-10.9095185925
 31
0.0
  0
LINE
  5
150
330
1D
100
AcDbEntity
  8
1
100
AcDbLine
 10
17.19076048070382
 20
-10.9095185925
 30
0.0
 11
17.05412498170382
 21
-11.0357277025
 31
0.0
  0
LINE
  5
151
330
1D
100
AcDbEntity
  8
1
100
AcDbLine
 10
16.84391651270382
 20
-10.9984729365
 30
0.0
 11
17.05412498170382
 21
-11.0357277025
 31
0.0
  0
ARC
  5
152
330
1D
100
AcDbEntity
  8
1
100
AcDbCircle
 10
16.90749377970382
 20
-11.0335564115
 30
0.0
 40
0.07456417
100
AcDbArc
 50
153.3268850579989
 51
167.6391761929994
  0
ARC
  5
153
330
1D
100
AcDbEntity
  8
1
100
AcDbCircle
 10
17.09486000870382
 20
-11.0746172635
 30
0.0
 40
0.266376833
100
AcDbArc
 50
167.639176193
 51
174.8347127829999
  0
ARC
  5
154
330
1D
100
AcDbEntity
  8
1
100
AcDbCircle
 10
18.46510309670382
 20
-11.1984803825
 30
0.0
 40
1.642206834
100
AcDbArc
 50
174.834774516
 51
179.978511677
  0
LINE
  5
155
330
1D
100
AcDbEntity
  8
1
100
AcDbLine
 10
16.82289568970382
 20
-18.7882117615
 30
0.0
 11
16.82289568970382
 21
-11.1978644435
 31
0.0
  0
LINE
  5
156
330
1D
100
AcDbEntity
  8
1
100
AcDbLine
 10
16.82289568970382
 20
-18.7882117615
 30
0.0
 11
16.82272968070382
 21
-18.8045028055
 31
0.0
  0
ARC
  5
158
330
1D
100
AcDbEntity
  8
1
100
AcDbCircle
 10
-0.4049020782961809
 20
-10.6102447115
 30
0.0
 40
0.808121807
100
AcDbArc
 50
185.547177688
 51
209.357999861
  0
LINE
  5
15A
330
1D
100
AcDbEntity
  8
1
100
AcDbLine
 10
-1.109239573296181
 20
-10.2959735245
 30
0.0
 11
-1.128495598296181
 21
-10.2812195125
 31
0.0
  0
LINE
  5
15B
330
1D
100
AcDbEntity
  8
1
100
AcDbLine
 10
-1.128495598296181
 20
-10.2812195125
 30
0.0
 11
-1.158063228296181
 21
-10.2670289505
 31
0.0
  0
LINE
  5
15C
330
1D
100
AcDbEntity
  8
1
100
AcDbLine
 10
-1.158063228296181
 20
-10.2670289505
 30
0.0
 11
-1.177552084296181
 21
-10.2664524615
 31
0.0
  0
LINE
  5
15D
330
1D
100
AcDbEntity
  8
1
100
AcDbLine
 10
-1.177552084296181
 20
-10.2664524615
 30
0.0
 11
-1.192201788296181
 21
-10.2749898955
 31
0.0
  0
LINE
  5
15E
330
1D
100
AcDbEntity
  8
1
100
AcDbLine
 10
-1.192201788296181
 20
-10.2749898955
 30
0.0
 11
-1.204843560296181
 21
-10.2996373475
 31
0.0
  0
LINE
  5
15F
330
1D
100
AcDbEntity
  8
1
100
AcDbLine
 10
-1.204843560296181
 20
-10.2996373475
 30
0.0
 11
-1.209239403296181
 21
-10.3392790925
 31
0.0
  0
LINE
  5
162
330
1D
100
AcDbEntity
  8
1
100
AcDbLine
 10
-1.209239403296181
 20
10.3392792945
 30
0.0
 11
-1.204880813296181
 21
10.2997725905
 31
0.0
  0
LINE
  5
163
330
1D
100
AcDbEntity
  8
1
100
AcDbLine
 10
-1.204880813296181
 20
10.2997725905
 30
0.0
 11
-1.194295401296181
 21
10.2773500685
 31
0.0
  0
LINE
  5
164
330
1D
100
AcDbEntity
  8
1
100
AcDbLine
 10
-1.194295401296181
 20
10.2773500685
 30
0.0
 11
-1.178574676296181
 21
10.2667218145
 31
0.0
  0
LINE
  5
165
330
1D
100
AcDbEntity
  8
1
100
AcDbLine
 10
-1.178574676296181
 20
10.2667218145
 30
0.0
 11
-1.156632716296181
 21
10.2674091305
 31
0.0
  0
LINE
  5
166
330
1D
100
AcDbEntity
  8
1
100
AcDbLine
 10
-1.156632716296181
 20
10.2674091305
 30
0.0
 11
-1.134437436296181
 21
10.2774394755
 31
0.0
  0
LINE
  5
167
330
1D
100
AcDbEntity
  8
1
100
AcDbLine
 10
-1.134437436296181
 20
10.2774394755
 30
0.0
 11
-1.109239573296181
 21
10.2959746565
 31
0.0
  0
ARC
  5
168
330
1D
100
AcDbEntity
  8
1
100
AcDbCircle
 10
-0.4545310282961809
 20
10.6258467915
 30
0.0
 40
0.757293075
100
AcDbArc
 50
149.829978343
 51
175.264844108
  0
ARC
  5
16A
330
1D
100
AcDbEntity
  8
1
100
AcDbCircle
 10
0.1295012467038191
 20
11.8294442795
 30
0.0
 40
0.143794294
100
AcDbArc
 50
342.6290923910001
 51
21.98921077200024
  0
ARC
  5
16B
330
1D
100
AcDbEntity
  8
1
100
AcDbCircle
 10
-1.826762233296181
 20
12.9129403035
 30
0.0
 40
1.886702911
100
AcDbArc
 50
356.231340653
 51
359.538404735
  0
LINE
  5
16C
330
1D
100
AcDbEntity
  8
1
100
AcDbLine
 10
-1.109239573296181
 20
-12.5574165885
 30
0.0
 11
-1.136648396296181
 21
-12.5373605565
 31
0.0
  0
LINE
  5
16D
330
1D
100
AcDbEntity
  8
1
100
AcDbLine
 10
-1.136648396296181
 20
-12.5373605565
 30
0.0
 11
-1.166275630296181
 21
-12.5227089895
 31
0.0
  0
LINE
  5
16E
330
1D
100
AcDbEntity
  8
1
100
AcDbLine
 10
-1.166275630296181
 20
-12.5227089895
 30
0.0
 11
-1.190033669296181
 21
-12.5210391285
 31
0.0
  0
LINE
  5
16F
330
1D
100
AcDbEntity
  8
1
100
AcDbLine
 10
-1.190033669296181
 20
-12.5210391285
 30
0.0
 11
-1.202932487296181
 21
-12.5307565485
 31
0.0
  0
LINE
  5
170
330
1D
100
AcDbEntity
  8
1
100
AcDbLine
 10
-1.202932487296181
 20
-12.5307565485
 30
0.0
 11
-1.209231952296181
 21
-12.5573607085
 31
0.0
  0
LINE
  5
171
330
1D
100
AcDbEntity
  8
1
100
AcDbLine
 10
-1.209231952296181
 20
-12.5573607085
 30
0.0
 11
-1.209239403296181
 21
-12.5585146175
 31
0.0
  0
ARC
  5
173
330
1D
100
AcDbEntity
  8
1
100
AcDbCircle
 10
-0.6944906152961808
 20
-12.7020328695
 30
0.0
 40
0.521202286
100
AcDbArc
 50
189.025706003
 51
217.2734409970001
  0
LINE
  5
175
330
1D
100
AcDbEntity
  8
1
100
AcDbLine
 10
-1.209239403296181
 20
12.5585166815
 30
0.0
 11
-1.206985602296181
 21
12.5399796365
 31
0.0
  0
LINE
  5
176
330
1D
100
AcDbEntity
  8
1
100
AcDbLine
 10
-1.206985602296181
 20
12.5399796365
 30
0.0
 11
-1.195943842296181
 21
12.5236814915
 31
0.0
  0
LINE
  5
177
330
1D
100
AcDbEntity
  8
1
100
AcDbLine
 10
-1.195943842296181
 20
12.5236814915
 30
0.0
 11
-1.174387450296181
 21
12.5206714575
 31
0.0
  0
LINE
  5
178
330
1D
100
AcDbEntity
  8
1
100
AcDbLine
 10
-1.174387450296181
 20
12.5206714575
 30
0.0
 11
-1.149787495296181
 21
12.5297350885
 31
0.0
  0
LINE
  5
179
330
1D
100
AcDbEntity
  8
1
100
AcDbLine
 10
-1.149787495296181
 20
12.5297350885
 30
0.0
 11
-1.112311075296181
 21
12.5549366775
 31
0.0
  0
LINE
  5
17A
330
1D
100
AcDbEntity
  8
1
100
AcDbLine
 10
-1.112311075296181
 20
12.5549366775
 30
0.0
 11
-1.109239573296181
 21
12.5574177205
 31
0.0
  0
LINE
  5
17C
330
1D
100
AcDbEntity
  8
1
100
AcDbLine
 10
-1.208458955296181
 20
12.7965776325
 30
0.0
 11
-1.209239403296181
 21
12.7837961615
 31
0.0
  0
LINE
  5
17D
330
1D
100
AcDbEntity
  8
1
100
AcDbLine
 10
-1.109239573296181
 20
12.9041938185
 30
0.0
 11
-1.208458955296181
 21
12.7965776325
 31
0.0
  0
LINE
  5
17F
330
1D
100
AcDbEntity
  8
1
100
AcDbLine
 10
-1.109239573296181
 20
-14.0310487635
 30
0.0
 11
-1.143553222296181
 21
-14.0048813935
 31
0.0
  0
LINE
  5
180
330
1D
100
AcDbEntity
  8
1
100
AcDbLine
 10
-1.143553222296181
 20
-14.0048813935
 30
0.0
 11
-1.174799094296181
 21
-13.9872109445
 31
0.0
  0
LINE
  5
181
330
1D
100
AcDbEntity
  8
1
100
AcDbLine
 10
-1.174799094296181
 20
-13.9872109445
 30
0.0
 11
-1.197793449296181
 21
-13.9830162675
 31
0.0
  0
LINE
  5
182
330
1D
100
AcDbEntity
  8
1
100
AcDbLine
 10
-1.197793449296181
 20
-13.9830162675
 30
0.0
 11
-1.207730660296181
 21
-13.9915411285
 31
0.0
  0
LINE
  5
183
330
1D
100
AcDbEntity
  8
1
100
AcDbLine
 10
-1.207730660296181
 20
-13.9915411285
 30
0.0
 11
-1.209239403296181
 21
-14.0011388735
 31
0.0
  0
ARC
  5
185
330
1D
100
AcDbEntity
  8
1
100
AcDbCircle
 10
-0.7393008532961809
 20
-14.0054370935
 30
0.0
 40
0.490515865
100
AcDbArc
 50
196.6546496620001
 51
221.0459679660001
  0
LINE
  5
187
330
1D
100
AcDbEntity
  8
1
100
AcDbLine
 10
0.0596261377038191
 20
12.8977416155
 30
0.0
 11
0.0596261377038191
 21
14.5878238675
 31
0.0
  0
LINE
  5
188
330
1D
100
AcDbEntity
  8
1
100
AcDbLine
 10
-1.109239573296181
 20
-14.9516536775
 30
0.0
 11
-1.149783770296181
 21
-14.9180566815
 31
0.0
  0
LINE
  5
189
330
1D
100
AcDbEntity
  8
1
100
AcDbLine
 10
-1.149783770296181
 20
-14.9180566815
 30
0.0
 11
-1.181662942296181
 21
-14.8961147215
 31
0.0
  0
LINE
  5
18A
330
1D
100
AcDbEntity
  8
1
100
AcDbLine
 10
-1.181662942296181
 20
-14.8961147215
 30
0.0
 11
-1.203040520296181
 21
-14.8878925405
 31
0.0
  0
LINE
  5
18B
330
1D
100
AcDbEntity
  8
1
100
AcDbLine
 10
-1.203040520296181
 20
-14.8878925405
 30
0.0
 11
-1.209228227296181
 21
-14.8940090015
 31
0.0
  0
LINE
  5
18C
330
1D
100
AcDbEntity
  8
1
100
AcDbLine
 10
-1.209228227296181
 20
-14.8940090015
 30
0.0
 11
-1.209239403296181
 21
-14.8945459085
 31
0.0
  0
LINE
  5
18F
330
1D
100
AcDbEntity
  8
1
100
AcDbLine
 10
-1.209239403296181
 20
14.8945456445
 30
0.0
 11
-1.207039619296181
 21
14.8890173135
 31
0.0
  0
LINE
  5
190
330
1D
100
AcDbEntity
  8
1
100
AcDbLine
 10
-1.207039619296181
 20
14.8890173135
 30
0.0
 11
-1.194099823296181
 21
14.8899560865
 31
0.0
  0
LINE
  5
191
330
1D
100
AcDbEntity
  8
1
100
AcDbLine
 10
-1.194099823296181
 20
14.8899560865
 30
0.0
 11
-1.172403733296181
 21
14.9018397625
 31
0.0
  0
LINE
  5
192
330
1D
100
AcDbEntity
  8
1
100
AcDbLine
 10
-1.172403733296181
 20
14.9018397625
 30
0.0
 11
-1.133621598296181
 21
14.9309082035
 31
0.0
  0
LINE
  5
193
330
1D
100
AcDbEntity
  8
1
100
AcDbLine
 10
-1.133621598296181
 20
14.9309082035
 30
0.0
 11
-1.109239573296181
 21
14.9516543445
 31
0.0
  0
ARC
  5
194
330
1D
100
AcDbEntity
  8
1
100
AcDbCircle
 10
-0.8363440012961808
 20
14.8220771125
 30
0.0
 40
0.403589187
100
AcDbArc
 50
132.5452028580001
 51
157.5102458790001
  0
ARC
  5
196
330
1D
100
AcDbEntity
  8
1
100
AcDbCircle
 10
-0.8042502942961809
 20
-14.7996266395
 30
0.0
 40
0.441911223
100
AcDbArc
 50
203.587646914
 51
226.357254969
  0
ARC
  5
198
330
1D
100
AcDbEntity
  8
1
100
AcDbCircle
 10
16.02309083370382
 20
-18.8101731675
 30
0.0
 40
0.791949408
100
AcDbArc
 50
259.882941282
 51
343.7029285150002
  0
LINE
  5
199
330
1D
100
AcDbEntity
  8
1
100
AcDbLine
 10
16.82256437170382
 20
-18.8054678885
 30
0.0
 11
16.82289568970382
 21
-18.7882117615
 31
0.0
  0
ARC
  5
19A
330
1D
100
AcDbEntity
  8
1
100
AcDbCircle
 10
9.29091732170382
 20
9.8284641865
 30
0.0
 40
2.000157195
100
AcDbArc
 50
180.001079256
 51
205.840938597
  0
LINE
  5
19B
330
1D
100
AcDbEntity
  8
1
100
AcDbLine
 10
7.876547125703819
 20
8.414213180499999
 30
0.0
 11
14.29076057570382
 21
2.000000894499999
 31
0.0
  0
ARC
  5
19C
330
1D
100
AcDbEntity
  8
1
100
AcDbCircle
 10
9.29076049570382
 20
9.8284271245
 30
0.0
 40
2.0
100
AcDbArc
 50
205.841932763
 51
225.0
  0
ARC
  5
19E
330
1D
100
AcDbEntity
  8
1
100
AcDbCircle
 10
-1.357943467296181
 20
-15.6145521865
 30
0.0
 40
0.31661717
100
AcDbArc
 50
38.23273033700011
 51
61.98743429499995
  0
ARC
  5
1A0
330
1D
100
AcDbEntity
  8
1
100
AcDbCircle
 10
-0.5623490512961808
 20
-14.8817535245
 30
0.0
 40
0.805430301
100
AcDbArc
 50
216.566957817
 51
227.2341267579999
  0
LINE
  5
1A1
330
1D
100
AcDbEntity
  8
1
100
AcDbLine
 10
-1.209239403296181
 20
-7.2495987565
 30
0.0
 11
-1.209239403296181
 21
-15.3615981265
 31
0.0
  0
ARC
  5
1A3
330
1D
100
AcDbEntity
  8
1
100
AcDbCircle
 10
-1.488512407296181
 20
15.7707601235
 30
0.0
 40
0.51754822
100
AcDbArc
 50
302.656937184
 51
317.1238406099999
  0
ARC
  5
1A5
330
1D
100
AcDbEntity
  8
1
100
AcDbCircle
 10
-0.5866096072961808
 20
14.9035200295
 30
0.0
 40
0.77298246
100
AcDbArc
 50
132.5412922869999
 51
143.6576231379999
  0
LINE
  5
1A6
330
1D
100
AcDbEntity
  8
CUT
100
AcDbLine
 10
8.45321554470382
 20
-18.4881639595
 30
0.0
 11
8.36576062970382
 21
-18.5615470555
 31
0.0
  0
LINE
  5
1A7
330
1D
100
AcDbEntity
  8
CUT
100
AcDbLine
 10
8.36576062970382
 20
-18.5615470555
 30
0.0
 11
7.965760377703819
 21
-18.5615470555
 31
0.0
  0
LINE
  5
1A8
330
1D
100
AcDbEntity
  8
CUT
100
AcDbLine
 10
7.965760377703819
 20
-18.5615470555
 30
0.0
 11
7.965760377703819
 21
-18.5213809755
 31
0.0
  0
LINE
  5
1A9
330
1D
100
AcDbEntity
  8
CUT
100
AcDbLine
 10
8.45321554470382
 20
-18.2560166735
 30
0.0
 11
8.45321554470382
 21
-18.4881639595
 31
0.0
  0
LINE
  5
1AA
330
1D
100
AcDbEntity
  8
CUT
100
AcDbLine
 10
17.00330579370382
 20
-11.3137861635
 30
0.0
 11
16.82289568970382
 21
-11.2819749785
 31
0.0
  0
LINE
  5
1AB
330
1D
100
AcDbEntity
  8
CUT
100
AcDbLine
 10
17.00330579370382
 20
-19.9957755555
 30
0.0
 11
17.00330579370382
 21
-11.3137861635
 31
0.0
  0
LINE
  5
1AC
330
1D
100
AcDbEntity
  8
CUT
100
AcDbLine
 10
8.45321554470382
 20
-18.4881639595
 30
0.0
 11
17.00330579370382
 21
-19.9957755555
 31
0.0
  0
LINE
  5
1AD
330
1D
100
AcDbEntity
  8
CUT
100
AcDbLine
 10
17.00330579370382
 20
-19.9957755555
 30
0.0
 11
17.09076050570382
 21
-20.1000000105
 31
0.0
  0
LINE
  5
1AE
330
1D
100
AcDbEntity
  8
CUT
100
AcDbLine
 10
17.09076050570382
 20
-20.1000000105
 30
0.0
 11
17.02130121670382
 21
-20.4939230985
 31
0.0
  0
LINE
  5
1AF
330
1D
100
AcDbEntity
  8
CUT
100
AcDbLine
 10
17.02130121670382
 20
-20.4939230985
 30
0.0
 11
8.296301660703818
 21
-18.9554701955
 31
0.0
  0
LINE
  5
1B0
330
1D
100
AcDbEntity
  8
CUT
100
AcDbLine
 10
8.36576062970382
 20
-18.5615470555
 30
0.0
 11
8.296301660703818
 21
-18.9554701955
 31
0.0
  0
LINE
  5
1B1
330
1D
100
AcDbEntity
  8
CUT
100
AcDbLine
 10
17.09076050570382
 20
-11.2404026015
 30
0.0
 11
17.14099962470382
 21
-10.9554821555
 31
0.0
  0
LINE
  5
1B2
330
1D
100
AcDbEntity
  8
CUT
100
AcDbLine
 10
17.00330579370382
 20
-11.3137861635
 30
0.0
 11
17.09076050570382
 21
-11.2404026015
 31
0.0
  0
LINE
  5
1B3
330
1D
100
AcDbEntity
  8
CUT
100
AcDbLine
 10
17.09076050570382
 20
-11.2404026015
 30
0.0
 11
17.49076049570382
 21
-11.2404026015
 31
0.0
  0
LINE
  5
1B4
330
1D
100
AcDbEntity
  8
CUT
100
AcDbLine
 10
17.49076049570382
 20
-11.2404026015
 30
0.0
 11
17.49076049570382
 21
-20.1000000105
 31
0.0
  0
LINE
  5
1B5
330
1D
100
AcDbEntity
  8
CUT
100
AcDbLine
 10
17.09076050570382
 20
-20.1000000105
 30
0.0
 11
17.49076049570382
 21
-20.1000000105
 31
0.0
  0
ARC
  5
1B6
330
1D
100
AcDbEntity
  8
CUT
100
AcDbCircle
 10
8.36576049570382
 20
-18.5615470905
 30
0.0
 40
0.4
100
AcDbArc
 50
180.0
 51
259.9999999999999
  0
ARC
  5
1B7
330
1D
100
AcDbEntity
  8
CUT
100
AcDbCircle
 10
17.09076049570382
 20
-20.0999999975
 30
0.0
 40
0.4
100
AcDbArc
 50
259.9999999999999
 51
0.0
  0
ARC
  5
1B8
330
1D
100
AcDbEntity
  8
CUT
100
AcDbCircle
 10
17.09076049570382
 20
-11.2404028085
 30
0.0
 40
0.4
100
AcDbArc
 50
0.0
 51
75.52248781399994
  0
ARC
  5
1B9
330
1D
100
AcDbEntity
  8
1
100
AcDbCircle
 10
36.92848624370382
 20
-12.7038761565
 30
0.0
 40
22.136374602
100
AcDbArc
 50
182.0639807669999
 51
198.070510877
  0
LINE
  5
1BA
330
1D
100
AcDbEntity
  8
1
100
AcDbLine
 10
15.88397713170382
 20
-19.5702956565
 30
0.0
 11
15.88397713170382
 21
-19.5898084945
 31
0.0
  0
ARC
  5
1BB
330
1D
100
AcDbEntity
  8
1
100
AcDbCircle
 10
168.0967420687038
 20
0.0000000004999994
 30
0.0
 40
152.899318452
100
AcDbArc
 50
185.059287035
 51
185.345567256
  0
ARC
  5
1BC
330
1D
100
AcDbEntity
  8
1
100
AcDbCircle
 10
40.80692582470382
 20
-11.9102365155
 30
0.0
 40
25.039314468
100
AcDbArc
 50
185.346011244
 51
192.608482125
  0
ARC
  5
1BD
330
1D
100
AcDbEntity
  8
1
100
AcDbCircle
 10
23.26091392070382
 20
-15.8349622485
 30
0.0
 40
7.059714755
100
AcDbArc
 50
192.608482125
 51
204.760986013
  0
LINE
  5
25A
330
1D
100
AcDbEntity
  8
1
100
AcDbLine
 10
7.965760377703819
 20
12.4922687115
 30
0.0
 11
7.965760377703819
 21
18.5213809755
 31
0.0
  0
LINE
  5
25B
330
1D
100
AcDbEntity
  8
3
100
AcDbLine
 10
7.965760377703819
 20
18.5213809755
 30
0.0
 11
16.77765377776507
 21
20.10379224534125
 31
0.0
  0
LINE
  5
25C
330
1D
100
AcDbEntity
  8
3
100
AcDbLine
 10
16.77765377776507
 20
20.10379224534125
 30
0.0
 11
17.13343708669626
 21
19.85342621313042
 31
0.0
  0
LINE
  5
25D
330
1D
100
AcDbEntity
  8
3
100
AcDbLine
 10
17.13343708669626
 20
19.85342621313042
 30
0.0
 11
17.16205821293161
 21
10.84680830303667
 31
0.0
  0
LINE
  5
25E
330
1D
100
AcDbEntity
  8
1
100
AcDbLine
 10
17.16205821293161
 20
10.84680830303667
 30
0.0
 11
17.1620582129316
 21
10.8250988726544
 31
0.0
  0
LINE
  5
25F
330
1D
100
AcDbEntity
  8
1
100
AcDbLine
 10
17.1620582129316
 20
10.8250988726544
 30
0.0
 11
17.19076048070382
 21
10.8250988726544
 31
0.0
  0
LINE
  5
260
330
1D
100
AcDbEntity
  8
1
100
AcDbLine
 10
11.18314692470382
 20
9.7925601455
 30
0.0
 11
17.1620582129316
 21
10.84680830303668
 31
0.0
  0
LINE
  5
262
330
1D
100
AcDbEntity
  8
1
100
AcDbLine
 10
17.16021976677059
 20
10.84647970829512
 30
0.0
 11
8.435219766770592
 21
9.308026801295116
 31
0.0
  0
LINE
  5
263
330
1D
100
AcDbEntity
  8
1
100
AcDbLine
 10
7.965760495703819
 20
9.7019499025
 30
0.0
 11
7.965760495703819
 21
18.5615470915
 31
0.0
  0
LINE
  5
266
330
1D
100
AcDbEntity
  8
NOCUT
100
AcDbLine
 10
14.29076049570382
 20
4.0000000005
 30
0.0
 11
14.29076057570382
 21
0.0
 31
0.0
  0
LINE
  5
268
330
1D
100
AcDbEntity
  8
NOCUT
100
AcDbLine
 10
0.0
 20
0.0
 30
0.0
 11
-0.0000000000010955
 21
15.49755441476801
 31
0.0
  0
LINE
  5
269
330
1D
100
AcDbEntity
  8
NOCUT
100
AcDbLine
 10
-0.0000000000010955
 20
15.49755441476801
 30
0.0
 11
0.1732921947038192
 21
15.4990336005
 31
0.0
  0
LINE
  5
26A
330
1D
100
AcDbEntity
  8
NOCUT
100
AcDbLine
 10
0.7907613097891799
 20
15.4996780755
 30
0.0
 11
1.919820045703819
 21
17.4553020785
 31
0.0
  0
LINE
  5
26B
330
1D
100
AcDbEntity
  8
NOCUT
100
AcDbLine
 10
1.919820045703819
 20
17.4553020785
 30
0.0
 11
7.965760377703819
 21
18.5213809755
 31
0.0
  0
ARC
  5
274
330
1D
100
AcDbEntity
  8
NOCUT
100
AcDbCircle
 10
22.29076049570381
 20
4.000000000500001
 30
0.0
 40
7.999999999999996
100
AcDbArc
 50
129.605652394
 51
180.0
  0
LINE
  5
275
330
1D
100
AcDbEntity
  8
NOCUT
100
AcDbLine
 10
17.19076049568961
 20
10.16360284298224
 30
0.0
 11
17.19076048070382
 21
10.8531046585
 31
0.0
  0
LWPOLYLINE
  5
279
330
1D
100
AcDbEntity
  8
INFTOTAL
100
AcDbPolyline
 90
        4
 70
     1
 43
0.0
 10
-28.06464422374559
 20
57.1042565071466
 10
-28.06464422374559
 20
-61.61775960550733
 10
65.56470602282694
 20
-61.61775960550733
 10
65.56470602282694
 20
57.1042565071466
  0
LINE
  5
27C
330
1D
100
AcDbEntity
  8
NOCUT
100
AcDbLine
 10
0.2464978747038191
 20
15.4996780755
 30
0.0
 11
0.7907613097891799
 21
15.4996780755
 31
0.0
  0
LINE
  5
27D
330
1D
100
AcDbEntity
  8
NOCUT
100
AcDbLine
 10
0.2464978747038191
 20
15.4996780755
 30
0.0
 11
0.2249880487038191
 21
15.4994508325
 31
0.0
  0
LINE
  5
27E
330
1D
100
AcDbEntity
  8
NOCUT
100
AcDbLine
 10
0.1732921947038192
 20
15.4990336005
 30
0.0
 11
0.2249880487038191
 21
15.4994508325
 31
0.0
  0
LINE
  5
29E
330
1D
100
AcDbEntity
  8
SK4
100
AcDbLine
 10
16.94159291905152
 20
0.0
 30
0.0
 11
-2.983754421284206
 21
0.0
 31
0.0
  0
LINE
  5
2A2
330
1D
100
AcDbEntity
  8
NOCUT
100
AcDbLine
 10
0.0
 20
0.0
 30
0.0
 11
14.29076057570382
 21
0.0
 31
0.0
  0
LINE
  5
2A4
330
1D
100
AcDbEntity
  8
4
100
AcDbLine
 10
16.94159291905152
 20
0.0
 30
0.0
 11
0.0
 21
0.0
 31
0.0
  0
MTEXT
  5
2DE
330
1D
100
AcDbEntity
  8
SK6
100
AcDbMText
 10
31.3912342012383
 20
-50.89642059977828
 30
0.0
 40
3.5
 41
50.48325458782692
 46
3.6015
 71
     1
 72
     5
  1
{639.437}
  7
BMG_Text
 73
     1
 44
1.0
1001
ACAD
1000
ACAD_MTEXT_DEFINED_HEIGHT_BEGIN
1070
    46
1040
3.6015
1000
ACAD_MTEXT_DEFINED_HEIGHT_END
  0
ARC
  5
317
330
1D
100
AcDbEntity
  8
CUT
100
AcDbCircle
 10
8.365760495703825
 20
18.5615470915
 30
0.0
 40
0.4
100
AcDbArc
 50
99.99999999999858
 51
180.0
  0
LINE
  5
318
330
1D
100
AcDbEntity
  8
CUT
100
AcDbLine
 10
17.02130121670385
 20
20.4939230985
 30
0.0
 11
8.296301660703847
 21
18.95547019550001
 31
0.0
  0
ARC
  5
319
330
1D
100
AcDbEntity
  8
CUT
100
AcDbCircle
 10
8.365760495703825
 20
9.701949902500004
 30
0.0
 40
0.4
100
AcDbArc
 50
180.0
 51
280.0000000000026
  0
ARC
  5
31A
330
1D
100
AcDbEntity
  8
CUT
100
AcDbCircle
 10
17.09076049570385
 20
11.2404028095
 30
0.0
 40
0.4
100
AcDbArc
 50
279.9999999999985
 51
0.0
  0
LINE
  5
31B
330
1D
100
AcDbEntity
  8
CUT
100
AcDbLine
 10
17.49076049570382
 20
11.2404026015
 30
0.0
 11
17.49076049570382
 21
20.1000000105
 31
0.0
  0
ARC
  5
31C
330
1D
100
AcDbEntity
  8
CUT
100
AcDbCircle
 10
17.09076049570385
 20
20.0999999975
 30
0.0
 40
0.4
100
AcDbArc
 50
0.0
 51
100.0000000000027
  0
LINE
  5
31D
330
1D
100
AcDbEntity
  8
CUT
100
AcDbLine
 10
17.16021976677061
 20
10.84647970829512
 30
0.0
 11
8.435219766770615
 21
9.30802680129512
 31
0.0
  0
LINE
  5
31E
330
1D
100
AcDbEntity
  8
CUT
100
AcDbLine
 10
7.965760495703847
 20
9.701949902500004
 30
0.0
 11
7.965760495703847
 21
18.5615470915
 31
0.0
  0
ARC
  5
366
330
1D
100
AcDbEntity
  8
NOCUT
100
AcDbCircle
 10
17.09076049570382
 20
11.2404028095
 30
0.0
 40
0.4000000000000032
100
AcDbArc
 50
280.2675115159616
 51
284.4775166810005
  0
LINE
  5
367
330
1D
100
AcDbEntity
  8
NOCUT
100
AcDbLine
 10
7.965760377703819
 20
18.5213809755
 30
0.0
 11
16.77765377776507
 21
20.10379224534125
 31
0.0
  0
LINE
  5
368
330
1D
100
AcDbEntity
  8
NOCUT
100
AcDbLine
 10
16.77765377776507
 20
20.10379224534125
 30
0.0
 11
17.13343708669626
 21
19.85342621313042
 31
0.0
  0
LINE
  5
369
330
1D
100
AcDbEntity
  8
NOCUT
100
AcDbLine
 10
17.13343708669626
 20
19.85342621313042
 30
0.0
 11
17.16205821293161
 21
10.84680830303667
 31
0.0
  0
ENDSEC
  0
SECTION
  2
OBJECTS
  0
DICTIONARY
  5
C
330
0
100
AcDbDictionary
281
     1
  3
ACAD_COLOR
350
2D2
  3
ACAD_DETAILVIEWSTYLE
350
26F
  3
ACAD_GROUP
350
D
  3
ACAD_LAYOUT
350
1A
  3
ACAD_MATERIAL
350
1FB
  3
ACAD_MLEADERSTYLE
350
208
  3
ACAD_MLINESTYLE
350
17
  3
ACAD_PLOTSETTINGS
350
19
  3
ACAD_PLOTSTYLENAME
350
E
  3
ACAD_SCALELIST
350
1C4
  3
ACAD_SECTIONVIEWSTYLE
350
270
  3
ACAD_TABLESTYLE
350
251
  3
ACAD_VISUALSTYLE
350
1EA
  3
ACDB_RECOMPOSE_DATA
350
36F
  3
AcDbVariableDictionary
350
206
  3
APPDATA
350
254
  3
FX_DICT_DIMENSION_PALETTE
350
296
  3
FX_DICT_DIMENSION_PALETTE_RECENTLIST
350
298
  0
SUN
  5
27A
330
1BE
100
AcDbSun
 90
        1
290
     0
 63
     7
421
 16777215
 40
1.0
291
     1
 91
  2455826
 92
 54000000
292
     0
 70
     2
 71
   256
280
     1
  0
DICTIONARY
  5
255
330
2
100
AcDbDictionary
280
     1
281
     1
  3
ACAD_LAYERSTATES
360
256
  0
DICTIONARY
  5
33C
330
1D
100
AcDbDictionary
280
     1
281
     1
  3
ACAD_SORTENTS
360
33D
  0
DICTIONARY
  5
2D2
102
{ACAD_REACTORS
330
C
102
}
330
C
100
AcDbDictionary
281
     1
  0
DICTIONARY
  5
26F
102
{ACAD_REACTORS
330
C
102
}
330
C
100
AcDbDictionary
281
     1
  0
DICTIONARY
  5
D
102
{ACAD_REACTORS
330
C
102
}
330
C
100
AcDbDictionary
281
     1
  0
DICTIONARY
  5
1A
102
{ACAD_REACTORS
330
C
102
}
330
C
100
AcDbDictionary
281
     1
  3
Layout1
350
1C
  3
Model
350
1E
  0
DICTIONARY
  5
1FB
102
{ACAD_REACTORS
330
C
102
}
330
C
100
AcDbDictionary
281
     1
  3
ByBlock
350
1FD
  3
ByLayer
350
1FC
  3
Global
350
1FE
  0
DICTIONARY
  5
208
102
{ACAD_REACTORS
330
C
102
}
330
C
100
AcDbDictionary
281
     1
  3
Standard
350
253
  0
DICTIONARY
  5
17
102
{ACAD_REACTORS
330
C
102
}
330
C
100
AcDbDictionary
281
     1
  3
Standard
350
18
  0
DICTIONARY
  5
19
102
{ACAD_REACTORS
330
C
102
}
330
C
100
AcDbDictionary
281
     1
  0
ACDBDICTIONARYWDFLT
  5
E
102
{ACAD_REACTORS
330
C
102
}
330
C
100
AcDbDictionary
281
     1
  3
Normal
350
F
100
AcDbDictionaryWithDefault
340
F
  0
DICTIONARY
  5
1C4
102
{ACAD_REACTORS
330
C
102
}
330
C
100
AcDbDictionary
281
     1
  3
A0
350
1C5
  3
A1
350
1C6
  3
A2
350
1C7
  3
A3
350
1C8
  3
A4
350
1C9
  3
A5
350
1CA
  3
A6
350
1CB
  3
A7
350
1CC
  3
A8
350
1CD
  3
A9
350
1CE
  3
B0
350
1CF
  3
B1
350
1D0
  3
B2
350
1D1
  3
B3
350
1D2
  3
B4
350
1D3
  3
B5
350
1D4
  3
B6
350
1D5
  3
B7
350
1D6
  3
B8
350
1D7
  3
B9
350
1D8
  3
C0
350
1D9
  3
C1
350
1DA
  3
C2
350
1DB
  3
C3
350
1DC
  3
C4
350
1DD
  3
C5
350
1DE
  3
C6
350
1DF
  3
C7
350
1E0
  3
C8
350
1E1
  3
C9
350
1E2
  3
D0
350
1E3
  3
D1
350
1E4
  3
D2
350
1E5
  0
DICTIONARY
  5
270
102
{ACAD_REACTORS
330
C
102
}
330
C
100
AcDbDictionary
281
     1
  0
DICTIONARY
  5
251
102
{ACAD_REACTORS
330
C
102
}
330
C
100
AcDbDictionary
281
     1
  3
Standard
350
252
  0
DICTIONARY
  5
1EA
102
{ACAD_REACTORS
330
C
102
}
330
C
100
AcDbDictionary
281
     1
  3
2dWireframe
350
1EF
  3
3D Hidden
350
1F1
  3
3dWireframe
350
1F0
  3
Basic
350
1F2
  3
Brighten
350
1F6
  3
ColorChange
350
1FA
  3
Conceptual
350
1F4
  3
Dim
350
1F5
  3
EdgeColorOff
350
24B
  3
Facepattern
350
1F9
  3
Flat
350
1EB
  3
FlatWithEdges
350
1EC
  3
Gouraud
350
1ED
  3
GouraudWithEdges
350
1EE
  3
Hidden
350
248
  3
JitterOff
350
249
  3
Linepattern
350
1F8
  3
OverhangOff
350
24A
  3
Realistic
350
1F3
  3
Shaded
350
250
  3
Shaded with edges
350
24F
  3
Shades of Gray
350
24C
  3
Sketchy
350
24D
  3
Thicken
350
1F7
  3
Wireframe
350
247
  3
X-Ray
350
24E
  0
XRECORD
  5
36F
102
{ACAD_REACTORS
330
C
102
}
330
C
100
AcDbXrecord
280
     1
 90
        1
330
252
  0
DICTIONARY
  5
206
102
{ACAD_REACTORS
330
C
102
}
330
C
100
AcDbDictionary
281
     1
  3
CANNOSCALE
350
26C
  3
CMLEADERSTYLE
350
26E
  3
CTABLESTYLE
350
26D
  3
DIMASSOC
350
20A
  3
HIDETEXT
350
20B
  3
MSLTSCALE
350
209
  0
DICTIONARY
  5
254
102
{ACAD_REACTORS
330
C
102
}
330
C
100
AcDbDictionary
281
     1
  0
DICTIONARY
  5
296
102
{ACAD_REACTORS
330
C
102
}
330
C
100
AcDbDictionary
281
     1
1001
FX_DIMP_FAV_VERSION
1071
        1
  0
DICTIONARY
  5
298
102
{ACAD_REACTORS
330
C
102
}
330
C
100
AcDbDictionary
281
     1
  3
0
350
29A
1001
FX_DIMP_RECENT_VERSION
1071
        1
  0
DICTIONARY
  5
256
102
{ACAD_REACTORS
330
255
102
}
330
255
100
AcDbDictionary
281
     1
  0
SORTENTSTABLE
  5
33D
102
{ACAD_REACTORS
330
33C
102
}
330
33C
100
AcDbSortentsTable
330
1D
331
4F
  5
50
331
50
  5
52
331
52
  5
53
331
53
  5
54
331
54
  5
55
331
55
  5
58
331
56
  5
59
331
57
  5
5A
331
0
  5
5B
331
0
  5
5C
331
5A
  5
5D
331
5B
  5
5E
331
5C
  5
5F
331
5D
  5
60
331
0
  5
61
331
0
  5
62
331
60
  5
63
331
61
  5
64
331
62
  5
65
331
63
  5
66
331
0
  5
67
331
65
  5
68
331
0
  5
69
331
67
  5
6A
331
68
  5
6B
331
69
  5
6C
331
6A
  5
6D
331
6B
  5
6E
331
6C
  5
6F
331
6D
  5
70
331
6E
  5
71
331
6F
  5
72
331
70
  5
73
331
71
  5
74
331
72
  5
75
331
73
  5
76
331
74
  5
77
331
75
  5
78
331
76
  5
79
331
77
  5
7A
331
78
  5
7B
331
79
  5
7C
331
7A
  5
7D
331
7B
  5
7E
331
7C
  5
7F
331
7D
  5
80
331
7E
  5
81
331
7F
  5
82
331
80
  5
83
331
81
  5
84
331
82
  5
85
331
83
  5
86
331
84
  5
87
331
85
  5
88
331
86
  5
89
331
87
  5
8A
331
88
  5
8B
331
89
  5
8C
331
8A
  5
8D
331
8B
  5
8E
331
8C
  5
8F
331
8D
  5
90
331
8E
  5
91
331
8F
  5
92
331
90
  5
93
331
91
  5
94
331
92
  5
95
331
93
  5
96
331
94
  5
97
331
95
  5
98
331
96
  5
99
331
97
  5
9A
331
98
  5
9B
331
99
  5
9C
331
9A
  5
9D
331
9B
  5
9E
331
9C
  5
9F
331
9D
  5
A0
331
9E
  5
A1
331
9F
  5
A2
331
A0
  5
A3
331
A1
  5
A4
331
A2
  5
A5
331
A3
  5
A6
331
A4
  5
A7
331
A5
  5
A8
331
A6
  5
A9
331
A7
  5
AA
331
A8
  5
AB
331
A9
  5
AC
331
AA
  5
AD
331
AB
  5
AE
331
AC
  5
AF
331
AD
  5
B0
331
AE
  5
B1
331
AF
  5
B2
331
B0
  5
B3
331
B1
  5
B4
331
B2
  5
B5
331
B3
  5
B6
331
B4
  5
B7
331
B5
  5
B8
331
B6
  5
B9
331
B7
  5
BA
331
B8
  5
BB
331
B9
  5
BC
331
BA
  5
BD
331
BB
  5
BE
331
BC
  5
BF
331
BD
  5
C0
331
BE
  5
C1
331
BF
  5
C2
331
0
  5
C3
331
C1
  5
C4
331
C2
  5
C5
331
C3
  5
C6
331
C4
  5
C7
331
C5
  5
C8
331
C6
  5
C9
331
C7
  5
CA
331
C8
  5
CB
331
C9
  5
CC
331
CA
  5
CD
331
CB
  5
CE
331
CC
  5
CF
331
CD
  5
D0
331
CE
  5
D1
331
CF
  5
D2
331
D0
  5
D3
331
D1
  5
D4
331
D2
  5
D5
331
D3
  5
D6
331
D4
  5
D7
331
D5
  5
D8
331
D6
  5
D9
331
D7
  5
DA
331
D8
  5
DB
331
D9
  5
DC
331
DA
  5
DD
331
DB
  5
DE
331
DC
  5
DF
331
DD
  5
E0
331
DE
  5
E1
331
DF
  5
E2
331
E0
  5
E3
331
E1
  5
E4
331
E2
  5
E5
331
E3
  5
E6
331
E4
  5
E7
331
E5
  5
E8
331
E6
  5
E9
331
E7
  5
EA
331
E8
  5
EB
331
E9
  5
EC
331
EA
  5
ED
331
EB
  5
EE
331
EC
  5
EF
331
ED
  5
F0
331
EE
  5
F1
331
EF
  5
F2
331
F0
  5
F3
331
F1
  5
F4
331
F2
  5
F5
331
F3
  5
F6
331
F4
  5
F7
331
F5
  5
F8
331
F6
  5
F9
331
F7
  5
FA
331
F8
  5
FB
331
F9
  5
FC
331
FA
  5
FD
331
FB
  5
FE
331
FC
  5
FF
331
FD
  5
100
331
FE
  5
101
331
FF
  5
102
331
100
  5
103
331
101
  5
104
331
102
  5
105
331
103
  5
106
331
104
  5
107
331
105
  5
108
331
106
  5
109
331
107
  5
10A
331
108
  5
10B
331
109
  5
10C
331
10A
  5
10D
331
10B
  5
10E
331
10C
  5
10F
331
10D
  5
110
331
10E
  5
111
331
10F
  5
112
331
110
  5
113
331
111
  5
114
331
112
  5
115
331
113
  5
116
331
114
  5
117
331
115
  5
118
331
116
  5
119
331
117
  5
11A
331
118
  5
11B
331
119
  5
11C
331
11A
  5
11D
331
11B
  5
11E
331
11C
  5
11F
331
11D
  5
120
331
11E
  5
121
331
11F
  5
122
331
120
  5
123
331
121
  5
124
331
122
  5
125
331
123
  5
126
331
124
  5
127
331
125
  5
128
331
126
  5
129
331
127
  5
12A
331
128
  5
12B
331
129
  5
12C
331
12A
  5
12D
331
12B
  5
12E
331
12C
  5
12F
331
12D
  5
130
331
12E
  5
131
331
12F
  5
132
331
130
  5
133
331
131
  5
134
331
132
  5
135
331
133
  5
136
331
134
  5
137
331
135
  5
138
331
136
  5
139
331
137
  5
13A
331
138
  5
13B
331
139
  5
13C
331
13A
  5
13D
331
13B
  5
13E
331
13C
  5
13F
331
13D
  5
140
331
13E
  5
141
331
13F
  5
142
331
140
  5
143
331
141
  5
144
331
142
  5
145
331
143
  5
146
331
0
  5
147
331
145
  5
148
331
146
  5
149
331
147
  5
14A
331
148
  5
14B
331
149
  5
14C
331
14A
  5
14D
331
14B
  5
14E
331
14C
  5
14F
331
14D
  5
150
331
0
  5
151
331
14F
  5
152
331
150
  5
153
331
151
  5
154
331
152
  5
155
331
153
  5
156
331
154
  5
157
331
155
  5
158
331
156
  5
159
331
0
  5
15A
331
158
  5
15B
331
0
  5
15C
331
15A
  5
15D
331
15B
  5
15E
331
15C
  5
15F
331
15D
  5
160
331
15E
  5
161
331
15F
  5
162
331
0
  5
163
331
0
  5
164
331
162
  5
165
331
163
  5
166
331
164
  5
167
331
165
  5
168
331
166
  5
169
331
167
  5
16A
331
168
  5
16B
331
0
  5
16C
331
16A
  5
16D
331
16B
  5
16E
331
16C
  5
16F
331
16D
  5
170
331
16E
  5
171
331
16F
  5
172
331
170
  5
173
331
171
  5
174
331
0
  5
175
331
173
  5
176
331
0
  5
177
331
175
  5
178
331
176
  5
179
331
177
  5
17A
331
178
  5
17B
331
179
  5
17C
331
17A
  5
17D
331
0
  5
17E
331
17C
  5
17F
331
17D
  5
180
331
0
  5
181
331
17F
  5
182
331
180
  5
183
331
181
  5
184
331
182
  5
185
331
183
  5
186
331
0
  5
187
331
185
  5
188
331
0
  5
189
331
187
  5
18A
331
188
  5
18B
331
189
  5
18C
331
18A
  5
18D
331
18B
  5
18E
331
18C
  5
18F
331
0
  5
190
331
0
  5
191
331
18F
  5
192
331
190
  5
193
331
191
  5
194
331
192
  5
195
331
193
  5
196
331
194
  5
197
331
0
  5
198
331
196
  5
199
331
0
  5
19A
331
198
  5
19B
331
199
  5
19C
331
19A
  5
19D
331
19B
  5
19E
331
19C
  5
19F
331
0
  5
1A0
331
19E
  5
1A1
331
0
  5
1A2
331
1A0
  5
1A3
331
1A1
  5
1A4
331
0
  5
1A5
331
1A3
  5
1A6
331
0
  5
1A7
331
1A5
  5
1A8
331
1A6
  5
1A9
331
1A7
  5
1AA
331
1A8
  5
1AB
331
1A9
  5
1AC
331
1AA
  5
1AD
331
1AB
  5
1AE
331
1AC
  5
1AF
331
1AD
  5
1B0
331
1AE
  5
1B1
331
1AF
  5
1B2
331
1B0
  5
1B3
331
1B1
  5
1B4
331
1B2
  5
1B5
331
1B3
  5
1B6
331
1B4
  5
1B7
331
1B5
  5
1B8
331
1B6
  5
1B9
331
1B7
  5
1BA
331
1B8
  5
1BB
331
1B9
  5
1BC
331
1BA
  5
1BD
331
1BB
  5
25A
331
1BC
  5
25B
331
1BD
  5
25C
331
25A
  5
25D
331
25B
  5
25E
331
25C
  5
25F
331
25D
  5
260
331
25E
  5
262
331
25F
  5
263
331
260
  5
264
331
262
  5
266
331
263
  5
267
331
0
  5
268
331
266
  5
269
331
0
  5
26A
331
268
  5
26B
331
269
  5
271
331
26A
  5
272
331
26B
  5
273
331
0
  5
274
331
0
  5
275
331
0
  5
276
331
274
  5
277
331
275
  5
279
331
0
  5
27C
331
0
  5
27D
331
279
  5
27E
331
27C
  5
281
331
27D
  5
282
331
27E
  5
283
331
0
  5
285
331
0
  5
29C
331
0
  5
29E
331
0
  5
2A2
331
0
  5
2A4
331
29E
  5
2DD
331
2A2
  5
2DE
331
2A4
  5
317
331
0
  5
318
331
2DE
  5
319
331
317
  5
31A
331
318
  5
31B
331
319
  5
31C
331
31A
  5
31D
331
31B
  5
31E
331
31C
  5
339
331
31D
  5
33A
331
31E
  5
33B
331
0
  5
33E
331
0
  5
356
331
0
  5
56
331
0
  5
57
331
0
  5
4F
  0
LAYOUT
  5
1C
102
{ACAD_REACTORS
330
1A
102
}
330
1A
100
AcDbPlotSettings
  1

  2
none_device
  4

  6

 40
0.0
 41
0.0
 42
0.0
 43
0.0
 44
0.0
 45
0.0
 46
0.0
 47
0.0
 48
0.0
 49
0.0
140
0.0
141
0.0
142
1.0
143
1.0
 70
   688
 72
     0
 73
     0
 74
     5
  7

 75
    16
 76
     0
 77
     2
 78
   300
147
1.0
148
0.0
149
0.0
100
AcDbLayout
  1
Layout1
 70
     1
 71
     1
 10
0.0
 20
0.0
 11
12.0
 21
9.0
 12
0.0
 22
0.0
 32
0.0
 14
1.000000000000000E+20
 24
1.000000000000000E+20
 34
1.000000000000000E+20
 15
-1.000000000000000E+20
 25
-1.000000000000000E+20
 35
-1.000000000000000E+20
146
0.0
 13
0.0
 23
0.0
 33
0.0
 16
1.0
 26
0.0
 36
0.0
 17
0.0
 27
1.0
 37
0.0
 76
     0
330
1B
  0
LAYOUT
  5
1E
102
{ACAD_REACTORS
330
1A
102
}
330
1A
100
AcDbPlotSettings
  1

  2
none_device
  4

  6

 40
0.0
 41
0.0
 42
0.0
 43
0.0
 44
0.0
 45
0.0
 46
0.0
 47
0.0
 48
0.0
 49
0.0
140
0.0
141
0.0
142
1.0
143
1.0
 70
  1712
 72
     0
 73
     0
 74
     0
  7

 75
     0
 76
     0
 77
     2
 78
   300
147
1.0
148
0.0
149
0.0
100
AcDbLayout
  1
Model
 70
     1
 71
     0
 10
0.0
 20
0.0
 11
12.0
 21
9.0
 12
0.0
 22
0.0
 32
0.0
 14
-28.06464422374557
 24
-61.61775960550733
 34
0.0
 15
65.56470602282694
 25
57.1042565071466
 35
0.0
146
0.0
 13
0.0
 23
0.0
 33
0.0
 16
1.0
 26
0.0
 36
0.0
 17
0.0
 27
1.0
 37
0.0
 76
     0
330
1D
331
1BE
  0
MATERIAL
  5
1FD
102
{ACAD_REACTORS
330
1FB
102
}
330
1FB
100
AcDbMaterial
  1
ByBlock
 72
     1
 94
      127
  0
MATERIAL
  5
1FC
102
{ACAD_REACTORS
330
1FB
102
}
330
1FB
100
AcDbMaterial
  1
ByLayer
 72
     1
 94
      127
  0
MATERIAL
  5
1FE
102
{ACAD_REACTORS
330
1FB
102
}
330
1FB
100
AcDbMaterial
  1
Global
 72
     1
 94
      127
  0
MLEADERSTYLE
  5
253
102
{ACAD_REACTORS
330
208
102
}
330
208
100
AcDbMLeaderStyle
179
     2
170
     2
171
     1
172
     0
 90
        2
 40
0.0
 41
0.0
173
     1
 91
-1056964608
340
14
 92
       -2
290
     1
 42
0.09
291
     1
 43
0.36
  3
Standard
341
0
 44
0.18
300

342
11
174
     1
178
     1
175
     1
176
     0
 93
-1056964608
 45
0.18
292
     0
297
     0
 46
0.18
343
0
 94
-1056964608
 47
1.0
 49
1.0
140
1.0
293
     1
141
0.0
294
     1
177
     0
142
1.0
295
     0
296
     0
143
0.125
271
     0
272
     9
273
     9
298
     0
  0
MLINESTYLE
  5
18
102
{ACAD_REACTORS
330
17
102
}
330
17
100
AcDbMlineStyle
  2
Standard
 70
     0
  3

 62
   256
 51
90.0
 52
90.0
 71
     2
 49
0.5
 62
   256
  6
BYLAYER
 49
-0.5
 62
   256
  6
BYLAYER
  0
ACDBPLACEHOLDER
  5
F
102
{ACAD_REACTORS
330
E
102
}
330
E
  0
SCALE
  5
1C5
102
{ACAD_REACTORS
330
1C4
102
}
330
1C4
100
AcDbScale
 70
     0
300
1:1
140
1.0
141
1.0
290
     1
  0
SCALE
  5
1C6
102
{ACAD_REACTORS
330
1C4
102
}
330
1C4
100
AcDbScale
 70
     0
300
1:2
140
1.0
141
2.0
290
     0
  0
SCALE
  5
1C7
102
{ACAD_REACTORS
330
1C4
102
}
330
1C4
100
AcDbScale
 70
     0
300
1:4
140
1.0
141
4.0
290
     0
  0
SCALE
  5
1C8
102
{ACAD_REACTORS
330
1C4
102
}
330
1C4
100
AcDbScale
 70
     0
300
1:5
140
1.0
141
5.0
290
     0
  0
SCALE
  5
1C9
102
{ACAD_REACTORS
330
1C4
102
}
330
1C4
100
AcDbScale
 70
     0
300
1:8
140
1.0
141
8.0
290
     0
  0
SCALE
  5
1CA
102
{ACAD_REACTORS
330
1C4
102
}
330
1C4
100
AcDbScale
 70
     0
300
1:10
140
1.0
141
10.0
290
     0
  0
SCALE
  5
1CB
102
{ACAD_REACTORS
330
1C4
102
}
330
1C4
100
AcDbScale
 70
     0
300
1:16
140
1.0
141
16.0
290
     0
  0
SCALE
  5
1CC
102
{ACAD_REACTORS
330
1C4
102
}
330
1C4
100
AcDbScale
 70
     0
300
1:20
140
1.0
141
20.0
290
     0
  0
SCALE
  5
1CD
102
{ACAD_REACTORS
330
1C4
102
}
330
1C4
100
AcDbScale
 70
     0
300
1:30
140
1.0
141
30.0
290
     0
  0
SCALE
  5
1CE
102
{ACAD_REACTORS
330
1C4
102
}
330
1C4
100
AcDbScale
 70
     0
300
1:40
140
1.0
141
40.0
290
     0
  0
SCALE
  5
1CF
102
{ACAD_REACTORS
330
1C4
102
}
330
1C4
100
AcDbScale
 70
     0
300
1:50
140
1.0
141
50.0
290
     0
  0
SCALE
  5
1D0
102
{ACAD_REACTORS
330
1C4
102
}
330
1C4
100
AcDbScale
 70
     0
300
1:100
140
1.0
141
100.0
290
     0
  0
SCALE
  5
1D1
102
{ACAD_REACTORS
330
1C4
102
}
330
1C4
100
AcDbScale
 70
     0
300
2:1
140
2.0
141
1.0
290
     0
  0
SCALE
  5
1D2
102
{ACAD_REACTORS
330
1C4
102
}
330
1C4
100
AcDbScale
 70
     0
300
4:1
140
4.0
141
1.0
290
     0
  0
SCALE
  5
1D3
102
{ACAD_REACTORS
330
1C4
102
}
330
1C4
100
AcDbScale
 70
     0
300
8:1
140
8.0
141
1.0
290
     0
  0
SCALE
  5
1D4
102
{ACAD_REACTORS
330
1C4
102
}
330
1C4
100
AcDbScale
 70
     0
300
10:1
140
10.0
141
1.0
290
     0
  0
SCALE
  5
1D5
102
{ACAD_REACTORS
330
1C4
102
}
330
1C4
100
AcDbScale
 70
     0
300
100:1
140
100.0
141
1.0
290
     0
  0
SCALE
  5
1D6
102
{ACAD_REACTORS
330
1C4
102
}
330
1C4
100
AcDbScale
 70
     0
300
1/128" = 1'-0"
140
0.0078125
141
12.0
290
     0
  0
SCALE
  5
1D7
102
{ACAD_REACTORS
330
1C4
102
}
330
1C4
100
AcDbScale
 70
     0
300
1/64" = 1'-0"
140
0.015625
141
12.0
290
     0
  0
SCALE
  5
1D8
102
{ACAD_REACTORS
330
1C4
102
}
330
1C4
100
AcDbScale
 70
     0
300
1/32" = 1'-0"
140
0.03125
141
12.0
290
     0
  0
SCALE
  5
1D9
102
{ACAD_REACTORS
330
1C4
102
}
330
1C4
100
AcDbScale
 70
     0
300
1/16" = 1'-0"
140
0.0625
141
12.0
290
     0
  0
SCALE
  5
1DA
102
{ACAD_REACTORS
330
1C4
102
}
330
1C4
100
AcDbScale
 70
     0
300
3/32" = 1'-0"
140
0.09375
141
12.0
290
     0
  0
SCALE
  5
1DB
102
{ACAD_REACTORS
330
1C4
102
}
330
1C4
100
AcDbScale
 70
     0
300
1/8" = 1'-0"
140
0.125
141
12.0
290
     0
  0
SCALE
  5
1DC
102
{ACAD_REACTORS
330
1C4
102
}
330
1C4
100
AcDbScale
 70
     0
300
3/16" = 1'-0"
140
0.1875
141
12.0
290
     0
  0
SCALE
  5
1DD
102
{ACAD_REACTORS
330
1C4
102
}
330
1C4
100
AcDbScale
 70
     0
300
1/4" = 1'-0"
140
0.25
141
12.0
290
     0
  0
SCALE
  5
1DE
102
{ACAD_REACTORS
330
1C4
102
}
330
1C4
100
AcDbScale
 70
     0
300
3/8" = 1'-0"
140
0.375
141
12.0
290
     0
  0
SCALE
  5
1DF
102
{ACAD_REACTORS
330
1C4
102
}
330
1C4
100
AcDbScale
 70
     0
300
1/2" = 1'-0"
140
0.5
141
12.0
290
     0
  0
SCALE
  5
1E0
102
{ACAD_REACTORS
330
1C4
102
}
330
1C4
100
AcDbScale
 70
     0
300
3/4" = 1'-0"
140
0.75
141
12.0
290
     0
  0
SCALE
  5
1E1
102
{ACAD_REACTORS
330
1C4
102
}
330
1C4
100
AcDbScale
 70
     0
300
1" = 1'-0"
140
1.0
141
12.0
290
     0
  0
SCALE
  5
1E2
102
{ACAD_REACTORS
330
1C4
102
}
330
1C4
100
AcDbScale
 70
     0
300
1-1/2" = 1'-0"
140
1.5
141
12.0
290
     0
  0
SCALE
  5
1E3
102
{ACAD_REACTORS
330
1C4
102
}
330
1C4
100
AcDbScale
 70
     0
300
3" = 1'-0"
140
3.0
141
12.0
290
     0
  0
SCALE
  5
1E4
102
{ACAD_REACTORS
330
1C4
102
}
330
1C4
100
AcDbScale
 70
     0
300
6" = 1'-0"
140
6.0
141
12.0
290
     0
  0
SCALE
  5
1E5
102
{ACAD_REACTORS
330
1C4
102
}
330
1C4
100
AcDbScale
 70
     0
300
1'-0" = 1'-0"
140
12.0
141
12.0
290
     0
  0
TABLESTYLE
  5
252
102
{ACAD_REACTORS
330
251
102
}
102
{ACAD_XDICTIONARY
360
36D
102
}
330
251
100
AcDbTableStyle
  3
Standard
 70
     0
 71
     0
 40
0.06
 41
0.06
280
     0
281
     0
  7
Standard
140
0.18
170
     2
 62
     0
 63
   257
283
     0
 90
        4
 91
        0
  1

274
    -2
284
     1
 64
     0
275
    -2
285
     1
 65
     0
276
    -2
286
     1
 66
     0
277
    -2
287
     1
 67
     0
278
    -2
288
     1
 68
     0
279
    -2
289
     1
 69
     0
  7
Standard
140
0.25
170
     5
 62
     0
 63
   257
283
     0
 90
        4
 91
        0
  1

274
    -2
284
     1
 64
     0
275
    -2
285
     1
 65
     0
276
    -2
286
     1
 66
     0
277
    -2
287
     1
 67
     0
278
    -2
288
     1
 68
     0
279
    -2
289
     1
 69
     0
  7
Standard
140
0.18
170
     5
 62
     0
 63
   257
283
     0
 90
        4
 91
        0
  1

274
    -2
284
     1
 64
     0
275
    -2
285
     1
 65
     0
276
    -2
286
     1
 66
     0
277
    -2
287
     1
 67
     0
278
    -2
288
     1
 68
     0
279
    -2
289
     1
 69
     0
  0
VISUALSTYLE
  5
1EF
102
{ACAD_REACTORS
330
1EA
102
}
330
1EA
100
AcDbVisualStyle
  2
2dWireframe
 70
     4
177
     3
291
     0
 70
    58
 90
        0
176
     1
 90
        2
176
     1
 90
        0
176
     1
 90
        0
176
     1
 40
-0.6
176
     1
 40
-30.0
176
     1
 62
     7
176
     1
 90
        1
176
     1
 90
        4
176
     1
 62
     7
176
     1
 62
   257
176
     1
 90
        1
176
     1
 90
        1
176
     1
 40
1.0
176
     1
 90
        0
176
     1
 62
   257
176
     1
 40
1.0
176
     1
 90
        1
176
     1
 90
        6
176
     1
 90
        2
176
     1
 62
     7
176
     1
 90
        5
176
     1
 90
        0
176
     1
 90
        0
176
     1
290
     0
176
     1
 90
        1
176
     1
 40
0.0
176
     1
 90
        0
176
     1
290
     1
176
     1
290
     1
176
     1
290
     0
176
     1
290
     0
176
     1
290
     0
176
     1
290
     0
176
     1
290
     0
176
     1
290
     0
176
     1
290
     0
176
     1
 90
       50
176
     1
 40
0.0
176
     1
 40
1.0
176
     1
 90
        0
176
     1
 62
    18
420
        0
176
     1
 90
       50
176
     1
 90
        3
176
     1
 62
     5
420
      255
176
     1
290
     0
176
     1
 90
       50
176
     1
 90
       50
176
     1
 90
       50
176
     1
290
     0
176
     1
 90
       50
176
     1
 62
   256
176
     0
 40
1.0
176
     0
 90
        2
176
     1
  1
strokes_ogs.tif
176
     1
290
     0
176
     1
 40
1.0
176
     1
 40
1.0
176
     1
  0
VISUALSTYLE
  5
1F1
102
{ACAD_REACTORS
330
1EA
102
}
330
1EA
100
AcDbVisualStyle
  2
3D Hidden
 70
     6
177
     3
291
     0
 70
    58
 90
        1
176
     1
 90
        2
176
     1
 90
        2
176
     1
 90
        0
176
     1
 40
-0.6
176
     1
 40
-30.0
176
     1
 62
     7
176
     1
 90
        2
176
     1
 90
        2
176
     1
 62
     7
176
     1
 62
   257
176
     1
 90
        2
176
     1
 90
        1
176
     1
 40
40.0
176
     1
 90
        0
176
     1
 62
   257
176
     1
 40
1.0
176
     1
 90
        1
176
     1
 90
        6
176
     1
 90
        2
176
     1
 62
     7
176
     1
 90
        3
176
     1
 90
        0
176
     1
 90
        0
176
     1
290
     0
176
     1
 90
        1
176
     1
 40
0.0
176
     1
 90
        0
176
     1
290
     0
176
     1
290
     1
176
     1
290
     1
176
     1
290
     0
176
     1
290
     0
176
     1
290
     0
176
     1
290
     0
176
     1
290
     0
176
     1
290
     0
176
     1
 90
       50
176
     1
 40
0.0
176
     1
 40
1.0
176
     1
 90
        0
176
     1
 62
    18
420
        0
176
     1
 90
       50
176
     1
 90
        3
176
     1
 62
     5
420
      255
176
     1
290
     0
176
     1
 90
       50
176
     1
 90
       50
176
     1
 90
       50
176
     1
290
     0
176
     1
 90
       50
176
     1
 62
   256
176
     0
 40
1.0
176
     0
 90
        2
176
     1
  1
strokes_ogs.tif
176
     1
290
     0
176
     1
 40
1.0
176
     1
 40
1.0
176
     1
  0
VISUALSTYLE
  5
1F0
102
{ACAD_REACTORS
330
1EA
102
}
330
1EA
100
AcDbVisualStyle
  2
3dWireframe
 70
     5
177
     3
291
     0
 70
    58
 90
        0
176
     1
 90
        2
176
     1
 90
        0
176
     1
 90
        0
176
     1
 40
-0.6
176
     1
 40
-30.0
176
     1
 62
     7
176
     1
 90
        1
176
     1
 90
        4
176
     1
 62
     7
176
     1
 62
   257
176
     1
 90
        1
176
     1
 90
        1
176
     1
 40
1.0
176
     1
 90
        0
176
     1
 62
   257
176
     1
 40
1.0
176
     1
 90
        1
176
     1
 90
        6
176
     1
 90
        2
176
     1
 62
     7
176
     1
 90
        5
176
     1
 90
        0
176
     1
 90
        0
176
     1
290
     0
176
     1
 90
        1
176
     1
 40
0.0
176
     1
 90
        0
176
     1
290
     0
176
     1
290
     1
176
     1
290
     1
176
     1
290
     0
176
     1
290
     0
176
     1
290
     0
176
     1
290
     0
176
     1
290
     0
176
     1
290
     0
176
     1
 90
       50
176
     1
 40
0.0
176
     1
 40
1.0
176
     1
 90
        0
176
     1
 62
    18
420
        0
176
     1
 90
       50
176
     1
 90
        3
176
     1
 62
     5
420
      255
176
     1
290
     0
176
     1
 90
       50
176
     1
 90
       50
176
     1
 90
       50
176
     1
290
     0
176
     1
 90
       50
176
     1
 62
   256
176
     0
 40
1.0
176
     0
 90
        2
176
     1
  1
strokes_ogs.tif
176
     1
290
     0
176
     1
 40
1.0
176
     1
 40
1.0
176
     1
  0
VISUALSTYLE
  5
1F2
102
{ACAD_REACTORS
330
1EA
102
}
330
1EA
100
AcDbVisualStyle
  2
Basic
 70
     7
177
     3
291
     1
 70
    58
 90
        1
176
     1
 90
        0
176
     1
 90
        1
176
     1
 90
        0
176
     1
 40
-0.6
176
     1
 40
-30.0
176
     1
 62
     7
176
     1
 90
        0
176
     1
 90
        4
176
     1
 62
     7
176
     1
 62
   257
176
     1
 90
        1
176
     1
 90
        1
176
     1
 40
1.0
176
     1
 90
        8
176
     1
 62
     7
176
     1
 40
1.0
176
     1
 90
        1
176
     1
 90
        6
176
     1
 90
        2
176
     1
 62
     7
176
     1
 90
        5
176
     1
 90
        0
176
     1
 90
        0
176
     1
290
     0
176
     1
 90
        1
176
     1
 40
0.0
176
     1
 90
        0
176
     1
290
     0
176
     1
290
     1
176
     1
290
     1
176
     1
290
     0
176
     1
290
     0
176
     1
290
     0
176
     1
290
     0
176
     1
290
     0
176
     1
290
     0
176
     1
 90
       50
176
     1
 40
0.0
176
     1
 40
1.0
176
     1
 90
        0
176
     1
 62
    18
420
        0
176
     1
 90
       50
176
     1
 90
        3
176
     1
 62
     5
420
      255
176
     1
290
     0
176
     1
 90
       50
176
     1
 90
       50
176
     1
 90
       50
176
     1
290
     0
176
     1
 90
       50
176
     1
 62
   256
176
     0
 40
1.0
176
     0
 90
        2
176
     1
  1
strokes_ogs.tif
176
     1
290
     0
176
     1
 40
1.0
176
     1
 40
1.0
176
     1
  0
VISUALSTYLE
  5
1F6
102
{ACAD_REACTORS
330
1EA
102
}
330
1EA
100
AcDbVisualStyle
  2
Brighten
 70
    12
177
     3
291
     1
 70
    58
 90
        2
176
     1
 90
        2
176
     1
 90
        0
176
     1
 90
        0
176
     1
 40
-0.6
176
     1
 40
-30.0
176
     1
 62
     7
176
     1
 90
        1
176
     1
 90
        4
176
     1
 62
     7
176
     1
 62
   257
176
     1
 90
        1
176
     1
 90
        1
176
     1
 40
1.0
176
     1
 90
        8
176
     1
 62
     7
176
     1
 40
1.0
176
     1
 90
        1
176
     1
 90
        6
176
     1
 90
        2
176
     1
 62
     7
176
     1
 90
        5
176
     1
 90
        0
176
     1
 90
        0
176
     1
290
     0
176
     1
 90
        1
176
     1
 40
50.0
176
     1
 90
        0
176
     1
290
     0
176
     1
290
     1
176
     1
290
     1
176
     1
290
     0
176
     1
290
     0
176
     1
290
     0
176
     1
290
     0
176
     1
290
     0
176
     1
290
     0
176
     1
 90
       50
176
     1
 40
0.0
176
     1
 40
1.0
176
     1
 90
        0
176
     1
 62
    18
420
        0
176
     1
 90
       50
176
     1
 90
        3
176
     1
 62
     5
420
      255
176
     1
290
     0
176
     1
 90
       50
176
     1
 90
       50
176
     1
 90
       50
176
     1
290
     0
176
     1
 90
       50
176
     1
 62
   256
176
     0
 40
1.0
176
     0
 90
        2
176
     1
  1
strokes_ogs.tif
176
     1
290
     0
176
     1
 40
1.0
176
     1
 40
1.0
176
     1
  0
VISUALSTYLE
  5
1FA
102
{ACAD_REACTORS
330
1EA
102
}
330
1EA
100
AcDbVisualStyle
  2
ColorChange
 70
    16
177
     3
291
     1
 70
    58
 90
        2
176
     1
 90
        2
176
     1
 90
        3
176
     1
 90
        0
176
     1
 40
-0.6
176
     1
 40
-30.0
176
     1
 62
     8
176
     1
 90
        1
176
     1
 90
        4
176
     1
 62
     7
176
     1
 62
   257
176
     1
 90
        1
176
     1
 90
        1
176
     1
 40
1.0
176
     1
 90
        8
176
     1
 62
     8
176
     1
 40
1.0
176
     1
 90
        1
176
     1
 90
        6
176
     1
 90
        2
176
     1
 62
     7
176
     1
 90
        5
176
     1
 90
        0
176
     1
 90
        0
176
     1
290
     0
176
     1
 90
        1
176
     1
 40
0.0
176
     1
 90
        0
176
     1
290
     0
176
     1
290
     1
176
     1
290
     1
176
     1
290
     0
176
     1
290
     0
176
     1
290
     0
176
     1
290
     0
176
     1
290
     0
176
     1
290
     0
176
     1
 90
       50
176
     1
 40
0.0
176
     1
 40
1.0
176
     1
 90
        0
176
     1
 62
    18
420
        0
176
     1
 90
       50
176
     1
 90
        3
176
     1
 62
     5
420
      255
176
     1
290
     0
176
     1
 90
       50
176
     1
 90
       50
176
     1
 90
       50
176
     1
290
     0
176
     1
 90
       50
176
     1
 62
   256
176
     0
 40
1.0
176
     0
 90
        2
176
     1
  1
strokes_ogs.tif
176
     1
290
     0
176
     1
 40
1.0
176
     1
 40
1.0
176
     1
  0
VISUALSTYLE
  5
1F4
102
{ACAD_REACTORS
330
1EA
102
}
330
1EA
100
AcDbVisualStyle
  2
Conceptual
 70
     9
177
     3
291
     0
 70
    58
 90
        3
176
     1
 90
        2
176
     1
 90
        0
176
     1
 90
        0
176
     1
 40
-0.6
176
     1
 40
-30.0
176
     1
 62
     7
176
     1
 90
        2
176
     1
 90
        2
176
     1
 62
     7
176
     1
 62
   257
176
     1
 90
        1
176
     1
 90
        1
176
     1
 40
40.0
176
     1
 90
        8
176
     1
 62
     7
176
     1
 40
1.0
176
     1
 90
        1
176
     1
 90
        6
176
     1
 90
        2
176
     1
 62
     7
176
     1
 90
        3
176
     1
 90
        0
176
     1
 90
        0
176
     1
290
     0
176
     1
 90
        1
176
     1
 40
0.0
176
     1
 90
        0
176
     1
290
     0
176
     1
290
     1
176
     1
290
     1
176
     1
290
     0
176
     1
290
     0
176
     1
290
     0
176
     1
290
     0
176
     1
290
     0
176
     1
290
     0
176
     1
 90
       50
176
     1
 40
0.0
176
     1
 40
1.0
176
     1
 90
        0
176
     1
 62
    18
420
        0
176
     1
 90
       50
176
     1
 90
        3
176
     1
 62
     5
420
      255
176
     1
290
     0
176
     1
 90
       50
176
     1
 90
       50
176
     1
 90
       50
176
     1
290
     0
176
     1
 90
       50
176
     1
 62
   256
176
     0
 40
1.0
176
     0
 90
        2
176
     1
  1
strokes_ogs.tif
176
     1
290
     0
176
     1
 40
1.0
176
     1
 40
1.0
176
     1
  0
VISUALSTYLE
  5
1F5
102
{ACAD_REACTORS
330
1EA
102
}
330
1EA
100
AcDbVisualStyle
  2
Dim
 70
    11
177
     3
291
     1
 70
    58
 90
        2
176
     1
 90
        2
176
     1
 90
        0
176
     1
 90
        0
176
     1
 40
-0.6
176
     1
 40
-30.0
176
     1
 62
     7
176
     1
 90
        1
176
     1
 90
        4
176
     1
 62
     7
176
     1
 62
   257
176
     1
 90
        1
176
     1
 90
        1
176
     1
 40
1.0
176
     1
 90
        8
176
     1
 62
     7
176
     1
 40
1.0
176
     1
 90
        1
176
     1
 90
        6
176
     1
 90
        2
176
     1
 62
     7
176
     1
 90
        5
176
     1
 90
        0
176
     1
 90
        0
176
     1
290
     0
176
     1
 90
        1
176
     1
 40
-50.0
176
     1
 90
        0
176
     1
290
     0
176
     1
290
     1
176
     1
290
     1
176
     1
290
     0
176
     1
290
     0
176
     1
290
     0
176
     1
290
     0
176
     1
290
     0
176
     1
290
     0
176
     1
 90
       50
176
     1
 40
0.0
176
     1
 40
1.0
176
     1
 90
        0
176
     1
 62
    18
420
        0
176
     1
 90
       50
176
     1
 90
        3
176
     1
 62
     5
420
      255
176
     1
290
     0
176
     1
 90
       50
176
     1
 90
       50
176
     1
 90
       50
176
     1
290
     0
176
     1
 90
       50
176
     1
 62
   256
176
     0
 40
1.0
176
     0
 90
        2
176
     1
  1
strokes_ogs.tif
176
     1
290
     0
176
     1
 40
1.0
176
     1
 40
1.0
176
     1
  0
VISUALSTYLE
  5
24B
102
{ACAD_REACTORS
330
1EA
102
}
330
1EA
100
AcDbVisualStyle
  2
EdgeColorOff
 70
    22
177
     3
291
     1
 70
    58
 90
        2
176
     0
 90
        2
176
     0
 90
        0
176
     0
 90
        0
176
     0
 40
0.6
176
     0
 40
30.0
176
     0
 62
     7
420
 16777215
176
     0
 90
        1
176
     0
 90
        4
176
     0
 62
     7
176
     0
 62
   257
176
     0
 90
        1
176
     0
 90
        1
176
     0
 40
1.0
176
     0
 90
        8
176
     2
 62
     7
176
     0
 40
1.0
176
     0
 90
        1
176
     0
 90
        6
176
     0
 90
        2
176
     0
 62
     7
176
     0
 90
        5
176
     0
 90
        0
176
     0
 90
        0
176
     0
290
     0
176
     0
 90
        1
176
     0
 40
0.0
176
     0
 90
        0
176
     0
290
     0
176
     0
290
     1
176
     0
290
     1
176
     0
290
     0
176
     0
290
     0
176
     0
290
     0
176
     0
290
     0
176
     0
290
     0
176
     0
290
     0
176
     0
 90
       50
176
     0
 40
0.0
176
     0
 40
1.0
176
     0
 90
        0
176
     0
 62
    18
420
        0
176
     0
 90
       50
176
     0
 90
        3
176
     0
 62
     5
420
      255
176
     0
290
     0
176
     0
 90
       50
176
     0
 90
       50
176
     0
 90
       50
176
     0
290
     0
176
     0
 90
       50
176
     0
 62
   256
176
     0
 40
1.0
176
     0
 90
        2
176
     0
  1
strokes_ogs.tif
176
     0
290
     0
176
     0
 40
1.0
176
     0
 40
1.0
176
     0
  0
VISUALSTYLE
  5
1F9
102
{ACAD_REACTORS
330
1EA
102
}
330
1EA
100
AcDbVisualStyle
  2
Facepattern
 70
    15
177
     3
291
     1
 70
    58
 90
        2
176
     1
 90
        2
176
     1
 90
        0
176
     1
 90
        0
176
     1
 40
-0.6
176
     1
 40
-30.0
176
     1
 62
     7
176
     1
 90
        1
176
     1
 90
        4
176
     1
 62
     7
176
     1
 62
   257
176
     1
 90
        1
176
     1
 90
        1
176
     1
 40
1.0
176
     1
 90
        8
176
     1
 62
     7
176
     1
 40
1.0
176
     1
 90
        1
176
     1
 90
        6
176
     1
 90
        2
176
     1
 62
     7
176
     1
 90
        5
176
     1
 90
        0
176
     1
 90
        0
176
     1
290
     0
176
     1
 90
        1
176
     1
 40
0.0
176
     1
 90
        0
176
     1
290
     0
176
     1
290
     1
176
     1
290
     1
176
     1
290
     0
176
     1
290
     0
176
     1
290
     0
176
     1
290
     0
176
     1
290
     0
176
     1
290
     0
176
     1
 90
       50
176
     1
 40
0.0
176
     1
 40
1.0
176
     1
 90
        0
176
     1
 62
    18
420
        0
176
     1
 90
       50
176
     1
 90
        3
176
     1
 62
     5
420
      255
176
     1
290
     0
176
     1
 90
       50
176
     1
 90
       50
176
     1
 90
       50
176
     1
290
     0
176
     1
 90
       50
176
     1
 62
   256
176
     0
 40
1.0
176
     0
 90
        2
176
     1
  1
strokes_ogs.tif
176
     1
290
     0
176
     1
 40
1.0
176
     1
 40
1.0
176
     1
  0
VISUALSTYLE
  5
1EB
102
{ACAD_REACTORS
330
1EA
102
}
330
1EA
100
AcDbVisualStyle
  2
Flat
 70
     0
177
     3
291
     1
 70
    58
 90
        2
176
     1
 90
        1
176
     1
 90
        1
176
     1
 90
        2
176
     1
 40
-0.6
176
     1
 40
30.0
176
     1
 62
     7
176
     1
 90
        0
176
     1
 90
        4
176
     1
 62
     7
176
     1
 62
   257
176
     1
 90
        1
176
     1
 90
        1
176
     1
 40
1.0
176
     1
 90
        8
176
     1
 62
     7
176
     1
 40
1.0
176
     1
 90
        1
176
     1
 90
        6
176
     1
 90
        2
176
     1
 62
     7
176
     1
 90
        5
176
     1
 90
        0
176
     1
 90
        0
176
     1
290
     0
176
     1
 90
       13
176
     1
 40
0.0
176
     1
 90
        0
176
     1
290
     0
176
     1
290
     1
176
     1
290
     1
176
     1
290
     0
176
     1
290
     0
176
     1
290
     0
176
     1
290
     0
176
     1
290
     0
176
     1
290
     0
176
     1
 90
       50
176
     1
 40
0.0
176
     1
 40
1.0
176
     1
 90
        0
176
     1
 62
    18
420
        0
176
     1
 90
       50
176
     1
 90
        3
176
     1
 62
     5
420
      255
176
     1
290
     0
176
     1
 90
       50
176
     1
 90
       50
176
     1
 90
       50
176
     1
290
     0
176
     1
 90
       50
176
     1
 62
   256
176
     0
 40
1.0
176
     0
 90
        2
176
     1
  1
strokes_ogs.tif
176
     1
290
     0
176
     1
 40
1.0
176
     1
 40
1.0
176
     1
  0
VISUALSTYLE
  5
1EC
102
{ACAD_REACTORS
330
1EA
102
}
330
1EA
100
AcDbVisualStyle
  2
FlatWithEdges
 70
     1
177
     3
291
     1
 70
    58
 90
        2
176
     1
 90
        1
176
     1
 90
        1
176
     1
 90
        2
176
     1
 40
-0.6
176
     1
 40
30.0
176
     1
 62
     7
176
     1
 90
        1
176
     1
 90
        4
176
     1
 62
     7
176
     1
 62
   257
176
     1
 90
        1
176
     1
 90
        1
176
     1
 40
1.0
176
     1
 90
        0
176
     1
 62
   257
176
     1
 40
1.0
176
     1
 90
        1
176
     1
 90
        6
176
     1
 90
        2
176
     1
 62
     7
176
     1
 90
        5
176
     1
 90
        0
176
     1
 90
        0
176
     1
290
     0
176
     1
 90
       13
176
     1
 40
0.0
176
     1
 90
        0
176
     1
290
     0
176
     1
290
     1
176
     1
290
     1
176
     1
290
     0
176
     1
290
     0
176
     1
290
     0
176
     1
290
     0
176
     1
290
     0
176
     1
290
     0
176
     1
 90
       50
176
     1
 40
0.0
176
     1
 40
1.0
176
     1
 90
        0
176
     1
 62
    18
420
        0
176
     1
 90
       50
176
     1
 90
        3
176
     1
 62
     5
420
      255
176
     1
290
     0
176
     1
 90
       50
176
     1
 90
       50
176
     1
 90
       50
176
     1
290
     0
176
     1
 90
       50
176
     1
 62
   256
176
     0
 40
1.0
176
     0
 90
        2
176
     1
  1
strokes_ogs.tif
176
     1
290
     0
176
     1
 40
1.0
176
     1
 40
1.0
176
     1
  0
VISUALSTYLE
  5
1ED
102
{ACAD_REACTORS
330
1EA
102
}
330
1EA
100
AcDbVisualStyle
  2
Gouraud
 70
     2
177
     3
291
     1
 70
    58
 90
        2
176
     1
 90
        2
176
     1
 90
        1
176
     1
 90
        2
176
     1
 40
-0.6
176
     1
 40
30.0
176
     1
 62
     7
176
     1
 90
        0
176
     1
 90
        4
176
     1
 62
     7
176
     1
 62
   257
176
     1
 90
        1
176
     1
 90
        1
176
     1
 40
1.0
176
     1
 90
        0
176
     1
 62
     7
176
     1
 40
1.0
176
     1
 90
        1
176
     1
 90
        6
176
     1
 90
        2
176
     1
 62
     7
176
     1
 90
        5
176
     1
 90
        0
176
     1
 90
        0
176
     1
290
     0
176
     1
 90
       13
176
     1
 40
0.0
176
     1
 90
        0
176
     1
290
     0
176
     1
290
     1
176
     1
290
     1
176
     1
290
     0
176
     1
290
     0
176
     1
290
     0
176
     1
290
     0
176
     1
290
     0
176
     1
290
     0
176
     1
 90
       50
176
     1
 40
0.0
176
     1
 40
1.0
176
     1
 90
        0
176
     1
 62
    18
420
        0
176
     1
 90
       50
176
     1
 90
        3
176
     1
 62
     5
420
      255
176
     1
290
     0
176
     1
 90
       50
176
     1
 90
       50
176
     1
 90
       50
176
     1
290
     0
176
     1
 90
       50
176
     1
 62
   256
176
     0
 40
1.0
176
     0
 90
        2
176
     1
  1
strokes_ogs.tif
176
     1
290
     0
176
     1
 40
1.0
176
     1
 40
1.0
176
     1
  0
VISUALSTYLE
  5
1EE
102
{ACAD_REACTORS
330
1EA
102
}
330
1EA
100
AcDbVisualStyle
  2
GouraudWithEdges
 70
     3
177
     3
291
     1
 70
    58
 90
        2
176
     1
 90
        2
176
     1
 90
        1
176
     1
 90
        2
176
     1
 40
-0.6
176
     1
 40
30.0
176
     1
 62
     7
176
     1
 90
        1
176
     1
 90
        4
176
     1
 62
     7
176
     1
 62
   257
176
     1
 90
        1
176
     1
 90
        1
176
     1
 40
1.0
176
     1
 90
        0
176
     1
 62
   257
176
     1
 40
1.0
176
     1
 90
        1
176
     1
 90
        6
176
     1
 90
        2
176
     1
 62
     7
176
     1
 90
        5
176
     1
 90
        0
176
     1
 90
        0
176
     1
290
     0
176
     1
 90
       13
176
     1
 40
0.0
176
     1
 90
        0
176
     1
290
     0
176
     1
290
     1
176
     1
290
     1
176
     1
290
     0
176
     1
290
     0
176
     1
290
     0
176
     1
290
     0
176
     1
290
     0
176
     1
290
     0
176
     1
 90
       50
176
     1
 40
0.0
176
     1
 40
1.0
176
     1
 90
        0
176
     1
 62
    18
420
        0
176
     1
 90
       50
176
     1
 90
        3
176
     1
 62
     5
420
      255
176
     1
290
     0
176
     1
 90
       50
176
     1
 90
       50
176
     1
 90
       50
176
     1
290
     0
176
     1
 90
       50
176
     1
 62
   256
176
     0
 40
1.0
176
     0
 90
        2
176
     1
  1
strokes_ogs.tif
176
     1
290
     0
176
     1
 40
1.0
176
     1
 40
1.0
176
     1
  0
VISUALSTYLE
  5
248
102
{ACAD_REACTORS
330
1EA
102
}
330
1EA
100
AcDbVisualStyle
  2
Hidden
 70
     6
177
     3
291
     0
 70
    58
 90
        1
176
     1
 90
        2
176
     1
 90
        2
176
     1
 90
        0
176
     1
 40
0.6
176
     1
 40
30.0
176
     1
 62
     7
420
 16777215
176
     1
 90
        2
176
     1
 90
        2
176
     1
 62
     7
176
     1
 62
   257
176
     1
 90
        2
176
     1
 90
        1
176
     1
 40
40.0
176
     1
 90
        0
176
     1
 62
   257
176
     1
 40
1.0
176
     1
 90
        1
176
     1
 90
        6
176
     1
 90
        2
176
     1
 62
     7
176
     1
 90
        3
176
     1
 90
        0
176
     1
 90
        0
176
     1
290
     0
176
     1
 90
        1
176
     1
 40
0.0
176
     1
 90
        0
176
     1
290
     0
176
     1
290
     1
176
     1
290
     1
176
     1
290
     0
176
     1
290
     0
176
     1
290
     0
176
     1
290
     0
176
     1
290
     0
176
     1
290
     0
176
     1
 90
       50
176
     1
 40
0.0
176
     1
 40
1.0
176
     1
 90
        0
176
     1
 62
    18
420
        0
176
     1
 90
       50
176
     1
 90
        3
176
     1
 62
     5
420
      255
176
     1
290
     0
176
     1
 90
       50
176
     1
 90
       50
176
     1
 90
       50
176
     1
290
     0
176
     1
 90
       50
176
     1
 62
   256
176
     0
 40
1.0
176
     0
 90
        2
176
     1
  1
strokes_ogs.tif
176
     1
290
     0
176
     1
 40
1.0
176
     1
 40
1.0
176
     1
  0
VISUALSTYLE
  5
249
102
{ACAD_REACTORS
330
1EA
102
}
330
1EA
100
AcDbVisualStyle
  2
JitterOff
 70
    20
177
     3
291
     1
 70
    58
 90
        2
176
     0
 90
        2
176
     0
 90
        0
176
     0
 90
        0
176
     0
 40
0.6
176
     0
 40
30.0
176
     0
 62
     7
420
 16777215
176
     0
 90
        1
176
     0
 90
        4
176
     0
 62
     7
176
     0
 62
   257
176
     0
 90
        1
176
     0
 90
        1
176
     0
 40
1.0
176
     0
 90
       10
176
     2
 62
     7
176
     0
 40
1.0
176
     0
 90
        1
176
     0
 90
        6
176
     0
 90
        2
176
     0
 62
     7
176
     0
 90
        5
176
     0
 90
        0
176
     0
 90
        0
176
     0
290
     0
176
     0
 90
        1
176
     0
 40
0.0
176
     0
 90
        0
176
     0
290
     0
176
     0
290
     1
176
     0
290
     1
176
     0
290
     0
176
     0
290
     0
176
     0
290
     0
176
     0
290
     0
176
     0
290
     0
176
     0
290
     0
176
     0
 90
       50
176
     0
 40
0.0
176
     0
 40
1.0
176
     0
 90
        0
176
     0
 62
    18
420
        0
176
     0
 90
       50
176
     0
 90
        3
176
     0
 62
     5
420
      255
176
     0
290
     0
176
     0
 90
       50
176
     0
 90
       50
176
     0
 90
       50
176
     0
290
     0
176
     0
 90
       50
176
     0
 62
   256
176
     0
 40
1.0
176
     0
 90
        2
176
     0
  1
strokes_ogs.tif
176
     0
290
     0
176
     0
 40
1.0
176
     0
 40
1.0
176
     0
  0
VISUALSTYLE
  5
1F8
102
{ACAD_REACTORS
330
1EA
102
}
330
1EA
100
AcDbVisualStyle
  2
Linepattern
 70
    14
177
     3
291
     1
 70
    58
 90
        2
176
     1
 90
        2
176
     1
 90
        0
176
     1
 90
        0
176
     1
 40
-0.6
176
     1
 40
-30.0
176
     1
 62
     7
176
     1
 90
        1
176
     1
 90
        4
176
     1
 62
     7
176
     1
 62
   257
176
     1
 90
        7
176
     1
 90
        7
176
     1
 40
1.0
176
     1
 90
        8
176
     1
 62
     7
176
     1
 40
1.0
176
     1
 90
        1
176
     1
 90
        6
176
     1
 90
        2
176
     1
 62
     7
176
     1
 90
        5
176
     1
 90
        0
176
     1
 90
        0
176
     1
290
     0
176
     1
 90
        1
176
     1
 40
0.0
176
     1
 90
        0
176
     1
290
     0
176
     1
290
     1
176
     1
290
     1
176
     1
290
     0
176
     1
290
     0
176
     1
290
     0
176
     1
290
     0
176
     1
290
     0
176
     1
290
     0
176
     1
 90
       50
176
     1
 40
0.0
176
     1
 40
1.0
176
     1
 90
        0
176
     1
 62
    18
420
        0
176
     1
 90
       50
176
     1
 90
        3
176
     1
 62
     5
420
      255
176
     1
290
     0
176
     1
 90
       50
176
     1
 90
       50
176
     1
 90
       50
176
     1
290
     0
176
     1
 90
       50
176
     1
 62
   256
176
     0
 40
1.0
176
     0
 90
        2
176
     1
  1
strokes_ogs.tif
176
     1
290
     0
176
     1
 40
1.0
176
     1
 40
1.0
176
     1
  0
VISUALSTYLE
  5
24A
102
{ACAD_REACTORS
330
1EA
102
}
330
1EA
100
AcDbVisualStyle
  2
OverhangOff
 70
    21
177
     3
291
     1
 70
    58
 90
        2
176
     0
 90
        2
176
     0
 90
        0
176
     0
 90
        0
176
     0
 40
0.6
176
     0
 40
30.0
176
     0
 62
     7
420
 16777215
176
     0
 90
        1
176
     0
 90
        4
176
     0
 62
     7
176
     0
 62
   257
176
     0
 90
        1
176
     0
 90
        1
176
     0
 40
1.0
176
     0
 90
        9
176
     2
 62
     7
176
     0
 40
1.0
176
     0
 90
        1
176
     0
 90
        6
176
     0
 90
        2
176
     0
 62
     7
176
     0
 90
        5
176
     0
 90
        0
176
     0
 90
        0
176
     0
290
     0
176
     0
 90
        1
176
     0
 40
0.0
176
     0
 90
        0
176
     0
290
     0
176
     0
290
     1
176
     0
290
     1
176
     0
290
     0
176
     0
290
     0
176
     0
290
     0
176
     0
290
     0
176
     0
290
     0
176
     0
290
     0
176
     0
 90
       50
176
     0
 40
0.0
176
     0
 40
1.0
176
     0
 90
        0
176
     0
 62
    18
420
        0
176
     0
 90
       50
176
     0
 90
        3
176
     0
 62
     5
420
      255
176
     0
290
     0
176
     0
 90
       50
176
     0
 90
       50
176
     0
 90
       50
176
     0
290
     0
176
     0
 90
       50
176
     0
 62
   256
176
     0
 40
1.0
176
     0
 90
        2
176
     0
  1
strokes_ogs.tif
176
     0
290
     0
176
     0
 40
1.0
176
     0
 40
1.0
176
     0
  0
VISUALSTYLE
  5
1F3
102
{ACAD_REACTORS
330
1EA
102
}
330
1EA
100
AcDbVisualStyle
  2
Realistic
 70
     8
177
     3
291
     0
 70
    58
 90
        2
176
     1
 90
        2
176
     1
 90
        0
176
     1
 90
        0
176
     1
 40
-0.6
176
     1
 40
-30.0
176
     1
 62
     7
176
     1
 90
        1
176
     1
 90
        0
176
     1
 62
     7
176
     1
 62
   257
176
     1
 90
        1
176
     1
 90
        1
176
     1
 40
1.0
176
     1
 90
        8
176
     1
 62
     8
176
     1
 40
1.0
176
     1
 90
        1
176
     1
 90
        6
176
     1
 90
        2
176
     1
 62
     7
176
     1
 90
        5
176
     1
 90
        0
176
     1
 90
        0
176
     1
290
     0
176
     1
 90
       13
176
     1
 40
0.0
176
     1
 90
        0
176
     1
290
     0
176
     1
290
     1
176
     1
290
     1
176
     1
290
     0
176
     1
290
     0
176
     1
290
     0
176
     1
290
     0
176
     1
290
     0
176
     1
290
     0
176
     1
 90
       50
176
     1
 40
0.0
176
     1
 40
1.0
176
     1
 90
        0
176
     1
 62
    18
420
        0
176
     1
 90
       50
176
     1
 90
        3
176
     1
 62
     5
420
      255
176
     1
290
     0
176
     1
 90
       50
176
     1
 90
       50
176
     1
 90
       50
176
     1
290
     0
176
     1
 90
       50
176
     1
 62
   256
176
     0
 40
1.0
176
     0
 90
        2
176
     1
  1
strokes_ogs.tif
176
     1
290
     0
176
     1
 40
1.0
176
     1
 40
1.0
176
     1
  0
VISUALSTYLE
  5
250
102
{ACAD_REACTORS
330
1EA
102
}
330
1EA
100
AcDbVisualStyle
  2
Shaded
 70
    27
177
     3
291
     0
 70
    58
 90
        2
176
     1
 90
        2
176
     1
 90
        1
176
     1
 90
        2
176
     1
 40
0.6
176
     1
 40
30.0
176
     1
 62
     7
420
 16777215
176
     1
 90
        0
176
     1
 90
        4
176
     1
 62
     7
176
     1
 62
   257
176
     1
 90
        1
176
     1
 90
        1
176
     1
 40
1.0
176
     1
 90
        8
176
     1
 62
   257
176
     1
 40
1.0
176
     1
 90
        1
176
     1
 90
        6
176
     1
 90
        2
176
     1
 62
     8
420
  7895160
176
     1
 90
        3
176
     1
 90
        0
176
     1
 90
        0
176
     1
290
     0
176
     1
 90
        5
176
     1
 40
0.0
176
     1
 90
        0
176
     1
290
     0
176
     1
290
     1
176
     1
290
     1
176
     1
290
     0
176
     1
290
     0
176
     1
290
     0
176
     1
290
     0
176
     1
290
     0
176
     1
290
     0
176
     1
 90
       50
176
     1
 40
0.0
176
     1
 40
1.0
176
     1
 90
        0
176
     1
 62
    18
420
        0
176
     1
 90
       50
176
     1
 90
        3
176
     1
 62
     5
420
      255
176
     1
290
     0
176
     1
 90
       50
176
     1
 90
       50
176
     1
 90
       50
176
     1
290
     0
176
     1
 90
       50
176
     1
 62
   256
176
     0
 40
1.0
176
     0
 90
        2
176
     1
  1
strokes_ogs.tif
176
     1
290
     0
176
     1
 40
1.0
176
     1
 40
1.0
176
     1
  0
VISUALSTYLE
  5
24F
102
{ACAD_REACTORS
330
1EA
102
}
330
1EA
100
AcDbVisualStyle
  2
Shaded with edges
 70
    26
177
     3
291
     0
 70
    58
 90
        2
176
     1
 90
        2
176
     1
 90
        1
176
     1
 90
        2
176
     1
 40
0.6
176
     1
 40
30.0
176
     1
 62
     7
420
 16777215
176
     1
 90
        1
176
     1
 90
       10
176
     1
 62
     7
176
     1
 62
   257
176
     1
 90
        2
176
     1
 90
        1
176
     1
 40
1.0
176
     1
 90
        8
176
     1
 62
   257
176
     1
 40
1.0
176
     1
 90
        1
176
     1
 90
        6
176
     1
 90
        2
176
     1
 62
     7
176
     1
 90
        3
176
     1
 90
        0
176
     1
 90
        0
176
     1
290
     0
176
     1
 90
        5
176
     1
 40
0.0
176
     1
 90
        0
176
     1
290
     0
176
     1
290
     1
176
     1
290
     1
176
     1
290
     0
176
     1
290
     0
176
     1
290
     0
176
     1
290
     0
176
     1
290
     0
176
     1
290
     0
176
     1
 90
       50
176
     1
 40
0.0
176
     1
 40
1.0
176
     1
 90
        0
176
     1
 62
    18
420
        0
176
     1
 90
       50
176
     1
 90
        3
176
     1
 62
     5
420
      255
176
     1
290
     0
176
     1
 90
       50
176
     1
 90
       50
176
     1
 90
       50
176
     1
290
     0
176
     1
 90
       50
176
     1
 62
   256
176
     0
 40
1.0
176
     0
 90
        2
176
     1
  1
strokes_ogs.tif
176
     1
290
     0
176
     1
 40
1.0
176
     1
 40
1.0
176
     1
  0
VISUALSTYLE
  5
24C
102
{ACAD_REACTORS
330
1EA
102
}
330
1EA
100
AcDbVisualStyle
  2
Shades of Gray
 70
    23
177
     3
291
     0
 70
    58
 90
        2
176
     1
 90
        2
176
     1
 90
        3
176
     1
 90
        0
176
     1
 40
0.6
176
     1
 40
30.0
176
     1
 62
     7
420
 16777215
176
     1
 90
        2
176
     1
 90
        2
176
     1
 62
     7
176
     1
 62
     7
176
     1
 90
        1
176
     1
 90
        1
176
     1
 40
40.0
176
     1
 90
        8
176
     1
 62
     7
176
     1
 40
1.0
176
     1
 90
        1
176
     1
 90
        6
176
     1
 90
        2
176
     1
 62
     7
176
     1
 90
        3
176
     1
 90
        0
176
     1
 90
        0
176
     1
290
     0
176
     1
 90
        1
176
     1
 40
0.0
176
     1
 90
        0
176
     1
290
     0
176
     1
290
     1
176
     1
290
     1
176
     1
290
     0
176
     1
290
     0
176
     1
290
     0
176
     1
290
     0
176
     1
290
     0
176
     1
290
     0
176
     1
 90
       50
176
     1
 40
0.0
176
     1
 40
1.0
176
     1
 90
        0
176
     1
 62
    18
420
        0
176
     1
 90
       50
176
     1
 90
        3
176
     1
 62
     5
420
      255
176
     1
290
     0
176
     1
 90
       50
176
     1
 90
       50
176
     1
 90
       50
176
     1
290
     0
176
     1
 90
       50
176
     1
 62
   256
176
     0
 40
1.0
176
     0
 90
        2
176
     1
  1
strokes_ogs.tif
176
     1
290
     0
176
     1
 40
1.0
176
     1
 40
1.0
176
     1
  0
VISUALSTYLE
  5
24D
102
{ACAD_REACTORS
330
1EA
102
}
330
1EA
100
AcDbVisualStyle
  2
Sketchy
 70
    24
177
     3
291
     0
 70
    58
 90
        1
176
     1
 90
        2
176
     1
 90
        2
176
     1
 90
        0
176
     1
 40
0.6
176
     1
 40
30.0
176
     1
 62
     7
420
 16777215
176
     1
 90
        2
176
     1
 90
        2
176
     1
 62
     7
176
     1
 62
     7
176
     1
 90
        1
176
     1
 90
        1
176
     1
 40
40.0
176
     1
 90
       11
176
     1
 62
     7
176
     1
 40
1.0
176
     1
 90
        1
176
     1
 90
        6
176
     1
 90
        2
176
     1
 62
     7
176
     1
 90
        6
176
     1
 90
        0
176
     1
 90
        0
176
     1
290
     0
176
     1
 90
        1
176
     1
 40
0.0
176
     1
 90
        0
176
     1
290
     0
176
     1
290
     1
176
     1
290
     1
176
     1
290
     0
176
     1
290
     0
176
     1
290
     0
176
     1
290
     0
176
     1
290
     0
176
     1
290
     0
176
     1
 90
       50
176
     1
 40
0.0
176
     1
 40
1.0
176
     1
 90
        0
176
     1
 62
    18
420
        0
176
     1
 90
       50
176
     1
 90
        3
176
     1
 62
     5
420
      255
176
     1
290
     0
176
     1
 90
       50
176
     1
 90
       50
176
     1
 90
       50
176
     1
290
     0
176
     1
 90
       50
176
     1
 62
   256
176
     0
 40
1.0
176
     0
 90
        2
176
     1
  1
strokes_ogs.tif
176
     1
290
     0
176
     1
 40
1.0
176
     1
 40
1.0
176
     1
  0
VISUALSTYLE
  5
1F7
102
{ACAD_REACTORS
330
1EA
102
}
330
1EA
100
AcDbVisualStyle
  2
Thicken
 70
    13
177
     3
291
     1
 70
    58
 90
        2
176
     1
 90
        2
176
     1
 90
        0
176
     1
 90
        0
176
     1
 40
-0.6
176
     1
 40
-30.0
176
     1
 62
     7
176
     1
 90
        1
176
     1
 90
        4
176
     1
 62
     7
176
     1
 62
   257
176
     1
 90
        1
176
     1
 90
        1
176
     1
 40
1.0
176
     1
 90
       12
176
     1
 62
     7
176
     1
 40
1.0
176
     1
 90
        1
176
     1
 90
        6
176
     1
 90
        2
176
     1
 62
     7
176
     1
 90
        5
176
     1
 90
        0
176
     1
 90
        0
176
     1
290
     0
176
     1
 90
        1
176
     1
 40
0.0
176
     1
 90
        0
176
     1
290
     0
176
     1
290
     1
176
     1
290
     1
176
     1
290
     0
176
     1
290
     0
176
     1
290
     0
176
     1
290
     0
176
     1
290
     0
176
     1
290
     0
176
     1
 90
       50
176
     1
 40
0.0
176
     1
 40
1.0
176
     1
 90
        0
176
     1
 62
    18
420
        0
176
     1
 90
       50
176
     1
 90
        3
176
     1
 62
     5
420
      255
176
     1
290
     0
176
     1
 90
       50
176
     1
 90
       50
176
     1
 90
       50
176
     1
290
     0
176
     1
 90
       50
176
     1
 62
   256
176
     0
 40
1.0
176
     0
 90
        2
176
     1
  1
strokes_ogs.tif
176
     1
290
     0
176
     1
 40
1.0
176
     1
 40
1.0
176
     1
  0
VISUALSTYLE
  5
247
102
{ACAD_REACTORS
330
1EA
102
}
330
1EA
100
AcDbVisualStyle
  2
Wireframe
 70
     5
177
     3
291
     0
 70
    58
 90
        0
176
     1
 90
        2
176
     1
 90
        0
176
     1
 90
        0
176
     1
 40
0.6
176
     1
 40
30.0
176
     1
 62
     7
420
 16777215
176
     1
 90
        1
176
     1
 90
        4
176
     1
 62
     7
176
     1
 62
   257
176
     1
 90
        1
176
     1
 90
        1
176
     1
 40
1.0
176
     1
 90
        0
176
     1
 62
   257
176
     1
 40
1.0
176
     1
 90
        1
176
     1
 90
        6
176
     1
 90
        2
176
     1
 62
     7
176
     1
 90
        3
176
     1
 90
        0
176
     1
 90
        0
176
     1
290
     0
176
     1
 90
        1
176
     1
 40
0.0
176
     1
 90
        0
176
     1
290
     0
176
     1
290
     1
176
     1
290
     1
176
     1
290
     0
176
     1
290
     0
176
     1
290
     0
176
     1
290
     0
176
     1
290
     0
176
     1
290
     0
176
     1
 90
       50
176
     1
 40
0.0
176
     1
 40
1.0
176
     1
 90
        0
176
     1
 62
    18
420
        0
176
     1
 90
       50
176
     1
 90
        3
176
     1
 62
     5
420
      255
176
     1
290
     0
176
     1
 90
       50
176
     1
 90
       50
176
     1
 90
       50
176
     1
290
     0
176
     1
 90
       50
176
     1
 62
   256
176
     0
 40
1.0
176
     0
 90
        2
176
     1
  1
strokes_ogs.tif
176
     1
290
     0
176
     1
 40
1.0
176
     1
 40
1.0
176
     1
  0
VISUALSTYLE
  5
24E
102
{ACAD_REACTORS
330
1EA
102
}
330
1EA
100
AcDbVisualStyle
  2
X-Ray
 70
    25
177
     3
291
     0
 70
    58
 90
        2
176
     1
 90
        2
176
     1
 90
        1
176
     1
 90
        1
176
     1
 40
0.5
176
     1
 40
30.0
176
     1
 62
     7
420
 16777215
176
     1
 90
        1
176
     1
 90
        0
176
     1
 62
     7
176
     1
 62
   257
176
     1
 90
        1
176
     1
 90
        1
176
     1
 40
1.0
176
     1
 90
        8
176
     1
 62
     7
176
     1
 40
1.0
176
     1
 90
        1
176
     1
 90
        6
176
     1
 90
        2
176
     1
 62
     7
176
     1
 90
        3
176
     1
 90
        0
176
     1
 90
        0
176
     1
290
     0
176
     1
 90
       13
176
     1
 40
0.0
176
     1
 90
        0
176
     1
290
     0
176
     1
290
     1
176
     1
290
     1
176
     1
290
     0
176
     1
290
     0
176
     1
290
     0
176
     1
290
     0
176
     1
290
     0
176
     1
290
     0
176
     1
 90
       50
176
     1
 40
0.0
176
     1
 40
1.0
176
     1
 90
        0
176
     1
 62
    18
420
        0
176
     1
 90
       50
176
     1
 90
        3
176
     1
 62
     5
420
      255
176
     1
290
     0
176
     1
 90
       50
176
     1
 90
       50
176
     1
 90
       50
176
     1
290
     0
176
     1
 90
       50
176
     1
 62
   256
176
     0
 40
1.0
176
     0
 90
        2
176
     1
  1
strokes_ogs.tif
176
     1
290
     0
176
     1
 40
1.0
176
     1
 40
1.0
176
     1
  0
DICTIONARYVAR
  5
26C
102
{ACAD_REACTORS
330
206
102
}
330
206
100
DictionaryVariables
280
     0
  1
1:1
  0
DICTIONARYVAR
  5
26E
102
{ACAD_REACTORS
330
206
102
}
330
206
100
DictionaryVariables
280
     0
  1
Standard
  0
DICTIONARYVAR
  5
26D
102
{ACAD_REACTORS
330
206
102
}
330
206
100
DictionaryVariables
280
     0
  1
Standard
  0
DICTIONARYVAR
  5
20A
102
{ACAD_REACTORS
330
206
102
}
330
206
100
DictionaryVariables
280
     0
  1
2
  0
DICTIONARYVAR
  5
20B
102
{ACAD_REACTORS
330
206
102
}
330
206
100
DictionaryVariables
280
     0
  1
1
  0
DICTIONARYVAR
  5
209
102
{ACAD_REACTORS
330
206
102
}
330
206
100
DictionaryVariables
280
     0
  1
0
  0
XRECORD
  5
29A
102
{ACAD_REACTORS
330
298
102
}
330
298
100
AcDbXrecord
280
     1
  2

  2

  2

 40
0.0
 40
0.0
 90
        2
 40
1.570796326794897
 90
        8
 90
        4
 90
        0
 90
        5
  2

  2

  2

  2

290
     1
290
     0
  2
0
  2

  0
DICTIONARY
  5
36D
330
252
100
AcDbDictionary
280
     1
281
     1
  3
ACAD_ROUNDTRIP_2008_TABLESTYLE_CELLSTYLEMAP
360
36E
  0
CELLSTYLEMAP
  5
36E
102
{ACAD_REACTORS
330
36D
102
}
330
36D
100
AcDbCellStyleMap
 90
        3
300
CELLSTYLE
  1
TABLEFORMAT_BEGIN
 90
        5
170
     1
 91
        0
 92
    32768
 62
   257
 93
        1
300
CONTENTFORMAT
  1
CONTENTFORMAT_BEGIN
 90
        0
 91
        0
 92
        4
 93
        0
300

 40
0.0
140
1.0
 94
        5
 62
     0
340
11
144
0.25
309
CONTENTFORMAT_END
171
     1
301
MARGIN
  1
CELLMARGIN_BEGIN
 40
0.06
 40
0.06
 40
0.06
 40
0.06
 40
0.06
 40
0.06
309
CELLMARGIN_END
 94
        6
 95
        1
302
GRIDFORMAT
  1
GRIDFORMAT_BEGIN
 90
        0
 91
        1
 62
     0
 92
       -2
340
14
 93
        0
 40
0.045
309
GRIDFORMAT_END
 95
        2
302
GRIDFORMAT
  1
GRIDFORMAT_BEGIN
 90
        0
 91
        1
 62
     0
 92
       -2
340
14
 93
        0
 40
0.045
309
GRIDFORMAT_END
 95
        4
302
GRIDFORMAT
  1
GRIDFORMAT_BEGIN
 90
        0
 91
        1
 62
     0
 92
       -2
340
14
 93
        0
 40
0.045
309
GRIDFORMAT_END
 95
        8
302
GRIDFORMAT
  1
GRIDFORMAT_BEGIN
 90
        0
 91
        1
 62
     0
 92
       -2
340
14
 93
        0
 40
0.045
309
GRIDFORMAT_END
 95
       16
302
GRIDFORMAT
  1
GRIDFORMAT_BEGIN
 90
        0
 91
        1
 62
     0
 92
       -2
340
14
 93
        0
 40
0.045
309
GRIDFORMAT_END
 95
       32
302
GRIDFORMAT
  1
GRIDFORMAT_BEGIN
 90
        0
 91
        1
 62
     0
 92
       -2
340
14
 93
        0
 40
0.045
309
GRIDFORMAT_END
309
TABLEFORMAT_END
  1
CELLSTYLE_BEGIN
 90
        1
 91
        1
300
_TITLE
309
CELLSTYLE_END
300
CELLSTYLE
  1
TABLEFORMAT_BEGIN
 90
        5
170
     1
 91
        0
 92
        0
 62
   257
 93
        1
300
CONTENTFORMAT
  1
CONTENTFORMAT_BEGIN
 90
        0
 91
        0
 92
        4
 93
        0
300

 40
0.0
140
1.0
 94
        5
 62
     0
340
11
144
0.18
309
CONTENTFORMAT_END
171
     1
301
MARGIN
  1
CELLMARGIN_BEGIN
 40
0.06
 40
0.06
 40
0.06
 40
0.06
 40
0.06
 40
0.06
309
CELLMARGIN_END
 94
        6
 95
        1
302
GRIDFORMAT
  1
GRIDFORMAT_BEGIN
 90
        0
 91
        1
 62
     0
 92
       -2
340
14
 93
        0
 40
0.045
309
GRIDFORMAT_END
 95
        2
302
GRIDFORMAT
  1
GRIDFORMAT_BEGIN
 90
        0
 91
        1
 62
     0
 92
       -2
340
14
 93
        0
 40
0.045
309
GRIDFORMAT_END
 95
        4
302
GRIDFORMAT
  1
GRIDFORMAT_BEGIN
 90
        0
 91
        1
 62
     0
 92
       -2
340
14
 93
        0
 40
0.045
309
GRIDFORMAT_END
 95
        8
302
GRIDFORMAT
  1
GRIDFORMAT_BEGIN
 90
        0
 91
        1
 62
     0
 92
       -2
340
14
 93
        0
 40
0.045
309
GRIDFORMAT_END
 95
       16
302
GRIDFORMAT
  1
GRIDFORMAT_BEGIN
 90
        0
 91
        1
 62
     0
 92
       -2
340
14
 93
        0
 40
0.045
309
GRIDFORMAT_END
 95
       32
302
GRIDFORMAT
  1
GRIDFORMAT_BEGIN
 90
        0
 91
        1
 62
     0
 92
       -2
340
14
 93
        0
 40
0.045
309
GRIDFORMAT_END
309
TABLEFORMAT_END
  1
CELLSTYLE_BEGIN
 90
        2
 91
        1
300
_HEADER
309
CELLSTYLE_END
300
CELLSTYLE
  1
TABLEFORMAT_BEGIN
 90
        5
170
     1
 91
        0
 92
        0
 62
   257
 93
        1
300
CONTENTFORMAT
  1
CONTENTFORMAT_BEGIN
 90
        0
 91
        0
 92
        4
 93
        0
300

 40
0.0
140
1.0
 94
        2
 62
     0
340
11
144
0.18
309
CONTENTFORMAT_END
171
     1
301
MARGIN
  1
CELLMARGIN_BEGIN
 40
0.06
 40
0.06
 40
0.06
 40
0.06
 40
0.06
 40
0.06
309
CELLMARGIN_END
 94
        6
 95
        1
302
GRIDFORMAT
  1
GRIDFORMAT_BEGIN
 90
        0
 91
        1
 62
     0
 92
       -2
340
14
 93
        0
 40
0.045
309
GRIDFORMAT_END
 95
        2
302
GRIDFORMAT
  1
GRIDFORMAT_BEGIN
 90
        0
 91
        1
 62
     0
 92
       -2
340
14
 93
        0
 40
0.045
309
GRIDFORMAT_END
 95
        4
302
GRIDFORMAT
  1
GRIDFORMAT_BEGIN
 90
        0
 91
        1
 62
     0
 92
       -2
340
14
 93
        0
 40
0.045
309
GRIDFORMAT_END
 95
        8
302
GRIDFORMAT
  1
GRIDFORMAT_BEGIN
 90
        0
 91
        1
 62
     0
 92
       -2
340
14
 93
        0
 40
0.045
309
GRIDFORMAT_END
 95
       16
302
GRIDFORMAT
  1
GRIDFORMAT_BEGIN
 90
        0
 91
        1
 62
     0
 92
       -2
340
14
 93
        0
 40
0.045
309
GRIDFORMAT_END
 95
       32
302
GRIDFORMAT
  1
GRIDFORMAT_BEGIN
 90
        0
 91
        1
 62
     0
 92
       -2
340
14
 93
        0
 40
0.045
309
GRIDFORMAT_END
309
TABLEFORMAT_END
  1
CELLSTYLE_BEGIN
 90
        3
 91
        2
300
_DATA
309
CELLSTYLE_END
  0
ENDSEC
  0
EOF
