  0
SECTION
  2
HEADER
  9
$ACADVER
  1
AC1027
  9
$ACADMAINTVER
 70
   105
  9
$DWGCODEPAGE
  3
ANSI_1252
  9
$REQUIREDVERSIONS
160
                 0
  9
$LASTSAVEDBY
  1
matthias.ochs
  9
$INSBASE
 10
0.0
 20
0.0
 30
0.0
  9
$EXTMIN
 10
-30.95928030533439
 20
-36.04406257261728
 30
0.0
  9
$EXTMAX
 10
36.39392908803984
 20
35.14420500685662
 30
0.0
  9
$LIMMIN
 10
-39.194723847
 20
-12.854999996
  9
$LIMMAX
 10
40.893747253
 20
23.355
  9
$ORTHOMODE
 70
     0
  9
$REGENMODE
 70
     1
  9
$FILLMODE
 70
     1
  9
$QTEXTMODE
 70
     0
  9
$MIRRTEXT
 70
     1
  9
$LTSCALE
 40
1.0
  9
$ATTMODE
 70
     1
  9
$TEXTSIZE
 40
0.2
  9
$TRACEWID
 40
0.05
  9
$TEXTSTYLE
  7
Standard
  9
$CLAYER
  8
1
  9
$CELTYPE
  6
ByLayer
  9
$CECOLOR
 62
   256
  9
$CELTSCALE
 40
1.0
  9
$DISPSILH
 70
     0
  9
$DIMSCALE
 40
1.0
  9
$DIMASZ
 40
0.18
  9
$DIMEXO
 40
0.0625
  9
$DIMDLI
 40
0.38
  9
$DIMRND
 40
0.0
  9
$DIMDLE
 40
0.0
  9
$DIMEXE
 40
0.18
  9
$DIMTP
 40
0.0
  9
$DIMTM
 40
0.0
  9
$DIMTXT
 40
0.18
  9
$DIMCEN
 40
0.09
  9
$DIMTSZ
 40
0.0
  9
$DIMTOL
 70
     0
  9
$DIMLIM
 70
     0
  9
$DIMTIH
 70
     1
  9
$DIMTOH
 70
     1
  9
$DIMSE1
 70
     0
  9
$DIMSE2
 70
     0
  9
$DIMTAD
 70
     0
  9
$DIMZIN
 70
     0
  9
$DIMBLK
  1

  9
$DIMASO
 70
     1
  9
$DIMSHO
 70
     1
  9
$DIMPOST
  1

  9
$DIMAPOST
  1

  9
$DIMALT
 70
     0
  9
$DIMALTD
 70
     2
  9
$DIMALTF
 40
25.4
  9
$DIMLFAC
 40
1.0
  9
$DIMTOFL
 70
     0
  9
$DIMTVP
 40
0.0
  9
$DIMTIX
 70
     0
  9
$DIMSOXD
 70
     0
  9
$DIMSAH
 70
     0
  9
$DIMBLK1
  1

  9
$DIMBLK2
  1

  9
$DIMSTYLE
  2
Standard
  9
$DIMCLRD
 70
     0
  9
$DIMCLRE
 70
     0
  9
$DIMCLRT
 70
     0
  9
$DIMTFAC
 40
1.0
  9
$DIMGAP
 40
0.09
  9
$DIMJUST
 70
     0
  9
$DIMSD1
 70
     0
  9
$DIMSD2
 70
     0
  9
$DIMTOLJ
 70
     1
  9
$DIMTZIN
 70
     0
  9
$DIMALTZ
 70
     0
  9
$DIMALTTZ
 70
     0
  9
$DIMUPT
 70
     0
  9
$DIMDEC
 70
     4
  9
$DIMTDEC
 70
     4
  9
$DIMALTU
 70
     2
  9
$DIMALTTD
 70
     2
  9
$DIMTXSTY
  7
Standard
  9
$DIMAUNIT
 70
     0
  9
$DIMADEC
 70
     0
  9
$DIMALTRND
 40
0.0
  9
$DIMAZIN
 70
     0
  9
$DIMDSEP
 70
    46
  9
$DIMATFIT
 70
     3
  9
$DIMFRAC
 70
     0
  9
$DIMLDRBLK
  1

  9
$DIMLUNIT
 70
     2
  9
$DIMLWD
 70
    -2
  9
$DIMLWE
 70
    -2
  9
$DIMTMOVE
 70
     2
  9
$DIMFXL
 40
1.0
  9
$DIMFXLON
 70
     0
  9
$DIMJOGANG
 40
0.7853981633974483
  9
$DIMTFILL
 70
     0
  9
$DIMTFILLCLR
 70
     0
  9
$DIMARCSYM
 70
     0
  9
$DIMLTYPE
  6

  9
$DIMLTEX1
  6

  9
$DIMLTEX2
  6

  9
$DIMTXTDIRECTION
 70
     0
  9
$LUNITS
 70
     2
  9
$LUPREC
 70
     4
  9
$SKETCHINC
 40
0.1
  9
$FILLETRAD
 40
0.5
  9
$AUNITS
 70
     2
  9
$AUPREC
 70
     0
  9
$MENU
  1
.
  9
$ELEVATION
 40
0.0
  9
$PELEVATION
 40
0.0
  9
$THICKNESS
 40
0.0
  9
$LIMCHECK
 70
     0
  9
$CHAMFERA
 40
0.5
  9
$CHAMFERB
 40
0.5
  9
$CHAMFERC
 40
1.0
  9
$CHAMFERD
 40
0.0
  9
$SKPOLY
 70
     0
  9
$TDCREATE
 40
2458327.549557546
  9
$TDUCREATE
 40
2458327.466224213
  9
$TDUPDATE
 40
2458680.567070555
  9
$TDUUPDATE
 40
2458680.483737222
  9
$TDINDWG
 40
0.0064688542
  9
$TDUSRTIMER
 40
0.002868206
  9
$USRTIMER
 70
     1
  9
$ANGBASE
 50
0.0
  9
$ANGDIR
 70
     0
  9
$PDMODE
 70
     0
  9
$PDSIZE
 40
0.0
  9
$PLINEWID
 40
0.0
  9
$SPLFRAME
 70
     0
  9
$SPLINETYPE
 70
     6
  9
$SPLINESEGS
 70
     8
  9
$HANDSEED
  5
276
  9
$SURFTAB1
 70
     6
  9
$SURFTAB2
 70
     6
  9
$SURFTYPE
 70
     6
  9
$SURFU
 70
     6
  9
$SURFV
 70
     6
  9
$UCSBASE
  2

  9
$UCSNAME
  2

  9
$UCSORG
 10
0.0
 20
0.0
 30
0.0
  9
$UCSXDIR
 10
1.0
 20
0.0
 30
0.0
  9
$UCSYDIR
 10
0.0
 20
1.0
 30
0.0
  9
$UCSORTHOREF
  2

  9
$UCSORTHOVIEW
 70
     0
  9
$UCSORGTOP
 10
0.0
 20
0.0
 30
0.0
  9
$UCSORGBOTTOM
 10
0.0
 20
0.0
 30
0.0
  9
$UCSORGLEFT
 10
0.0
 20
0.0
 30
0.0
  9
$UCSORGRIGHT
 10
0.0
 20
0.0
 30
0.0
  9
$UCSORGFRONT
 10
0.0
 20
0.0
 30
0.0
  9
$UCSORGBACK
 10
0.0
 20
0.0
 30
0.0
  9
$PUCSBASE
  2

  9
$PUCSNAME
  2

  9
$PUCSORG
 10
0.0
 20
0.0
 30
0.0
  9
$PUCSXDIR
 10
1.0
 20
0.0
 30
0.0
  9
$PUCSYDIR
 10
0.0
 20
1.0
 30
0.0
  9
$PUCSORTHOREF
  2

  9
$PUCSORTHOVIEW
 70
     0
  9
$PUCSORGTOP
 10
0.0
 20
0.0
 30
0.0
  9
$PUCSORGBOTTOM
 10
0.0
 20
0.0
 30
0.0
  9
$PUCSORGLEFT
 10
0.0
 20
0.0
 30
0.0
  9
$PUCSORGRIGHT
 10
0.0
 20
0.0
 30
0.0
  9
$PUCSORGFRONT
 10
0.0
 20
0.0
 30
0.0
  9
$PUCSORGBACK
 10
0.0
 20
0.0
 30
0.0
  9
$USERI1
 70
     0
  9
$USERI2
 70
     0
  9
$USERI3
 70
     0
  9
$USERI4
 70
     0
  9
$USERI5
 70
     0
  9
$USERR1
 40
0.0
  9
$USERR2
 40
0.0
  9
$USERR3
 40
0.0
  9
$USERR4
 40
0.0
  9
$USERR5
 40
0.0
  9
$WORLDVIEW
 70
     1
  9
$SHADEDGE
 70
     3
  9
$SHADEDIF
 70
    70
  9
$TILEMODE
 70
     1
  9
$MAXACTVP
 70
    64
  9
$PINSBASE
 10
0.0
 20
0.0
 30
0.0
  9
$PLIMCHECK
 70
     0
  9
$PEXTMIN
 10
1.000000000000000E+20
 20
1.000000000000000E+20
 30
1.000000000000000E+20
  9
$PEXTMAX
 10
-1.000000000000000E+20
 20
-1.000000000000000E+20
 30
-1.000000000000000E+20
  9
$PLIMMIN
 10
0.0
 20
0.0
  9
$PLIMMAX
 10
0.0
 20
0.0
  9
$UNITMODE
 70
     0
  9
$VISRETAIN
 70
     1
  9
$PLINEGEN
 70
     0
  9
$PSLTSCALE
 70
     1
  9
$TREEDEPTH
 70
  3020
  9
$CMLSTYLE
  2
Standard
  9
$CMLJUST
 70
     0
  9
$CMLSCALE
 40
1.0
  9
$PROXYGRAPHICS
 70
     1
  9
$MEASUREMENT
 70
     0
  9
$CELWEIGHT
370
    -1
  9
$ENDCAPS
280
     0
  9
$JOINSTYLE
280
     0
  9
$LWDISPLAY
290
     0
  9
$INSUNITS
 70
     0
  9
$HYPERLINKBASE
  1

  9
$STYLESHEET
  1

  9
$XEDIT
290
     1
  9
$CEPSNTYPE
380
     0
  9
$PSTYLEMODE
290
     1
  9
$FINGERPRINTGUID
  2
{5CE47651-843D-4CB3-B4A3-9CACA87A12EB}
  9
$VERSIONGUID
  2
{FAEB1C32-E019-11D5-929B-00C0DF256EC4}
  9
$EXTNAMES
290
     1
  9
$PSVPSCALE
 40
0.0
  9
$OLESTARTUP
290
     0
  9
$SORTENTS
280
   127
  9
$INDEXCTL
280
     0
  9
$HIDETEXT
280
     1
  9
$XCLIPFRAME
280
     2
  9
$HALOGAP
280
     0
  9
$OBSCOLOR
 70
   257
  9
$OBSLTYPE
280
     0
  9
$INTERSECTIONDISPLAY
280
     0
  9
$INTERSECTIONCOLOR
 70
   257
  9
$DIMASSOC
280
     2
  9
$PROJECTNAME
  1

  9
$CAMERADISPLAY
290
     0
  9
$LENSLENGTH
 40
50.0
  9
$CAMERAHEIGHT
 40
0.0
  9
$STEPSPERSEC
 40
2.0
  9
$STEPSIZE
 40
6.0
  9
$3DDWFPREC
 40
2.0
  9
$PSOLWIDTH
 40
0.25
  9
$PSOLHEIGHT
 40
4.0
  9
$LOFTANG1
 40
1.570796326794897
  9
$LOFTANG2
 40
1.570796326794897
  9
$LOFTMAG1
 40
0.0
  9
$LOFTMAG2
 40
0.0
  9
$LOFTPARAM
 70
     7
  9
$LOFTNORMALS
280
     1
  9
$LATITUDE
 40
37.795
  9
$LONGITUDE
 40
-122.394
  9
$NORTHDIRECTION
 40
0.0
  9
$TIMEZONE
 70
 -8000
  9
$LIGHTGLYPHDISPLAY
280
     1
  9
$TILEMODELIGHTSYNCH
280
     1
  9
$SOLIDHIST
280
     0
  9
$SHOWHIST
280
     1
  9
$DWFFRAME
280
     2
  9
$DGNFRAME
280
     2
  9
$REALWORLDSCALE
290
     1
  9
$INTERFERECOLOR
 62
   256
  9
$CSHADOW
280
     0
  9
$SHADOWPLANELOCATION
 40
0.0
  0
ENDSEC
  0
SECTION
  2
CLASSES
  0
CLASS
  1
ACDBDICTIONARYWDFLT
  2
AcDbDictionaryWithDefault
  3
ObjectDBX Classes
 90
        0
 91
       21
280
     0
281
     0
  0
CLASS
  1
SCALE
  2
AcDbScale
  3
ObjectDBX Classes
 90
     1153
 91
       21
280
     0
281
     0
  0
CLASS
  1
VISUALSTYLE
  2
AcDbVisualStyle
  3
ObjectDBX Classes
 90
     4095
 91
       21
280
     0
281
     0
  0
CLASS
  1
MATERIAL
  2
AcDbMaterial
  3
ObjectDBX Classes
 90
     1153
 91
       21
280
     0
281
     0
  0
CLASS
  1
DICTIONARYVAR
  2
AcDbDictionaryVar
  3
ObjectDBX Classes
 90
        0
 91
       17
280
     0
281
     0
  0
CLASS
  1
ACDBPLACEHOLDER
  2
AcDbPlaceHolder
  3
ObjectDBX Classes
 90
        0
 91
        1
280
     0
281
     0
  0
CLASS
  1
LAYOUT
  2
AcDbLayout
  3
ObjectDBX Classes
 90
        0
 91
        1
280
     0
281
     0
  0
CLASS
  1
TABLESTYLE
  2
AcDbTableStyle
  3
ObjectDBX Classes
 90
     4095
 91
       20
280
     0
281
     0
  0
CLASS
  1
MLEADERSTYLE
  2
AcDbMLeaderStyle
  3
ACDB_MLEADERSTYLE_CLASS
 90
     4095
 91
       20
280
     0
281
     0
  0
CLASS
  1
CELLSTYLEMAP
  2
AcDbCellStyleMap
  3
ObjectDBX Classes
 90
     1152
 91
        8
280
     0
281
     0
  0
CLASS
  1
SUN
  2
AcDbSun
  3
SCENEOE
 90
     1153
 91
       21
280
     0
281
     0
  0
CLASS
  1
SORTENTSTABLE
  2
AcDbSortentsTable
  3
ObjectDBX Classes
 90
        0
 91
       16
280
     0
281
     0
  0
ENDSEC
  0
SECTION
  2
TABLES
  0
TABLE
  2
VPORT
  5
8
330
0
100
AcDbSymbolTable
 70
     1
  0
VPORT
  5
137
330
8
100
AcDbSymbolTableRecord
100
AcDbViewportTableRecord
  2
*Active
 70
     0
 10
0.0
 20
0.0
 11
1.0
 21
1.0
 12
17.65772900192815
 22
11.92322857723234
 13
0.0
 23
0.0
 14
0.5
 24
0.5
 15
0.5
 25
0.5
 16
0.0
 26
0.0
 36
1.0
 17
0.0
 27
0.0
 37
0.0
 40
202.9059469165219
 41
1.831002331002331
 42
50.0
 43
0.0
 44
0.0
 50
0.0
 51
0.0
 71
    16
 72
   100
 73
     1
 74
     3
 75
     0
 76
     0
 77
     0
 78
     0
281
     0
 65
     1
110
0.0
120
0.0
130
0.0
111
1.0
121
0.0
131
0.0
112
0.0
122
1.0
132
0.0
 79
     0
146
0.0
348
167
 60
     3
 61
     5
292
     1
282
     1
141
0.0
142
0.0
 63
   256
361
1FB
  0
ENDTAB
  0
TABLE
  2
LTYPE
  5
5
330
0
100
AcDbSymbolTable
 70
     8
  0
LTYPE
  5
14
330
5
100
AcDbSymbolTableRecord
100
AcDbLinetypeTableRecord
  2
ByBlock
 70
     0
  3

 72
    65
 73
     0
 40
0.0
  0
LTYPE
  5
15
330
5
100
AcDbSymbolTableRecord
100
AcDbLinetypeTableRecord
  2
ByLayer
 70
     0
  3

 72
    65
 73
     0
 40
0.0
  0
LTYPE
  5
16
330
5
100
AcDbSymbolTableRecord
100
AcDbLinetypeTableRecord
  2
Continuous
 70
     0
  3
Solid line
 72
    65
 73
     0
 40
0.0
  0
LTYPE
  5
20
330
5
100
AcDbSymbolTableRecord
100
AcDbLinetypeTableRecord
  2
PUNKT
 70
     0
  3
..............
 72
    65
 73
     2
 40
1.5
 49
0.7
 74
     0
 49
-0.8
 74
     0
  0
LTYPE
  5
21
330
5
100
AcDbSymbolTableRecord
100
AcDbLinetypeTableRecord
  2
GESTRICHELT
 70
     0
  3
-- -- -- -- --
 72
    65
 73
     7
 40
2.8
 49
0.9
 74
     0
 49
0.0
 74
     0
 49
0.9
 74
     0
 49
0.0
 74
     0
 49
0.2
 74
     0
 49
0.0
 74
     0
 49
-0.8
 74
     0
  0
LTYPE
  5
22
330
5
100
AcDbSymbolTableRecord
100
AcDbLinetypeTableRecord
  2
STRICHPUNKT
 70
     0
  3
--.--.--.--.--
 72
    65
 73
     4
 40
8.8
 49
5.5
 74
     0
 49
-1.3
 74
     0
 49
0.7
 74
     0
 49
-1.3
 74
     0
  0
LTYPE
  5
25
330
5
100
AcDbSymbolTableRecord
100
AcDbLinetypeTableRecord
  2
PHANTOM
 70
     0
  3
--..--..--..--
 72
    65
 73
     6
 40
14.2
 49
7.0
 74
     0
 49
-1.8
 74
     0
 49
0.9
 74
     0
 49
-1.8
 74
     0
 49
0.9
 74
     0
 49
-1.8
 74
     0
  0
LTYPE
  5
1AD
330
5
100
AcDbSymbolTableRecord
100
AcDbLinetypeTableRecord
  2
DASH
 70
     0
  3
DASH _ _ _ _ _
 72
    65
 73
     2
 40
0.75
 49
0.4
 74
     0
 49
-0.35
 74
     0
  0
LTYPE
  5
1AE
330
5
100
AcDbSymbolTableRecord
100
AcDbLinetypeTableRecord
  2
LONGDASH_DASH
 70
     0
  3
LONGDASH_DASH __ . __ . __
 72
    65
 73
     4
 40
0.85
 49
0.4
 74
     0
 49
-0.2
 74
     0
 49
0.05
 74
     0
 49
-0.2
 74
     0
  0
LTYPE
  5
1AF
330
5
100
AcDbSymbolTableRecord
100
AcDbLinetypeTableRecord
  2
LONGDASH_DASH_DASH
 70
     0
  3
LONGDASH_DASH_DASH __ . . __ . . __
 72
    65
 73
     6
 40
1.1
 49
0.4
 74
     0
 49
-0.2
 74
     0
 49
0.05
 74
     0
 49
-0.2
 74
     0
 49
0.05
 74
     0
 49
-0.2
 74
     0
  0
ENDTAB
  0
TABLE
  2
LAYER
  5
2
102
{ACAD_XDICTIONARY
360
1CC
102
}
330
0
100
AcDbSymbolTable
 70
    16
  0
LAYER
  5
178
330
2
100
AcDbSymbolTableRecord
100
AcDbLayerTableRecord
  2
200
 70
     0
 62
     2
  6
Continuous
370
    50
390
F
347
176
348
0
  0
LAYER
  5
1B0
330
2
100
AcDbSymbolTableRecord
100
AcDbLayerTableRecord
  2
0
 70
     0
 62
     1
  6
Continuous
370
    -3
390
F
347
176
348
0
  0
LAYER
  5
1B1
330
2
100
AcDbSymbolTableRecord
100
AcDbLayerTableRecord
  2
1
 70
     0
 62
     4
  6
Continuous
370
    50
390
F
347
176
348
0
  0
LAYER
  5
1B2
330
2
100
AcDbSymbolTableRecord
100
AcDbLayerTableRecord
  2
2
 70
     0
 62
     7
  6
Continuous
370
    25
390
F
347
176
348
0
  0
LAYER
  5
1B3
330
2
100
AcDbSymbolTableRecord
100
AcDbLayerTableRecord
  2
3
 70
     0
 62
     1
  6
DASH
370
    35
390
F
347
176
348
0
  0
LAYER
  5
1B4
330
2
100
AcDbSymbolTableRecord
100
AcDbLayerTableRecord
  2
4
 70
     0
 62
     2
  6
LONGDASH_DASH
370
    25
390
F
347
176
348
0
  0
LAYER
  5
1B5
330
2
100
AcDbSymbolTableRecord
100
AcDbLayerTableRecord
  2
6
 70
     0
 62
     5
  6
Continuous
370
    -3
390
F
347
176
348
0
  0
LAYER
  5
1B6
330
2
100
AcDbSymbolTableRecord
100
AcDbLayerTableRecord
  2
CUT
 70
     0
 62
     1
  6
Continuous
370
    25
390
F
347
176
348
0
  0
LAYER
  5
1B7
330
2
100
AcDbSymbolTableRecord
100
AcDbLayerTableRecord
  2
NOCUT
 70
     0
 62
     7
  6
Continuous
370
    25
390
F
347
176
348
0
  0
LAYER
  5
1B8
330
2
100
AcDbSymbolTableRecord
100
AcDbLayerTableRecord
  2
SK1
 70
     0
 62
     4
  6
Continuous
370
    50
390
F
347
176
348
0
  0
LAYER
  5
1B9
330
2
100
AcDbSymbolTableRecord
100
AcDbLayerTableRecord
  2
SK2
 70
     0
 62
     7
  6
Continuous
370
    25
390
F
347
176
348
0
  0
LAYER
  5
1BA
330
2
100
AcDbSymbolTableRecord
100
AcDbLayerTableRecord
  2
SK3
 70
     0
 62
     1
  6
DASH
370
    35
390
F
347
176
348
0
  0
LAYER
  5
1BB
330
2
100
AcDbSymbolTableRecord
100
AcDbLayerTableRecord
  2
SK4
 70
     0
 62
     2
  6
LONGDASH_DASH
370
    25
390
F
347
176
348
0
  0
LAYER
  5
1BC
330
2
100
AcDbSymbolTableRecord
100
AcDbLayerTableRecord
  2
SK6
 70
     0
 62
     5
  6
Continuous
370
    -3
390
F
347
176
348
0
  0
LAYER
  5
1BD
330
2
100
AcDbSymbolTableRecord
100
AcDbLayerTableRecord
  2
INFTOTAL
 70
     0
 62
     9
  6
Continuous
370
    18
390
F
347
176
348
0
  0
LAYER
  5
224
330
2
100
AcDbSymbolTableRecord
100
AcDbLayerTableRecord
  2
7
 70
     0
 62
     5
  6
Continuous
370
    18
390
F
347
176
348
0
1001
AcAecLayerStandard
1000

1000

  0
ENDTAB
  0
TABLE
  2
STYLE
  5
3
330
0
100
AcDbSymbolTable
 70
     3
  0
STYLE
  5
11
330
3
100
AcDbSymbolTableRecord
100
AcDbTextStyleTableRecord
  2
Standard
 70
     0
 40
0.0
 41
1.0
 50
0.0
 71
     0
 42
0.2
  3
txt
  4

  0
STYLE
  5
177
330
3
100
AcDbSymbolTableRecord
100
AcDbTextStyleTableRecord
  2
BMG_Text
 70
     0
 40
3.5
 41
1.0
 50
0.0
 71
     0
 42
0.2
  3
monos.ttf
  4

1001
ACAD
1000
Monospac821 BT
1071
       49
  0
STYLE
  5
22A
330
3
100
AcDbSymbolTableRecord
100
AcDbTextStyleTableRecord
  2
SLDTEXTSTYLE0
 70
     0
 40
0.0
 41
0.605
 50
0.0
 71
     0
 42
0.2
  3
TXT
  4

  0
ENDTAB
  0
TABLE
  2
VIEW
  5
6
330
0
100
AcDbSymbolTable
 70
     0
  0
ENDTAB
  0
TABLE
  2
UCS
  5
7
330
0
100
AcDbSymbolTable
 70
     0
  0
ENDTAB
  0
TABLE
  2
APPID
  5
9
330
0
100
AcDbSymbolTable
 70
     3
  0
APPID
  5
12
330
9
100
AcDbSymbolTableRecord
100
AcDbRegAppTableRecord
  2
ACAD
 70
     0
  0
APPID
  5
225
330
9
100
AcDbSymbolTableRecord
100
AcDbRegAppTableRecord
  2
AcAecLayerStandard
 70
     0
  0
APPID
  5
22D
330
9
100
AcDbSymbolTableRecord
100
AcDbRegAppTableRecord
  2
PE_URL
 70
     0
  0
ENDTAB
  0
TABLE
  2
DIMSTYLE
  5
A
330
0
100
AcDbSymbolTable
 70
     6
100
AcDbDimStyleTable
  0
DIMSTYLE
105
28
330
A
100
AcDbSymbolTableRecord
100
AcDbDimStyleTableRecord
  2
Standard
 70
     0
178
     0
340
11
  0
DIMSTYLE
105
226
330
A
100
AcDbSymbolTableRecord
100
AcDbDimStyleTableRecord
  2
Matthias
 70
     0
 41
3.0
 44
2.0
 73
     0
 77
     1
140
3.0
147
2.0
178
     0
340
11
  0
DIMSTYLE
105
228
102
{ACAD_REACTORS
102
}
330
A
100
AcDbSymbolTableRecord
100
AcDbDimStyleTableRecord
  2
ISO-25
 70
     0
 41
2.5
 42
0.625
 43
3.75
 44
1.25
 73
     0
 74
     0
 77
     1
 78
     8
140
2.5
141
2.5
143
0.0393700787
147
0.625
171
     3
172
     1
178
     0
271
     2
272
     2
274
     3
278
    44
283
     0
284
     8
340
11
  0
DIMSTYLE
105
229
330
A
100
AcDbSymbolTableRecord
100
AcDbDimStyleTableRecord
  2
SLDDIMSTYLE0
 70
     0
 41
3.5
 44
0.0
 45
0.000000001
 73
     0
 74
     0
 77
     1
 78
    12
 79
     3
140
3.5
144
0.5
147
0.875
173
     1
178
     0
271
     2
272
     1
276
     2
284
    12
340
22A
  0
DIMSTYLE
105
22B
330
A
100
AcDbSymbolTableRecord
100
AcDbDimStyleTableRecord
  2
SLDDIMSTYLE1
 70
     0
 41
3.5
 44
0.0
 45
0.000000001
 73
     0
 74
     0
 77
     1
 78
    12
 79
     3
140
3.5
144
0.5
147
0.875
173
     1
178
     0
271
     2
272
     3
276
     2
284
    12
340
22A
  0
DIMSTYLE
105
22C
330
A
100
AcDbSymbolTableRecord
100
AcDbDimStyleTableRecord
  2
SLDDIMSTYLE2
 70
     0
 41
3.5
 44
0.0
 45
0.000000001
 73
     0
 74
     0
 77
     1
 78
    12
 79
     3
140
3.5
147
0.875
173
     1
178
     0
271
     2
272
     0
276
     2
284
    12
340
22A
  0
ENDTAB
  0
TABLE
  2
BLOCK_RECORD
  5
1
330
0
100
AcDbSymbolTable
 70
     1
  0
BLOCK_RECORD
  5
1D
102
{ACAD_XDICTIONARY
360
266
102
}
330
1
100
AcDbSymbolTableRecord
100
AcDbBlockTableRecord
  2
*Model_Space
340
1E
 70
     0
280
     1
281
     0
  0
BLOCK_RECORD
  5
1B
330
1
100
AcDbSymbolTableRecord
100
AcDbBlockTableRecord
  2
*Paper_Space
340
1C
 70
     0
280
     1
281
     0
  0
ENDTAB
  0
ENDSEC
  0
SECTION
  2
BLOCKS
  0
BLOCK
  5
160
330
1D
100
AcDbEntity
  8
0
100
AcDbBlockBegin
  2
*Model_Space
 70
     0
 10
0.0
 20
0.0
 30
0.0
  3
*Model_Space
  1

  0
ENDBLK
  5
161
330
1D
100
AcDbEntity
  8
0
100
AcDbBlockEnd
  0
BLOCK
  5
15E
330
1B
100
AcDbEntity
 67
     1
  8
0
100
AcDbBlockBegin
  2
*Paper_Space
 70
     0
 10
0.0
 20
0.0
 30
0.0
  3
*Paper_Space
  1

  0
ENDBLK
  5
15F
330
1B
100
AcDbEntity
 67
     1
  8
0
100
AcDbBlockEnd
  0
ENDSEC
  0
SECTION
  2
ENTITIES
  0
LINE
  5
29
330
1D
100
AcDbEntity
  8
1
100
AcDbLine
 10
3.259746065225301
 20
11.892855171
 30
0.0
 11
3.244407182225301
 21
11.867500845
 31
0.0
  0
LINE
  5
2A
330
1D
100
AcDbEntity
  8
1
100
AcDbLine
 10
3.244407182225301
 20
11.867500845
 30
0.0
 11
3.199334895225301
 21
11.840335097
 31
0.0
  0
LINE
  5
2B
330
1D
100
AcDbEntity
  8
1
100
AcDbLine
 10
3.199334895225301
 20
11.840335097
 30
0.0
 11
3.125514542225301
 21
11.812405664
 31
0.0
  0
LINE
  5
2C
330
1D
100
AcDbEntity
  8
1
100
AcDbLine
 10
3.125514542225301
 20
11.812405664
 30
0.0
 11
3.025367563225302
 21
11.785021055
 31
0.0
  0
LINE
  5
2D
330
1D
100
AcDbEntity
  8
1
100
AcDbLine
 10
3.025367563225302
 20
11.785021055
 30
0.0
 11
2.900872086225301
 21
11.759517718
 31
0.0
  0
LINE
  5
2E
330
1D
100
AcDbEntity
  8
1
100
AcDbLine
 10
2.900872086225301
 20
11.759517718
 30
0.0
 11
2.755988096225301
 21
11.737391356
 31
0.0
  0
LINE
  5
2F
330
1D
100
AcDbEntity
  8
1
100
AcDbLine
 10
2.755988096225301
 20
11.737391356
 30
0.0
 11
2.596426462225301
 21
11.720235463
 31
0.0
  0
LINE
  5
30
330
1D
100
AcDbEntity
  8
1
100
AcDbLine
 10
2.596426462225301
 20
11.720235463
 30
0.0
 11
2.425377895225302
 21
11.70878392
 31
0.0
  0
LINE
  5
31
330
1D
100
AcDbEntity
  8
1
100
AcDbLine
 10
2.425377895225302
 20
11.70878392
 30
0.0
 11
2.251686235225301
 21
11.703963395
 31
0.0
  0
LINE
  5
32
330
1D
100
AcDbEntity
  8
1
100
AcDbLine
 10
2.251686235225301
 20
11.703963395
 30
0.0
 11
2.076783856225302
 21
11.705649089
 31
0.0
  0
LINE
  5
33
330
1D
100
AcDbEntity
  8
1
100
AcDbLine
 10
2.076783856225302
 20
11.705649089
 30
0.0
 11
1.908065458225301
 21
11.713705029
 31
0.0
  0
LINE
  5
34
330
1D
100
AcDbEntity
  8
1
100
AcDbLine
 10
1.908065458225301
 20
11.713705029
 30
0.0
 11
1.747745727225301
 21
11.727475564
 31
0.0
  0
LINE
  5
35
330
1D
100
AcDbEntity
  8
1
100
AcDbLine
 10
1.747745727225301
 20
11.727475564
 30
0.0
 11
1.599283596225301
 21
11.746359061
 31
0.0
  0
LINE
  5
36
330
1D
100
AcDbEntity
  8
1
100
AcDbLine
 10
1.599283596225301
 20
11.746359061
 30
0.0
 11
1.467592721225301
 21
11.769087988
 31
0.0
  0
LINE
  5
37
330
1D
100
AcDbEntity
  8
1
100
AcDbLine
 10
1.467592721225301
 20
11.769087988
 30
0.0
 11
1.354157632225301
 21
11.795013215
 31
0.0
  0
LINE
  5
38
330
1D
100
AcDbEntity
  8
1
100
AcDbLine
 10
1.354157632225301
 20
11.795013215
 30
0.0
 11
1.264633318225302
 21
11.822304692
 31
0.0
  0
LINE
  5
39
330
1D
100
AcDbEntity
  8
1
100
AcDbLine
 10
1.264633318225302
 20
11.822304692
 30
0.0
 11
1.200893601225302
 21
11.850100945
 31
0.0
  0
LINE
  5
3A
330
1D
100
AcDbEntity
  8
1
100
AcDbLine
 10
1.200893601225302
 20
11.850100945
 30
0.0
 11
1.166108703225301
 21
11.876758191
 31
0.0
  0
LINE
  5
3B
330
1D
100
AcDbEntity
  8
1
100
AcDbLine
 10
1.166108703225301
 20
11.876758191
 30
0.0
 11
1.161796679225301
 21
11.90124173
 31
0.0
  0
LINE
  5
3C
330
1D
100
AcDbEntity
  8
1
100
AcDbLine
 10
1.161796679225301
 20
11.90124173
 30
0.0
 11
1.187888612225301
 21
11.922852139
 31
0.0
  0
LINE
  5
3D
330
1D
100
AcDbEntity
  8
1
100
AcDbLine
 10
1.187888612225301
 20
11.922852139
 30
0.0
 11
1.243535136225302
 21
11.94090769
 31
0.0
  0
LINE
  5
3E
330
1D
100
AcDbEntity
  8
1
100
AcDbLine
 10
1.243535136225302
 20
11.94090769
 30
0.0
 11
1.326968600225301
 21
11.955585334
 31
0.0
  0
LINE
  5
3F
330
1D
100
AcDbEntity
  8
1
100
AcDbLine
 10
1.326968600225301
 20
11.955585334
 30
0.0
 11
1.435070937225301
 21
11.96684223
 31
0.0
  0
LINE
  5
40
330
1D
100
AcDbEntity
  8
1
100
AcDbLine
 10
1.435070937225301
 20
11.96684223
 30
0.0
 11
1.565150623225301
 21
11.975196193
 31
0.0
  0
LINE
  5
41
330
1D
100
AcDbEntity
  8
1
100
AcDbLine
 10
1.565150623225301
 20
11.975196193
 30
0.0
 11
1.713175033225302
 21
11.981005784
 31
0.0
  0
LINE
  5
42
330
1D
100
AcDbEntity
  8
1
100
AcDbLine
 10
1.713175033225302
 20
11.981005784
 30
0.0
 11
1.875191634225301
 21
11.984753426
 31
0.0
  0
LINE
  5
43
330
1D
100
AcDbEntity
  8
1
100
AcDbLine
 10
1.875191634225301
 20
11.984753426
 30
0.0
 11
2.046746840225302
 21
11.986801404
 31
0.0
  0
LINE
  5
44
330
1D
100
AcDbEntity
  8
1
100
AcDbLine
 10
2.046746840225302
 20
11.986801404
 30
0.0
 11
2.222891604225302
 21
11.987385343
 31
0.0
  0
LINE
  5
45
330
1D
100
AcDbEntity
  8
1
100
AcDbLine
 10
2.222891604225302
 20
11.987385343
 30
0.0
 11
2.398751383225302
 21
11.986592788
 31
0.0
  0
LINE
  5
46
330
1D
100
AcDbEntity
  8
1
100
AcDbLine
 10
2.398751383225302
 20
11.986592788
 30
0.0
 11
2.569282134225301
 21
11.984308253
 31
0.0
  0
LINE
  5
47
330
1D
100
AcDbEntity
  8
1
100
AcDbLine
 10
2.569282134225301
 20
11.984308253
 30
0.0
 11
2.729532947225302
 21
11.980274695
 31
0.0
  0
LINE
  5
48
330
1D
100
AcDbEntity
  8
1
100
AcDbLine
 10
2.729532947225302
 20
11.980274695
 30
0.0
 11
2.875126605225301
 21
11.974116791
 31
0.0
  0
LINE
  5
49
330
1D
100
AcDbEntity
  8
1
100
AcDbLine
 10
2.875126605225301
 20
11.974116791
 30
0.0
 11
3.001631876225301
 21
11.965389367
 31
0.0
  0
LINE
  5
4A
330
1D
100
AcDbEntity
  8
1
100
AcDbLine
 10
3.001631876225301
 20
11.965389367
 30
0.0
 11
3.105858048225302
 21
11.953732933
 31
0.0
  0
LINE
  5
4B
330
1D
100
AcDbEntity
  8
1
100
AcDbLine
 10
3.105858048225302
 20
11.953732933
 30
0.0
 11
3.184577157225302
 21
11.938810352
 31
0.0
  0
LINE
  5
4C
330
1D
100
AcDbEntity
  8
1
100
AcDbLine
 10
3.184577157225302
 20
11.938810352
 30
0.0
 11
3.236036455225301
 21
11.920602995
 31
0.0
  0
LINE
  5
4D
330
1D
100
AcDbEntity
  8
1
100
AcDbLine
 10
3.236036455225301
 20
11.920602995
 30
0.0
 11
3.259746065225301
 21
11.892855171
 31
0.0
  0
ARC
  5
4E
330
1D
100
AcDbEntity
  8
1
100
AcDbCircle
 10
-0.6197436857746986
 20
8.202118086999999
 30
0.0
 40
0.671503954
100
AcDbArc
 50
148.1681476
 51
176.88068064
  0
ARC
  5
4F
330
1D
100
AcDbEntity
  8
1
100
AcDbCircle
 10
9.5008189462253
 20
-10.134029598
 30
0.0
 40
21.531999796
100
AcDbArc
 50
115.918532341
 51
119.770042751
  0
LINE
  5
50
330
1D
100
AcDbEntity
  8
1
100
AcDbLine
 10
0.0922788732253015
 20
9.226154538999998
 30
0.0
 11
0.1452823032253014
 21
9.262903596999998
 31
0.0
  0
LINE
  5
51
330
1D
100
AcDbEntity
  8
1
100
AcDbLine
 10
0.1452823032253014
 20
9.262903596999998
 30
0.0
 11
0.1826842182253014
 21
9.318167346999997
 31
0.0
  0
LINE
  5
52
330
1D
100
AcDbEntity
  8
1
100
AcDbLine
 10
0.1826842182253014
 20
9.318167346999997
 30
0.0
 11
0.1918279432253014
 21
9.378212506999999
 31
0.0
  0
LINE
  5
53
330
1D
100
AcDbEntity
  8
1
100
AcDbLine
 10
0.1918279432253014
 20
9.378212506999999
 30
0.0
 11
0.1672615162253014
 21
9.444228376999998
 31
0.0
  0
LINE
  5
54
330
1D
100
AcDbEntity
  8
1
100
AcDbLine
 10
0.1672615162253014
 20
9.444228376999998
 30
0.0
 11
0.1237613012253015
 21
9.486193771999998
 31
0.0
  0
LINE
  5
55
330
1D
100
AcDbEntity
  8
1
100
AcDbLine
 10
0.1237613012253015
 20
9.486193771999998
 30
0.0
 11
0.0922782932253015
 21
9.503582285999999
 31
0.0
  0
ARC
  5
56
330
1D
100
AcDbEntity
  8
1
100
AcDbCircle
 10
-8.716262358774701
 20
-10.134029598
 30
0.0
 40
21.522690095
100
AcDbArc
 50
65.841162402
 51
67.461812867
  0
ARC
  5
57
330
1D
100
AcDbEntity
  8
1
100
AcDbCircle
 10
-10.6813599737747
 20
-14.869265947
 30
0.0
 40
26.648560742
100
AcDbArc
 50
67.461812867
 51
68.23678951700002
  0
LINE
  5
58
330
1D
100
AcDbEntity
  8
1
100
AcDbLine
 10
-0.8009041797746986
 20
9.879711086999999
 30
0.0
 11
0.0829581972253015
 21
9.894963356999998
 31
0.0
  0
LINE
  5
59
330
1D
100
AcDbEntity
  8
1
100
AcDbLine
 10
0.0829581972253015
 20
9.894963356999998
 30
0.0
 11
0.9629965622253014
 21
9.951472285999998
 31
0.0
  0
LINE
  5
5A
330
1D
100
AcDbEntity
  8
1
100
AcDbLine
 10
0.9629965622253014
 20
9.951472285999998
 30
0.0
 11
1.829353799225302
 21
10.048435073
 31
0.0
  0
LINE
  5
5B
330
1D
100
AcDbEntity
  8
1
100
AcDbLine
 10
1.829353799225302
 20
10.048435073
 30
0.0
 11
2.315506046225301
 21
10.122253563
 31
0.0
  0
LINE
  5
5C
330
1D
100
AcDbEntity
  8
1
100
AcDbLine
 10
2.315506046225301
 20
10.122253563
 30
0.0
 11
2.790650060225301
 21
10.213344361
 31
0.0
  0
LINE
  5
5D
330
1D
100
AcDbEntity
  8
1
100
AcDbLine
 10
2.790650060225301
 20
10.213344361
 30
0.0
 11
3.244142686225302
 21
10.326119143
 31
0.0
  0
LINE
  5
5E
330
1D
100
AcDbEntity
  8
1
100
AcDbLine
 10
3.244142686225302
 20
10.326119143
 30
0.0
 11
3.502316480225301
 21
10.407745841
 31
0.0
  0
LINE
  5
5F
330
1D
100
AcDbEntity
  8
1
100
AcDbLine
 10
3.502316480225301
 20
10.407745841
 30
0.0
 11
3.734137570225301
 21
10.504101406
 31
0.0
  0
LINE
  5
60
330
1D
100
AcDbEntity
  8
1
100
AcDbLine
 10
3.734137570225301
 20
10.504101406
 30
0.0
 11
3.881925424225301
 21
10.593089278
 31
0.0
  0
LINE
  5
61
330
1D
100
AcDbEntity
  8
1
100
AcDbLine
 10
3.881925424225301
 20
10.593089278
 30
0.0
 11
3.936232706225301
 21
10.64336859
 31
0.0
  0
LINE
  5
62
330
1D
100
AcDbEntity
  8
1
100
AcDbLine
 10
3.936232706225301
 20
10.64336859
 30
0.0
 11
3.969823649225301
 21
10.696346875
 31
0.0
  0
LINE
  5
63
330
1D
100
AcDbEntity
  8
1
100
AcDbLine
 10
3.969823649225301
 20
10.696346875
 30
0.0
 11
3.971196418225301
 21
10.774283673
 31
0.0
  0
LINE
  5
64
330
1D
100
AcDbEntity
  8
1
100
AcDbLine
 10
3.971196418225301
 20
10.774283673
 30
0.0
 11
3.916153391225301
 21
10.846016
 31
0.0
  0
LINE
  5
65
330
1D
100
AcDbEntity
  8
1
100
AcDbLine
 10
3.916153391225301
 20
10.846016
 30
0.0
 11
3.758838107225301
 21
10.934814814
 31
0.0
  0
LINE
  5
66
330
1D
100
AcDbEntity
  8
1
100
AcDbLine
 10
3.758838107225301
 20
10.934814814
 30
0.0
 11
3.573365216225302
 21
10.997801091
 31
0.0
  0
LINE
  5
67
330
1D
100
AcDbEntity
  8
1
100
AcDbLine
 10
3.573365216225302
 20
10.997801091
 30
0.0
 11
3.367047464225302
 21
11.048104617
 31
0.0
  0
LINE
  5
68
330
1D
100
AcDbEntity
  8
1
100
AcDbLine
 10
3.367047464225302
 20
11.048104617
 30
0.0
 11
2.938022544225301
 21
11.122879575
 31
0.0
  0
LINE
  5
69
330
1D
100
AcDbEntity
  8
1
100
AcDbLine
 10
2.938022544225301
 20
11.122879575
 30
0.0
 11
2.486271491225302
 21
11.175504889
 31
0.0
  0
LINE
  5
6A
330
1D
100
AcDbEntity
  8
1
100
AcDbLine
 10
2.486271491225302
 20
11.175504889
 30
0.0
 11
2.024555286225302
 21
11.212795976
 31
0.0
  0
LINE
  5
6B
330
1D
100
AcDbEntity
  8
1
100
AcDbLine
 10
2.024555286225302
 20
11.212795976
 30
0.0
 11
1.692177479225301
 21
11.232960525
 31
0.0
  0
ARC
  5
6C
330
1D
100
AcDbEntity
  8
1
100
AcDbCircle
 10
-28.3449644797747
 20
-549.721529222
 30
0.0
 40
561.758105829
100
AcDbArc
 50
86.934939492
 51
87.22929682299998
  0
LINE
  5
6D
330
1D
100
AcDbEntity
  8
1
100
AcDbLine
 10
-1.190252894774699
 20
11.376972313
 30
0.0
 11
-1.290252724774699
 21
11.276194829
 31
0.0
  0
ARC
  5
6E
330
1D
100
AcDbEntity
  8
1
100
AcDbCircle
 10
-0.8886244517746986
 20
9.098971094999998
 30
0.0
 40
0.401716198
100
AcDbArc
 50
138.664066877
 51
178.801210208
  0
ARC
  5
6F
330
1D
100
AcDbEntity
  8
1
100
AcDbCircle
 10
-3.884913863774698
 20
11.793249162
 30
0.0
 40
3.627811715
100
AcDbArc
 50
317.9686387740001
 51
325.262943815
  0
ARC
  5
70
330
1D
100
AcDbEntity
  8
1
100
AcDbCircle
 10
-2.558837896774699
 20
10.87376121
 30
0.0
 40
2.01765536
100
AcDbArc
 50
325.262943815
 51
330.513371132
  0
LINE
  5
71
330
1D
100
AcDbEntity
  8
1
100
AcDbLine
 10
-1.290252724774699
 20
3.255380087999999
 30
0.0
 11
4.009746539225302
 21
3.255380164999999
 31
0.0
  0
ARC
  5
72
330
1D
100
AcDbEntity
  8
1
100
AcDbCircle
 10
-15.4079205157747
 20
0.0000000029999985
 30
0.0
 40
19.688659016
100
AcDbArc
 50
0.0
 51
9.517155341
  0
ARC
  5
73
330
1D
100
AcDbEntity
  8
1
100
AcDbCircle
 10
-15.4079205157747
 20
0.0000000029999985
 30
0.0
 40
19.677474676
100
AcDbArc
 50
350.4828444889998
 51
0.0
  0
LINE
  5
74
330
1D
100
AcDbEntity
  8
1
100
AcDbLine
 10
4.009745722225302
 20
-3.255380082000001
 30
0.0
 11
-1.290252724774699
 21
-3.255380082000001
 31
0.0
  0
LINE
  5
75
330
1D
100
AcDbEntity
  8
1
100
AcDbLine
 10
-1.290252724774699
 20
-4.323319063000001
 30
0.0
 11
-1.259913960774699
 21
-4.663809665000001
 31
0.0
  0
LINE
  5
76
330
1D
100
AcDbEntity
  8
1
100
AcDbLine
 10
-1.259913960774699
 20
-4.663809665000001
 30
0.0
 11
-1.190253460774699
 21
-4.989157747000002
 31
0.0
  0
ARC
  5
77
330
1D
100
AcDbEntity
  8
1
100
AcDbCircle
 10
6.560532903225302
 20
1.138801895999999
 30
0.0
 40
9.880616309
100
AcDbArc
 50
218.330751412
 51
218.7879778189999
  0
ARC
  5
78
330
1D
100
AcDbEntity
  8
1
100
AcDbCircle
 10
8.5646250172253
 20
2.749441090999999
 30
0.0
 40
12.451685072
100
AcDbArc
 50
218.787977819
 51
227.089139634
  0
ARC
  5
79
330
1D
100
AcDbEntity
  8
1
100
AcDbCircle
 10
-0.1769971227746986
 20
-6.625832987000002
 30
0.0
 40
0.37529201
100
AcDbArc
 50
315.849246753
 51
44.15066825399992
  0
ARC
  5
7A
330
1D
100
AcDbEntity
  8
1
100
AcDbCircle
 10
-7.780068430774698
 20
2.749441090999999
 30
0.0
 40
12.443452207
100
AcDbArc
 50
305.4947965810001
 51
309.245886761
  0
ARC
  5
7B
330
1D
100
AcDbEntity
  8
1
100
AcDbCircle
 10
-13.0463893777747
 20
10.134029604
 30
0.0
 40
21.521761358
100
AcDbArc
 50
303.092897861
 51
305.494703262
  0
ARC
  5
7C
330
1D
100
AcDbEntity
  8
1
100
AcDbCircle
 10
-0.4924521257746985
 20
-8.162042773000001
 30
0.0
 40
0.801470983
100
AcDbArc
 50
185.48548871
 51
209.4656916289999
  0
ARC
  5
7D
330
1D
100
AcDbEntity
  8
1
100
AcDbCircle
 10
9.5008189462253
 20
10.134029604
 30
0.0
 40
21.531999796
100
AcDbArc
 50
240.229957249
 51
244.08146766
  0
ARC
  5
7E
330
1D
100
AcDbEntity
  8
1
100
AcDbCircle
 10
0.0399124362253015
 20
-9.364868511000001
 30
0.0
 40
0.148269388
100
AcDbArc
 50
290.682031235
 51
69.31778777699986
  0
ARC
  5
7F
330
1D
100
AcDbEntity
  8
1
100
AcDbCircle
 10
-8.716262358774701
 20
10.134029604
 30
0.0
 40
21.522690095
100
AcDbArc
 50
292.538187133
 51
294.158837598
  0
ARC
  5
80
330
1D
100
AcDbEntity
  8
1
100
AcDbCircle
 10
-10.6813599737747
 20
14.869265953
 30
0.0
 40
26.648560742
100
AcDbArc
 50
290.635322675
 51
292.538187133
  0
ARC
  5
81
330
1D
100
AcDbEntity
  8
1
100
AcDbCircle
 10
-0.8286946737746986
 20
-10.143214412
 30
0.0
 40
0.468827354
100
AcDbArc
 50
190.102765844
 51
219.5385008220001
  0
ARC
  5
82
330
1D
100
AcDbEntity
  8
1
100
AcDbCircle
 10
7.135789542225302
 20
14.869265953
 30
0.0
 40
26.645194835
100
AcDbArc
 50
251.79135694
 51
254.671728072
  0
LINE
  5
83
330
1D
100
AcDbEntity
  8
1
100
AcDbLine
 10
0.0922788732253015
 20
-10.827647519
 30
0.0
 11
0.1445167562253014
 21
-10.84832288
 31
0.0
  0
LINE
  5
84
330
1D
100
AcDbEntity
  8
1
100
AcDbLine
 10
0.1445167562253014
 20
-10.84832288
 30
0.0
 11
0.1815778072253015
 21
-10.878896338
 31
0.0
  0
LINE
  5
85
330
1D
100
AcDbEntity
  8
1
100
AcDbLine
 10
0.1815778072253015
 20
-10.878896338
 30
0.0
 11
0.1921483182253015
 21
-10.912011374
 31
0.0
  0
LINE
  5
86
330
1D
100
AcDbEntity
  8
1
100
AcDbLine
 10
0.1921483182253015
 20
-10.912011374
 30
0.0
 11
0.1780518192253014
 21
-10.94236504
 31
0.0
  0
LINE
  5
87
330
1D
100
AcDbEntity
  8
1
100
AcDbLine
 10
0.1780518192253014
 20
-10.94236504
 30
0.0
 11
0.1442317712253014
 21
-10.967382227
 31
0.0
  0
LINE
  5
88
330
1D
100
AcDbEntity
  8
1
100
AcDbLine
 10
0.1442317712253014
 20
-10.967382227
 30
0.0
 11
0.0922782932253015
 21
-10.986448505
 31
0.0
  0
ARC
  5
89
330
1D
100
AcDbEntity
  8
1
100
AcDbCircle
 10
-6.351232954774698
 20
14.869265953
 30
0.0
 40
26.646515857
100
AcDbArc
 50
283.135797857
 51
283.993652502
  0
ARC
  5
8A
330
1D
100
AcDbEntity
  8
1
100
AcDbCircle
 10
-8.2679757447747
 20
23.08201302
 30
0.0
 40
35.082013017
100
AcDbArc
 50
281.637809997
 51
283.136063108
  0
LINE
  5
8B
330
1D
100
AcDbEntity
  8
1
100
AcDbLine
 10
-1.190252894774699
 20
-11.282816526
 30
0.0
 11
-1.227911854774699
 21
-11.252936904
 31
0.0
  0
LINE
  5
8C
330
1D
100
AcDbEntity
  8
1
100
AcDbLine
 10
-1.227911854774699
 20
-11.252936904
 30
0.0
 11
-1.259619662774699
 21
-11.233152818
 31
0.0
  0
LINE
  5
8D
330
1D
100
AcDbEntity
  8
1
100
AcDbLine
 10
-1.259619662774699
 20
-11.233152818
 30
0.0
 11
-1.281854057774699
 21
-11.226991188
 31
0.0
  0
LINE
  5
8E
330
1D
100
AcDbEntity
  8
1
100
AcDbLine
 10
-1.281854057774699
 20
-11.226991188
 30
0.0
 11
-1.290252724774699
 21
-11.238215488
 31
0.0
  0
ARC
  5
8F
330
1D
100
AcDbEntity
  8
1
100
AcDbCircle
 10
-0.8604229237746986
 20
-11.184456109
 30
0.0
 40
0.459379481
100
AcDbArc
 50
200.6625626320001
 51
224.1111732999999
  0
ARC
  5
90
330
1D
100
AcDbEntity
  8
1
100
AcDbCircle
 10
4.722405312225303
 20
23.08201302
 30
0.0
 40
35.087979127
100
AcDbArc
 50
260.29882888
 51
262.431017142
  0
LINE
  5
91
330
1D
100
AcDbEntity
  8
1
100
AcDbLine
 10
0.1007054802253015
 20
-11.699635532
 30
0.0
 11
0.1511701252253015
 21
-11.710163203
 31
0.0
  0
LINE
  5
92
330
1D
100
AcDbEntity
  8
1
100
AcDbLine
 10
0.1511701252253015
 20
-11.710163203
 30
0.0
 11
0.1829505762253014
 21
-11.723673899
 31
0.0
  0
LINE
  5
93
330
1D
100
AcDbEntity
  8
1
100
AcDbLine
 10
0.1829505762253014
 20
-11.723673899
 30
0.0
 11
0.1921464552253015
 21
-11.73824351
 31
0.0
  0
LINE
  5
94
330
1D
100
AcDbEntity
  8
1
100
AcDbLine
 10
0.1921464552253015
 20
-11.73824351
 30
0.0
 11
0.1784168982253015
 21
-11.752040122
 31
0.0
  0
LINE
  5
95
330
1D
100
AcDbEntity
  8
1
100
AcDbLine
 10
0.1784168982253015
 20
-11.752040122
 30
0.0
 11
0.1440082542253014
 21
-11.763694693
 31
0.0
  0
LINE
  5
96
330
1D
100
AcDbEntity
  8
1
100
AcDbLine
 10
0.1440082542253014
 20
-11.763694693
 30
0.0
 11
0.0922782932253015
 21
-11.772256595
 31
0.0
  0
ARC
  5
97
330
1D
100
AcDbEntity
  8
1
100
AcDbCircle
 10
-3.937848725774698
 20
23.08201302
 30
0.0
 40
35.086493614
100
AcDbArc
 50
274.491647846
 51
276.595701963
  0
ARC
  5
98
330
1D
100
AcDbEntity
  8
1
100
AcDbCircle
 10
-1.407655657774699
 20
-12.067443954
 30
0.0
 40
0.277684894
100
AcDbArc
 50
38.47204996800007
 51
64.98902023800018
  0
ARC
  5
99
330
1D
100
AcDbEntity
  8
1
100
AcDbCircle
 10
-0.7365273347746987
 20
-11.469328852
 30
0.0
 40
0.67210208
100
AcDbArc
 50
214.5258089019999
 51
227.539277348
  0
ARC
  5
9A
330
1D
100
AcDbEntity
  8
1
100
AcDbCircle
 10
0.3922782932253015
 20
23.08201302
 30
0.0
 40
35.082889915
100
AcDbArc
 50
267.41460386
 51
269.51003684
  0
ARC
  5
9B
330
1D
100
AcDbEntity
  8
1
100
AcDbCircle
 10
-0.0080352077746985
 20
-24.037053149
 30
0.0
 40
12.03872083
100
AcDbArc
 50
89.174149179
 51
89.52257054
  0
LINE
  5
9C
330
1D
100
AcDbEntity
  8
1
100
AcDbLine
 10
0.1654826902253015
 20
-11.999582869
 30
0.0
 11
7.514435631225302
 21
-11.999583323
 31
0.0
  0
ARC
  5
9D
330
1D
100
AcDbEntity
  8
1
100
AcDbCircle
 10
7.503042070225303
 20
-11.789283547
 30
0.0
 40
0.210608188
100
AcDbArc
 50
273.1011224860001
 51
296.3499577850002
  0
LINE
  5
9E
330
1D
100
AcDbEntity
  8
1
100
AcDbLine
 10
7.594190245225303
 20
-11.97330374
 30
0.0
 11
7.594190245225303
 21
-11.848628518
 31
0.0
  0
ARC
  5
9F
330
1D
100
AcDbEntity
  8
1
100
AcDbCircle
 10
7.674131450225302
 20
-12.022202522
 30
0.0
 40
0.191098224
100
AcDbArc
 50
83.97484982799999
 51
114.728896139
  0
LINE
  5
A0
330
1D
100
AcDbEntity
  8
1
100
AcDbLine
 10
7.694190075225302
 20
-11.832159941
 30
0.0
 11
12.1743601612253
 21
-11.832159941
 31
0.0
  0
LINE
  5
A1
330
1D
100
AcDbEntity
  8
1
100
AcDbLine
 10
12.1743601612253
 20
-11.832159941
 30
0.0
 11
12.1743601612253
 21
-3.452775065000001
 31
0.0
  0
LINE
  5
A3
330
1D
100
AcDbEntity
  8
1
100
AcDbLine
 10
12.1743601612253
 20
-3.452775065000001
 30
0.0
 11
11.3878545212253
 21
-2.998685694000002
 31
0.0
  0
LINE
  5
A4
330
1D
100
AcDbEntity
  8
1
100
AcDbLine
 10
11.3878545212253
 20
-2.998685694000002
 30
0.0
 11
10.5933320572253
 21
-2.539967882000001
 31
0.0
  0
LINE
  5
A5
330
1D
100
AcDbEntity
  8
1
100
AcDbLine
 10
10.5933320572253
 20
-2.539967882000001
 30
0.0
 11
9.7920183892253
 21
-2.077329435000001
 31
0.0
  0
LINE
  5
A6
330
1D
100
AcDbEntity
  8
1
100
AcDbLine
 10
9.7920183892253
 20
-2.077329435000001
 30
0.0
 11
8.9851521752253
 21
-1.611484794000001
 31
0.0
  0
LINE
  5
A7
330
1D
100
AcDbEntity
  8
1
100
AcDbLine
 10
8.9851521752253
 20
-1.611484794000001
 30
0.0
 11
8.1739776632253
 21
-1.143152706000001
 31
0.0
  0
LINE
  5
A8
330
1D
100
AcDbEntity
  8
1
100
AcDbLine
 10
8.1739776632253
 20
-1.143152706000001
 30
0.0
 11
7.359746550225302
 21
-0.6730562860000016
 31
0.0
  0
ARC
  5
A9
330
1D
100
AcDbEntity
  8
1
100
AcDbCircle
 10
8.3597428832253
 20
1.058992593999999
 30
0.0
 40
1.999996497
100
AcDbArc
 50
179.999943589
 51
240.000063367
  0
LINE
  5
AA
330
1D
100
AcDbEntity
  8
1
100
AcDbLine
 10
6.359746387225302
 20
1.058994562999999
 30
0.0
 11
6.359746387225302
 21
9.055513891999999
 31
0.0
  0
LINE
  5
AB
330
1D
100
AcDbEntity
  8
1
100
AcDbLine
 10
6.359746387225302
 20
9.055513891999999
 30
0.0
 11
6.151256790225302
 21
9.416628631999998
 31
0.0
  0
LINE
  5
AC
330
1D
100
AcDbEntity
  8
1
100
AcDbLine
 10
6.151256790225302
 20
9.416628631999998
 30
0.0
 11
5.954855760225302
 21
9.756805377999997
 31
0.0
  0
LINE
  5
AD
330
1D
100
AcDbEntity
  8
1
100
AcDbLine
 10
5.954855760225302
 20
9.756805377999997
 30
0.0
 11
5.770979156225303
 21
10.075287897
 31
0.0
  0
LINE
  5
AE
330
1D
100
AcDbEntity
  8
1
100
AcDbLine
 10
5.770979156225303
 20
10.075287897
 30
0.0
 11
5.600038623225302
 21
10.37136745
 31
0.0
  0
LINE
  5
AF
330
1D
100
AcDbEntity
  8
1
100
AcDbLine
 10
5.600038623225302
 20
10.37136745
 30
0.0
 11
5.442410414225303
 21
10.644386526
 31
0.0
  0
LINE
  5
B0
330
1D
100
AcDbEntity
  8
1
100
AcDbLine
 10
5.442410414225303
 20
10.644386526
 30
0.0
 11
5.298448433225302
 21
10.893736969
 31
0.0
  0
LINE
  5
B1
330
1D
100
AcDbEntity
  8
1
100
AcDbLine
 10
5.298448433225302
 20
10.893736969
 30
0.0
 11
5.168469330225302
 21
11.118865575
 31
0.0
  0
LINE
  5
B2
330
1D
100
AcDbEntity
  8
1
100
AcDbLine
 10
5.168469330225302
 20
11.118865575
 30
0.0
 11
5.052765538225302
 21
11.319271292
 31
0.0
  0
LINE
  5
B3
330
1D
100
AcDbEntity
  8
1
100
AcDbLine
 10
5.052765538225302
 20
11.319271292
 30
0.0
 11
4.951592242225303
 21
11.494508016
 31
0.0
  0
LINE
  5
B4
330
1D
100
AcDbEntity
  8
1
100
AcDbLine
 10
4.951592242225303
 20
11.494508016
 30
0.0
 11
4.865174820225302
 21
11.644186455
 31
0.0
  0
LINE
  5
B5
330
1D
100
AcDbEntity
  8
1
100
AcDbLine
 10
4.865174820225302
 20
11.644186455
 30
0.0
 11
4.793706988225303
 21
11.767974127
 31
0.0
  0
LINE
  5
B6
330
1D
100
AcDbEntity
  8
1
100
AcDbLine
 10
4.793706988225303
 20
11.767974127
 30
0.0
 11
4.737345209225302
 21
11.865595359
 31
0.0
  0
LINE
  5
B7
330
1D
100
AcDbEntity
  8
1
100
AcDbLine
 10
4.737345209225302
 20
11.865595359
 30
0.0
 11
4.696216141225302
 21
11.936832223
 31
0.0
  0
LINE
  5
B8
330
1D
100
AcDbEntity
  8
1
100
AcDbLine
 10
4.696216141225302
 20
11.936832223
 30
0.0
 11
4.670411055225302
 21
11.981528256
 31
0.0
  0
LINE
  5
B9
330
1D
100
AcDbEntity
  8
1
100
AcDbLine
 10
4.670411055225302
 20
11.981528256
 30
0.0
 11
4.659987693225302
 21
11.999582875
 31
0.0
  0
LINE
  5
BA
330
1D
100
AcDbEntity
  8
1
100
AcDbLine
 10
7.514435505225302
 20
11.999582875
 30
0.0
 11
0.1654826902253017
 21
11.999582875
 31
0.0
  0
LINE
  5
BB
330
1D
100
AcDbEntity
  8
1
100
AcDbLine
 10
0.1654826902253015
 20
11.999582875
 30
0.0
 11
0.1439747262253014
 21
11.999292302
 31
0.0
  0
LINE
  5
BC
330
1D
100
AcDbEntity
  8
1
100
AcDbLine
 10
0.1439747262253014
 20
11.999292302
 30
0.0
 11
0.0922782932253015
 21
11.998749938
 31
0.0
  0
ARC
  5
BD
330
1D
100
AcDbEntity
  8
1
100
AcDbCircle
 10
0.3922782932253015
 20
-23.082013013
 30
0.0
 40
35.082045683
100
AcDbArc
 50
90.489964112
 51
92.585395229
  0
ARC
  5
BE
330
1D
100
AcDbEntity
  8
1
100
AcDbCircle
 10
-0.7623103867746986
 20
11.491767457
 30
0.0
 40
0.638154235
100
AcDbArc
 50
132.1129395210001
 51
145.821948313
  0
ARC
  5
BF
330
1D
100
AcDbEntity
  8
1
100
AcDbCircle
 10
-1.463965140774699
 20
12.138822308
 30
0.0
 40
0.366770231
100
AcDbArc
 50
298.270015036
 51
318.2688202109999
  0
ARC
  5
C0
330
1D
100
AcDbEntity
  8
1
100
AcDbCircle
 10
-3.937848725774698
 20
-23.082013013
 30
0.0
 40
35.08445251
100
AcDbArc
 50
83.39142692399999
 51
85.508353037
  0
LINE
  5
C1
330
1D
100
AcDbEntity
  8
1
100
AcDbLine
 10
0.1001038452253015
 20
11.771314781
 30
0.0
 11
0.1505368252253015
 21
11.762077923
 31
0.0
  0
LINE
  5
C2
330
1D
100
AcDbEntity
  8
1
100
AcDbLine
 10
0.1505368252253015
 20
11.762077923
 30
0.0
 11
0.1826339262253014
 21
11.74959727
 31
0.0
  0
LINE
  5
C3
330
1D
100
AcDbEntity
  8
1
100
AcDbLine
 10
0.1826339262253014
 20
11.74959727
 30
0.0
 11
0.1921688072253014
 21
11.735285635
 31
0.0
  0
LINE
  5
C4
330
1D
100
AcDbEntity
  8
1
100
AcDbLine
 10
0.1921688072253014
 20
11.735285635
 30
0.0
 11
0.1785193432253014
 21
11.720930229
 31
0.0
  0
LINE
  5
C5
330
1D
100
AcDbEntity
  8
1
100
AcDbLine
 10
0.1785193432253014
 20
11.720930229
 30
0.0
 11
0.1441125622253014
 21
11.708209294
 31
0.0
  0
LINE
  5
C6
330
1D
100
AcDbEntity
  8
1
100
AcDbLine
 10
0.1441125622253014
 20
11.708209294
 30
0.0
 11
0.0922782932253015
 21
11.698460355
 31
0.0
  0
ARC
  5
C7
330
1D
100
AcDbEntity
  8
1
100
AcDbCircle
 10
4.722405312225303
 20
-23.082013013
 30
0.0
 40
35.087311153
100
AcDbArc
 50
97.58287689199999
 51
99.70117026799998
  0
ARC
  5
C8
330
1D
100
AcDbEntity
  8
1
100
AcDbCircle
 10
-0.9634364507746986
 20
11.24979741
 30
0.0
 40
0.340838363
100
AcDbArc
 50
131.7181085859999
 51
163.5081257019999
  0
LINE
  5
C9
330
1D
100
AcDbEntity
  8
1
100
AcDbLine
 10
12.1743601612253
 20
-3.452775065000001
 30
0.0
 11
12.3299729872253
 21
-3.542618823000002
 31
0.0
  0
LINE
  5
CA
330
1D
100
AcDbEntity
  8
1
100
AcDbLine
 10
12.3299729872253
 20
-3.542618823000002
 30
0.0
 11
12.4470216092253
 21
-3.610196753000001
 31
0.0
  0
LINE
  5
CB
330
1D
100
AcDbEntity
  8
1
100
AcDbLine
 10
12.4470216092253
 20
-3.610196753000001
 30
0.0
 11
12.5078406982253
 21
-3.645310641000001
 31
0.0
  0
LINE
  5
CC
330
1D
100
AcDbEntity
  8
1
100
AcDbLine
 10
12.5078406982253
 20
-3.645310641000001
 30
0.0
 11
12.5485124502253
 21
-3.668791668000001
 31
0.0
  0
ARC
  5
CD
330
1D
100
AcDbEntity
  8
1
100
AcDbCircle
 10
51.49767753122531
 20
-1.099999997000001
 30
0.0
 40
39.033782178
100
AcDbArc
 50
183.7733306329999
 51
185.3447222309999
  0
ARC
  5
CE
330
1D
100
AcDbEntity
  8
1
100
AcDbCircle
 10
19.0049229002253
 20
-4.139810228000002
 30
0.0
 40
6.390971581
100
AcDbArc
 50
185.3450241509999
 51
192.6069937729999
  0
ARC
  5
CF
330
1D
100
AcDbEntity
  8
1
100
AcDbCircle
 10
14.5263267792253
 20
-5.141469074000002
 30
0.0
 40
1.801729415
100
AcDbArc
 50
192.6069937729999
 51
207.0028841099999
  0
ARC
  5
D0
330
1D
100
AcDbEntity
  8
1
100
AcDbCircle
 10
12.9870794332253
 20
-5.925852748000001
 30
0.0
 40
0.074147249
100
AcDbArc
 50
207.0026238009999
 51
332.9973761990001
  0
ARC
  5
D2
330
1D
100
AcDbEntity
  8
1
100
AcDbCircle
 10
11.4478320872253
 20
-5.141469074000002
 30
0.0
 40
1.801729415
100
AcDbArc
 50
332.9971158899999
 51
347.393006227
  0
ARC
  5
D3
330
1D
100
AcDbEntity
  8
1
100
AcDbCircle
 10
6.969235965225303
 20
-4.139810228000002
 30
0.0
 40
6.390971581
100
AcDbArc
 50
347.393006227
 51
354.654975849
  0
ARC
  5
D4
330
1D
100
AcDbEntity
  8
1
100
AcDbCircle
 10
-25.5235186657747
 20
-1.099999997000001
 30
0.0
 40
39.025608851
100
AcDbArc
 50
354.655277769
 51
354.710681924
  0
ARC
  5
D5
330
1D
100
AcDbEntity
  8
1
100
AcDbCircle
 10
16.9097465392253
 20
-1.199999997000001
 30
0.0
 40
5.0
100
AcDbArc
 50
224.3892936419999
 51
229.458386829
  0
LINE
  5
D6
330
1D
100
AcDbEntity
  8
1
100
AcDbLine
 10
13.6597451622253
 20
-4.999671128000002
 30
0.0
 11
13.6597451622253
 21
-6.160059475000002
 31
0.0
  0
LINE
  5
D7
330
1D
100
AcDbEntity
  8
1
100
AcDbLine
 10
13.6597451622253
 20
-6.160059475000002
 30
0.0
 11
13.5861744042253
 21
-6.228018083000002
 31
0.0
  0
LINE
  5
D8
330
1D
100
AcDbEntity
  8
1
100
AcDbLine
 10
13.5861744042253
 20
-6.228018083000002
 30
0.0
 11
13.4705589152253
 21
-6.207528270000002
 31
0.0
  0
ARC
  5
D9
330
1D
100
AcDbEntity
  8
1
100
AcDbCircle
 10
13.5960306602253
 20
-6.245600256000002
 30
0.0
 40
0.133188416
100
AcDbArc
 50
167.6391761929999
 51
174.834712783
  0
ARC
  5
DA
330
1D
100
AcDbEntity
  8
1
100
AcDbCircle
 10
14.2811522042253
 20
-6.307531815000002
 30
0.0
 40
0.821103417
100
AcDbArc
 50
174.834774516
 51
179.978507624
  0
LINE
  5
DB
330
1D
100
AcDbEntity
  8
1
100
AcDbLine
 10
13.4600472502253
 20
-6.307223809000002
 30
0.0
 11
13.4600472502253
 21
-11.578536589
 31
0.0
  0
ARC
  5
DC
330
1D
100
AcDbEntity
  8
1
100
AcDbCircle
 10
13.0578443202253
 20
-11.581547604
 30
0.0
 40
0.4022142
100
AcDbArc
 50
260.3743302650001
 51
0.4289257460000945
  0
LINE
  5
DD
330
1D
100
AcDbEntity
  8
1
100
AcDbLine
 10
12.9905898922253
 20
-11.978099119
 30
0.0
 11
12.1743601612253
 21
-11.832159941
 31
0.0
  0
LINE
  5
DE
330
1D
100
AcDbEntity
  8
1
100
AcDbLine
 10
-1.290252724774699
 20
4.323319069999998
 30
0.0
 11
-1.263462299774698
 21
4.640758040999998
 31
0.0
  0
LINE
  5
DF
330
1D
100
AcDbEntity
  8
1
100
AcDbLine
 10
-1.263462299774698
 20
4.640758040999998
 30
0.0
 11
-1.190253460774699
 21
4.989157752999998
 31
0.0
  0
ARC
  5
E0
330
1D
100
AcDbEntity
  8
1
100
AcDbCircle
 10
6.560532903225302
 20
-1.138801889000001
 30
0.0
 40
9.880616309
100
AcDbArc
 50
141.212022181
 51
141.669248588
  0
ARC
  5
E1
330
1D
100
AcDbEntity
  8
1
100
AcDbCircle
 10
8.5646250172253
 20
-2.749441084000001
 30
0.0
 40
12.451685072
100
AcDbArc
 50
132.910860366
 51
141.212022181
  0
LINE
  5
E2
330
1D
100
AcDbEntity
  8
1
100
AcDbLine
 10
0.0922788732253015
 20
6.364424249999998
 30
0.0
 11
0.1464986112253014
 21
6.437153092999998
 31
0.0
  0
LINE
  5
E3
330
1D
100
AcDbEntity
  8
1
100
AcDbLine
 10
0.1464986112253014
 20
6.437153092999998
 30
0.0
 11
0.1895424772253015
 21
6.565038117999999
 31
0.0
  0
LINE
  5
E4
330
1D
100
AcDbEntity
  8
1
100
AcDbLine
 10
0.1895424772253015
 20
6.565038117999999
 30
0.0
 11
0.1881436312253014
 21
6.675892046999998
 31
0.0
  0
LINE
  5
E5
330
1D
100
AcDbEntity
  8
1
100
AcDbLine
 10
0.1881436312253014
 20
6.675892046999998
 30
0.0
 11
0.1878996242253015
 21
6.695566235999999
 31
0.0
  0
ARC
  5
E6
330
1D
100
AcDbEntity
  8
1
100
AcDbCircle
 10
-0.1220850277746985
 20
6.660613657999998
 30
0.0
 40
0.311948982
100
AcDbArc
 50
6.433261324000047
 51
46.59311388999993
  0
ARC
  5
E7
330
1D
100
AcDbEntity
  8
1
100
AcDbCircle
 10
-7.780068430774698
 20
-2.749441084000001
 30
0.0
 40
12.443452207
100
AcDbArc
 50
50.75411323900001
 51
54.505203419
  0
ARC
  5
E8
330
1D
100
AcDbEntity
  8
1
100
AcDbCircle
 10
-13.0463893777747
 20
-10.134029598
 30
0.0
 40
21.521761358
100
AcDbArc
 50
54.505296738
 51
56.907102139
  0
ARC
  5
EC
330
1D
100
AcDbEntity
  8
1
100
AcDbCircle
 10
7.859746539225302
 20
5.485767563999998
 30
0.0
 40
0.4
100
AcDbArc
 50
180.0
 51
279.999973927
  0
ARC
  5
EE
330
1D
100
AcDbEntity
  8
1
100
AcDbCircle
 10
13.4097465392253
 20
6.464382306999998
 30
0.0
 40
0.4
100
AcDbArc
 50
280.0000000000001
 51
359.999980577
  0
LINE
  5
EF
330
1D
100
AcDbEntity
  8
1
100
AcDbLine
 10
13.8097477012253
 20
6.464382170999998
 30
0.0
 11
13.8097465392253
 21
12.100000003
 31
0.0
  0
ARC
  5
F0
330
1D
100
AcDbEntity
  8
1
100
AcDbCircle
 10
98.4356105332253
 20
-0.6535789600000016
 30
0.0
 40
85.979835353
100
AcDbArc
 50
181.9940513559999
 51
183.767914619
  0
ARC
  5
F1
330
1D
100
AcDbEntity
  8
1
100
AcDbCircle
 10
106.3239813382253
 20
0.0000000029999985
 30
0.0
 40
93.894198445
100
AcDbArc
 50
183.8495499599999
 51
185.3455672559999
  0
ARC
  5
F2
330
1D
100
AcDbEntity
  8
1
100
AcDbCircle
 10
28.1655853332253
 20
-7.313114350000002
 30
0.0
 40
15.374620795
100
AcDbArc
 50
185.346011244
 51
192.608482125
  0
ARC
  5
F3
330
1D
100
AcDbEntity
  8
1
100
AcDbCircle
 10
17.3919964692253
 20
-9.722971454000001
 30
0.0
 40
4.334800676
100
AcDbArc
 50
192.6084821249999
 51
205.3514593949999
  0
ARC
  5
F4
330
1D
100
AcDbEntity
  8
1
100
AcDbCircle
 10
8.3595504212253
 20
6.358962793999998
 30
0.0
 40
1.999804034
100
AcDbArc
 50
179.99908759
 51
198.195762894
  0
ARC
  5
F5
330
1D
100
AcDbEntity
  8
1
100
AcDbCircle
 10
8.3597465392253
 20
6.358994535999998
 30
0.0
 40
2.0
100
AcDbArc
 50
198.194872339
 51
240.0000002230001
  0
LINE
  5
F6
330
1D
100
AcDbEntity
  8
1
100
AcDbLine
 10
7.359746550225302
 20
4.626943732999998
 30
0.0
 11
11.9097453412253
 21
2.000000097999999
 31
0.0
  0
LINE
  5
F8
330
1D
100
AcDbEntity
  8
1
100
AcDbLine
 10
11.9097453412253
 20
2.000000097999999
 30
0.0
 11
11.9097453412253
 21
-1.200000054000002
 31
0.0
  0
ARC
  5
F9
330
1D
100
AcDbEntity
  8
1
100
AcDbCircle
 10
16.9099268362253
 20
-1.199925444000001
 30
0.0
 40
5.000181496
100
AcDbArc
 50
180.0008549329999
 51
224.388455971
  0
ARC
  5
FA
330
1D
100
AcDbEntity
  8
1
100
AcDbCircle
 10
7.674131450225302
 20
12.022202528
 30
0.0
 40
0.191098224
100
AcDbArc
 50
245.271103861
 51
276.025150172
  0
LINE
  5
FB
330
1D
100
AcDbEntity
  8
1
100
AcDbLine
 10
7.694190075225302
 20
11.832159947
 30
0.0
 11
9.5872391812253
 21
11.832159947
 31
0.0
  0
ARC
  5
FC
330
1D
100
AcDbEntity
  8
1
100
AcDbCircle
 10
31.7164595422253
 20
-6.379864951000002
 30
0.0
 40
19.542585545
100
AcDbArc
 50
180.4041465029999
 51
196.6228825119999
  0
LINE
  5
FD
330
1D
100
AcDbEntity
  8
1
100
AcDbLine
 10
12.9905898922253
 20
-11.970433403
 30
0.0
 11
12.9905898922253
 21
-11.978099119
 31
0.0
  0
LINE
  5
FE
330
1D
100
AcDbEntity
  8
CUT
100
AcDbLine
 10
9.5872391812253
 20
-11.832159941
 30
0.0
 11
13.3402872672253
 21
-12.493923097
 31
0.0
  0
ARC
  5
FF
330
1D
100
AcDbEntity
  8
CUT
100
AcDbCircle
 10
13.4097465392253
 20
-12.099999996
 30
0.0
 40
0.4
100
AcDbArc
 50
259.9999999999999
 51
0.0000093110000411
  0
LINE
  5
100
330
1D
100
AcDbEntity
  8
CUT
100
AcDbLine
 10
13.8097477012253
 20
-12.099999931
 30
0.0
 11
13.8097465392253
 21
-6.464382300000001
 31
0.0
  0
ARC
  5
101
330
1D
100
AcDbEntity
  8
CUT
100
AcDbCircle
 10
13.4097465392253
 20
-6.464382300000001
 30
0.0
 40
0.4
100
AcDbArc
 50
0.0
 51
51.31781254700009
  0
LINE
  5
102
330
1D
100
AcDbEntity
  8
CUT
100
AcDbLine
 10
11.2701092712253
 20
-11.832159941
 30
0.0
 11
13.3910319982253
 21
-12.206135431
 31
0.0
  0
ARC
  5
103
330
1D
100
AcDbEntity
  8
CUT
100
AcDbCircle
 10
13.4097465392253
 20
-12.099999996
 30
0.0
 40
0.107772745
100
AcDbArc
 50
260.0
 51
0.0000345559996109
  0
LINE
  5
104
330
1D
100
AcDbEntity
  8
CUT
100
AcDbLine
 10
13.5175210292253
 20
-12.099999931
 30
0.0
 11
13.5175192842253
 21
-6.464382300000001
 31
0.0
  0
ARC
  5
105
330
1D
100
AcDbEntity
  8
CUT
100
AcDbCircle
 10
13.4097465392253
 20
-6.464382300000001
 30
0.0
 40
0.107772745
100
AcDbArc
 50
0.0
 51
62.17704859899978
  0
ARC
  5
106
330
1D
100
AcDbEntity
  8
1
100
AcDbCircle
 10
7.930328427225303
 20
5.569883782999998
 30
0.0
 40
1.6
100
AcDbArc
 50
286.4736485699999
 51
320.0000018219999
  0
LINE
  5
107
330
1D
100
AcDbEntity
  8
1
100
AcDbLine
 10
9.1559995762253
 20
4.541423640999998
 30
0.0
 11
9.9110898422253
 21
5.441303833999998
 31
0.0
  0
LINE
  5
108
330
1D
100
AcDbEntity
  8
1
100
AcDbLine
 10
7.459746381225302
 20
7.498224268999998
 30
0.0
 11
6.704657318225302
 21
6.598343958999998
 31
0.0
  0
ARC
  5
109
330
1D
100
AcDbEntity
  8
1
100
AcDbCircle
 10
7.930328427225303
 20
5.569883782999998
 30
0.0
 40
1.6
100
AcDbArc
 50
140.0
 51
164.164128282
  0
LINE
  5
10A
330
1D
100
AcDbEntity
  8
1
100
AcDbLine
 10
13.6597451622253
 20
6.152132528999998
 30
0.0
 11
13.6597465392253
 21
4.999671041999998
 31
0.0
  0
ARC
  5
10B
330
1D
100
AcDbEntity
  8
1
100
AcDbCircle
 10
16.9097465392253
 20
1.200000002999999
 30
0.0
 40
5.0
100
AcDbArc
 50
130.5416018740001
 51
180.0
  0
LINE
  5
10C
330
1D
100
AcDbEntity
  8
1
100
AcDbLine
 10
7.594190245225303
 20
11.420517232
 30
0.0
 11
7.594190556225302
 21
11.973303641
 31
0.0
  0
ARC
  5
10D
330
1D
100
AcDbEntity
  8
1
100
AcDbCircle
 10
7.389391772116465
 20
11.4859224604932
 30
0.0
 40
0.5286614763921161
100
AcDbArc
 50
67.20773290963764
 51
76.31823491331548
  0
ARC
  5
10F
330
1D
100
AcDbEntity
  8
1
100
AcDbCircle
 10
10.5037465392253
 20
7.746883782999999
 30
0.0
 40
0.15
100
AcDbArc
 50
185.992794362
 51
354.007205638
  0
ARC
  5
110
330
1D
100
AcDbEntity
  8
1
100
AcDbCircle
 10
9.9567522702253
 20
7.689461918999998
 30
0.0
 40
0.4
100
AcDbArc
 50
5.992794362000049
 51
114.007205626
  0
ARC
  5
111
330
1D
100
AcDbEntity
  8
1
100
AcDbCircle
 10
9.7329839292253
 20
8.191883782999998
 30
0.0
 40
0.15
100
AcDbArc
 50
125.9927943690001
 51
294.0072056380004
  0
ARC
  5
112
330
1D
100
AcDbEntity
  8
1
100
AcDbCircle
 10
9.4097580022253
 20
8.636883782999998
 30
0.0
 40
0.4
100
AcDbArc
 50
305.992794362
 51
54.00720563600004
  0
ARC
  5
113
330
1D
100
AcDbEntity
  8
1
100
AcDbCircle
 10
9.7329839292253
 20
9.081883782999999
 30
0.0
 40
0.15
100
AcDbArc
 50
65.99279439500037
 51
234.0072056379999
  0
ARC
  5
114
330
1D
100
AcDbEntity
  8
1
100
AcDbCircle
 10
9.9567522702253
 20
9.584305646999999
 30
0.0
 40
0.4
100
AcDbArc
 50
245.992794362
 51
354.0072056380001
  0
ARC
  5
115
330
1D
100
AcDbEntity
  8
1
100
AcDbCircle
 10
10.5037465392253
 20
9.526883782999999
 30
0.0
 40
0.15
100
AcDbArc
 50
5.99279436199967
 51
174.0072056379996
  0
ARC
  5
116
330
1D
100
AcDbEntity
  8
1
100
AcDbCircle
 10
11.0507408072253
 20
9.584305646999999
 30
0.0
 40
0.4
100
AcDbArc
 50
185.9927943619999
 51
294.007205639
  0
ARC
  5
117
330
1D
100
AcDbEntity
  8
1
100
AcDbCircle
 10
11.2745091482253
 20
9.081883782999999
 30
0.0
 40
0.15
100
AcDbArc
 50
305.9927943690001
 51
114.0072056380003
  0
ARC
  5
118
330
1D
100
AcDbEntity
  8
1
100
AcDbCircle
 10
11.5977350752253
 20
8.636883782999998
 30
0.0
 40
0.4
100
AcDbArc
 50
125.992794362
 51
234.0072056360001
  0
ARC
  5
119
330
1D
100
AcDbEntity
  8
1
100
AcDbCircle
 10
11.2745091482253
 20
8.191883782999998
 30
0.0
 40
0.15
100
AcDbArc
 50
245.9927943609997
 51
54.00720563799991
  0
ARC
  5
11A
330
1D
100
AcDbEntity
  8
1
100
AcDbCircle
 10
11.0507408072253
 20
7.689461918999998
 30
0.0
 40
0.4
100
AcDbArc
 50
65.99279436199993
 51
174.007205638
  0
LINE
  5
11B
330
1D
100
AcDbEntity
  8
1
100
AcDbLine
 10
4.009745722225302
 20
3.255380087999999
 30
0.0
 11
4.009745722225302
 21
-3.255380082000001
 31
0.0
  0
LINE
  5
11C
330
1D
100
AcDbEntity
  8
1
100
AcDbLine
 10
-1.290252724774699
 20
11.850261133
 30
0.0
 11
-1.290252724774699
 21
-11.850261126
 31
0.0
  0
LINE
  5
11D
330
1D
100
AcDbEntity
  8
CUT
100
AcDbLine
 10
13.5175210292253
 20
-12.099999931
 30
0.0
 11
13.8097477012253
 21
-12.099999931
 31
0.0
  0
LINE
  5
11E
330
1D
100
AcDbEntity
  8
CUT
100
AcDbLine
 10
13.3910325222253
 20
-12.206135314
 30
0.0
 11
13.3402866172253
 21
-12.493923303
 31
0.0
  0
LINE
  5
11F
330
1D
100
AcDbEntity
  8
CUT
100
AcDbLine
 10
13.5175210292253
 20
-6.464382165000002
 30
0.0
 11
13.8097477012253
 21
-6.464382165000002
 31
0.0
  0
LINE
  5
121
330
1D
100
AcDbEntity
  8
SK2
100
AcDbLine
 10
25.4087699762253
 20
-12.499999996
 30
0.0
 11
13.4097465392253
 21
-12.499999996
 31
0.0
  0
LINE
  5
122
330
1D
100
AcDbEntity
  8
SK2
100
AcDbLine
 10
23.4087699762253
 20
-12.499999996
 30
0.0
 11
22.9587699762253
 21
-8.999999996000001
 31
0.0
  0
LINE
  5
123
330
1D
100
AcDbEntity
  8
SK2
100
AcDbLine
 10
22.9587699762253
 20
-8.999999996000001
 30
0.0
 11
23.8587699762253
 21
-8.999999996000001
 31
0.0
  0
LINE
  5
124
330
1D
100
AcDbEntity
  8
SK2
100
AcDbLine
 10
23.8587699762253
 20
-8.999999996000001
 30
0.0
 11
23.4087699762253
 21
-12.499999996
 31
0.0
  0
LINE
  5
125
330
1D
100
AcDbEntity
  8
SK2
100
AcDbLine
 10
25.4087699762253
 20
12.500000003
 30
0.0
 11
13.4097465392253
 21
12.500000003
 31
0.0
  0
LINE
  5
126
330
1D
100
AcDbEntity
  8
SK2
100
AcDbLine
 10
23.4087699762253
 20
12.500000003
 30
0.0
 11
23.8587699762253
 21
9.000000002999998
 31
0.0
  0
LINE
  5
127
330
1D
100
AcDbEntity
  8
SK2
100
AcDbLine
 10
23.8587699762253
 20
9.000000002999998
 30
0.0
 11
22.9587699762253
 21
9.000000002999998
 31
0.0
  0
LINE
  5
128
330
1D
100
AcDbEntity
  8
SK2
100
AcDbLine
 10
22.9587699762253
 20
9.000000002999998
 30
0.0
 11
23.4087699762253
 21
12.500000003
 31
0.0
  0
LINE
  5
129
330
1D
100
AcDbEntity
  8
SK2
100
AcDbLine
 10
23.4087699762253
 20
-8.999999996000001
 30
0.0
 11
23.4087699762253
 21
9.000000002999998
 31
0.0
  0
TEXT
  5
12A
330
1D
100
AcDbEntity
  8
SK2
100
AcDbText
 10
21.9087699762253
 20
-2.848906526000001
 30
0.0
 40
3.5
  1
25
 50
90.0
  7
BMG_Text
100
AcDbText
  0
CIRCLE
  5
12B
330
1D
100
AcDbEntity
  8
SK2
100
AcDbCircle
 10
20.6587699762253
 20
-5.098906526000002
 30
0.0
 40
1.25
  0
LINE
  5
12C
330
1D
100
AcDbEntity
  8
SK2
100
AcDbLine
 10
21.9087699762253
 20
-6.348906526000002
 30
0.0
 11
19.4087699762253
 21
-3.848906526000001
 31
0.0
  0
TEXT
  5
12D
330
1D
100
AcDbEntity
  8
SK2
100
AcDbText
 10
21.90876997622531
 20
2.883311449792653
 30
0.0
 40
3.5
  1
-33
 50
90.0
  7
BMG_Text
100
AcDbText
  0
LINE
  5
12E
330
1D
100
AcDbEntity
  8
2
100
AcDbLine
 10
13.8097465702253
 20
20.0
 30
0.0
 11
13.8097465702253
 21
11.25
 31
0.0
  0
LINE
  5
12F
330
1D
100
AcDbEntity
  8
2
100
AcDbLine
 10
13.8097465702253
 20
18.0
 30
0.0
 11
10.3097465702253
 21
17.55
 31
0.0
  0
LINE
  5
130
330
1D
100
AcDbEntity
  8
2
100
AcDbLine
 10
10.3097465702253
 20
17.55
 30
0.0
 11
10.3097465702253
 21
18.45
 31
0.0
  0
LINE
  5
131
330
1D
100
AcDbEntity
  8
2
100
AcDbLine
 10
10.3097465702253
 20
18.45
 30
0.0
 11
13.8097465702253
 21
18.0
 31
0.0
  0
LINE
  5
132
330
1D
100
AcDbEntity
  8
2
100
AcDbLine
 10
-21.6902534297747
 20
18.0
 30
0.0
 11
10.3097465702253
 21
18.0
 31
0.0
  0
TEXT
  5
133
330
1D
100
AcDbEntity
  8
2
100
AcDbText
 10
-6.808066326774697
 20
19.5
 30
0.0
 40
3.5
  1
35.5
  7
BMG_Text
100
AcDbText
  0
ARC
  5
134
330
1D
100
AcDbEntity
  8
1
100
AcDbCircle
 10
13.4097465392253
 20
12.100000003
 30
0.0
 40
0.4
100
AcDbArc
 50
0.0
 51
100.0000000000001
  0
TEXT
  5
135
330
1D
100
AcDbEntity
  8
SK6
100
AcDbText
 10
-3.897688341876895
 20
-20.88529524377287
 30
0.0
 40
3.5
  1
639.423
  7
BMG_Text
100
AcDbText
  0
LINE
  5
136
330
1D
100
AcDbEntity
  8
SK4
100
AcDbLine
 10
-3.146034301774698
 20
-0.0000000000000015
 30
0.0
 11
13.6740237582253
 21
-0.0000000000000015
 31
0.0
  0
LINE
  5
1D5
330
1D
100
AcDbEntity
  8
1
100
AcDbLine
 10
9.9110898422253
 20
5.441303833999998
 30
0.0
 11
13.47920581029207
 21
6.070459205795115
 31
0.0
  0
LINE
  5
1D6
330
1D
100
AcDbEntity
  8
1
100
AcDbLine
 10
13.47920581029207
 20
6.070459205795115
 30
0.0
 11
13.65974525981135
 21
6.070459205795115
 31
0.0
  0
LINE
  5
1D7
330
1D
100
AcDbEntity
  8
1
100
AcDbLine
 10
7.79028726815853
 20
11.51530836120488
 30
0.0
 11
9.5872391812253
 21
11.832159947
 31
0.0
  0
LINE
  5
1D8
330
1D
100
AcDbEntity
  8
3
100
AcDbLine
 10
9.5872391812253
 20
11.832159947
 30
0.0
 11
11.78458293869203
 21
11.832159947
 31
0.0
  0
LINE
  5
1D9
330
1D
100
AcDbEntity
  8
3
100
AcDbLine
 10
11.78458293869203
 20
11.832159947
 30
0.0
 11
13.50901759050389
 21
12.15063142390486
 31
0.0
  0
LINE
  5
1DA
330
1D
100
AcDbEntity
  8
3
100
AcDbLine
 10
13.50901759050389
 20
12.15063142390486
 30
0.0
 11
13.50901759050389
 21
6.171294192423814
 31
0.0
  0
LINE
  5
1DB
330
1D
100
AcDbEntity
  8
3
100
AcDbLine
 10
13.50901759050389
 20
6.171294192423814
 30
0.0
 11
13.47920581029207
 21
6.070459205795115
 31
0.0
  0
LINE
  5
1DE
330
1D
100
AcDbEntity
  8
1
100
AcDbLine
 10
13.34028726815853
 20
12.49392310420488
 30
0.0
 11
7.79028726815853
 21
11.51530836120488
 31
0.0
  0
ARC
  5
1DF
330
1D
100
AcDbEntity
  8
1
100
AcDbCircle
 10
7.859746539225305
 20
11.12138526
 30
0.0
 40
0.4000000000000029
100
AcDbArc
 50
100.0000000000003
 51
180.0000654749997
  0
LINE
  5
1E0
330
1D
100
AcDbEntity
  8
1
100
AcDbLine
 10
7.459746539225563
 20
11.12138480289827
 30
0.0
 11
7.459746539225302
 21
5.485767563999998
 31
0.0
  0
LINE
  5
1E1
330
1D
100
AcDbEntity
  8
1
100
AcDbLine
 10
7.929205631033541
 20
5.091844431187041
 30
0.0
 11
13.47920581029207
 21
6.070459205795115
 31
0.0
  0
LINE
  5
1E3
330
1D
100
AcDbEntity
  8
NOCUT
100
AcDbLine
 10
11.9097453412253
 20
-0.0000000000000015
 30
0.0
 11
0.0
 21
0.0
 31
0.0
  0
LINE
  5
1E4
330
1D
100
AcDbEntity
  8
NOCUT
100
AcDbLine
 10
0.0
 20
0.0
 30
0.0
 11
0.0000000000000007
 21
11.99783942461386
 31
0.0
  0
LINE
  5
1E7
330
1D
100
AcDbEntity
  8
NOCUT
100
AcDbLine
 10
7.594190556225302
 20
11.973303641
 30
0.0
 11
7.594190245333146
 21
11.84862852367808
 31
0.0
  0
LINE
  5
1EE
330
1D
100
AcDbEntity
  8
NOCUT
100
AcDbLine
 10
13.6597451622253
 20
6.152132528999998
 30
0.0
 11
13.6597451622253
 21
4.996606689074921
 31
0.0
  0
ARC
  5
1EF
330
1D
100
AcDbEntity
  8
NOCUT
100
AcDbCircle
 10
16.90974654174171
 20
1.200000002448362
 30
0.0
 40
5.000000002516404
100
AcDbArc
 50
130.5416018867854
 51
179.9999999936787
  0
LINE
  5
1F0
330
1D
100
AcDbEntity
  8
NOCUT
100
AcDbLine
 10
11.9097465392253
 20
1.200000002999999
 30
0.0
 11
11.9097465392253
 21
0.0038682059124103
 31
0.0
  0
LWPOLYLINE
  5
1F2
330
1D
100
AcDbEntity
  8
INFTOTAL
100
AcDbPolyline
 90
        4
 70
     1
 43
0.0
 10
-30.95928030533439
 20
35.14420500685662
 10
-30.95928030533439
 20
-36.04406257261729
 10
36.39392908803984
 20
-36.04406257261729
 10
36.39392908803984
 20
35.14420500685662
  0
LINE
  5
205
330
1D
100
AcDbEntity
  8
NOCUT
100
AcDbLine
 10
7.514435505225302
 20
11.999582875
 30
0.0
 11
0.1654826902253017
 21
11.999582875
 31
0.0
  0
LINE
  5
206
330
1D
100
AcDbEntity
  8
NOCUT
100
AcDbLine
 10
0.1654826902253019
 20
11.999582875
 30
0.0
 11
0.1439747262253019
 21
11.999292302
 31
0.0
  0
LINE
  5
207
330
1D
100
AcDbEntity
  8
NOCUT
100
AcDbLine
 10
0.1439747262253019
 20
11.999292302
 30
0.0
 11
0.0922782932253019
 21
11.998749938
 31
0.0
  0
ARC
  5
20A
330
1D
100
AcDbEntity
  8
NOCUT
100
AcDbCircle
 10
7.389391772116464
 20
11.4859224604932
 30
0.0
 40
0.5286614763921161
100
AcDbArc
 50
67.20773290963764
 51
76.31823491331545
  0
ARC
  5
20C
330
1D
100
AcDbEntity
  8
NOCUT
100
AcDbCircle
 10
7.674131450225302
 20
12.022202528
 30
0.0
 40
0.191098224
100
AcDbArc
 50
245.271103861
 51
276.025150172
  0
LINE
  5
20E
330
1D
100
AcDbEntity
  8
NOCUT
100
AcDbLine
 10
9.5872391812253
 20
11.832159947
 30
0.0
 11
7.694190075662915
 21
11.83215994655703
 31
0.0
  0
LINE
  5
20F
330
1D
100
AcDbEntity
  8
NOCUT
100
AcDbLine
 10
9.5872391812253
 20
11.832159947
 30
0.0
 11
11.78458293869203
 21
11.832159947
 31
0.0
  0
LINE
  5
210
330
1D
100
AcDbEntity
  8
NOCUT
100
AcDbLine
 10
11.78458293869203
 20
11.832159947
 30
0.0
 11
13.50901759050389
 21
12.15063142390486
 31
0.0
  0
LINE
  5
211
330
1D
100
AcDbEntity
  8
NOCUT
100
AcDbLine
 10
13.50901759050389
 20
12.15063142390486
 30
0.0
 11
13.50901759050389
 21
6.171294192423814
 31
0.0
  0
LINE
  5
212
330
1D
100
AcDbEntity
  8
NOCUT
100
AcDbLine
 10
13.50901759050389
 20
6.171294192423814
 30
0.0
 11
13.47920581029207
 21
6.070459205795116
 31
0.0
  0
ARC
  5
213
330
1D
100
AcDbEntity
  8
NOCUT
100
AcDbCircle
 10
13.4097465392253
 20
6.464382306999998
 30
0.0
 40
0.4000000000000005
100
AcDbArc
 50
280.0000000000001
 51
308.6820443969979
  0
LINE
  5
215
330
1D
100
AcDbEntity
  8
4
100
AcDbLine
 10
13.6740237582253
 20
-0.0000000000000015
 30
0.0
 11
0.0
 21
0.0
 31
0.0
  0
ARC
  5
23C
330
1D
100
AcDbEntity
  8
CUT
100
AcDbCircle
 10
7.859746539225299
 20
5.485767563999998
 30
0.0
 40
0.4
100
AcDbArc
 50
180.0
 51
279.9999739270004
  0
ARC
  5
23D
330
1D
100
AcDbEntity
  8
CUT
100
AcDbCircle
 10
13.4097465392253
 20
6.464382306999998
 30
0.0
 40
0.4
100
AcDbArc
 50
280.0000000000006
 51
359.999980577
  0
LINE
  5
23E
330
1D
100
AcDbEntity
  8
CUT
100
AcDbLine
 10
13.80974770122531
 20
6.464382170999998
 30
0.0
 11
13.8097465392253
 21
12.100000003
 31
0.0
  0
ARC
  5
23F
330
1D
100
AcDbEntity
  8
CUT
100
AcDbCircle
 10
13.4097465392253
 20
12.100000003
 30
0.0
 40
0.4
100
AcDbArc
 50
0.0
 51
100.0000000000006
  0
CIRCLE
  5
240
330
1D
100
AcDbEntity
  8
1
100
AcDbCircle
 10
10.5037465392253
 20
8.636883782999998
 30
0.0
 40
1.6
  0
LINE
  5
241
330
1D
100
AcDbEntity
  8
CUT
100
AcDbLine
 10
13.34028726815852
 20
12.49392310420488
 30
0.0
 11
7.790287268158529
 21
11.51530836120488
 31
0.0
  0
ARC
  5
242
330
1D
100
AcDbEntity
  8
CUT
100
AcDbCircle
 10
7.859746539225306
 20
11.12138526
 30
0.0
 40
0.4000000000000029
100
AcDbArc
 50
100.0000000000005
 51
180.0000654749997
  0
LINE
  5
243
330
1D
100
AcDbEntity
  8
CUT
100
AcDbLine
 10
7.459746539225563
 20
11.12138480289827
 30
0.0
 11
7.4597465392253
 21
5.485767563999998
 31
0.0
  0
LINE
  5
244
330
1D
100
AcDbEntity
  8
CUT
100
AcDbLine
 10
7.92920563103354
 20
5.091844431187041
 30
0.0
 11
13.47920581029207
 21
6.070459205795115
 31
0.0
  0
HATCH
  5
268
330
1D
100
AcDbEntity
  8
7
100
AcDbHatch
 10
0.0
 20
0.0
 30
0.0
210
0.0
220
0.0
230
1.0
  2
ANSI37
 70
     0
 71
     0
 91
        2
 92
        7
 72
     1
 73
     1
 93
        8
 10
13.80974682972527
 20
6.464382171301408
 42
0.0
 10
13.80974653922529
 20
12.10000005798362
 42
0.4663076163178996
 10
13.34028726815852
 20
12.49392310420488
 42
0.0
 10
7.79028726815541
 20
11.51530836120433
 42
0.3639703421094316
 10
7.459746539225563
 20
11.12138510763276
 42
0.0
 10
7.4597465392253
 20
5.485767563999998
 42
0.4663076119900396
 10
7.929205750542337
 20
5.091844452259667
 42
0.0
 10
13.47920581029518
 20
6.070459205795665
 42
0.3639695732950547
 97
        0
 92
       22
 72
     1
 73
     1
 93
        2
 10
8.903746539225303
 20
8.636883782999998
 42
-1.0
 10
12.1037465392253
 20
8.636883782999998
 42
-0.9999999999999998
 97
        0
 75
     0
 76
     1
 52
90.0
 41
5.0
 77
     0
 78
     2
 53
135.0
 43
-53.44145721802981
 44
6.537427176677657
 45
-0.4419417382415922
 46
-0.4419417382415922
 79
     0
 53
225.0
 43
-53.44145721802981
 44
6.537427176677657
 45
0.4419417382415922
 46
-0.4419417382415923
 79
     0
 47
0.0
 98
        2
 10
10.21948461443037
 20
10.85747981136791
 10
10.21948461443037
 20
10.85747981136791
1001
ACAD
1010
0.0
1020
0.0
1030
0.0
1001
PE_URL
1000

  0
ENDSEC
  0
SECTION
  2
OBJECTS
  0
DICTIONARY
  5
C
330
0
100
AcDbDictionary
281
     1
  3
ACAD_COLOR
350
22F
  3
ACAD_DETAILVIEWSTYLE
350
1F9
  3
ACAD_GROUP
350
D
  3
ACAD_LAYOUT
350
1A
  3
ACAD_MATERIAL
350
173
  3
ACAD_MLEADERSTYLE
350
17F
  3
ACAD_MLINESTYLE
350
17
  3
ACAD_PLOTSETTINGS
350
19
  3
ACAD_PLOTSTYLENAME
350
E
  3
ACAD_SCALELIST
350
13C
  3
ACAD_SECTIONVIEWSTYLE
350
1FA
  3
ACAD_TABLESTYLE
350
1C8
  3
ACAD_VISUALSTYLE
350
162
  3
ACDB_RECOMPOSE_DATA
350
275
  3
AcDbVariableDictionary
350
17D
  3
APPDATA
350
1CB
  0
SUN
  5
1FB
330
137
100
AcDbSun
 90
        1
290
     0
 63
     7
421
 16777215
 40
1.0
291
     1
 91
  2455826
 92
 54000000
292
     0
 70
     2
 71
   256
280
     1
  0
DICTIONARY
  5
1CC
330
2
100
AcDbDictionary
280
     1
281
     1
  3
ACAD_LAYERSTATES
360
1CD
  0
DICTIONARY
  5
266
330
1D
100
AcDbDictionary
280
     1
281
     1
  3
ACAD_SORTENTS
360
267
  0
DICTIONARY
  5
22F
102
{ACAD_REACTORS
330
C
102
}
330
C
100
AcDbDictionary
281
     1
  0
DICTIONARY
  5
1F9
102
{ACAD_REACTORS
330
C
102
}
330
C
100
AcDbDictionary
281
     1
  0
DICTIONARY
  5
D
102
{ACAD_REACTORS
330
C
102
}
330
C
100
AcDbDictionary
281
     1
  0
DICTIONARY
  5
1A
102
{ACAD_REACTORS
330
C
102
}
330
C
100
AcDbDictionary
281
     1
  3
Layout1
350
1C
  3
Model
350
1E
  0
DICTIONARY
  5
173
102
{ACAD_REACTORS
330
C
102
}
330
C
100
AcDbDictionary
281
     1
  3
ByBlock
350
175
  3
ByLayer
350
174
  3
Global
350
176
  0
DICTIONARY
  5
17F
102
{ACAD_REACTORS
330
C
102
}
330
C
100
AcDbDictionary
281
     1
  3
Standard
350
1CA
  0
DICTIONARY
  5
17
102
{ACAD_REACTORS
330
C
102
}
330
C
100
AcDbDictionary
281
     1
  3
Standard
350
18
  0
DICTIONARY
  5
19
102
{ACAD_REACTORS
330
C
102
}
330
C
100
AcDbDictionary
281
     1
  0
ACDBDICTIONARYWDFLT
  5
E
102
{ACAD_REACTORS
330
C
102
}
330
C
100
AcDbDictionary
281
     1
  3
Normal
350
F
100
AcDbDictionaryWithDefault
340
F
  0
DICTIONARY
  5
13C
102
{ACAD_REACTORS
330
C
102
}
330
C
100
AcDbDictionary
281
     1
  3
A0
350
13D
  3
A1
350
13E
  3
A2
350
13F
  3
A3
350
140
  3
A4
350
141
  3
A5
350
142
  3
A6
350
143
  3
A7
350
144
  3
A8
350
145
  3
A9
350
146
  3
B0
350
147
  3
B1
350
148
  3
B2
350
149
  3
B3
350
14A
  3
B4
350
14B
  3
B5
350
14C
  3
B6
350
14D
  3
B7
350
14E
  3
B8
350
14F
  3
B9
350
150
  3
C0
350
151
  3
C1
350
152
  3
C2
350
153
  3
C3
350
154
  3
C4
350
155
  3
C5
350
156
  3
C6
350
157
  3
C7
350
158
  3
C8
350
159
  3
C9
350
15A
  3
D0
350
15B
  3
D1
350
15C
  3
D2
350
15D
  0
DICTIONARY
  5
1FA
102
{ACAD_REACTORS
330
C
102
}
330
C
100
AcDbDictionary
281
     1
  0
DICTIONARY
  5
1C8
102
{ACAD_REACTORS
330
C
102
}
330
C
100
AcDbDictionary
281
     1
  3
Standard
350
1C9
  0
DICTIONARY
  5
162
102
{ACAD_REACTORS
330
C
102
}
330
C
100
AcDbDictionary
281
     1
  3
2dWireframe
350
167
  3
3D Hidden
350
169
  3
3dWireframe
350
168
  3
Basic
350
16A
  3
Brighten
350
16E
  3
ColorChange
350
172
  3
Conceptual
350
16C
  3
Dim
350
16D
  3
EdgeColorOff
350
1C2
  3
Facepattern
350
171
  3
Flat
350
163
  3
FlatWithEdges
350
164
  3
Gouraud
350
165
  3
GouraudWithEdges
350
166
  3
Hidden
350
1BF
  3
JitterOff
350
1C0
  3
Linepattern
350
170
  3
OverhangOff
350
1C1
  3
Realistic
350
16B
  3
Shaded
350
1C7
  3
Shaded with edges
350
1C6
  3
Shades of Gray
350
1C3
  3
Sketchy
350
1C4
  3
Thicken
350
16F
  3
Wireframe
350
1BE
  3
X-Ray
350
1C5
  0
XRECORD
  5
275
102
{ACAD_REACTORS
330
C
102
}
330
C
100
AcDbXrecord
280
     1
 90
        1
330
1C9
  0
DICTIONARY
  5
17D
102
{ACAD_REACTORS
330
C
102
}
330
C
100
AcDbDictionary
281
     1
  3
CANNOSCALE
350
1F3
  3
CMLEADERSTYLE
350
1F8
  3
CTABLESTYLE
350
1F7
  3
DIMASSOC
350
181
  3
HIDETEXT
350
182
  3
MSLTSCALE
350
180
  0
DICTIONARY
  5
1CB
102
{ACAD_REACTORS
330
C
102
}
330
C
100
AcDbDictionary
281
     1
  0
DICTIONARY
  5
1CD
102
{ACAD_REACTORS
330
1CC
102
}
330
1CC
100
AcDbDictionary
281
     1
  0
SORTENTSTABLE
  5
267
102
{ACAD_REACTORS
330
266
102
}
330
266
100
AcDbSortentsTable
330
1D
331
23C
  5
23E
331
23D
  5
23F
331
23E
  5
240
331
23F
  5
241
331
240
  5
242
331
241
  5
243
331
242
  5
244
331
243
  5
265
331
244
  5
268
331
0
  5
23C
331
268
  5
23D
  0
LAYOUT
  5
1C
102
{ACAD_REACTORS
330
1A
102
}
330
1A
100
AcDbPlotSettings
  1

  2
none_device
  4

  6

 40
0.0
 41
0.0
 42
0.0
 43
0.0
 44
0.0
 45
0.0
 46
0.0
 47
0.0
 48
0.0
 49
0.0
140
0.0
141
0.0
142
1.0
143
1.0
 70
   688
 72
     0
 73
     0
 74
     5
  7

 75
    16
 76
     0
 77
     2
 78
   300
147
1.0
148
0.0
149
0.0
100
AcDbLayout
  1
Layout1
 70
     1
 71
     1
 10
0.0
 20
0.0
 11
12.0
 21
9.0
 12
0.0
 22
0.0
 32
0.0
 14
1.000000000000000E+20
 24
1.000000000000000E+20
 34
1.000000000000000E+20
 15
-1.000000000000000E+20
 25
-1.000000000000000E+20
 35
-1.000000000000000E+20
146
0.0
 13
0.0
 23
0.0
 33
0.0
 16
1.0
 26
0.0
 36
0.0
 17
0.0
 27
1.0
 37
0.0
 76
     0
330
1B
  0
LAYOUT
  5
1E
102
{ACAD_REACTORS
330
1A
102
}
330
1A
100
AcDbPlotSettings
  1

  2
none_device
  4

  6

 40
0.0
 41
0.0
 42
0.0
 43
0.0
 44
0.0
 45
0.0
 46
0.0
 47
0.0
 48
0.0
 49
0.0
140
0.0
141
0.0
142
1.0
143
1.0
 70
  1712
 72
     0
 73
     0
 74
     0
  7

 75
     0
 76
     0
 77
     2
 78
   300
147
1.0
148
0.0
149
0.0
100
AcDbLayout
  1
Model
 70
     1
 71
     0
 10
0.0
 20
0.0
 11
12.0
 21
9.0
 12
0.0
 22
0.0
 32
0.0
 14
-30.95928030533439
 24
-36.04406257261728
 34
0.0
 15
36.39392908803984
 25
35.14420500685662
 35
0.0
146
0.0
 13
0.0
 23
0.0
 33
0.0
 16
1.0
 26
0.0
 36
0.0
 17
0.0
 27
1.0
 37
0.0
 76
     0
330
1D
331
137
  0
MATERIAL
  5
175
102
{ACAD_REACTORS
330
173
102
}
330
173
100
AcDbMaterial
  1
ByBlock
 72
     1
 94
      127
  0
MATERIAL
  5
174
102
{ACAD_REACTORS
330
173
102
}
330
173
100
AcDbMaterial
  1
ByLayer
 72
     1
 94
      127
  0
MATERIAL
  5
176
102
{ACAD_REACTORS
330
173
102
}
330
173
100
AcDbMaterial
  1
Global
 72
     1
 94
      127
  0
MLEADERSTYLE
  5
1CA
102
{ACAD_REACTORS
330
17F
102
}
330
17F
100
AcDbMLeaderStyle
179
     2
170
     2
171
     1
172
     0
 90
        2
 40
0.0
 41
0.0
173
     1
 91
-1056964608
340
14
 92
       -2
290
     1
 42
0.09
291
     1
 43
0.36
  3
Standard
341
0
 44
0.18
300

342
11
174
     1
178
     1
175
     1
176
     0
 93
-1056964608
 45
0.18
292
     0
297
     0
 46
0.18
343
0
 94
-1056964608
 47
1.0
 49
1.0
140
1.0
293
     1
141
0.0
294
     1
177
     0
142
1.0
295
     0
296
     0
143
0.125
271
     0
272
     9
273
     9
298
     0
  0
MLINESTYLE
  5
18
102
{ACAD_REACTORS
330
17
102
}
330
17
100
AcDbMlineStyle
  2
Standard
 70
     0
  3

 62
   256
 51
90.0
 52
90.0
 71
     2
 49
0.5
 62
   256
  6
BYLAYER
 49
-0.5
 62
   256
  6
BYLAYER
  0
ACDBPLACEHOLDER
  5
F
102
{ACAD_REACTORS
330
E
102
}
330
E
  0
SCALE
  5
13D
102
{ACAD_REACTORS
330
13C
102
}
330
13C
100
AcDbScale
 70
     0
300
1:1
140
1.0
141
1.0
290
     1
  0
SCALE
  5
13E
102
{ACAD_REACTORS
330
13C
102
}
330
13C
100
AcDbScale
 70
     0
300
1:2
140
1.0
141
2.0
290
     0
  0
SCALE
  5
13F
102
{ACAD_REACTORS
330
13C
102
}
330
13C
100
AcDbScale
 70
     0
300
1:4
140
1.0
141
4.0
290
     0
  0
SCALE
  5
140
102
{ACAD_REACTORS
330
13C
102
}
330
13C
100
AcDbScale
 70
     0
300
1:5
140
1.0
141
5.0
290
     0
  0
SCALE
  5
141
102
{ACAD_REACTORS
330
13C
102
}
330
13C
100
AcDbScale
 70
     0
300
1:8
140
1.0
141
8.0
290
     0
  0
SCALE
  5
142
102
{ACAD_REACTORS
330
13C
102
}
330
13C
100
AcDbScale
 70
     0
300
1:10
140
1.0
141
10.0
290
     0
  0
SCALE
  5
143
102
{ACAD_REACTORS
330
13C
102
}
330
13C
100
AcDbScale
 70
     0
300
1:16
140
1.0
141
16.0
290
     0
  0
SCALE
  5
144
102
{ACAD_REACTORS
330
13C
102
}
330
13C
100
AcDbScale
 70
     0
300
1:20
140
1.0
141
20.0
290
     0
  0
SCALE
  5
145
102
{ACAD_REACTORS
330
13C
102
}
330
13C
100
AcDbScale
 70
     0
300
1:30
140
1.0
141
30.0
290
     0
  0
SCALE
  5
146
102
{ACAD_REACTORS
330
13C
102
}
330
13C
100
AcDbScale
 70
     0
300
1:40
140
1.0
141
40.0
290
     0
  0
SCALE
  5
147
102
{ACAD_REACTORS
330
13C
102
}
330
13C
100
AcDbScale
 70
     0
300
1:50
140
1.0
141
50.0
290
     0
  0
SCALE
  5
148
102
{ACAD_REACTORS
330
13C
102
}
330
13C
100
AcDbScale
 70
     0
300
1:100
140
1.0
141
100.0
290
     0
  0
SCALE
  5
149
102
{ACAD_REACTORS
330
13C
102
}
330
13C
100
AcDbScale
 70
     0
300
2:1
140
2.0
141
1.0
290
     0
  0
SCALE
  5
14A
102
{ACAD_REACTORS
330
13C
102
}
330
13C
100
AcDbScale
 70
     0
300
4:1
140
4.0
141
1.0
290
     0
  0
SCALE
  5
14B
102
{ACAD_REACTORS
330
13C
102
}
330
13C
100
AcDbScale
 70
     0
300
8:1
140
8.0
141
1.0
290
     0
  0
SCALE
  5
14C
102
{ACAD_REACTORS
330
13C
102
}
330
13C
100
AcDbScale
 70
     0
300
10:1
140
10.0
141
1.0
290
     0
  0
SCALE
  5
14D
102
{ACAD_REACTORS
330
13C
102
}
330
13C
100
AcDbScale
 70
     0
300
100:1
140
100.0
141
1.0
290
     0
  0
SCALE
  5
14E
102
{ACAD_REACTORS
330
13C
102
}
330
13C
100
AcDbScale
 70
     0
300
1/128" = 1'-0"
140
0.0078125
141
12.0
290
     0
  0
SCALE
  5
14F
102
{ACAD_REACTORS
330
13C
102
}
330
13C
100
AcDbScale
 70
     0
300
1/64" = 1'-0"
140
0.015625
141
12.0
290
     0
  0
SCALE
  5
150
102
{ACAD_REACTORS
330
13C
102
}
330
13C
100
AcDbScale
 70
     0
300
1/32" = 1'-0"
140
0.03125
141
12.0
290
     0
  0
SCALE
  5
151
102
{ACAD_REACTORS
330
13C
102
}
330
13C
100
AcDbScale
 70
     0
300
1/16" = 1'-0"
140
0.0625
141
12.0
290
     0
  0
SCALE
  5
152
102
{ACAD_REACTORS
330
13C
102
}
330
13C
100
AcDbScale
 70
     0
300
3/32" = 1'-0"
140
0.09375
141
12.0
290
     0
  0
SCALE
  5
153
102
{ACAD_REACTORS
330
13C
102
}
330
13C
100
AcDbScale
 70
     0
300
1/8" = 1'-0"
140
0.125
141
12.0
290
     0
  0
SCALE
  5
154
102
{ACAD_REACTORS
330
13C
102
}
330
13C
100
AcDbScale
 70
     0
300
3/16" = 1'-0"
140
0.1875
141
12.0
290
     0
  0
SCALE
  5
155
102
{ACAD_REACTORS
330
13C
102
}
330
13C
100
AcDbScale
 70
     0
300
1/4" = 1'-0"
140
0.25
141
12.0
290
     0
  0
SCALE
  5
156
102
{ACAD_REACTORS
330
13C
102
}
330
13C
100
AcDbScale
 70
     0
300
3/8" = 1'-0"
140
0.375
141
12.0
290
     0
  0
SCALE
  5
157
102
{ACAD_REACTORS
330
13C
102
}
330
13C
100
AcDbScale
 70
     0
300
1/2" = 1'-0"
140
0.5
141
12.0
290
     0
  0
SCALE
  5
158
102
{ACAD_REACTORS
330
13C
102
}
330
13C
100
AcDbScale
 70
     0
300
3/4" = 1'-0"
140
0.75
141
12.0
290
     0
  0
SCALE
  5
159
102
{ACAD_REACTORS
330
13C
102
}
330
13C
100
AcDbScale
 70
     0
300
1" = 1'-0"
140
1.0
141
12.0
290
     0
  0
SCALE
  5
15A
102
{ACAD_REACTORS
330
13C
102
}
330
13C
100
AcDbScale
 70
     0
300
1-1/2" = 1'-0"
140
1.5
141
12.0
290
     0
  0
SCALE
  5
15B
102
{ACAD_REACTORS
330
13C
102
}
330
13C
100
AcDbScale
 70
     0
300
3" = 1'-0"
140
3.0
141
12.0
290
     0
  0
SCALE
  5
15C
102
{ACAD_REACTORS
330
13C
102
}
330
13C
100
AcDbScale
 70
     0
300
6" = 1'-0"
140
6.0
141
12.0
290
     0
  0
SCALE
  5
15D
102
{ACAD_REACTORS
330
13C
102
}
330
13C
100
AcDbScale
 70
     0
300
1'-0" = 1'-0"
140
12.0
141
12.0
290
     0
  0
TABLESTYLE
  5
1C9
102
{ACAD_REACTORS
330
1C8
102
}
102
{ACAD_XDICTIONARY
360
273
102
}
330
1C8
100
AcDbTableStyle
  3
Standard
 70
     0
 71
     0
 40
0.06
 41
0.06
280
     0
281
     0
  7
Standard
140
0.18
170
     2
 62
     0
 63
   257
283
     0
 90
        4
 91
        0
  1

274
    -2
284
     1
 64
     0
275
    -2
285
     1
 65
     0
276
    -2
286
     1
 66
     0
277
    -2
287
     1
 67
     0
278
    -2
288
     1
 68
     0
279
    -2
289
     1
 69
     0
  7
Standard
140
0.25
170
     5
 62
     0
 63
   257
283
     0
 90
        4
 91
        0
  1

274
    -2
284
     1
 64
     0
275
    -2
285
     1
 65
     0
276
    -2
286
     1
 66
     0
277
    -2
287
     1
 67
     0
278
    -2
288
     1
 68
     0
279
    -2
289
     1
 69
     0
  7
Standard
140
0.18
170
     5
 62
     0
 63
   257
283
     0
 90
        4
 91
        0
  1

274
    -2
284
     1
 64
     0
275
    -2
285
     1
 65
     0
276
    -2
286
     1
 66
     0
277
    -2
287
     1
 67
     0
278
    -2
288
     1
 68
     0
279
    -2
289
     1
 69
     0
  0
VISUALSTYLE
  5
167
102
{ACAD_REACTORS
330
162
102
}
330
162
100
AcDbVisualStyle
  2
2dWireframe
 70
     4
177
     3
291
     0
 70
    58
 90
        0
176
     1
 90
        2
176
     1
 90
        0
176
     1
 90
        0
176
     1
 40
-0.6
176
     1
 40
-30.0
176
     1
 62
     7
176
     1
 90
        1
176
     1
 90
        4
176
     1
 62
     7
176
     1
 62
   257
176
     1
 90
        1
176
     1
 90
        1
176
     1
 40
1.0
176
     1
 90
        0
176
     1
 62
   257
176
     1
 40
1.0
176
     1
 90
        1
176
     1
 90
        6
176
     1
 90
        2
176
     1
 62
     7
176
     1
 90
        5
176
     1
 90
        0
176
     1
 90
        0
176
     1
290
     0
176
     1
 90
        1
176
     1
 40
0.0
176
     1
 90
        0
176
     1
290
     1
176
     1
290
     1
176
     1
290
     0
176
     1
290
     0
176
     1
290
     0
176
     1
290
     0
176
     1
290
     0
176
     1
290
     0
176
     1
290
     0
176
     1
 90
       50
176
     1
 40
0.0
176
     1
 40
1.0
176
     1
 90
        0
176
     1
 62
    18
420
        0
176
     1
 90
       50
176
     1
 90
        3
176
     1
 62
     5
420
      255
176
     1
290
     0
176
     1
 90
       50
176
     1
 90
       50
176
     1
 90
       50
176
     1
290
     0
176
     1
 90
       50
176
     1
 62
   256
176
     0
 40
1.0
176
     0
 90
        2
176
     1
  1
strokes_ogs.tif
176
     1
290
     0
176
     1
 40
1.0
176
     1
 40
1.0
176
     1
  0
VISUALSTYLE
  5
169
102
{ACAD_REACTORS
330
162
102
}
330
162
100
AcDbVisualStyle
  2
3D Hidden
 70
     6
177
     3
291
     0
 70
    58
 90
        1
176
     1
 90
        2
176
     1
 90
        2
176
     1
 90
        0
176
     1
 40
-0.6
176
     1
 40
-30.0
176
     1
 62
     7
176
     1
 90
        2
176
     1
 90
        2
176
     1
 62
     7
176
     1
 62
   257
176
     1
 90
        2
176
     1
 90
        1
176
     1
 40
40.0
176
     1
 90
        0
176
     1
 62
   257
176
     1
 40
1.0
176
     1
 90
        1
176
     1
 90
        6
176
     1
 90
        2
176
     1
 62
     7
176
     1
 90
        3
176
     1
 90
        0
176
     1
 90
        0
176
     1
290
     0
176
     1
 90
        1
176
     1
 40
0.0
176
     1
 90
        0
176
     1
290
     0
176
     1
290
     1
176
     1
290
     1
176
     1
290
     0
176
     1
290
     0
176
     1
290
     0
176
     1
290
     0
176
     1
290
     0
176
     1
290
     0
176
     1
 90
       50
176
     1
 40
0.0
176
     1
 40
1.0
176
     1
 90
        0
176
     1
 62
    18
420
        0
176
     1
 90
       50
176
     1
 90
        3
176
     1
 62
     5
420
      255
176
     1
290
     0
176
     1
 90
       50
176
     1
 90
       50
176
     1
 90
       50
176
     1
290
     0
176
     1
 90
       50
176
     1
 62
   256
176
     0
 40
1.0
176
     0
 90
        2
176
     1
  1
strokes_ogs.tif
176
     1
290
     0
176
     1
 40
1.0
176
     1
 40
1.0
176
     1
  0
VISUALSTYLE
  5
168
102
{ACAD_REACTORS
330
162
102
}
330
162
100
AcDbVisualStyle
  2
3dWireframe
 70
     5
177
     3
291
     0
 70
    58
 90
        0
176
     1
 90
        2
176
     1
 90
        0
176
     1
 90
        0
176
     1
 40
-0.6
176
     1
 40
-30.0
176
     1
 62
     7
176
     1
 90
        1
176
     1
 90
        4
176
     1
 62
     7
176
     1
 62
   257
176
     1
 90
        1
176
     1
 90
        1
176
     1
 40
1.0
176
     1
 90
        0
176
     1
 62
   257
176
     1
 40
1.0
176
     1
 90
        1
176
     1
 90
        6
176
     1
 90
        2
176
     1
 62
     7
176
     1
 90
        5
176
     1
 90
        0
176
     1
 90
        0
176
     1
290
     0
176
     1
 90
        1
176
     1
 40
0.0
176
     1
 90
        0
176
     1
290
     0
176
     1
290
     1
176
     1
290
     1
176
     1
290
     0
176
     1
290
     0
176
     1
290
     0
176
     1
290
     0
176
     1
290
     0
176
     1
290
     0
176
     1
 90
       50
176
     1
 40
0.0
176
     1
 40
1.0
176
     1
 90
        0
176
     1
 62
    18
420
        0
176
     1
 90
       50
176
     1
 90
        3
176
     1
 62
     5
420
      255
176
     1
290
     0
176
     1
 90
       50
176
     1
 90
       50
176
     1
 90
       50
176
     1
290
     0
176
     1
 90
       50
176
     1
 62
   256
176
     0
 40
1.0
176
     0
 90
        2
176
     1
  1
strokes_ogs.tif
176
     1
290
     0
176
     1
 40
1.0
176
     1
 40
1.0
176
     1
  0
VISUALSTYLE
  5
16A
102
{ACAD_REACTORS
330
162
102
}
330
162
100
AcDbVisualStyle
  2
Basic
 70
     7
177
     3
291
     1
 70
    58
 90
        1
176
     1
 90
        0
176
     1
 90
        1
176
     1
 90
        0
176
     1
 40
-0.6
176
     1
 40
-30.0
176
     1
 62
     7
176
     1
 90
        0
176
     1
 90
        4
176
     1
 62
     7
176
     1
 62
   257
176
     1
 90
        1
176
     1
 90
        1
176
     1
 40
1.0
176
     1
 90
        8
176
     1
 62
     7
176
     1
 40
1.0
176
     1
 90
        1
176
     1
 90
        6
176
     1
 90
        2
176
     1
 62
     7
176
     1
 90
        5
176
     1
 90
        0
176
     1
 90
        0
176
     1
290
     0
176
     1
 90
        1
176
     1
 40
0.0
176
     1
 90
        0
176
     1
290
     0
176
     1
290
     1
176
     1
290
     1
176
     1
290
     0
176
     1
290
     0
176
     1
290
     0
176
     1
290
     0
176
     1
290
     0
176
     1
290
     0
176
     1
 90
       50
176
     1
 40
0.0
176
     1
 40
1.0
176
     1
 90
        0
176
     1
 62
    18
420
        0
176
     1
 90
       50
176
     1
 90
        3
176
     1
 62
     5
420
      255
176
     1
290
     0
176
     1
 90
       50
176
     1
 90
       50
176
     1
 90
       50
176
     1
290
     0
176
     1
 90
       50
176
     1
 62
   256
176
     0
 40
1.0
176
     0
 90
        2
176
     1
  1
strokes_ogs.tif
176
     1
290
     0
176
     1
 40
1.0
176
     1
 40
1.0
176
     1
  0
VISUALSTYLE
  5
16E
102
{ACAD_REACTORS
330
162
102
}
330
162
100
AcDbVisualStyle
  2
Brighten
 70
    12
177
     3
291
     1
 70
    58
 90
        2
176
     1
 90
        2
176
     1
 90
        0
176
     1
 90
        0
176
     1
 40
-0.6
176
     1
 40
-30.0
176
     1
 62
     7
176
     1
 90
        1
176
     1
 90
        4
176
     1
 62
     7
176
     1
 62
   257
176
     1
 90
        1
176
     1
 90
        1
176
     1
 40
1.0
176
     1
 90
        8
176
     1
 62
     7
176
     1
 40
1.0
176
     1
 90
        1
176
     1
 90
        6
176
     1
 90
        2
176
     1
 62
     7
176
     1
 90
        5
176
     1
 90
        0
176
     1
 90
        0
176
     1
290
     0
176
     1
 90
        1
176
     1
 40
50.0
176
     1
 90
        0
176
     1
290
     0
176
     1
290
     1
176
     1
290
     1
176
     1
290
     0
176
     1
290
     0
176
     1
290
     0
176
     1
290
     0
176
     1
290
     0
176
     1
290
     0
176
     1
 90
       50
176
     1
 40
0.0
176
     1
 40
1.0
176
     1
 90
        0
176
     1
 62
    18
420
        0
176
     1
 90
       50
176
     1
 90
        3
176
     1
 62
     5
420
      255
176
     1
290
     0
176
     1
 90
       50
176
     1
 90
       50
176
     1
 90
       50
176
     1
290
     0
176
     1
 90
       50
176
     1
 62
   256
176
     0
 40
1.0
176
     0
 90
        2
176
     1
  1
strokes_ogs.tif
176
     1
290
     0
176
     1
 40
1.0
176
     1
 40
1.0
176
     1
  0
VISUALSTYLE
  5
172
102
{ACAD_REACTORS
330
162
102
}
330
162
100
AcDbVisualStyle
  2
ColorChange
 70
    16
177
     3
291
     1
 70
    58
 90
        2
176
     1
 90
        2
176
     1
 90
        3
176
     1
 90
        0
176
     1
 40
-0.6
176
     1
 40
-30.0
176
     1
 62
     8
176
     1
 90
        1
176
     1
 90
        4
176
     1
 62
     7
176
     1
 62
   257
176
     1
 90
        1
176
     1
 90
        1
176
     1
 40
1.0
176
     1
 90
        8
176
     1
 62
     8
176
     1
 40
1.0
176
     1
 90
        1
176
     1
 90
        6
176
     1
 90
        2
176
     1
 62
     7
176
     1
 90
        5
176
     1
 90
        0
176
     1
 90
        0
176
     1
290
     0
176
     1
 90
        1
176
     1
 40
0.0
176
     1
 90
        0
176
     1
290
     0
176
     1
290
     1
176
     1
290
     1
176
     1
290
     0
176
     1
290
     0
176
     1
290
     0
176
     1
290
     0
176
     1
290
     0
176
     1
290
     0
176
     1
 90
       50
176
     1
 40
0.0
176
     1
 40
1.0
176
     1
 90
        0
176
     1
 62
    18
420
        0
176
     1
 90
       50
176
     1
 90
        3
176
     1
 62
     5
420
      255
176
     1
290
     0
176
     1
 90
       50
176
     1
 90
       50
176
     1
 90
       50
176
     1
290
     0
176
     1
 90
       50
176
     1
 62
   256
176
     0
 40
1.0
176
     0
 90
        2
176
     1
  1
strokes_ogs.tif
176
     1
290
     0
176
     1
 40
1.0
176
     1
 40
1.0
176
     1
  0
VISUALSTYLE
  5
16C
102
{ACAD_REACTORS
330
162
102
}
330
162
100
AcDbVisualStyle
  2
Conceptual
 70
     9
177
     3
291
     0
 70
    58
 90
        3
176
     1
 90
        2
176
     1
 90
        0
176
     1
 90
        0
176
     1
 40
-0.6
176
     1
 40
-30.0
176
     1
 62
     7
176
     1
 90
        2
176
     1
 90
        2
176
     1
 62
     7
176
     1
 62
   257
176
     1
 90
        1
176
     1
 90
        1
176
     1
 40
40.0
176
     1
 90
        8
176
     1
 62
     7
176
     1
 40
1.0
176
     1
 90
        1
176
     1
 90
        6
176
     1
 90
        2
176
     1
 62
     7
176
     1
 90
        3
176
     1
 90
        0
176
     1
 90
        0
176
     1
290
     0
176
     1
 90
        1
176
     1
 40
0.0
176
     1
 90
        0
176
     1
290
     0
176
     1
290
     1
176
     1
290
     1
176
     1
290
     0
176
     1
290
     0
176
     1
290
     0
176
     1
290
     0
176
     1
290
     0
176
     1
290
     0
176
     1
 90
       50
176
     1
 40
0.0
176
     1
 40
1.0
176
     1
 90
        0
176
     1
 62
    18
420
        0
176
     1
 90
       50
176
     1
 90
        3
176
     1
 62
     5
420
      255
176
     1
290
     0
176
     1
 90
       50
176
     1
 90
       50
176
     1
 90
       50
176
     1
290
     0
176
     1
 90
       50
176
     1
 62
   256
176
     0
 40
1.0
176
     0
 90
        2
176
     1
  1
strokes_ogs.tif
176
     1
290
     0
176
     1
 40
1.0
176
     1
 40
1.0
176
     1
  0
VISUALSTYLE
  5
16D
102
{ACAD_REACTORS
330
162
102
}
330
162
100
AcDbVisualStyle
  2
Dim
 70
    11
177
     3
291
     1
 70
    58
 90
        2
176
     1
 90
        2
176
     1
 90
        0
176
     1
 90
        0
176
     1
 40
-0.6
176
     1
 40
-30.0
176
     1
 62
     7
176
     1
 90
        1
176
     1
 90
        4
176
     1
 62
     7
176
     1
 62
   257
176
     1
 90
        1
176
     1
 90
        1
176
     1
 40
1.0
176
     1
 90
        8
176
     1
 62
     7
176
     1
 40
1.0
176
     1
 90
        1
176
     1
 90
        6
176
     1
 90
        2
176
     1
 62
     7
176
     1
 90
        5
176
     1
 90
        0
176
     1
 90
        0
176
     1
290
     0
176
     1
 90
        1
176
     1
 40
-50.0
176
     1
 90
        0
176
     1
290
     0
176
     1
290
     1
176
     1
290
     1
176
     1
290
     0
176
     1
290
     0
176
     1
290
     0
176
     1
290
     0
176
     1
290
     0
176
     1
290
     0
176
     1
 90
       50
176
     1
 40
0.0
176
     1
 40
1.0
176
     1
 90
        0
176
     1
 62
    18
420
        0
176
     1
 90
       50
176
     1
 90
        3
176
     1
 62
     5
420
      255
176
     1
290
     0
176
     1
 90
       50
176
     1
 90
       50
176
     1
 90
       50
176
     1
290
     0
176
     1
 90
       50
176
     1
 62
   256
176
     0
 40
1.0
176
     0
 90
        2
176
     1
  1
strokes_ogs.tif
176
     1
290
     0
176
     1
 40
1.0
176
     1
 40
1.0
176
     1
  0
VISUALSTYLE
  5
1C2
102
{ACAD_REACTORS
330
162
102
}
330
162
100
AcDbVisualStyle
  2
EdgeColorOff
 70
    22
177
     3
291
     1
 70
    58
 90
        2
176
     0
 90
        2
176
     0
 90
        0
176
     0
 90
        0
176
     0
 40
0.6
176
     0
 40
30.0
176
     0
 62
     7
420
 16777215
176
     0
 90
        1
176
     0
 90
        4
176
     0
 62
     7
176
     0
 62
   257
176
     0
 90
        1
176
     0
 90
        1
176
     0
 40
1.0
176
     0
 90
        8
176
     2
 62
     7
176
     0
 40
1.0
176
     0
 90
        1
176
     0
 90
        6
176
     0
 90
        2
176
     0
 62
     7
176
     0
 90
        5
176
     0
 90
        0
176
     0
 90
        0
176
     0
290
     0
176
     0
 90
        1
176
     0
 40
0.0
176
     0
 90
        0
176
     0
290
     0
176
     0
290
     1
176
     0
290
     1
176
     0
290
     0
176
     0
290
     0
176
     0
290
     0
176
     0
290
     0
176
     0
290
     0
176
     0
290
     0
176
     0
 90
       50
176
     0
 40
0.0
176
     0
 40
1.0
176
     0
 90
        0
176
     0
 62
    18
420
        0
176
     0
 90
       50
176
     0
 90
        3
176
     0
 62
     5
420
      255
176
     0
290
     0
176
     0
 90
       50
176
     0
 90
       50
176
     0
 90
       50
176
     0
290
     0
176
     0
 90
       50
176
     0
 62
   256
176
     0
 40
1.0
176
     0
 90
        2
176
     0
  1
strokes_ogs.tif
176
     0
290
     0
176
     0
 40
1.0
176
     0
 40
1.0
176
     0
  0
VISUALSTYLE
  5
171
102
{ACAD_REACTORS
330
162
102
}
330
162
100
AcDbVisualStyle
  2
Facepattern
 70
    15
177
     3
291
     1
 70
    58
 90
        2
176
     1
 90
        2
176
     1
 90
        0
176
     1
 90
        0
176
     1
 40
-0.6
176
     1
 40
-30.0
176
     1
 62
     7
176
     1
 90
        1
176
     1
 90
        4
176
     1
 62
     7
176
     1
 62
   257
176
     1
 90
        1
176
     1
 90
        1
176
     1
 40
1.0
176
     1
 90
        8
176
     1
 62
     7
176
     1
 40
1.0
176
     1
 90
        1
176
     1
 90
        6
176
     1
 90
        2
176
     1
 62
     7
176
     1
 90
        5
176
     1
 90
        0
176
     1
 90
        0
176
     1
290
     0
176
     1
 90
        1
176
     1
 40
0.0
176
     1
 90
        0
176
     1
290
     0
176
     1
290
     1
176
     1
290
     1
176
     1
290
     0
176
     1
290
     0
176
     1
290
     0
176
     1
290
     0
176
     1
290
     0
176
     1
290
     0
176
     1
 90
       50
176
     1
 40
0.0
176
     1
 40
1.0
176
     1
 90
        0
176
     1
 62
    18
420
        0
176
     1
 90
       50
176
     1
 90
        3
176
     1
 62
     5
420
      255
176
     1
290
     0
176
     1
 90
       50
176
     1
 90
       50
176
     1
 90
       50
176
     1
290
     0
176
     1
 90
       50
176
     1
 62
   256
176
     0
 40
1.0
176
     0
 90
        2
176
     1
  1
strokes_ogs.tif
176
     1
290
     0
176
     1
 40
1.0
176
     1
 40
1.0
176
     1
  0
VISUALSTYLE
  5
163
102
{ACAD_REACTORS
330
162
102
}
330
162
100
AcDbVisualStyle
  2
Flat
 70
     0
177
     3
291
     1
 70
    58
 90
        2
176
     1
 90
        1
176
     1
 90
        1
176
     1
 90
        2
176
     1
 40
-0.6
176
     1
 40
30.0
176
     1
 62
     7
176
     1
 90
        0
176
     1
 90
        4
176
     1
 62
     7
176
     1
 62
   257
176
     1
 90
        1
176
     1
 90
        1
176
     1
 40
1.0
176
     1
 90
        8
176
     1
 62
     7
176
     1
 40
1.0
176
     1
 90
        1
176
     1
 90
        6
176
     1
 90
        2
176
     1
 62
     7
176
     1
 90
        5
176
     1
 90
        0
176
     1
 90
        0
176
     1
290
     0
176
     1
 90
       13
176
     1
 40
0.0
176
     1
 90
        0
176
     1
290
     0
176
     1
290
     1
176
     1
290
     1
176
     1
290
     0
176
     1
290
     0
176
     1
290
     0
176
     1
290
     0
176
     1
290
     0
176
     1
290
     0
176
     1
 90
       50
176
     1
 40
0.0
176
     1
 40
1.0
176
     1
 90
        0
176
     1
 62
    18
420
        0
176
     1
 90
       50
176
     1
 90
        3
176
     1
 62
     5
420
      255
176
     1
290
     0
176
     1
 90
       50
176
     1
 90
       50
176
     1
 90
       50
176
     1
290
     0
176
     1
 90
       50
176
     1
 62
   256
176
     0
 40
1.0
176
     0
 90
        2
176
     1
  1
strokes_ogs.tif
176
     1
290
     0
176
     1
 40
1.0
176
     1
 40
1.0
176
     1
  0
VISUALSTYLE
  5
164
102
{ACAD_REACTORS
330
162
102
}
330
162
100
AcDbVisualStyle
  2
FlatWithEdges
 70
     1
177
     3
291
     1
 70
    58
 90
        2
176
     1
 90
        1
176
     1
 90
        1
176
     1
 90
        2
176
     1
 40
-0.6
176
     1
 40
30.0
176
     1
 62
     7
176
     1
 90
        1
176
     1
 90
        4
176
     1
 62
     7
176
     1
 62
   257
176
     1
 90
        1
176
     1
 90
        1
176
     1
 40
1.0
176
     1
 90
        0
176
     1
 62
   257
176
     1
 40
1.0
176
     1
 90
        1
176
     1
 90
        6
176
     1
 90
        2
176
     1
 62
     7
176
     1
 90
        5
176
     1
 90
        0
176
     1
 90
        0
176
     1
290
     0
176
     1
 90
       13
176
     1
 40
0.0
176
     1
 90
        0
176
     1
290
     0
176
     1
290
     1
176
     1
290
     1
176
     1
290
     0
176
     1
290
     0
176
     1
290
     0
176
     1
290
     0
176
     1
290
     0
176
     1
290
     0
176
     1
 90
       50
176
     1
 40
0.0
176
     1
 40
1.0
176
     1
 90
        0
176
     1
 62
    18
420
        0
176
     1
 90
       50
176
     1
 90
        3
176
     1
 62
     5
420
      255
176
     1
290
     0
176
     1
 90
       50
176
     1
 90
       50
176
     1
 90
       50
176
     1
290
     0
176
     1
 90
       50
176
     1
 62
   256
176
     0
 40
1.0
176
     0
 90
        2
176
     1
  1
strokes_ogs.tif
176
     1
290
     0
176
     1
 40
1.0
176
     1
 40
1.0
176
     1
  0
VISUALSTYLE
  5
165
102
{ACAD_REACTORS
330
162
102
}
330
162
100
AcDbVisualStyle
  2
Gouraud
 70
     2
177
     3
291
     1
 70
    58
 90
        2
176
     1
 90
        2
176
     1
 90
        1
176
     1
 90
        2
176
     1
 40
-0.6
176
     1
 40
30.0
176
     1
 62
     7
176
     1
 90
        0
176
     1
 90
        4
176
     1
 62
     7
176
     1
 62
   257
176
     1
 90
        1
176
     1
 90
        1
176
     1
 40
1.0
176
     1
 90
        0
176
     1
 62
     7
176
     1
 40
1.0
176
     1
 90
        1
176
     1
 90
        6
176
     1
 90
        2
176
     1
 62
     7
176
     1
 90
        5
176
     1
 90
        0
176
     1
 90
        0
176
     1
290
     0
176
     1
 90
       13
176
     1
 40
0.0
176
     1
 90
        0
176
     1
290
     0
176
     1
290
     1
176
     1
290
     1
176
     1
290
     0
176
     1
290
     0
176
     1
290
     0
176
     1
290
     0
176
     1
290
     0
176
     1
290
     0
176
     1
 90
       50
176
     1
 40
0.0
176
     1
 40
1.0
176
     1
 90
        0
176
     1
 62
    18
420
        0
176
     1
 90
       50
176
     1
 90
        3
176
     1
 62
     5
420
      255
176
     1
290
     0
176
     1
 90
       50
176
     1
 90
       50
176
     1
 90
       50
176
     1
290
     0
176
     1
 90
       50
176
     1
 62
   256
176
     0
 40
1.0
176
     0
 90
        2
176
     1
  1
strokes_ogs.tif
176
     1
290
     0
176
     1
 40
1.0
176
     1
 40
1.0
176
     1
  0
VISUALSTYLE
  5
166
102
{ACAD_REACTORS
330
162
102
}
330
162
100
AcDbVisualStyle
  2
GouraudWithEdges
 70
     3
177
     3
291
     1
 70
    58
 90
        2
176
     1
 90
        2
176
     1
 90
        1
176
     1
 90
        2
176
     1
 40
-0.6
176
     1
 40
30.0
176
     1
 62
     7
176
     1
 90
        1
176
     1
 90
        4
176
     1
 62
     7
176
     1
 62
   257
176
     1
 90
        1
176
     1
 90
        1
176
     1
 40
1.0
176
     1
 90
        0
176
     1
 62
   257
176
     1
 40
1.0
176
     1
 90
        1
176
     1
 90
        6
176
     1
 90
        2
176
     1
 62
     7
176
     1
 90
        5
176
     1
 90
        0
176
     1
 90
        0
176
     1
290
     0
176
     1
 90
       13
176
     1
 40
0.0
176
     1
 90
        0
176
     1
290
     0
176
     1
290
     1
176
     1
290
     1
176
     1
290
     0
176
     1
290
     0
176
     1
290
     0
176
     1
290
     0
176
     1
290
     0
176
     1
290
     0
176
     1
 90
       50
176
     1
 40
0.0
176
     1
 40
1.0
176
     1
 90
        0
176
     1
 62
    18
420
        0
176
     1
 90
       50
176
     1
 90
        3
176
     1
 62
     5
420
      255
176
     1
290
     0
176
     1
 90
       50
176
     1
 90
       50
176
     1
 90
       50
176
     1
290
     0
176
     1
 90
       50
176
     1
 62
   256
176
     0
 40
1.0
176
     0
 90
        2
176
     1
  1
strokes_ogs.tif
176
     1
290
     0
176
     1
 40
1.0
176
     1
 40
1.0
176
     1
  0
VISUALSTYLE
  5
1BF
102
{ACAD_REACTORS
330
162
102
}
330
162
100
AcDbVisualStyle
  2
Hidden
 70
     6
177
     3
291
     0
 70
    58
 90
        1
176
     1
 90
        2
176
     1
 90
        2
176
     1
 90
        0
176
     1
 40
0.6
176
     1
 40
30.0
176
     1
 62
     7
420
 16777215
176
     1
 90
        2
176
     1
 90
        2
176
     1
 62
     7
176
     1
 62
   257
176
     1
 90
        2
176
     1
 90
        1
176
     1
 40
40.0
176
     1
 90
        0
176
     1
 62
   257
176
     1
 40
1.0
176
     1
 90
        1
176
     1
 90
        6
176
     1
 90
        2
176
     1
 62
     7
176
     1
 90
        3
176
     1
 90
        0
176
     1
 90
        0
176
     1
290
     0
176
     1
 90
        1
176
     1
 40
0.0
176
     1
 90
        0
176
     1
290
     0
176
     1
290
     1
176
     1
290
     1
176
     1
290
     0
176
     1
290
     0
176
     1
290
     0
176
     1
290
     0
176
     1
290
     0
176
     1
290
     0
176
     1
 90
       50
176
     1
 40
0.0
176
     1
 40
1.0
176
     1
 90
        0
176
     1
 62
    18
420
        0
176
     1
 90
       50
176
     1
 90
        3
176
     1
 62
     5
420
      255
176
     1
290
     0
176
     1
 90
       50
176
     1
 90
       50
176
     1
 90
       50
176
     1
290
     0
176
     1
 90
       50
176
     1
 62
   256
176
     0
 40
1.0
176
     0
 90
        2
176
     1
  1
strokes_ogs.tif
176
     1
290
     0
176
     1
 40
1.0
176
     1
 40
1.0
176
     1
  0
VISUALSTYLE
  5
1C0
102
{ACAD_REACTORS
330
162
102
}
330
162
100
AcDbVisualStyle
  2
JitterOff
 70
    20
177
     3
291
     1
 70
    58
 90
        2
176
     0
 90
        2
176
     0
 90
        0
176
     0
 90
        0
176
     0
 40
0.6
176
     0
 40
30.0
176
     0
 62
     7
420
 16777215
176
     0
 90
        1
176
     0
 90
        4
176
     0
 62
     7
176
     0
 62
   257
176
     0
 90
        1
176
     0
 90
        1
176
     0
 40
1.0
176
     0
 90
       10
176
     2
 62
     7
176
     0
 40
1.0
176
     0
 90
        1
176
     0
 90
        6
176
     0
 90
        2
176
     0
 62
     7
176
     0
 90
        5
176
     0
 90
        0
176
     0
 90
        0
176
     0
290
     0
176
     0
 90
        1
176
     0
 40
0.0
176
     0
 90
        0
176
     0
290
     0
176
     0
290
     1
176
     0
290
     1
176
     0
290
     0
176
     0
290
     0
176
     0
290
     0
176
     0
290
     0
176
     0
290
     0
176
     0
290
     0
176
     0
 90
       50
176
     0
 40
0.0
176
     0
 40
1.0
176
     0
 90
        0
176
     0
 62
    18
420
        0
176
     0
 90
       50
176
     0
 90
        3
176
     0
 62
     5
420
      255
176
     0
290
     0
176
     0
 90
       50
176
     0
 90
       50
176
     0
 90
       50
176
     0
290
     0
176
     0
 90
       50
176
     0
 62
   256
176
     0
 40
1.0
176
     0
 90
        2
176
     0
  1
strokes_ogs.tif
176
     0
290
     0
176
     0
 40
1.0
176
     0
 40
1.0
176
     0
  0
VISUALSTYLE
  5
170
102
{ACAD_REACTORS
330
162
102
}
330
162
100
AcDbVisualStyle
  2
Linepattern
 70
    14
177
     3
291
     1
 70
    58
 90
        2
176
     1
 90
        2
176
     1
 90
        0
176
     1
 90
        0
176
     1
 40
-0.6
176
     1
 40
-30.0
176
     1
 62
     7
176
     1
 90
        1
176
     1
 90
        4
176
     1
 62
     7
176
     1
 62
   257
176
     1
 90
        7
176
     1
 90
        7
176
     1
 40
1.0
176
     1
 90
        8
176
     1
 62
     7
176
     1
 40
1.0
176
     1
 90
        1
176
     1
 90
        6
176
     1
 90
        2
176
     1
 62
     7
176
     1
 90
        5
176
     1
 90
        0
176
     1
 90
        0
176
     1
290
     0
176
     1
 90
        1
176
     1
 40
0.0
176
     1
 90
        0
176
     1
290
     0
176
     1
290
     1
176
     1
290
     1
176
     1
290
     0
176
     1
290
     0
176
     1
290
     0
176
     1
290
     0
176
     1
290
     0
176
     1
290
     0
176
     1
 90
       50
176
     1
 40
0.0
176
     1
 40
1.0
176
     1
 90
        0
176
     1
 62
    18
420
        0
176
     1
 90
       50
176
     1
 90
        3
176
     1
 62
     5
420
      255
176
     1
290
     0
176
     1
 90
       50
176
     1
 90
       50
176
     1
 90
       50
176
     1
290
     0
176
     1
 90
       50
176
     1
 62
   256
176
     0
 40
1.0
176
     0
 90
        2
176
     1
  1
strokes_ogs.tif
176
     1
290
     0
176
     1
 40
1.0
176
     1
 40
1.0
176
     1
  0
VISUALSTYLE
  5
1C1
102
{ACAD_REACTORS
330
162
102
}
330
162
100
AcDbVisualStyle
  2
OverhangOff
 70
    21
177
     3
291
     1
 70
    58
 90
        2
176
     0
 90
        2
176
     0
 90
        0
176
     0
 90
        0
176
     0
 40
0.6
176
     0
 40
30.0
176
     0
 62
     7
420
 16777215
176
     0
 90
        1
176
     0
 90
        4
176
     0
 62
     7
176
     0
 62
   257
176
     0
 90
        1
176
     0
 90
        1
176
     0
 40
1.0
176
     0
 90
        9
176
     2
 62
     7
176
     0
 40
1.0
176
     0
 90
        1
176
     0
 90
        6
176
     0
 90
        2
176
     0
 62
     7
176
     0
 90
        5
176
     0
 90
        0
176
     0
 90
        0
176
     0
290
     0
176
     0
 90
        1
176
     0
 40
0.0
176
     0
 90
        0
176
     0
290
     0
176
     0
290
     1
176
     0
290
     1
176
     0
290
     0
176
     0
290
     0
176
     0
290
     0
176
     0
290
     0
176
     0
290
     0
176
     0
290
     0
176
     0
 90
       50
176
     0
 40
0.0
176
     0
 40
1.0
176
     0
 90
        0
176
     0
 62
    18
420
        0
176
     0
 90
       50
176
     0
 90
        3
176
     0
 62
     5
420
      255
176
     0
290
     0
176
     0
 90
       50
176
     0
 90
       50
176
     0
 90
       50
176
     0
290
     0
176
     0
 90
       50
176
     0
 62
   256
176
     0
 40
1.0
176
     0
 90
        2
176
     0
  1
strokes_ogs.tif
176
     0
290
     0
176
     0
 40
1.0
176
     0
 40
1.0
176
     0
  0
VISUALSTYLE
  5
16B
102
{ACAD_REACTORS
330
162
102
}
330
162
100
AcDbVisualStyle
  2
Realistic
 70
     8
177
     3
291
     0
 70
    58
 90
        2
176
     1
 90
        2
176
     1
 90
        0
176
     1
 90
        0
176
     1
 40
-0.6
176
     1
 40
-30.0
176
     1
 62
     7
176
     1
 90
        1
176
     1
 90
        0
176
     1
 62
     7
176
     1
 62
   257
176
     1
 90
        1
176
     1
 90
        1
176
     1
 40
1.0
176
     1
 90
        8
176
     1
 62
     8
176
     1
 40
1.0
176
     1
 90
        1
176
     1
 90
        6
176
     1
 90
        2
176
     1
 62
     7
176
     1
 90
        5
176
     1
 90
        0
176
     1
 90
        0
176
     1
290
     0
176
     1
 90
       13
176
     1
 40
0.0
176
     1
 90
        0
176
     1
290
     0
176
     1
290
     1
176
     1
290
     1
176
     1
290
     0
176
     1
290
     0
176
     1
290
     0
176
     1
290
     0
176
     1
290
     0
176
     1
290
     0
176
     1
 90
       50
176
     1
 40
0.0
176
     1
 40
1.0
176
     1
 90
        0
176
     1
 62
    18
420
        0
176
     1
 90
       50
176
     1
 90
        3
176
     1
 62
     5
420
      255
176
     1
290
     0
176
     1
 90
       50
176
     1
 90
       50
176
     1
 90
       50
176
     1
290
     0
176
     1
 90
       50
176
     1
 62
   256
176
     0
 40
1.0
176
     0
 90
        2
176
     1
  1
strokes_ogs.tif
176
     1
290
     0
176
     1
 40
1.0
176
     1
 40
1.0
176
     1
  0
VISUALSTYLE
  5
1C7
102
{ACAD_REACTORS
330
162
102
}
330
162
100
AcDbVisualStyle
  2
Shaded
 70
    27
177
     3
291
     0
 70
    58
 90
        2
176
     1
 90
        2
176
     1
 90
        1
176
     1
 90
        2
176
     1
 40
0.6
176
     1
 40
30.0
176
     1
 62
     7
420
 16777215
176
     1
 90
        0
176
     1
 90
        4
176
     1
 62
     7
176
     1
 62
   257
176
     1
 90
        1
176
     1
 90
        1
176
     1
 40
1.0
176
     1
 90
        8
176
     1
 62
   257
176
     1
 40
1.0
176
     1
 90
        1
176
     1
 90
        6
176
     1
 90
        2
176
     1
 62
     8
420
  7895160
176
     1
 90
        3
176
     1
 90
        0
176
     1
 90
        0
176
     1
290
     0
176
     1
 90
        5
176
     1
 40
0.0
176
     1
 90
        0
176
     1
290
     0
176
     1
290
     1
176
     1
290
     1
176
     1
290
     0
176
     1
290
     0
176
     1
290
     0
176
     1
290
     0
176
     1
290
     0
176
     1
290
     0
176
     1
 90
       50
176
     1
 40
0.0
176
     1
 40
1.0
176
     1
 90
        0
176
     1
 62
    18
420
        0
176
     1
 90
       50
176
     1
 90
        3
176
     1
 62
     5
420
      255
176
     1
290
     0
176
     1
 90
       50
176
     1
 90
       50
176
     1
 90
       50
176
     1
290
     0
176
     1
 90
       50
176
     1
 62
   256
176
     0
 40
1.0
176
     0
 90
        2
176
     1
  1
strokes_ogs.tif
176
     1
290
     0
176
     1
 40
1.0
176
     1
 40
1.0
176
     1
  0
VISUALSTYLE
  5
1C6
102
{ACAD_REACTORS
330
162
102
}
330
162
100
AcDbVisualStyle
  2
Shaded with edges
 70
    26
177
     3
291
     0
 70
    58
 90
        2
176
     1
 90
        2
176
     1
 90
        1
176
     1
 90
        2
176
     1
 40
0.6
176
     1
 40
30.0
176
     1
 62
     7
420
 16777215
176
     1
 90
        1
176
     1
 90
       10
176
     1
 62
     7
176
     1
 62
   257
176
     1
 90
        2
176
     1
 90
        1
176
     1
 40
1.0
176
     1
 90
        8
176
     1
 62
   257
176
     1
 40
1.0
176
     1
 90
        1
176
     1
 90
        6
176
     1
 90
        2
176
     1
 62
     7
176
     1
 90
        3
176
     1
 90
        0
176
     1
 90
        0
176
     1
290
     0
176
     1
 90
        5
176
     1
 40
0.0
176
     1
 90
        0
176
     1
290
     0
176
     1
290
     1
176
     1
290
     1
176
     1
290
     0
176
     1
290
     0
176
     1
290
     0
176
     1
290
     0
176
     1
290
     0
176
     1
290
     0
176
     1
 90
       50
176
     1
 40
0.0
176
     1
 40
1.0
176
     1
 90
        0
176
     1
 62
    18
420
        0
176
     1
 90
       50
176
     1
 90
        3
176
     1
 62
     5
420
      255
176
     1
290
     0
176
     1
 90
       50
176
     1
 90
       50
176
     1
 90
       50
176
     1
290
     0
176
     1
 90
       50
176
     1
 62
   256
176
     0
 40
1.0
176
     0
 90
        2
176
     1
  1
strokes_ogs.tif
176
     1
290
     0
176
     1
 40
1.0
176
     1
 40
1.0
176
     1
  0
VISUALSTYLE
  5
1C3
102
{ACAD_REACTORS
330
162
102
}
330
162
100
AcDbVisualStyle
  2
Shades of Gray
 70
    23
177
     3
291
     0
 70
    58
 90
        2
176
     1
 90
        2
176
     1
 90
        3
176
     1
 90
        0
176
     1
 40
0.6
176
     1
 40
30.0
176
     1
 62
     7
420
 16777215
176
     1
 90
        2
176
     1
 90
        2
176
     1
 62
     7
176
     1
 62
     7
176
     1
 90
        1
176
     1
 90
        1
176
     1
 40
40.0
176
     1
 90
        8
176
     1
 62
     7
176
     1
 40
1.0
176
     1
 90
        1
176
     1
 90
        6
176
     1
 90
        2
176
     1
 62
     7
176
     1
 90
        3
176
     1
 90
        0
176
     1
 90
        0
176
     1
290
     0
176
     1
 90
        1
176
     1
 40
0.0
176
     1
 90
        0
176
     1
290
     0
176
     1
290
     1
176
     1
290
     1
176
     1
290
     0
176
     1
290
     0
176
     1
290
     0
176
     1
290
     0
176
     1
290
     0
176
     1
290
     0
176
     1
 90
       50
176
     1
 40
0.0
176
     1
 40
1.0
176
     1
 90
        0
176
     1
 62
    18
420
        0
176
     1
 90
       50
176
     1
 90
        3
176
     1
 62
     5
420
      255
176
     1
290
     0
176
     1
 90
       50
176
     1
 90
       50
176
     1
 90
       50
176
     1
290
     0
176
     1
 90
       50
176
     1
 62
   256
176
     0
 40
1.0
176
     0
 90
        2
176
     1
  1
strokes_ogs.tif
176
     1
290
     0
176
     1
 40
1.0
176
     1
 40
1.0
176
     1
  0
VISUALSTYLE
  5
1C4
102
{ACAD_REACTORS
330
162
102
}
330
162
100
AcDbVisualStyle
  2
Sketchy
 70
    24
177
     3
291
     0
 70
    58
 90
        1
176
     1
 90
        2
176
     1
 90
        2
176
     1
 90
        0
176
     1
 40
0.6
176
     1
 40
30.0
176
     1
 62
     7
420
 16777215
176
     1
 90
        2
176
     1
 90
        2
176
     1
 62
     7
176
     1
 62
     7
176
     1
 90
        1
176
     1
 90
        1
176
     1
 40
40.0
176
     1
 90
       11
176
     1
 62
     7
176
     1
 40
1.0
176
     1
 90
        1
176
     1
 90
        6
176
     1
 90
        2
176
     1
 62
     7
176
     1
 90
        6
176
     1
 90
        0
176
     1
 90
        0
176
     1
290
     0
176
     1
 90
        1
176
     1
 40
0.0
176
     1
 90
        0
176
     1
290
     0
176
     1
290
     1
176
     1
290
     1
176
     1
290
     0
176
     1
290
     0
176
     1
290
     0
176
     1
290
     0
176
     1
290
     0
176
     1
290
     0
176
     1
 90
       50
176
     1
 40
0.0
176
     1
 40
1.0
176
     1
 90
        0
176
     1
 62
    18
420
        0
176
     1
 90
       50
176
     1
 90
        3
176
     1
 62
     5
420
      255
176
     1
290
     0
176
     1
 90
       50
176
     1
 90
       50
176
     1
 90
       50
176
     1
290
     0
176
     1
 90
       50
176
     1
 62
   256
176
     0
 40
1.0
176
     0
 90
        2
176
     1
  1
strokes_ogs.tif
176
     1
290
     0
176
     1
 40
1.0
176
     1
 40
1.0
176
     1
  0
VISUALSTYLE
  5
16F
102
{ACAD_REACTORS
330
162
102
}
330
162
100
AcDbVisualStyle
  2
Thicken
 70
    13
177
     3
291
     1
 70
    58
 90
        2
176
     1
 90
        2
176
     1
 90
        0
176
     1
 90
        0
176
     1
 40
-0.6
176
     1
 40
-30.0
176
     1
 62
     7
176
     1
 90
        1
176
     1
 90
        4
176
     1
 62
     7
176
     1
 62
   257
176
     1
 90
        1
176
     1
 90
        1
176
     1
 40
1.0
176
     1
 90
       12
176
     1
 62
     7
176
     1
 40
1.0
176
     1
 90
        1
176
     1
 90
        6
176
     1
 90
        2
176
     1
 62
     7
176
     1
 90
        5
176
     1
 90
        0
176
     1
 90
        0
176
     1
290
     0
176
     1
 90
        1
176
     1
 40
0.0
176
     1
 90
        0
176
     1
290
     0
176
     1
290
     1
176
     1
290
     1
176
     1
290
     0
176
     1
290
     0
176
     1
290
     0
176
     1
290
     0
176
     1
290
     0
176
     1
290
     0
176
     1
 90
       50
176
     1
 40
0.0
176
     1
 40
1.0
176
     1
 90
        0
176
     1
 62
    18
420
        0
176
     1
 90
       50
176
     1
 90
        3
176
     1
 62
     5
420
      255
176
     1
290
     0
176
     1
 90
       50
176
     1
 90
       50
176
     1
 90
       50
176
     1
290
     0
176
     1
 90
       50
176
     1
 62
   256
176
     0
 40
1.0
176
     0
 90
        2
176
     1
  1
strokes_ogs.tif
176
     1
290
     0
176
     1
 40
1.0
176
     1
 40
1.0
176
     1
  0
VISUALSTYLE
  5
1BE
102
{ACAD_REACTORS
330
162
102
}
330
162
100
AcDbVisualStyle
  2
Wireframe
 70
     5
177
     3
291
     0
 70
    58
 90
        0
176
     1
 90
        2
176
     1
 90
        0
176
     1
 90
        0
176
     1
 40
0.6
176
     1
 40
30.0
176
     1
 62
     7
420
 16777215
176
     1
 90
        1
176
     1
 90
        4
176
     1
 62
     7
176
     1
 62
   257
176
     1
 90
        1
176
     1
 90
        1
176
     1
 40
1.0
176
     1
 90
        0
176
     1
 62
   257
176
     1
 40
1.0
176
     1
 90
        1
176
     1
 90
        6
176
     1
 90
        2
176
     1
 62
     7
176
     1
 90
        3
176
     1
 90
        0
176
     1
 90
        0
176
     1
290
     0
176
     1
 90
        1
176
     1
 40
0.0
176
     1
 90
        0
176
     1
290
     0
176
     1
290
     1
176
     1
290
     1
176
     1
290
     0
176
     1
290
     0
176
     1
290
     0
176
     1
290
     0
176
     1
290
     0
176
     1
290
     0
176
     1
 90
       50
176
     1
 40
0.0
176
     1
 40
1.0
176
     1
 90
        0
176
     1
 62
    18
420
        0
176
     1
 90
       50
176
     1
 90
        3
176
     1
 62
     5
420
      255
176
     1
290
     0
176
     1
 90
       50
176
     1
 90
       50
176
     1
 90
       50
176
     1
290
     0
176
     1
 90
       50
176
     1
 62
   256
176
     0
 40
1.0
176
     0
 90
        2
176
     1
  1
strokes_ogs.tif
176
     1
290
     0
176
     1
 40
1.0
176
     1
 40
1.0
176
     1
  0
VISUALSTYLE
  5
1C5
102
{ACAD_REACTORS
330
162
102
}
330
162
100
AcDbVisualStyle
  2
X-Ray
 70
    25
177
     3
291
     0
 70
    58
 90
        2
176
     1
 90
        2
176
     1
 90
        1
176
     1
 90
        1
176
     1
 40
0.5
176
     1
 40
30.0
176
     1
 62
     7
420
 16777215
176
     1
 90
        1
176
     1
 90
        0
176
     1
 62
     7
176
     1
 62
   257
176
     1
 90
        1
176
     1
 90
        1
176
     1
 40
1.0
176
     1
 90
        8
176
     1
 62
     7
176
     1
 40
1.0
176
     1
 90
        1
176
     1
 90
        6
176
     1
 90
        2
176
     1
 62
     7
176
     1
 90
        3
176
     1
 90
        0
176
     1
 90
        0
176
     1
290
     0
176
     1
 90
       13
176
     1
 40
0.0
176
     1
 90
        0
176
     1
290
     0
176
     1
290
     1
176
     1
290
     1
176
     1
290
     0
176
     1
290
     0
176
     1
290
     0
176
     1
290
     0
176
     1
290
     0
176
     1
290
     0
176
     1
 90
       50
176
     1
 40
0.0
176
     1
 40
1.0
176
     1
 90
        0
176
     1
 62
    18
420
        0
176
     1
 90
       50
176
     1
 90
        3
176
     1
 62
     5
420
      255
176
     1
290
     0
176
     1
 90
       50
176
     1
 90
       50
176
     1
 90
       50
176
     1
290
     0
176
     1
 90
       50
176
     1
 62
   256
176
     0
 40
1.0
176
     0
 90
        2
176
     1
  1
strokes_ogs.tif
176
     1
290
     0
176
     1
 40
1.0
176
     1
 40
1.0
176
     1
  0
DICTIONARYVAR
  5
1F3
102
{ACAD_REACTORS
330
17D
102
}
330
17D
100
DictionaryVariables
280
     0
  1
1:1
  0
DICTIONARYVAR
  5
1F8
102
{ACAD_REACTORS
330
17D
102
}
330
17D
100
DictionaryVariables
280
     0
  1
Standard
  0
DICTIONARYVAR
  5
1F7
102
{ACAD_REACTORS
330
17D
102
}
330
17D
100
DictionaryVariables
280
     0
  1
Standard
  0
DICTIONARYVAR
  5
181
102
{ACAD_REACTORS
330
17D
102
}
330
17D
100
DictionaryVariables
280
     0
  1
2
  0
DICTIONARYVAR
  5
182
102
{ACAD_REACTORS
330
17D
102
}
330
17D
100
DictionaryVariables
280
     0
  1
1
  0
DICTIONARYVAR
  5
180
102
{ACAD_REACTORS
330
17D
102
}
330
17D
100
DictionaryVariables
280
     0
  1
0
  0
DICTIONARY
  5
273
330
1C9
100
AcDbDictionary
280
     1
281
     1
  3
ACAD_ROUNDTRIP_2008_TABLESTYLE_CELLSTYLEMAP
360
274
  0
CELLSTYLEMAP
  5
274
102
{ACAD_REACTORS
330
273
102
}
330
273
100
AcDbCellStyleMap
 90
        3
300
CELLSTYLE
  1
TABLEFORMAT_BEGIN
 90
        5
170
     1
 91
        0
 92
    32768
 62
   257
 93
        1
300
CONTENTFORMAT
  1
CONTENTFORMAT_BEGIN
 90
        0
 91
        0
 92
        4
 93
        0
300

 40
0.0
140
1.0
 94
        5
 62
     0
340
11
144
0.25
309
CONTENTFORMAT_END
171
     1
301
MARGIN
  1
CELLMARGIN_BEGIN
 40
0.06
 40
0.06
 40
0.06
 40
0.06
 40
0.06
 40
0.06
309
CELLMARGIN_END
 94
        6
 95
        1
302
GRIDFORMAT
  1
GRIDFORMAT_BEGIN
 90
        0
 91
        1
 62
     0
 92
       -2
340
14
 93
        0
 40
0.045
309
GRIDFORMAT_END
 95
        2
302
GRIDFORMAT
  1
GRIDFORMAT_BEGIN
 90
        0
 91
        1
 62
     0
 92
       -2
340
14
 93
        0
 40
0.045
309
GRIDFORMAT_END
 95
        4
302
GRIDFORMAT
  1
GRIDFORMAT_BEGIN
 90
        0
 91
        1
 62
     0
 92
       -2
340
14
 93
        0
 40
0.045
309
GRIDFORMAT_END
 95
        8
302
GRIDFORMAT
  1
GRIDFORMAT_BEGIN
 90
        0
 91
        1
 62
     0
 92
       -2
340
14
 93
        0
 40
0.045
309
GRIDFORMAT_END
 95
       16
302
GRIDFORMAT
  1
GRIDFORMAT_BEGIN
 90
        0
 91
        1
 62
     0
 92
       -2
340
14
 93
        0
 40
0.045
309
GRIDFORMAT_END
 95
       32
302
GRIDFORMAT
  1
GRIDFORMAT_BEGIN
 90
        0
 91
        1
 62
     0
 92
       -2
340
14
 93
        0
 40
0.045
309
GRIDFORMAT_END
309
TABLEFORMAT_END
  1
CELLSTYLE_BEGIN
 90
        1
 91
        1
300
_TITLE
309
CELLSTYLE_END
300
CELLSTYLE
  1
TABLEFORMAT_BEGIN
 90
        5
170
     1
 91
        0
 92
        0
 62
   257
 93
        1
300
CONTENTFORMAT
  1
CONTENTFORMAT_BEGIN
 90
        0
 91
        0
 92
        4
 93
        0
300

 40
0.0
140
1.0
 94
        5
 62
     0
340
11
144
0.18
309
CONTENTFORMAT_END
171
     1
301
MARGIN
  1
CELLMARGIN_BEGIN
 40
0.06
 40
0.06
 40
0.06
 40
0.06
 40
0.06
 40
0.06
309
CELLMARGIN_END
 94
        6
 95
        1
302
GRIDFORMAT
  1
GRIDFORMAT_BEGIN
 90
        0
 91
        1
 62
     0
 92
       -2
340
14
 93
        0
 40
0.045
309
GRIDFORMAT_END
 95
        2
302
GRIDFORMAT
  1
GRIDFORMAT_BEGIN
 90
        0
 91
        1
 62
     0
 92
       -2
340
14
 93
        0
 40
0.045
309
GRIDFORMAT_END
 95
        4
302
GRIDFORMAT
  1
GRIDFORMAT_BEGIN
 90
        0
 91
        1
 62
     0
 92
       -2
340
14
 93
        0
 40
0.045
309
GRIDFORMAT_END
 95
        8
302
GRIDFORMAT
  1
GRIDFORMAT_BEGIN
 90
        0
 91
        1
 62
     0
 92
       -2
340
14
 93
        0
 40
0.045
309
GRIDFORMAT_END
 95
       16
302
GRIDFORMAT
  1
GRIDFORMAT_BEGIN
 90
        0
 91
        1
 62
     0
 92
       -2
340
14
 93
        0
 40
0.045
309
GRIDFORMAT_END
 95
       32
302
GRIDFORMAT
  1
GRIDFORMAT_BEGIN
 90
        0
 91
        1
 62
     0
 92
       -2
340
14
 93
        0
 40
0.045
309
GRIDFORMAT_END
309
TABLEFORMAT_END
  1
CELLSTYLE_BEGIN
 90
        2
 91
        1
300
_HEADER
309
CELLSTYLE_END
300
CELLSTYLE
  1
TABLEFORMAT_BEGIN
 90
        5
170
     1
 91
        0
 92
        0
 62
   257
 93
        1
300
CONTENTFORMAT
  1
CONTENTFORMAT_BEGIN
 90
        0
 91
        0
 92
        4
 93
        0
300

 40
0.0
140
1.0
 94
        2
 62
     0
340
11
144
0.18
309
CONTENTFORMAT_END
171
     1
301
MARGIN
  1
CELLMARGIN_BEGIN
 40
0.06
 40
0.06
 40
0.06
 40
0.06
 40
0.06
 40
0.06
309
CELLMARGIN_END
 94
        6
 95
        1
302
GRIDFORMAT
  1
GRIDFORMAT_BEGIN
 90
        0
 91
        1
 62
     0
 92
       -2
340
14
 93
        0
 40
0.045
309
GRIDFORMAT_END
 95
        2
302
GRIDFORMAT
  1
GRIDFORMAT_BEGIN
 90
        0
 91
        1
 62
     0
 92
       -2
340
14
 93
        0
 40
0.045
309
GRIDFORMAT_END
 95
        4
302
GRIDFORMAT
  1
GRIDFORMAT_BEGIN
 90
        0
 91
        1
 62
     0
 92
       -2
340
14
 93
        0
 40
0.045
309
GRIDFORMAT_END
 95
        8
302
GRIDFORMAT
  1
GRIDFORMAT_BEGIN
 90
        0
 91
        1
 62
     0
 92
       -2
340
14
 93
        0
 40
0.045
309
GRIDFORMAT_END
 95
       16
302
GRIDFORMAT
  1
GRIDFORMAT_BEGIN
 90
        0
 91
        1
 62
     0
 92
       -2
340
14
 93
        0
 40
0.045
309
GRIDFORMAT_END
 95
       32
302
GRIDFORMAT
  1
GRIDFORMAT_BEGIN
 90
        0
 91
        1
 62
     0
 92
       -2
340
14
 93
        0
 40
0.045
309
GRIDFORMAT_END
309
TABLEFORMAT_END
  1
CELLSTYLE_BEGIN
 90
        3
 91
        2
300
_DATA
309
CELLSTYLE_END
  0
ENDSEC
  0
EOF
