  0
SECTION
  2
HEADER
  9
$ACADVER
  1
AC1027
  9
$ACADMAINTVER
 70
   105
  9
$DWGCODEPAGE
  3
ANSI_1252
  9
$REQUIREDVERSIONS
160
                 0
  9
$LASTSAVEDBY
  1
matthias.ochs
  9
$INSBASE
 10
0.0
 20
0.0
 30
0.0
  9
$EXTMIN
 10
-23.3955562206401
 20
-31.78951269747645
 30
0.0
  9
$EXTMAX
 10
32.95832278918201
 20
29.37506330098901
 30
0.0
  9
$LIMMIN
 10
-35.994723851
 20
-12.855
  9
$LIMMAX
 10
44.093747257
 20
23.355
  9
$ORTHOMODE
 70
     0
  9
$REGENMODE
 70
     1
  9
$FILLMODE
 70
     1
  9
$QTEXTMODE
 70
     0
  9
$MIRRTEXT
 70
     1
  9
$LTSCALE
 40
1.0
  9
$ATTMODE
 70
     1
  9
$TEXTSIZE
 40
0.2
  9
$TRACEWID
 40
0.05
  9
$TEXTSTYLE
  7
Standard
  9
$CLAYER
  8
SK2
  9
$CELTYPE
  6
ByLayer
  9
$CECOLOR
 62
   256
  9
$CELTSCALE
 40
1.0
  9
$DISPSILH
 70
     0
  9
$DIMSCALE
 40
1.0
  9
$DIMASZ
 40
0.18
  9
$DIMEXO
 40
0.0625
  9
$DIMDLI
 40
0.38
  9
$DIMRND
 40
0.0
  9
$DIMDLE
 40
0.0
  9
$DIMEXE
 40
0.18
  9
$DIMTP
 40
0.0
  9
$DIMTM
 40
0.0
  9
$DIMTXT
 40
0.18
  9
$DIMCEN
 40
0.09
  9
$DIMTSZ
 40
0.0
  9
$DIMTOL
 70
     0
  9
$DIMLIM
 70
     0
  9
$DIMTIH
 70
     1
  9
$DIMTOH
 70
     1
  9
$DIMSE1
 70
     0
  9
$DIMSE2
 70
     0
  9
$DIMTAD
 70
     0
  9
$DIMZIN
 70
     0
  9
$DIMBLK
  1

  9
$DIMASO
 70
     1
  9
$DIMSHO
 70
     1
  9
$DIMPOST
  1

  9
$DIMAPOST
  1

  9
$DIMALT
 70
     0
  9
$DIMALTD
 70
     2
  9
$DIMALTF
 40
25.4
  9
$DIMLFAC
 40
1.0
  9
$DIMTOFL
 70
     0
  9
$DIMTVP
 40
0.0
  9
$DIMTIX
 70
     0
  9
$DIMSOXD
 70
     0
  9
$DIMSAH
 70
     0
  9
$DIMBLK1
  1

  9
$DIMBLK2
  1

  9
$DIMSTYLE
  2
Standard
  9
$DIMCLRD
 70
     0
  9
$DIMCLRE
 70
     0
  9
$DIMCLRT
 70
     0
  9
$DIMTFAC
 40
1.0
  9
$DIMGAP
 40
0.09
  9
$DIMJUST
 70
     0
  9
$DIMSD1
 70
     0
  9
$DIMSD2
 70
     0
  9
$DIMTOLJ
 70
     1
  9
$DIMTZIN
 70
     0
  9
$DIMALTZ
 70
     0
  9
$DIMALTTZ
 70
     0
  9
$DIMUPT
 70
     0
  9
$DIMDEC
 70
     4
  9
$DIMTDEC
 70
     4
  9
$DIMALTU
 70
     2
  9
$DIMALTTD
 70
     2
  9
$DIMTXSTY
  7
Standard
  9
$DIMAUNIT
 70
     0
  9
$DIMADEC
 70
     0
  9
$DIMALTRND
 40
0.0
  9
$DIMAZIN
 70
     0
  9
$DIMDSEP
 70
    46
  9
$DIMATFIT
 70
     3
  9
$DIMFRAC
 70
     0
  9
$DIMLDRBLK
  1

  9
$DIMLUNIT
 70
     2
  9
$DIMLWD
 70
    -2
  9
$DIMLWE
 70
    -2
  9
$DIMTMOVE
 70
     2
  9
$DIMFXL
 40
1.0
  9
$DIMFXLON
 70
     0
  9
$DIMJOGANG
 40
0.7853981633974483
  9
$DIMTFILL
 70
     0
  9
$DIMTFILLCLR
 70
     0
  9
$DIMARCSYM
 70
     0
  9
$DIMLTYPE
  6

  9
$DIMLTEX1
  6

  9
$DIMLTEX2
  6

  9
$DIMTXTDIRECTION
 70
     0
  9
$LUNITS
 70
     2
  9
$LUPREC
 70
     4
  9
$SKETCHINC
 40
0.1
  9
$FILLETRAD
 40
0.5
  9
$AUNITS
 70
     2
  9
$AUPREC
 70
     0
  9
$MENU
  1
.
  9
$ELEVATION
 40
0.0
  9
$PELEVATION
 40
0.0
  9
$THICKNESS
 40
0.0
  9
$LIMCHECK
 70
     0
  9
$CHAMFERA
 40
0.5
  9
$CHAMFERB
 40
0.5
  9
$CHAMFERC
 40
1.0
  9
$CHAMFERD
 40
0.0
  9
$SKPOLY
 70
     0
  9
$TDCREATE
 40
2458327.549556644
  9
$TDUCREATE
 40
2458327.46622331
  9
$TDUPDATE
 40
2458680.575497026
  9
$TDUUPDATE
 40
2458680.492163692
  9
$TDINDWG
 40
0.0093570255
  9
$TDUSRTIMER
 40
0.0083290509
  9
$USRTIMER
 70
     1
  9
$ANGBASE
 50
0.0
  9
$ANGDIR
 70
     0
  9
$PDMODE
 70
     0
  9
$PDSIZE
 40
0.0
  9
$PLINEWID
 40
0.0
  9
$SPLFRAME
 70
     0
  9
$SPLINETYPE
 70
     6
  9
$SPLINESEGS
 70
     8
  9
$HANDSEED
  5
2B7
  9
$SURFTAB1
 70
     6
  9
$SURFTAB2
 70
     6
  9
$SURFTYPE
 70
     6
  9
$SURFU
 70
     6
  9
$SURFV
 70
     6
  9
$UCSBASE
  2

  9
$UCSNAME
  2

  9
$UCSORG
 10
0.0
 20
0.0
 30
0.0
  9
$UCSXDIR
 10
1.0
 20
0.0
 30
0.0
  9
$UCSYDIR
 10
0.0
 20
1.0
 30
0.0
  9
$UCSORTHOREF
  2

  9
$UCSORTHOVIEW
 70
     0
  9
$UCSORGTOP
 10
0.0
 20
0.0
 30
0.0
  9
$UCSORGBOTTOM
 10
0.0
 20
0.0
 30
0.0
  9
$UCSORGLEFT
 10
0.0
 20
0.0
 30
0.0
  9
$UCSORGRIGHT
 10
0.0
 20
0.0
 30
0.0
  9
$UCSORGFRONT
 10
0.0
 20
0.0
 30
0.0
  9
$UCSORGBACK
 10
0.0
 20
0.0
 30
0.0
  9
$PUCSBASE
  2

  9
$PUCSNAME
  2

  9
$PUCSORG
 10
0.0
 20
0.0
 30
0.0
  9
$PUCSXDIR
 10
1.0
 20
0.0
 30
0.0
  9
$PUCSYDIR
 10
0.0
 20
1.0
 30
0.0
  9
$PUCSORTHOREF
  2

  9
$PUCSORTHOVIEW
 70
     0
  9
$PUCSORGTOP
 10
0.0
 20
0.0
 30
0.0
  9
$PUCSORGBOTTOM
 10
0.0
 20
0.0
 30
0.0
  9
$PUCSORGLEFT
 10
0.0
 20
0.0
 30
0.0
  9
$PUCSORGRIGHT
 10
0.0
 20
0.0
 30
0.0
  9
$PUCSORGFRONT
 10
0.0
 20
0.0
 30
0.0
  9
$PUCSORGBACK
 10
0.0
 20
0.0
 30
0.0
  9
$USERI1
 70
     0
  9
$USERI2
 70
     0
  9
$USERI3
 70
     0
  9
$USERI4
 70
     0
  9
$USERI5
 70
     0
  9
$USERR1
 40
0.0
  9
$USERR2
 40
0.0
  9
$USERR3
 40
0.0
  9
$USERR4
 40
0.0
  9
$USERR5
 40
0.0
  9
$WORLDVIEW
 70
     1
  9
$SHADEDGE
 70
     3
  9
$SHADEDIF
 70
    70
  9
$TILEMODE
 70
     1
  9
$MAXACTVP
 70
    64
  9
$PINSBASE
 10
0.0
 20
0.0
 30
0.0
  9
$PLIMCHECK
 70
     0
  9
$PEXTMIN
 10
1.000000000000000E+20
 20
1.000000000000000E+20
 30
1.000000000000000E+20
  9
$PEXTMAX
 10
-1.000000000000000E+20
 20
-1.000000000000000E+20
 30
-1.000000000000000E+20
  9
$PLIMMIN
 10
0.0
 20
0.0
  9
$PLIMMAX
 10
0.0
 20
0.0
  9
$UNITMODE
 70
     0
  9
$VISRETAIN
 70
     1
  9
$PLINEGEN
 70
     0
  9
$PSLTSCALE
 70
     1
  9
$TREEDEPTH
 70
  3020
  9
$CMLSTYLE
  2
Standard
  9
$CMLJUST
 70
     0
  9
$CMLSCALE
 40
1.0
  9
$PROXYGRAPHICS
 70
     1
  9
$MEASUREMENT
 70
     0
  9
$CELWEIGHT
370
    -1
  9
$ENDCAPS
280
     0
  9
$JOINSTYLE
280
     0
  9
$LWDISPLAY
290
     0
  9
$INSUNITS
 70
     0
  9
$HYPERLINKBASE
  1

  9
$STYLESHEET
  1

  9
$XEDIT
290
     1
  9
$CEPSNTYPE
380
     0
  9
$PSTYLEMODE
290
     1
  9
$FINGERPRINTGUID
  2
{789A12CD-9595-4A69-8B52-DA4A8E250221}
  9
$VERSIONGUID
  2
{FAEB1C32-E019-11D5-929B-00C0DF256EC4}
  9
$EXTNAMES
290
     1
  9
$PSVPSCALE
 40
0.0
  9
$OLESTARTUP
290
     0
  9
$SORTENTS
280
   127
  9
$INDEXCTL
280
     0
  9
$HIDETEXT
280
     1
  9
$XCLIPFRAME
280
     2
  9
$HALOGAP
280
     0
  9
$OBSCOLOR
 70
   257
  9
$OBSLTYPE
280
     0
  9
$INTERSECTIONDISPLAY
280
     0
  9
$INTERSECTIONCOLOR
 70
   257
  9
$DIMASSOC
280
     2
  9
$PROJECTNAME
  1

  9
$CAMERADISPLAY
290
     0
  9
$LENSLENGTH
 40
50.0
  9
$CAMERAHEIGHT
 40
0.0
  9
$STEPSPERSEC
 40
2.0
  9
$STEPSIZE
 40
6.0
  9
$3DDWFPREC
 40
2.0
  9
$PSOLWIDTH
 40
0.25
  9
$PSOLHEIGHT
 40
4.0
  9
$LOFTANG1
 40
1.570796326794897
  9
$LOFTANG2
 40
1.570796326794897
  9
$LOFTMAG1
 40
0.0
  9
$LOFTMAG2
 40
0.0
  9
$LOFTPARAM
 70
     7
  9
$LOFTNORMALS
280
     1
  9
$LATITUDE
 40
37.795
  9
$LONGITUDE
 40
-122.394
  9
$NORTHDIRECTION
 40
0.0
  9
$TIMEZONE
 70
 -8000
  9
$LIGHTGLYPHDISPLAY
280
     1
  9
$TILEMODELIGHTSYNCH
280
     1
  9
$SOLIDHIST
280
     0
  9
$SHOWHIST
280
     1
  9
$DWFFRAME
280
     2
  9
$DGNFRAME
280
     2
  9
$REALWORLDSCALE
290
     1
  9
$INTERFERECOLOR
 62
   256
  9
$CSHADOW
280
     0
  9
$SHADOWPLANELOCATION
 40
0.0
  0
ENDSEC
  0
SECTION
  2
CLASSES
  0
CLASS
  1
ACDBDICTIONARYWDFLT
  2
AcDbDictionaryWithDefault
  3
ObjectDBX Classes
 90
        0
 91
       19
280
     0
281
     0
  0
CLASS
  1
SCALE
  2
AcDbScale
  3
ObjectDBX Classes
 90
     1153
 91
       19
280
     0
281
     0
  0
CLASS
  1
VISUALSTYLE
  2
AcDbVisualStyle
  3
ObjectDBX Classes
 90
     4095
 91
       19
280
     0
281
     0
  0
CLASS
  1
MATERIAL
  2
AcDbMaterial
  3
ObjectDBX Classes
 90
     1153
 91
       19
280
     0
281
     0
  0
CLASS
  1
DICTIONARYVAR
  2
AcDbDictionaryVar
  3
ObjectDBX Classes
 90
        0
 91
       15
280
     0
281
     0
  0
CLASS
  1
ACDBPLACEHOLDER
  2
AcDbPlaceHolder
  3
ObjectDBX Classes
 90
        0
 91
        1
280
     0
281
     0
  0
CLASS
  1
LAYOUT
  2
AcDbLayout
  3
ObjectDBX Classes
 90
        0
 91
        1
280
     0
281
     0
  0
CLASS
  1
TABLESTYLE
  2
AcDbTableStyle
  3
ObjectDBX Classes
 90
     4095
 91
       19
280
     0
281
     0
  0
CLASS
  1
MLEADERSTYLE
  2
AcDbMLeaderStyle
  3
ACDB_MLEADERSTYLE_CLASS
 90
     4095
 91
       19
280
     0
281
     0
  0
CLASS
  1
SUN
  2
AcDbSun
  3
SCENEOE
 90
     1153
 91
       19
280
     0
281
     0
  0
CLASS
  1
SORTENTSTABLE
  2
AcDbSortentsTable
  3
ObjectDBX Classes
 90
        0
 91
       14
280
     0
281
     0
  0
CLASS
  1
CELLSTYLEMAP
  2
AcDbCellStyleMap
  3
ObjectDBX Classes
 90
     1152
 91
        8
280
     0
281
     0
  0
ENDSEC
  0
SECTION
  2
TABLES
  0
TABLE
  2
VPORT
  5
8
330
0
100
AcDbSymbolTable
 70
     1
  0
VPORT
  5
148
330
8
100
AcDbSymbolTableRecord
100
AcDbViewportTableRecord
  2
*Active
 70
     0
 10
0.0
 20
0.0
 11
1.0
 21
1.0
 12
-27.42563205855423
 22
-10.89969772769208
 13
0.0
 23
0.0
 14
0.5
 24
0.5
 15
0.5
 25
0.5
 16
0.0
 26
0.0
 36
1.0
 17
0.0
 27
0.0
 37
0.0
 40
162.3247575332177
 41
1.831002331002331
 42
50.0
 43
0.0
 44
0.0
 50
0.0
 51
0.0
 71
    16
 72
   100
 73
     1
 74
     3
 75
     0
 76
     0
 77
     0
 78
     0
281
     0
 65
     1
110
0.0
120
0.0
130
0.0
111
1.0
121
0.0
131
0.0
112
0.0
122
1.0
132
0.0
 79
     0
146
0.0
348
179
 60
     3
 61
     5
292
     1
282
     1
141
0.0
142
0.0
 63
   256
361
216
  0
ENDTAB
  0
TABLE
  2
LTYPE
  5
5
330
0
100
AcDbSymbolTable
 70
     8
  0
LTYPE
  5
14
330
5
100
AcDbSymbolTableRecord
100
AcDbLinetypeTableRecord
  2
ByBlock
 70
     0
  3

 72
    65
 73
     0
 40
0.0
  0
LTYPE
  5
15
330
5
100
AcDbSymbolTableRecord
100
AcDbLinetypeTableRecord
  2
ByLayer
 70
     0
  3

 72
    65
 73
     0
 40
0.0
  0
LTYPE
  5
16
330
5
100
AcDbSymbolTableRecord
100
AcDbLinetypeTableRecord
  2
Continuous
 70
     0
  3
Solid line
 72
    65
 73
     0
 40
0.0
  0
LTYPE
  5
20
330
5
100
AcDbSymbolTableRecord
100
AcDbLinetypeTableRecord
  2
PUNKT
 70
     0
  3
..............
 72
    65
 73
     2
 40
1.5
 49
0.7
 74
     0
 49
-0.8
 74
     0
  0
LTYPE
  5
21
330
5
100
AcDbSymbolTableRecord
100
AcDbLinetypeTableRecord
  2
GESTRICHELT
 70
     0
  3
-- -- -- -- --
 72
    65
 73
     7
 40
2.8
 49
0.9
 74
     0
 49
0.0
 74
     0
 49
0.9
 74
     0
 49
0.0
 74
     0
 49
0.2
 74
     0
 49
0.0
 74
     0
 49
-0.8
 74
     0
  0
LTYPE
  5
22
330
5
100
AcDbSymbolTableRecord
100
AcDbLinetypeTableRecord
  2
STRICHPUNKT
 70
     0
  3
--.--.--.--.--
 72
    65
 73
     4
 40
8.8
 49
5.5
 74
     0
 49
-1.3
 74
     0
 49
0.7
 74
     0
 49
-1.3
 74
     0
  0
LTYPE
  5
25
330
5
100
AcDbSymbolTableRecord
100
AcDbLinetypeTableRecord
  2
PHANTOM
 70
     0
  3
--..--..--..--
 72
    65
 73
     6
 40
14.2
 49
7.0
 74
     0
 49
-1.8
 74
     0
 49
0.9
 74
     0
 49
-1.8
 74
     0
 49
0.9
 74
     0
 49
-1.8
 74
     0
  0
LTYPE
  5
1C0
330
5
100
AcDbSymbolTableRecord
100
AcDbLinetypeTableRecord
  2
DASH
 70
     0
  3
DASH _ _ _ _ _
 72
    65
 73
     2
 40
0.75
 49
0.4
 74
     0
 49
-0.35
 74
     0
  0
LTYPE
  5
1C1
330
5
100
AcDbSymbolTableRecord
100
AcDbLinetypeTableRecord
  2
LONGDASH_DASH
 70
     0
  3
LONGDASH_DASH __ . __ . __
 72
    65
 73
     4
 40
0.85
 49
0.4
 74
     0
 49
-0.2
 74
     0
 49
0.05
 74
     0
 49
-0.2
 74
     0
  0
LTYPE
  5
1C2
330
5
100
AcDbSymbolTableRecord
100
AcDbLinetypeTableRecord
  2
LONGDASH_DASH_DASH
 70
     0
  3
LONGDASH_DASH_DASH __ . . __ . . __
 72
    65
 73
     6
 40
1.1
 49
0.4
 74
     0
 49
-0.2
 74
     0
 49
0.05
 74
     0
 49
-0.2
 74
     0
 49
0.05
 74
     0
 49
-0.2
 74
     0
  0
ENDTAB
  0
TABLE
  2
LAYER
  5
2
102
{ACAD_XDICTIONARY
360
1E4
102
}
330
0
100
AcDbSymbolTable
 70
    16
  0
LAYER
  5
18A
330
2
100
AcDbSymbolTableRecord
100
AcDbLayerTableRecord
  2
200
 70
     0
 62
     2
  6
Continuous
370
    50
390
F
347
188
348
0
  0
LAYER
  5
1C3
330
2
100
AcDbSymbolTableRecord
100
AcDbLayerTableRecord
  2
0
 70
     0
 62
     1
  6
Continuous
370
    -3
390
F
347
188
348
0
  0
LAYER
  5
1C4
330
2
100
AcDbSymbolTableRecord
100
AcDbLayerTableRecord
  2
1
 70
     0
 62
     4
  6
Continuous
370
    50
390
F
347
188
348
0
  0
LAYER
  5
1C5
330
2
100
AcDbSymbolTableRecord
100
AcDbLayerTableRecord
  2
2
 70
     0
 62
     7
  6
Continuous
370
    25
390
F
347
188
348
0
  0
LAYER
  5
1C6
330
2
100
AcDbSymbolTableRecord
100
AcDbLayerTableRecord
  2
3
 70
     0
 62
     1
  6
DASH
370
    35
390
F
347
188
348
0
  0
LAYER
  5
1C7
330
2
100
AcDbSymbolTableRecord
100
AcDbLayerTableRecord
  2
4
 70
     0
 62
     2
  6
LONGDASH_DASH
370
    25
390
F
347
188
348
0
  0
LAYER
  5
1C8
330
2
100
AcDbSymbolTableRecord
100
AcDbLayerTableRecord
  2
6
 70
     0
 62
     5
  6
Continuous
370
    -3
390
F
347
188
348
0
  0
LAYER
  5
1C9
330
2
100
AcDbSymbolTableRecord
100
AcDbLayerTableRecord
  2
CUT
 70
     0
 62
     1
  6
Continuous
370
    25
390
F
347
188
348
0
  0
LAYER
  5
1CA
330
2
100
AcDbSymbolTableRecord
100
AcDbLayerTableRecord
  2
NOCUT
 70
     0
 62
     7
  6
Continuous
370
    25
390
F
347
188
348
0
  0
LAYER
  5
1CB
330
2
100
AcDbSymbolTableRecord
100
AcDbLayerTableRecord
  2
SK1
 70
     0
 62
     4
  6
Continuous
370
    50
390
F
347
188
348
0
  0
LAYER
  5
1CC
330
2
100
AcDbSymbolTableRecord
100
AcDbLayerTableRecord
  2
SK2
 70
     0
 62
     7
  6
Continuous
370
    25
390
F
347
188
348
0
  0
LAYER
  5
1CD
330
2
100
AcDbSymbolTableRecord
100
AcDbLayerTableRecord
  2
SK3
 70
     0
 62
     1
  6
DASH
370
    35
390
F
347
188
348
0
  0
LAYER
  5
1CE
330
2
100
AcDbSymbolTableRecord
100
AcDbLayerTableRecord
  2
SK4
 70
     0
 62
     2
  6
LONGDASH_DASH
370
    25
390
F
347
188
348
0
  0
LAYER
  5
1CF
330
2
100
AcDbSymbolTableRecord
100
AcDbLayerTableRecord
  2
SK6
 70
     0
 62
     5
  6
Continuous
370
    -3
390
F
347
188
348
0
  0
LAYER
  5
1D0
330
2
100
AcDbSymbolTableRecord
100
AcDbLayerTableRecord
  2
INFTOTAL
 70
     0
 62
     9
  6
Continuous
370
    18
390
F
347
188
348
0
  0
LAYER
  5
21A
330
2
100
AcDbSymbolTableRecord
100
AcDbLayerTableRecord
  2
7
 70
     0
 62
     5
  6
Continuous
370
    18
390
F
347
188
348
0
1001
AcAecLayerStandard
1000

1000

  0
ENDTAB
  0
TABLE
  2
STYLE
  5
3
330
0
100
AcDbSymbolTable
 70
     3
  0
STYLE
  5
11
330
3
100
AcDbSymbolTableRecord
100
AcDbTextStyleTableRecord
  2
Standard
 70
     0
 40
0.0
 41
1.0
 50
0.0
 71
     0
 42
0.2
  3
txt
  4

  0
STYLE
  5
189
330
3
100
AcDbSymbolTableRecord
100
AcDbTextStyleTableRecord
  2
BMG_Text
 70
     0
 40
3.5
 41
1.0
 50
0.0
 71
     0
 42
0.2
  3
monos.ttf
  4

1001
ACAD
1000
Monospac821 BT
1071
       49
  0
STYLE
  5
220
330
3
100
AcDbSymbolTableRecord
100
AcDbTextStyleTableRecord
  2
SLDTEXTSTYLE0
 70
     0
 40
0.0
 41
0.605
 50
0.0
 71
     0
 42
0.2
  3
TXT
  4

  0
ENDTAB
  0
TABLE
  2
VIEW
  5
6
330
0
100
AcDbSymbolTable
 70
     0
  0
ENDTAB
  0
TABLE
  2
UCS
  5
7
330
0
100
AcDbSymbolTable
 70
     0
  0
ENDTAB
  0
TABLE
  2
APPID
  5
9
330
0
100
AcDbSymbolTable
 70
     3
  0
APPID
  5
12
330
9
100
AcDbSymbolTableRecord
100
AcDbRegAppTableRecord
  2
ACAD
 70
     0
  0
APPID
  5
21B
330
9
100
AcDbSymbolTableRecord
100
AcDbRegAppTableRecord
  2
AcAecLayerStandard
 70
     0
  0
APPID
  5
223
330
9
100
AcDbSymbolTableRecord
100
AcDbRegAppTableRecord
  2
PE_URL
 70
     0
  0
ENDTAB
  0
TABLE
  2
DIMSTYLE
  5
A
330
0
100
AcDbSymbolTable
 70
     6
100
AcDbDimStyleTable
  0
DIMSTYLE
105
28
330
A
100
AcDbSymbolTableRecord
100
AcDbDimStyleTableRecord
  2
Standard
 70
     0
178
     0
340
11
  0
DIMSTYLE
105
21C
330
A
100
AcDbSymbolTableRecord
100
AcDbDimStyleTableRecord
  2
Matthias
 70
     0
 41
3.0
 44
2.0
 73
     0
 77
     1
140
3.0
147
2.0
178
     0
340
11
  0
DIMSTYLE
105
21E
102
{ACAD_REACTORS
102
}
330
A
100
AcDbSymbolTableRecord
100
AcDbDimStyleTableRecord
  2
ISO-25
 70
     0
 41
2.5
 42
0.625
 43
3.75
 44
1.25
 73
     0
 74
     0
 77
     1
 78
     8
140
2.5
141
2.5
143
0.0393700787
147
0.625
171
     3
172
     1
178
     0
271
     2
272
     2
274
     3
278
    44
283
     0
284
     8
340
11
  0
DIMSTYLE
105
21F
330
A
100
AcDbSymbolTableRecord
100
AcDbDimStyleTableRecord
  2
SLDDIMSTYLE0
 70
     0
 41
3.5
 44
0.0
 45
0.000000001
 73
     0
 74
     0
 77
     1
 78
    12
 79
     3
140
3.5
144
0.5
147
0.875
173
     1
178
     0
271
     2
272
     1
276
     2
284
    12
340
220
  0
DIMSTYLE
105
221
330
A
100
AcDbSymbolTableRecord
100
AcDbDimStyleTableRecord
  2
SLDDIMSTYLE1
 70
     0
 41
3.5
 44
0.0
 45
0.000000001
 73
     0
 74
     0
 77
     1
 78
    12
 79
     3
140
3.5
144
0.5
147
0.875
173
     1
178
     0
271
     2
272
     3
276
     2
284
    12
340
220
  0
DIMSTYLE
105
222
330
A
100
AcDbSymbolTableRecord
100
AcDbDimStyleTableRecord
  2
SLDDIMSTYLE2
 70
     0
 41
3.5
 44
0.0
 45
0.000000001
 73
     0
 74
     0
 77
     1
 78
    12
 79
     3
140
3.5
147
0.875
173
     1
178
     0
271
     2
272
     0
276
     2
284
    12
340
220
  0
ENDTAB
  0
TABLE
  2
BLOCK_RECORD
  5
1
330
0
100
AcDbSymbolTable
 70
     1
  0
BLOCK_RECORD
  5
1D
102
{ACAD_XDICTIONARY
360
291
102
}
330
1
100
AcDbSymbolTableRecord
100
AcDbBlockTableRecord
  2
*Model_Space
340
1E
 70
     0
280
     1
281
     0
  0
BLOCK_RECORD
  5
1B
330
1
100
AcDbSymbolTableRecord
100
AcDbBlockTableRecord
  2
*Paper_Space
340
1C
 70
     0
280
     1
281
     0
  0
ENDTAB
  0
ENDSEC
  0
SECTION
  2
BLOCKS
  0
BLOCK
  5
172
330
1D
100
AcDbEntity
  8
0
100
AcDbBlockBegin
  2
*Model_Space
 70
     0
 10
0.0
 20
0.0
 30
0.0
  3
*Model_Space
  1

  0
ENDBLK
  5
173
330
1D
100
AcDbEntity
  8
0
100
AcDbBlockEnd
  0
BLOCK
  5
170
330
1B
100
AcDbEntity
 67
     1
  8
0
100
AcDbBlockBegin
  2
*Paper_Space
 70
     0
 10
0.0
 20
0.0
 30
0.0
  3
*Paper_Space
  1

  0
ENDBLK
  5
171
330
1B
100
AcDbEntity
 67
     1
  8
0
100
AcDbBlockEnd
  0
ENDSEC
  0
SECTION
  2
ENTITIES
  0
LINE
  5
29
330
1D
100
AcDbEntity
  8
SK2
100
AcDbLine
 10
23.613740503724
 20
-12.499999996
 30
0.0
 11
11.614717066724
 21
-12.499999996
 31
0.0
  0
LINE
  5
2A
330
1D
100
AcDbEntity
  8
SK2
100
AcDbLine
 10
21.613740503724
 20
-12.499999996
 30
0.0
 11
21.163740503724
 21
-8.999999996
 31
0.0
  0
LINE
  5
2B
330
1D
100
AcDbEntity
  8
SK2
100
AcDbLine
 10
21.163740503724
 20
-8.999999996
 30
0.0
 11
22.063740503724
 21
-8.999999996
 31
0.0
  0
LINE
  5
2C
330
1D
100
AcDbEntity
  8
SK2
100
AcDbLine
 10
22.063740503724
 20
-8.999999996
 30
0.0
 11
21.613740503724
 21
-12.499999996
 31
0.0
  0
LINE
  5
2D
330
1D
100
AcDbEntity
  8
SK2
100
AcDbLine
 10
23.613740503724
 20
12.500000003
 30
0.0
 11
11.614717066724
 21
12.500000003
 31
0.0
  0
LINE
  5
2E
330
1D
100
AcDbEntity
  8
SK2
100
AcDbLine
 10
21.613740503724
 20
12.500000003
 30
0.0
 11
22.063740503724
 21
9.000000003
 31
0.0
  0
LINE
  5
2F
330
1D
100
AcDbEntity
  8
SK2
100
AcDbLine
 10
22.063740503724
 20
9.000000003
 30
0.0
 11
21.163740503724
 21
9.000000003
 31
0.0
  0
LINE
  5
30
330
1D
100
AcDbEntity
  8
SK2
100
AcDbLine
 10
21.163740503724
 20
9.000000003
 30
0.0
 11
21.613740503724
 21
12.500000003
 31
0.0
  0
LINE
  5
31
330
1D
100
AcDbEntity
  8
SK2
100
AcDbLine
 10
21.613740503724
 20
-8.999999996
 30
0.0
 11
21.613740503724
 21
9.000000003
 31
0.0
  0
TEXT
  5
32
330
1D
100
AcDbEntity
  8
SK2
100
AcDbText
 10
20.113740503724
 20
-2.657500276
 30
0.0
 40
3.5
  1
25
 50
90.0
  7
BMG_Text
100
AcDbText
  0
CIRCLE
  5
33
330
1D
100
AcDbEntity
  8
SK2
100
AcDbCircle
 10
18.863740503724
 20
-4.907500276
 30
0.0
 40
1.25
  0
LINE
  5
34
330
1D
100
AcDbEntity
  8
SK2
100
AcDbLine
 10
20.113740503724
 20
-6.157500276
 30
0.0
 11
17.613740503724
 21
-3.657500276
 31
0.0
  0
TEXT
  5
35
330
1D
100
AcDbEntity
  8
SK2
100
AcDbText
 10
20.11374050372399
 20
2.903983726778984
 30
0.0
 40
3.5
  1
-31
 50
90.0
  7
BMG_Text
100
AcDbText
  0
LINE
  5
36
330
1D
100
AcDbEntity
  8
2
100
AcDbLine
 10
12.014717097724
 20
20.0
 30
0.0
 11
12.014717097724
 21
11.25
 31
0.0
  0
LINE
  5
37
330
1D
100
AcDbEntity
  8
2
100
AcDbLine
 10
12.014717097724
 20
18.0
 30
0.0
 11
8.514717097723999
 21
17.55
 31
0.0
  0
LINE
  5
38
330
1D
100
AcDbEntity
  8
2
100
AcDbLine
 10
8.514717097723999
 20
17.55
 30
0.0
 11
8.514717097723999
 21
18.45
 31
0.0
  0
LINE
  5
39
330
1D
100
AcDbEntity
  8
2
100
AcDbLine
 10
8.514717097723999
 20
18.45
 30
0.0
 11
12.014717097724
 21
18.0
 31
0.0
  0
LINE
  5
3A
330
1D
100
AcDbEntity
  8
2
100
AcDbLine
 10
-13.485282902276
 20
18.0
 30
0.0
 11
8.514717097723999
 21
18.0
 31
0.0
  0
TEXT
  5
3B
330
1D
100
AcDbEntity
  8
2
100
AcDbText
 10
-3.712470687276002
 20
19.5
 30
0.0
 40
3.5
  1
32.5
  7
BMG_Text
100
AcDbText
  0
TEXT
  5
3C
330
1D
100
AcDbEntity
  8
SK6
100
AcDbText
 10
-4.8646246437254
 20
-24.81410610327827
 30
0.0
 40
3.5
  1
639.417
  7
BMG_Text
100
AcDbText
  0
LINE
  5
3D
330
1D
100
AcDbEntity
  8
SK4
100
AcDbLine
 10
-2.910683802276002
 20
0.0
 30
0.0
 11
11.878994285724
 21
0.0
 31
0.0
  0
LINE
  5
3E
330
1D
100
AcDbEntity
  8
1
100
AcDbLine
 10
5.664717174723997
 20
7.884325274
 30
0.0
 11
4.959131947723998
 21
7.759276683
 31
0.0
  0
ARC
  5
3F
330
1D
100
AcDbEntity
  8
3
100
AcDbCircle
 10
5.194717097723998
 20
6.429991297
 30
0.0
 40
1.35
100
AcDbArc
 50
101.546377233
 51
258.75382549
  0
LINE
  5
40
330
1D
100
AcDbEntity
  8
1
100
AcDbLine
 10
5.819568644723998
 20
5.169694592
 30
0.0
 11
5.430123625723998
 21
5.100674404
 31
0.0
  0
ARC
  5
41
330
1D
100
AcDbEntity
  8
1
100
AcDbCircle
 10
5.194706320723998
 20
6.42901181
 30
0.0
 40
1.349037425
100
AcDbArc
 50
272.587572847
 51
280.057714846
  0
ARC
  5
42
330
1D
100
AcDbEntity
  8
3
100
AcDbCircle
 10
5.194706320723998
 20
6.42901181
 30
0.0
 40
1.349037425
100
AcDbArc
 50
258.746153992
 51
272.587572847
  0
LINE
  5
43
330
1D
100
AcDbEntity
  8
1
100
AcDbLine
 10
0.8147174967239978
 20
9.497894487
 30
0.0
 11
1.376027475723998
 21
10.470307479
 31
0.0
  0
LINE
  5
44
330
1D
100
AcDbEntity
  8
1
100
AcDbLine
 10
1.376027475723998
 20
10.470307479
 30
0.0
 11
5.679538347266713
 21
11.22926171502567
 31
0.0
  0
LINE
  5
45
330
1D
100
AcDbEntity
  8
1
100
AcDbLine
 10
11.814717102724
 20
6.11797236
 30
0.0
 11
11.814717097724
 21
5.272613635
 31
0.0
  0
ARC
  5
46
330
1D
100
AcDbEntity
  8
1
100
AcDbCircle
 10
14.114717097724
 20
2.000000001
 30
0.0
 40
4.0
100
AcDbArc
 50
125.099632195
 51
179.999997973
  0
LINE
  5
47
330
1D
100
AcDbEntity
  8
3
100
AcDbLine
 10
10.114717065724
 20
-1.500000432
 30
0.0
 11
6.214717097723998
 21
-3.751666049
 31
0.0
  0
ARC
  5
48
330
1D
100
AcDbEntity
  8
3
100
AcDbCircle
 10
7.214717097723998
 20
-5.483716857
 30
0.0
 40
2.0
100
AcDbArc
 50
120.0
 51
179.999974902
  0
LINE
  5
49
330
1D
100
AcDbEntity
  8
3
100
AcDbLine
 10
5.214717007723998
 20
-5.483715981
 30
0.0
 11
5.214717007723998
 21
-7.250000908
 31
0.0
  0
LINE
  5
4A
330
1D
100
AcDbEntity
  8
3
100
AcDbLine
 10
5.214717007723998
 20
-7.250000675
 30
0.0
 11
3.915678943723998
 21
-9.49999988
 31
0.0
  0
LINE
  5
4B
330
1D
100
AcDbEntity
  8
3
100
AcDbLine
 10
3.915678943723998
 20
-9.49999988
 30
0.0
 11
0.8147174967239978
 21
-9.49999988
 31
0.0
  0
LINE
  5
4C
330
1D
100
AcDbEntity
  8
1
100
AcDbLine
 10
6.134176395723998
 20
5.091844407
 30
0.0
 11
11.684176368724
 21
6.070459203
 31
0.0
  0
ARC
  5
4D
330
1D
100
AcDbEntity
  8
1
100
AcDbCircle
 10
11.614717097724
 20
6.464382304
 30
0.0
 40
0.4
100
AcDbArc
 50
280.0000000000001
 51
0.0000205979999553
  0
LINE
  5
4E
330
1D
100
AcDbEntity
  8
1
100
AcDbLine
 10
12.014717097724
 20
6.464382448
 30
0.0
 11
12.014717097724
 21
12.1
 31
0.0
  0
ARC
  5
4F
330
1D
100
AcDbEntity
  8
1
100
AcDbCircle
 10
11.614717097724
 20
12.1
 30
0.0
 40
0.4
100
AcDbArc
 50
0.0
 51
100.0000011189998
  0
LINE
  5
50
330
1D
100
AcDbEntity
  8
1
100
AcDbLine
 10
11.545257818724
 20
12.493923101
 30
0.0
 11
5.995257826723998
 21
11.515308358
 31
0.0
  0
ARC
  5
51
330
1D
100
AcDbEntity
  8
1
100
AcDbCircle
 10
6.064717097723998
 20
11.121385257
 30
0.0
 40
0.4
100
AcDbArc
 50
99.99999999999994
 51
179.9999920930001
  0
ARC
  5
53
330
1D
100
AcDbEntity
  8
1
100
AcDbCircle
 10
6.064717097723998
 20
5.485767561
 30
0.0
 40
0.4
100
AcDbArc
 50
180.0
 51
279.9999999999999
  0
ARC
  5
54
330
1D
100
AcDbEntity
  8
1
100
AcDbCircle
 10
8.708717097723998
 20
7.746883781
 30
0.0
 40
0.15
100
AcDbArc
 50
185.992794362
 51
354.007205638
  0
ARC
  5
55
330
1D
100
AcDbEntity
  8
1
100
AcDbCircle
 10
8.161722829723999
 20
7.689461917
 30
0.0
 40
0.4
100
AcDbArc
 50
5.992794362000049
 51
114.0072056390004
  0
ARC
  5
56
330
1D
100
AcDbEntity
  8
1
100
AcDbCircle
 10
7.937954488723998
 20
8.191883781
 30
0.0
 40
0.15
100
AcDbArc
 50
125.9927943689998
 51
294.0072056379997
  0
ARC
  5
57
330
1D
100
AcDbEntity
  8
1
100
AcDbCircle
 10
7.614728560723998
 20
8.636883781
 30
0.0
 40
0.4
100
AcDbArc
 50
305.992794362
 51
54.00720563600004
  0
ARC
  5
58
330
1D
100
AcDbEntity
  8
1
100
AcDbCircle
 10
7.937954488723998
 20
9.081883781
 30
0.0
 40
0.15
100
AcDbArc
 50
65.99279436099975
 51
234.0072056380002
  0
ARC
  5
59
330
1D
100
AcDbEntity
  8
1
100
AcDbCircle
 10
8.161722829723999
 20
9.584305645
 30
0.0
 40
0.4
100
AcDbArc
 50
245.992794362
 51
354.0072056380001
  0
ARC
  5
5A
330
1D
100
AcDbEntity
  8
1
100
AcDbCircle
 10
8.708717097723998
 20
9.526883781
 30
0.0
 40
0.15
100
AcDbArc
 50
5.99279436199967
 51
174.0072056379996
  0
ARC
  5
5B
330
1D
100
AcDbEntity
  8
1
100
AcDbCircle
 10
9.255711365723997
 20
9.584305645
 30
0.0
 40
0.4
100
AcDbArc
 50
185.9927943619999
 51
294.0072056390002
  0
ARC
  5
5C
330
1D
100
AcDbEntity
  8
1
100
AcDbCircle
 10
9.479479706723996
 20
9.081883781
 30
0.0
 40
0.15
100
AcDbArc
 50
305.9927943380004
 51
114.0072056379997
  0
ARC
  5
5D
330
1D
100
AcDbEntity
  8
1
100
AcDbCircle
 10
9.802705634724
 20
8.636883781
 30
0.0
 40
0.4
100
AcDbArc
 50
125.9927943620002
 51
234.0072056469997
  0
ARC
  5
5E
330
1D
100
AcDbEntity
  8
1
100
AcDbCircle
 10
9.479479706723996
 20
8.191883781
 30
0.0
 40
0.15
100
AcDbArc
 50
245.9927943610004
 51
54.00720563799991
  0
ARC
  5
5F
330
1D
100
AcDbEntity
  8
1
100
AcDbCircle
 10
9.255711365723997
 20
7.689461917
 30
0.0
 40
0.4
100
AcDbArc
 50
65.99279436199969
 51
174.007205638
  0
LINE
  5
61
330
1D
100
AcDbEntity
  8
1
100
AcDbLine
 10
4.924499673723997
 20
7.752671358
 30
0.0
 11
4.959131947723998
 21
7.759276683
 31
0.0
  0
LINE
  5
62
330
1D
100
AcDbEntity
  8
1
100
AcDbLine
 10
2.062342363723998
 20
9.491549059
 30
0.0
 11
2.200524556723998
 21
9.488729014
 31
0.0
  0
LINE
  5
63
330
1D
100
AcDbEntity
  8
1
100
AcDbLine
 10
2.200524556723998
 20
9.488729014
 30
0.0
 11
2.326417948723998
 21
9.484251215
 31
0.0
  0
LINE
  5
64
330
1D
100
AcDbEntity
  8
1
100
AcDbLine
 10
2.326417948723998
 20
9.484251215
 30
0.0
 11
2.436188283723998
 21
9.477672353
 31
0.0
  0
LINE
  5
65
330
1D
100
AcDbEntity
  8
1
100
AcDbLine
 10
2.436188283723998
 20
9.477672353
 30
0.0
 11
2.527057427723998
 21
9.468610584
 31
0.0
  0
LINE
  5
66
330
1D
100
AcDbEntity
  8
1
100
AcDbLine
 10
2.527057427723998
 20
9.468610584
 30
0.0
 11
2.596162493723998
 21
9.45671387
 31
0.0
  0
LINE
  5
67
330
1D
100
AcDbEntity
  8
1
100
AcDbLine
 10
2.596162493723998
 20
9.45671387
 30
0.0
 11
2.642018023723998
 21
9.44189094
 31
0.0
  0
LINE
  5
68
330
1D
100
AcDbEntity
  8
1
100
AcDbLine
 10
2.642018023723998
 20
9.44189094
 30
0.0
 11
2.663146938723998
 21
9.42409709
 31
0.0
  0
LINE
  5
69
330
1D
100
AcDbEntity
  8
1
100
AcDbLine
 10
2.663146938723998
 20
9.42409709
 30
0.0
 11
2.659286606723998
 21
9.403773769
 31
0.0
  0
LINE
  5
6A
330
1D
100
AcDbEntity
  8
1
100
AcDbLine
 10
2.659286606723998
 20
9.403773769
 30
0.0
 11
2.629960189723998
 21
9.3812339
 31
0.0
  0
LINE
  5
6B
330
1D
100
AcDbEntity
  8
1
100
AcDbLine
 10
2.629960189723998
 20
9.3812339
 30
0.0
 11
2.576335567723998
 21
9.357557818
 31
0.0
  0
LINE
  5
6C
330
1D
100
AcDbEntity
  8
1
100
AcDbLine
 10
2.576335567723998
 20
9.357557818
 30
0.0
 11
2.498611110723998
 21
9.33349058
 31
0.0
  0
LINE
  5
6D
330
1D
100
AcDbEntity
  8
1
100
AcDbLine
 10
2.498611110723998
 20
9.33349058
 30
0.0
 11
2.399678575723998
 21
9.310537204
 31
0.0
  0
LINE
  5
6E
330
1D
100
AcDbEntity
  8
1
100
AcDbLine
 10
2.399678575723998
 20
9.310537204
 30
0.0
 11
2.281807596723998
 21
9.289982914
 31
0.0
  0
LINE
  5
6F
330
1D
100
AcDbEntity
  8
1
100
AcDbLine
 10
2.281807596723998
 20
9.289982914
 30
0.0
 11
2.148570726723998
 21
9.273066371
 31
0.0
  0
LINE
  5
70
330
1D
100
AcDbEntity
  8
1
100
AcDbLine
 10
2.148570726723998
 20
9.273066371
 30
0.0
 11
2.006016905723998
 21
9.261137992
 31
0.0
  0
LINE
  5
71
330
1D
100
AcDbEntity
  8
1
100
AcDbLine
 10
2.006016905723998
 20
9.261137992
 30
0.0
 11
1.856314252723998
 21
9.254598244
 31
0.0
  0
LINE
  5
72
330
1D
100
AcDbEntity
  8
1
100
AcDbLine
 10
1.856314252723998
 20
9.254598244
 30
0.0
 11
1.707304502723998
 21
9.25396867
 31
0.0
  0
LINE
  5
73
330
1D
100
AcDbEntity
  8
1
100
AcDbLine
 10
1.707304502723998
 20
9.25396867
 30
0.0
 11
1.559933881723998
 21
9.258966147
 31
0.0
  0
LINE
  5
74
330
1D
100
AcDbEntity
  8
1
100
AcDbLine
 10
1.559933881723998
 20
9.258966147
 30
0.0
 11
1.419579844723998
 21
9.269255399
 31
0.0
  0
LINE
  5
75
330
1D
100
AcDbEntity
  8
1
100
AcDbLine
 10
1.419579844723998
 20
9.269255399
 30
0.0
 11
1.288747648723998
 21
9.284096956
 31
0.0
  0
LINE
  5
76
330
1D
100
AcDbEntity
  8
1
100
AcDbLine
 10
1.288747648723998
 20
9.284096956
 30
0.0
 11
1.169476892723998
 21
9.302932023
 31
0.0
  0
LINE
  5
77
330
1D
100
AcDbEntity
  8
1
100
AcDbLine
 10
1.169476892723998
 20
9.302932023
 30
0.0
 11
1.066584373723998
 21
9.324425086
 31
0.0
  0
LINE
  5
78
330
1D
100
AcDbEntity
  8
1
100
AcDbLine
 10
1.066584373723998
 20
9.324425086
 30
0.0
 11
0.9812370417239978
 21
9.347965195
 31
0.0
  0
LINE
  5
79
330
1D
100
AcDbEntity
  8
1
100
AcDbLine
 10
0.9812370417239978
 20
9.347965195
 30
0.0
 11
0.9179881317239978
 21
9.371864795
 31
0.0
  0
LINE
  5
7A
330
1D
100
AcDbEntity
  8
1
100
AcDbLine
 10
0.9179881317239978
 20
9.371864795
 30
0.0
 11
0.8785522087239979
 21
9.395261481
 31
0.0
  0
LINE
  5
7B
330
1D
100
AcDbEntity
  8
1
100
AcDbLine
 10
0.8785522087239979
 20
9.395261481
 30
0.0
 11
0.8647239317239979
 21
9.416933357
 31
0.0
  0
LINE
  5
7C
330
1D
100
AcDbEntity
  8
1
100
AcDbLine
 10
0.8647239317239979
 20
9.416933357
 30
0.0
 11
0.8772949237239979
 21
9.436008706
 31
0.0
  0
LINE
  5
7D
330
1D
100
AcDbEntity
  8
1
100
AcDbLine
 10
0.8772949237239979
 20
9.436008706
 30
0.0
 11
0.9155732127239978
 21
9.452204406
 31
0.0
  0
LINE
  5
7E
330
1D
100
AcDbEntity
  8
1
100
AcDbLine
 10
0.9155732127239978
 20
9.452204406
 30
0.0
 11
0.9780621637239979
 21
9.465140476
 31
0.0
  0
LINE
  5
7F
330
1D
100
AcDbEntity
  8
1
100
AcDbLine
 10
0.9780621637239979
 20
9.465140476
 30
0.0
 11
1.063025790723998
 21
9.475168958
 31
0.0
  0
LINE
  5
80
330
1D
100
AcDbEntity
  8
1
100
AcDbLine
 10
1.063025790723998
 20
9.475168958
 30
0.0
 11
1.167475479723998
 21
9.482468664
 31
0.0
  0
LINE
  5
81
330
1D
100
AcDbEntity
  8
1
100
AcDbLine
 10
1.167475479723998
 20
9.482468664
 30
0.0
 11
1.288781176723998
 21
9.487553685
 31
0.0
  0
LINE
  5
82
330
1D
100
AcDbEntity
  8
1
100
AcDbLine
 10
1.288781176723998
 20
9.487553685
 30
0.0
 11
1.423489536723998
 21
9.490835666
 31
0.0
  0
LINE
  5
83
330
1D
100
AcDbEntity
  8
1
100
AcDbLine
 10
-1.085283000276002
 20
7.199264317
 30
0.0
 11
-0.4559780922760021
 21
7.192603498
 31
0.0
  0
LINE
  5
84
330
1D
100
AcDbEntity
  8
1
100
AcDbLine
 10
-0.4559780922760021
 20
7.192603498
 30
0.0
 11
0.1738530127239979
 21
7.208912819
 31
0.0
  0
LINE
  5
85
330
1D
100
AcDbEntity
  8
1
100
AcDbLine
 10
0.1738530127239979
 20
7.208912819
 30
0.0
 11
0.8016156507239979
 21
7.246752455
 31
0.0
  0
LINE
  5
86
330
1D
100
AcDbEntity
  8
1
100
AcDbLine
 10
0.8016156507239979
 20
7.246752455
 30
0.0
 11
1.424713294723998
 21
7.304678857
 31
0.0
  0
LINE
  5
87
330
1D
100
AcDbEntity
  8
1
100
AcDbLine
 10
1.424713294723998
 20
7.304678857
 30
0.0
 11
1.951371553723998
 21
7.369539886
 31
0.0
  0
LINE
  5
88
330
1D
100
AcDbEntity
  8
1
100
AcDbLine
 10
1.951371553723998
 20
7.369539886
 30
0.0
 11
2.471793676723998
 21
7.451604306
 31
0.0
  0
LINE
  5
89
330
1D
100
AcDbEntity
  8
1
100
AcDbLine
 10
2.471793676723998
 20
7.451604306
 30
0.0
 11
2.980558435723998
 21
7.554522901
 31
0.0
  0
LINE
  5
8A
330
1D
100
AcDbEntity
  8
1
100
AcDbLine
 10
2.980558435723998
 20
7.554522901
 30
0.0
 11
3.229990835723998
 21
7.615500315
 31
0.0
  0
LINE
  5
8B
330
1D
100
AcDbEntity
  8
1
100
AcDbLine
 10
3.229990835723998
 20
7.615500315
 30
0.0
 11
3.471973586723998
 21
7.685582339
 31
0.0
  0
LINE
  5
8C
330
1D
100
AcDbEntity
  8
1
100
AcDbLine
 10
3.471973586723998
 20
7.685582339
 30
0.0
 11
3.700177419723998
 21
7.767674699
 31
0.0
  0
LINE
  5
8D
330
1D
100
AcDbEntity
  8
1
100
AcDbLine
 10
3.700177419723998
 20
7.767674699
 30
0.0
 11
3.808246228723998
 21
7.81510882
 31
0.0
  0
LINE
  5
8E
330
1D
100
AcDbEntity
  8
1
100
AcDbLine
 10
3.808246228723998
 20
7.81510882
 30
0.0
 11
3.907045583723998
 21
7.868169993
 31
0.0
  0
LINE
  5
8F
330
1D
100
AcDbEntity
  8
1
100
AcDbLine
 10
3.907045583723998
 20
7.868169993
 30
0.0
 11
3.989775898723998
 21
7.92761445
 31
0.0
  0
LINE
  5
90
330
1D
100
AcDbEntity
  8
1
100
AcDbLine
 10
3.989775898723998
 20
7.92761445
 30
0.0
 11
4.049957963723998
 21
7.998963072
 31
0.0
  0
LINE
  5
91
330
1D
100
AcDbEntity
  8
1
100
AcDbLine
 10
4.049957963723998
 20
7.998963072
 30
0.0
 11
4.063328961723998
 21
8.037463948
 31
0.0
  0
LINE
  5
92
330
1D
100
AcDbEntity
  8
1
100
AcDbLine
 10
4.063328961723998
 20
8.037463948
 30
0.0
 11
4.062741297723998
 21
8.076130598
 31
0.0
  0
LINE
  5
93
330
1D
100
AcDbEntity
  8
1
100
AcDbLine
 10
4.062741297723998
 20
8.076130598
 30
0.0
 11
4.028131487723998
 21
8.139562979
 31
0.0
  0
LINE
  5
94
330
1D
100
AcDbEntity
  8
1
100
AcDbLine
 10
4.028131487723998
 20
8.139562979
 30
0.0
 11
3.983007046723998
 21
8.179432898
 31
0.0
  0
LINE
  5
95
330
1D
100
AcDbEntity
  8
1
100
AcDbLine
 10
3.983007046723998
 20
8.179432898
 30
0.0
 11
3.926168429723998
 21
8.214815705
 31
0.0
  0
LINE
  5
96
330
1D
100
AcDbEntity
  8
1
100
AcDbLine
 10
3.926168429723998
 20
8.214815705
 30
0.0
 11
3.804413835723998
 21
8.269132301
 31
0.0
  0
LINE
  5
97
330
1D
100
AcDbEntity
  8
1
100
AcDbLine
 10
3.804413835723998
 20
8.269132301
 30
0.0
 11
3.667932237723998
 21
8.313524722
 31
0.0
  0
LINE
  5
98
330
1D
100
AcDbEntity
  8
1
100
AcDbLine
 10
3.667932237723998
 20
8.313524722
 30
0.0
 11
3.368719714723998
 21
8.384545519
 31
0.0
  0
LINE
  5
99
330
1D
100
AcDbEntity
  8
1
100
AcDbLine
 10
3.368719714723998
 20
8.384545519
 30
0.0
 11
3.052214394723998
 21
8.436768501
 31
0.0
  0
LINE
  5
9A
330
1D
100
AcDbEntity
  8
1
100
AcDbLine
 10
3.052214394723998
 20
8.436768501
 30
0.0
 11
2.728020074723998
 21
8.476319909
 31
0.0
  0
LINE
  5
9B
330
1D
100
AcDbEntity
  8
1
100
AcDbLine
 10
2.728020074723998
 20
8.476319909
 30
0.0
 11
2.162875345723998
 21
8.525724496
 31
0.0
  0
ARC
  5
9C
330
1D
100
AcDbEntity
  8
1
100
AcDbCircle
 10
-27.655551504276
 20
-435.196210637
 30
0.0
 40
444.722716193
100
AcDbArc
 50
86.155463498
 51
86.574808919
  0
ARC
  5
9D
330
1D
100
AcDbEntity
  8
1
100
AcDbCircle
 10
4.827375871723998
 20
-18.273260305
 30
0.0
 40
27.775367212
100
AcDbArc
 50
99.595031658
 51
102.290840468
  0
LINE
  5
9E
330
1D
100
AcDbEntity
  8
1
100
AcDbLine
 10
0.1972487677239979
 20
9.116138517
 30
0.0
 11
0.2491727947239979
 21
9.128675982
 31
0.0
  0
LINE
  5
9F
330
1D
100
AcDbEntity
  8
1
100
AcDbLine
 10
0.2491727947239979
 20
9.128675982
 30
0.0
 11
0.2834668857239979
 21
9.144936874
 31
0.0
  0
LINE
  5
A0
330
1D
100
AcDbEntity
  8
1
100
AcDbLine
 10
0.2834668857239979
 20
9.144936874
 30
0.0
 11
0.2972485977239979
 21
9.165152162
 31
0.0
  0
LINE
  5
A1
330
1D
100
AcDbEntity
  8
1
100
AcDbLine
 10
0.2972485977239979
 20
9.165152162
 30
0.0
 11
0.2972485977239979
 21
9.306050092
 31
0.0
  0
ARC
  5
A2
330
1D
100
AcDbEntity
  8
1
100
AcDbCircle
 10
0.1408048907239979
 20
9.027240022
 30
0.0
 40
0.319702499
100
AcDbArc
 50
60.7026893039998
 51
96.56942697799997
  0
ARC
  5
A3
330
1D
100
AcDbEntity
  8
1
100
AcDbCircle
 10
-48.862233015276
 20
-6864.770236418
 30
0.0
 40
6874.289478465
100
AcDbArc
 50
89.591871228
 51
89.600524472
  0
ARC
  5
A4
330
1D
100
AcDbEntity
  8
1
100
AcDbCircle
 10
-3.832878166276002
 20
-18.273260305
 30
0.0
 40
27.776353392
100
AcDbArc
 50
84.00933249499997
 51
84.32305370500002
  0
LINE
  5
A5
330
1D
100
AcDbEntity
  8
1
100
AcDbLine
 10
-1.085283000276002
 20
9.49999988
 30
0.0
 11
3.919428448723998
 21
9.493504837
 31
0.0
  0
LINE
  5
A6
330
1D
100
AcDbEntity
  8
1
100
AcDbLine
 10
3.919428448723998
 20
9.493504837
 30
0.0
 11
3.930673237723998
 21
9.474029019
 31
0.0
  0
LINE
  5
A7
330
1D
100
AcDbEntity
  8
1
100
AcDbLine
 10
3.930673237723998
 20
9.474029019
 30
0.0
 11
3.949396546723998
 21
9.441600367
 31
0.0
  0
LINE
  5
A8
330
1D
100
AcDbEntity
  8
1
100
AcDbLine
 10
3.949396546723998
 20
9.441600367
 30
0.0
 11
3.975573229723998
 21
9.396259859
 31
0.0
  0
LINE
  5
A9
330
1D
100
AcDbEntity
  8
1
100
AcDbLine
 10
3.975573229723998
 20
9.396259859
 30
0.0
 11
4.009166966723997
 21
9.338072687
 31
0.0
  0
LINE
  5
AA
330
1D
100
AcDbEntity
  8
1
100
AcDbLine
 10
4.009166966723997
 20
9.338072687
 30
0.0
 11
4.050133052723998
 21
9.267118945
 31
0.0
  0
LINE
  5
AB
330
1D
100
AcDbEntity
  8
1
100
AcDbLine
 10
4.050133052723998
 20
9.267118945
 30
0.0
 11
4.098415608723998
 21
9.183491766
 31
0.0
  0
LINE
  5
AC
330
1D
100
AcDbEntity
  8
1
100
AcDbLine
 10
4.098415608723998
 20
9.183491766
 30
0.0
 11
4.153946648723998
 21
9.087308496
 31
0.0
  0
LINE
  5
AD
330
1D
100
AcDbEntity
  8
1
100
AcDbLine
 10
4.153946648723998
 20
9.087308496
 30
0.0
 11
4.216652131723998
 21
8.97869952
 31
0.0
  0
LINE
  5
AE
330
1D
100
AcDbEntity
  8
1
100
AcDbLine
 10
4.216652131723998
 20
8.97869952
 30
0.0
 11
4.286445445723998
 21
8.857813849
 31
0.0
  0
LINE
  5
AF
330
1D
100
AcDbEntity
  8
1
100
AcDbLine
 10
4.286445445723998
 20
8.857813849
 30
0.0
 11
4.363231129723998
 21
8.724817261
 31
0.0
  0
LINE
  5
B0
330
1D
100
AcDbEntity
  8
1
100
AcDbLine
 10
4.363231129723998
 20
8.724817261
 30
0.0
 11
4.446904874723998
 21
8.57989043
 31
0.0
  0
LINE
  5
B1
330
1D
100
AcDbEntity
  8
1
100
AcDbLine
 10
4.446904874723998
 20
8.57989043
 30
0.0
 11
4.537351197723998
 21
8.423232659
 31
0.0
  0
LINE
  5
B2
330
1D
100
AcDbEntity
  8
1
100
AcDbLine
 10
4.537351197723998
 20
8.423232659
 30
0.0
 11
4.634447629723998
 21
8.255056291
 31
0.0
  0
LINE
  5
B3
330
1D
100
AcDbEntity
  8
1
100
AcDbLine
 10
4.634447629723998
 20
8.255056291
 30
0.0
 11
4.738060525723998
 21
8.075594156
 31
0.0
  0
LINE
  5
B4
330
1D
100
AcDbEntity
  8
1
100
AcDbLine
 10
4.738060525723998
 20
8.075594156
 30
0.0
 11
4.848048790723998
 21
7.885088398
 31
0.0
  0
LINE
  5
B5
330
1D
100
AcDbEntity
  8
1
100
AcDbLine
 10
4.848048790723998
 20
7.885088398
 30
0.0
 11
4.964261549723997
 21
7.68380165
 31
0.0
  0
LINE
  5
B6
330
1D
100
AcDbEntity
  8
1
100
AcDbLine
 10
4.964261549723997
 20
7.68380165
 30
0.0
 11
5.086540012723998
 21
7.472009584
 31
0.0
  0
LINE
  5
B7
330
1D
100
AcDbEntity
  8
1
100
AcDbLine
 10
5.086540012723998
 20
7.472009584
 30
0.0
 11
5.214717007723998
 21
7.250000908
 31
0.0
  0
LINE
  5
B8
330
1D
100
AcDbEntity
  8
1
100
AcDbLine
 10
5.214717007723998
 20
7.250000908
 30
0.0
 11
5.214717097723998
 21
0.0
 31
0.0
  0
ARC
  5
B9
330
1D
100
AcDbEntity
  8
1
100
AcDbCircle
 10
7.214717097723998
 20
-0.000000001
 30
0.0
 40
2.0
100
AcDbArc
 50
180.0
 51
269.9999934709999
  0
LINE
  5
BA
330
1D
100
AcDbEntity
  8
1
100
AcDbLine
 10
7.214716869723998
 20
-2.000000142
 30
0.0
 11
9.214717197724
 21
-2.000000142
 31
0.0
  0
LINE
  5
BB
330
1D
100
AcDbEntity
  8
1
100
AcDbLine
 10
9.214717197724
 20
-2.000000142
 30
0.0
 11
10.151446657724
 21
-2.540821064
 31
0.0
  0
ARC
  5
BC
330
1D
100
AcDbEntity
  8
1
100
AcDbCircle
 10
14.114717097724
 20
-2.000000001
 30
0.0
 40
4.0
100
AcDbArc
 50
187.7704895889999
 51
234.900367805
  0
LINE
  5
BD
330
1D
100
AcDbEntity
  8
1
100
AcDbLine
 10
10.837247712724
 20
-4.293075577
 30
0.0
 11
10.837247712724
 21
-6.826093235
 31
0.0
  0
LINE
  5
BE
330
1D
100
AcDbEntity
  8
1
100
AcDbLine
 10
10.837247712724
 20
-6.826093235
 30
0.0
 11
10.822637473724
 21
-7.008014061
 31
0.0
  0
LINE
  5
BF
330
1D
100
AcDbEntity
  8
1
100
AcDbLine
 10
10.822637473724
 20
-7.008014061
 30
0.0
 11
10.773887044724
 21
-7.183262893
 31
0.0
  0
LINE
  5
C0
330
1D
100
AcDbEntity
  8
1
100
AcDbLine
 10
10.773887044724
 20
-7.183262893
 30
0.0
 11
10.707412148724
 21
-7.305176277
 31
0.0
  0
LINE
  5
C1
330
1D
100
AcDbEntity
  8
1
100
AcDbLine
 10
10.707412148724
 20
-7.305176277
 30
0.0
 11
10.661549750724
 21
-7.358649094
 31
0.0
  0
LINE
  5
C2
330
1D
100
AcDbEntity
  8
1
100
AcDbLine
 10
10.661549750724
 20
-7.358649094
 30
0.0
 11
10.606695666724
 21
-7.402550709
 31
0.0
  0
LINE
  5
C3
330
1D
100
AcDbEntity
  8
1
100
AcDbLine
 10
10.606695666724
 20
-7.402550709
 30
0.0
 11
10.526168626724
 21
-7.437308133
 31
0.0
  0
LINE
  5
C4
330
1D
100
AcDbEntity
  8
1
100
AcDbLine
 10
10.526168626724
 20
-7.437308133
 30
0.0
 11
10.438266211724
 21
-7.442402933
 31
0.0
  0
LINE
  5
C5
330
1D
100
AcDbEntity
  8
1
100
AcDbLine
 10
10.438266211724
 20
-7.442402933
 30
0.0
 11
10.398191168724
 21
-7.434219402
 31
0.0
  0
ARC
  5
C6
330
1D
100
AcDbEntity
  8
1
100
AcDbCircle
 10
38.278586056724
 20
91.887117607
 30
0.0
 40
103.160285015
100
AcDbArc
 50
250.24078846
 51
254.320090149
  0
LINE
  5
C7
330
1D
100
AcDbEntity
  8
1
100
AcDbLine
 10
3.403391922723998
 20
-5.199262687
 30
0.0
 11
3.403392232723998
 21
-0.000000001
 31
0.0
  0
ARC
  5
C8
330
1D
100
AcDbEntity
  8
1
100
AcDbCircle
 10
-12.174608553276
 20
-0.000000001
 30
0.0
 40
15.578000785
100
AcDbArc
 50
0.0
 51
11.250523412
  0
LINE
  5
C9
330
1D
100
AcDbEntity
  8
1
100
AcDbLine
 10
3.114717315723998
 20
3.041381202
 30
0.0
 11
-1.085283000276002
 21
3.041381202
 31
0.0
  0
ARC
  5
CA
330
1D
100
AcDbEntity
  8
1
100
AcDbCircle
 10
6.245335505723998
 20
-2.176640861
 30
0.0
 40
9.855946544
100
AcDbArc
 50
127.869293241
 51
138.054090675
  0
ARC
  5
CB
330
1D
100
AcDbEntity
  8
1
100
AcDbCircle
 10
0.0074630097239979
 20
5.824109725
 30
0.0
 40
0.29286142
100
AcDbArc
 50
310.3939482800001
 51
49.6059663829999
  0
ARC
  5
CC
330
1D
100
AcDbEntity
  8
1
100
AcDbCircle
 10
-9.420008551276002
 20
-8.022773435
 30
0.0
 40
17.042725983
100
AcDbArc
 50
55.646111901
 51
60.72735260699999
  0
LINE
  5
CD
330
1D
100
AcDbEntity
  8
1
100
AcDbLine
 10
1.376027475723998
 20
-10.470307479
 30
0.0
 11
0.8147174967239978
 21
-9.497894487
 31
0.0
  0
LINE
  5
CE
330
1D
100
AcDbEntity
  8
1
100
AcDbLine
 10
0.8147174967239978
 20
-9.497894487
 30
0.0
 11
-1.085283000276002
 21
-9.497894487
 31
0.0
  0
ARC
  5
CF
330
1D
100
AcDbEntity
  8
1
100
AcDbCircle
 10
-3.832878166276002
 20
18.273260304
 30
0.0
 40
27.776109743
100
AcDbArc
 50
275.676946377
 51
275.990667505
  0
ARC
  5
D0
330
1D
100
AcDbEntity
  8
1
100
AcDbCircle
 10
-48.862233015276
 20
6864.770236417
 30
0.0
 40
6874.288722842
100
AcDbArc
 50
270.399475528
 51
270.408128776
  0
LINE
  5
D1
330
1D
100
AcDbEntity
  8
1
100
AcDbLine
 10
0.1042291997239979
 20
-9.344842565
 30
0.0
 11
0.1692094387239979
 21
-9.34240413
 31
0.0
  0
LINE
  5
D2
330
1D
100
AcDbEntity
  8
1
100
AcDbLine
 10
0.1692094387239979
 20
-9.34240413
 30
0.0
 11
0.2260676137239979
 21
-9.336140985
 31
0.0
  0
LINE
  5
D3
330
1D
100
AcDbEntity
  8
1
100
AcDbLine
 10
0.2260676137239979
 20
-9.336140985
 30
0.0
 11
0.2689224217239979
 21
-9.326519492
 31
0.0
  0
LINE
  5
D4
330
1D
100
AcDbEntity
  8
1
100
AcDbLine
 10
0.2689224217239979
 20
-9.326519492
 30
0.0
 11
0.2972485977239979
 21
-9.306050186
 31
0.0
  0
LINE
  5
D5
330
1D
100
AcDbEntity
  8
1
100
AcDbLine
 10
0.2972485977239979
 20
-9.306050186
 30
0.0
 11
0.2972485977239979
 21
-9.165151325
 31
0.0
  0
LINE
  5
D6
330
1D
100
AcDbEntity
  8
1
100
AcDbLine
 10
0.2972485977239979
 20
-9.165151325
 30
0.0
 11
0.2877528327239979
 21
-9.148323257
 31
0.0
  0
LINE
  5
D7
330
1D
100
AcDbEntity
  8
1
100
AcDbLine
 10
0.2877528327239979
 20
-9.148323257
 30
0.0
 11
0.2551323277239979
 21
-9.130775743
 31
0.0
  0
LINE
  5
D8
330
1D
100
AcDbEntity
  8
1
100
AcDbLine
 10
0.2551323277239979
 20
-9.130775743
 30
0.0
 11
0.1972488527239979
 21
-9.116138141
 31
0.0
  0
ARC
  5
D9
330
1D
100
AcDbEntity
  8
1
100
AcDbCircle
 10
4.827375871723998
 20
18.273260304
 30
0.0
 40
27.777998909
100
AcDbArc
 50
257.709159292
 51
260.404968385
  0
ARC
  5
DA
330
1D
100
AcDbEntity
  8
1
100
AcDbCircle
 10
-6.645583810276002
 20
11.77150221
 30
0.0
 40
21.093783289
100
AcDbArc
 50
285.283723807
 51
288.928464035
  0
LINE
  5
DB
330
1D
100
AcDbEntity
  8
1
100
AcDbLine
 10
0.1972487677239979
 20
-8.182423469
 30
0.0
 11
0.2493832737239979
 21
-8.156679385
 31
0.0
  0
LINE
  5
DC
330
1D
100
AcDbEntity
  8
1
100
AcDbLine
 10
0.2493832737239979
 20
-8.156679385
 30
0.0
 11
0.2826920257239979
 21
-8.123634663
 31
0.0
  0
LINE
  5
DD
330
1D
100
AcDbEntity
  8
1
100
AcDbLine
 10
0.2826920257239979
 20
-8.123634663
 30
0.0
 11
0.2971275257239979
 21
-8.082050644
 31
0.0
  0
LINE
  5
DE
330
1D
100
AcDbEntity
  8
1
100
AcDbLine
 10
0.2971275257239979
 20
-8.082050644
 30
0.0
 11
0.2850985637239979
 21
-8.034850285
 31
0.0
  0
LINE
  5
DF
330
1D
100
AcDbEntity
  8
1
100
AcDbLine
 10
0.2850985637239979
 20
-8.034850285
 30
0.0
 11
0.2423527197239979
 21
-7.990910486
 31
0.0
  0
LINE
  5
E0
330
1D
100
AcDbEntity
  8
1
100
AcDbLine
 10
0.2423527197239979
 20
-7.990910486
 30
0.0
 11
0.1972488527239979
 21
-7.967932555
 31
0.0
  0
ARC
  5
E1
330
1D
100
AcDbEntity
  8
1
100
AcDbCircle
 10
7.640081515723998
 20
11.77150221
 30
0.0
 40
21.095995897
100
AcDbArc
 50
247.461812867
 51
249.340848603
  0
ARC
  5
E2
330
1D
100
AcDbEntity
  8
1
100
AcDbCircle
 10
6.084379236723998
 20
8.022773434
 30
0.0
 40
17.038061075
100
AcDbArc
 50
245.1169974599999
 51
247.461812867
  0
ARC
  5
E3
330
1D
100
AcDbEntity
  8
1
100
AcDbCircle
 10
-9.420008551276002
 20
8.022773434
 30
0.0
 40
17.045637007
100
AcDbArc
 50
299.272598859
 51
304.353887482
  0
ARC
  5
E4
330
1D
100
AcDbEntity
  8
1
100
AcDbCircle
 10
0.0082935167239979
 20
-5.824109587
 30
0.0
 40
0.292323726
100
AcDbArc
 50
310.2700032799999
 51
49.72999142899991
  0
ARC
  5
E5
330
1D
100
AcDbEntity
  8
1
100
AcDbCircle
 10
6.245335505723998
 20
2.17664086
 30
0.0
 40
9.85251507
100
AcDbArc
 50
221.9459100319999
 51
232.130707272
  0
LINE
  5
E6
330
1D
100
AcDbEntity
  8
1
100
AcDbLine
 10
-1.085283000276002
 20
-3.041380831
 30
0.0
 11
0.8147174967239978
 21
-3.041380831
 31
0.0
  0
ARC
  5
E7
330
1D
100
AcDbEntity
  8
1
100
AcDbCircle
 10
23.282523469724
 20
1.186954107
 30
0.0
 40
22.862220399
100
AcDbArc
 50
190.658133849
 51
196.625297286
  0
LINE
  5
E8
330
1D
100
AcDbEntity
  8
1
100
AcDbLine
 10
1.376027475723998
 20
-5.354189128
 30
0.0
 11
1.376027475723998
 21
-10.470307479
 31
0.0
  0
LINE
  5
E9
330
1D
100
AcDbEntity
  8
1
100
AcDbLine
 10
1.376027475723998
 20
-10.470307479
 30
0.0
 11
5.713709409723998
 21
-11.235287997
 31
0.0
  0
ARC
  5
EA
330
1D
100
AcDbEntity
  8
1
100
AcDbCircle
 10
5.716644642723998
 20
-11.037954405
 30
0.0
 40
0.197363116
100
AcDbArc
 50
270.0
 51
295.3710788819999
  0
LINE
  5
EB
330
1D
100
AcDbEntity
  8
1
100
AcDbLine
 10
5.799161038723998
 20
-11.211960158
 30
0.0
 11
5.799161038723998
 21
-11.063817237
 31
0.0
  0
ARC
  5
EC
330
1D
100
AcDbEntity
  8
1
100
AcDbCircle
 10
5.850689714723998
 20
-11.211127224
 30
0.0
 40
0.156062284
100
AcDbArc
 50
71.90511890899985
 51
109.2797130790001
  0
LINE
  5
ED
330
1D
100
AcDbEntity
  8
1
100
AcDbLine
 10
5.899161334723998
 20
-11.062783236
 30
0.0
 11
11.140304560724
 21
-11.993801385
 31
0.0
  0
ARC
  5
EE
330
1D
100
AcDbEntity
  8
1
100
AcDbCircle
 10
11.207613310724
 20
-11.59718314
 30
0.0
 40
0.402289075
100
AcDbArc
 50
260.3682916670002
 51
359.245637047
  0
LINE
  5
EF
330
1D
100
AcDbEntity
  8
1
100
AcDbLine
 10
11.609763839724
 20
-11.602478207
 30
0.0
 11
11.609763838724
 21
-6.29743116
 31
0.0
  0
ARC
  5
F0
330
1D
100
AcDbEntity
  8
1
100
AcDbCircle
 10
12.430867551724
 20
-6.297739108
 30
0.0
 40
0.82110377
100
AcDbArc
 50
174.834774516
 51
179.978511677
  0
ARC
  5
F1
330
1D
100
AcDbEntity
  8
1
100
AcDbCircle
 10
11.745746007724
 20
-6.235807549
 30
0.0
 40
0.133188416
100
AcDbArc
 50
167.6391761930001
 51
174.834712783
  0
LINE
  5
F2
330
1D
100
AcDbEntity
  8
1
100
AcDbLine
 10
11.620274251724
 20
-6.197735482
 30
0.0
 11
11.735888926724
 21
-6.218225509
 31
0.0
  0
LINE
  5
F3
330
1D
100
AcDbEntity
  8
1
100
AcDbLine
 10
11.735888926724
 20
-6.218225509
 30
0.0
 11
11.814717102724
 21
-6.145412848
 31
0.0
  0
LINE
  5
F4
330
1D
100
AcDbEntity
  8
1
100
AcDbLine
 10
11.814717102724
 20
-6.145412848
 30
0.0
 11
11.814717097724
 21
-5.272613635
 31
0.0
  0
LINE
  5
F6
330
1D
100
AcDbEntity
  8
1
100
AcDbLine
 10
-1.085283000276002
 20
-6.84619071
 30
0.0
 11
-1.107495044276002
 21
-6.829691399
 31
0.0
  0
LINE
  5
F7
330
1D
100
AcDbEntity
  8
1
100
AcDbLine
 10
-1.107495044276002
 20
-6.829691399
 30
0.0
 11
-1.139170256276002
 21
-6.815140416
 31
0.0
  0
LINE
  5
F8
330
1D
100
AcDbEntity
  8
1
100
AcDbLine
 10
-1.139170256276002
 20
-6.815140416
 30
0.0
 11
-1.161857274276002
 21
-6.816109457
 31
0.0
  0
LINE
  5
F9
330
1D
100
AcDbEntity
  8
1
100
AcDbLine
 10
-1.161857274276002
 20
-6.816109457
 30
0.0
 11
-1.174940493276002
 21
-6.827017572
 31
0.0
  0
LINE
  5
FA
330
1D
100
AcDbEntity
  8
1
100
AcDbLine
 10
-1.174940493276002
 20
-6.827017572
 30
0.0
 11
-1.184480030276002
 21
-6.856901385
 31
0.0
  0
LINE
  5
FB
330
1D
100
AcDbEntity
  8
1
100
AcDbLine
 10
-1.184480030276002
 20
-6.856901385
 30
0.0
 11
-1.185282830276002
 21
-6.872546673
 31
0.0
  0
ARC
  5
FD
330
1D
100
AcDbEntity
  8
1
100
AcDbCircle
 10
0.9299017107239979
 20
-3.766040484
 30
0.0
 40
2.115987517
100
AcDbArc
 50
181.578505554
 51
197.7564748259999
  0
LINE
  5
FE
330
1D
100
AcDbEntity
  8
1
100
AcDbLine
 10
3.114717315723998
 20
3.041381202
 30
0.0
 11
3.114717097723998
 21
-5.931478088
 31
0.0
  0
ARC
  5
FF
330
1D
100
AcDbEntity
  8
1
100
AcDbCircle
 10
-5.449965751276002
 20
-2.276291081
 30
0.0
 40
9.312045123
100
AcDbArc
 50
336.888453455
 51
340.622352233
  0
ARC
  5
100
330
1D
100
AcDbEntity
  8
1
100
AcDbCircle
 10
-11.922068772276
 20
-0.000000001
 30
0.0
 40
16.180173574
100
AcDbArc
 50
340.62254782
 51
341.260159743
  0
LINE
  5
101
330
1D
100
AcDbEntity
  8
1
100
AcDbLine
 10
-1.182080012276002
 20
6.843508407
 30
0.0
 11
-1.170988892276002
 21
6.822238862
 31
0.0
  0
LINE
  5
102
330
1D
100
AcDbEntity
  8
1
100
AcDbLine
 10
-1.170988892276002
 20
6.822238862
 30
0.0
 11
-1.154634867276002
 21
6.814179196
 31
0.0
  0
LINE
  5
103
330
1D
100
AcDbEntity
  8
1
100
AcDbLine
 10
-1.154634867276002
 20
6.814179196
 30
0.0
 11
-1.132164847276002
 21
6.81717433
 31
0.0
  0
LINE
  5
104
330
1D
100
AcDbEntity
  8
1
100
AcDbLine
 10
-1.132164847276002
 20
6.81717433
 30
0.0
 11
-1.107995164276002
 21
6.82937093
 31
0.0
  0
LINE
  5
105
330
1D
100
AcDbEntity
  8
1
100
AcDbLine
 10
-1.107995164276002
 20
6.82937093
 30
0.0
 11
-1.085283000276002
 21
6.846190616
 31
0.0
  0
ARC
  5
106
330
1D
100
AcDbEntity
  8
1
100
AcDbCircle
 10
0.9408803967239979
 20
3.76417074
 30
0.0
 40
2.127014103
100
AcDbArc
 50
162.285740218
 51
178.379309497
  0
LINE
  5
108
330
1D
100
AcDbEntity
  8
1
100
AcDbLine
 10
-1.185282830276002
 20
3.024896793
 30
0.0
 11
-1.085283000276002
 21
3.041381202
 31
0.0
  0
LINE
  5
109
330
1D
100
AcDbEntity
  8
1
100
AcDbLine
 10
-1.085283000276002
 20
-3.041380831
 30
0.0
 11
-1.185282830276002
 21
-3.024896421
 31
0.0
  0
ARC
  5
10C
330
1D
100
AcDbEntity
  8
1
100
AcDbCircle
 10
-1.286493553276002
 20
9.535776383
 30
0.0
 40
0.262868234
100
AcDbArc
 50
292.645264116
 51
319.9463865389999
  0
ARC
  5
10D
330
1D
100
AcDbEntity
  8
1
100
AcDbCircle
 10
-0.8526530772760021
 20
8.617201293
 30
0.0
 40
0.340236821
100
AcDbArc
 50
133.1357648
 51
167.8614137289998
  0
ARC
  5
10F
330
1D
100
AcDbEntity
  8
CUT
100
AcDbCircle
 10
6.064717097723998
 20
-11.121385257
 30
0.0
 40
0.4
100
AcDbArc
 50
195.9550410660001
 51
260.000022708
  0
LINE
  5
110
330
1D
100
AcDbEntity
  8
CUT
100
AcDbLine
 10
5.995257991723998
 20
-11.515308335
 30
0.0
 11
11.545257826724
 21
-12.493923101
 31
0.0
  0
ARC
  5
111
330
1D
100
AcDbEntity
  8
CUT
100
AcDbCircle
 10
11.614717097724
 20
-12.1
 30
0.0
 40
0.4
100
AcDbArc
 50
259.9999999999999
 51
359.9999984820001
  0
LINE
  5
112
330
1D
100
AcDbEntity
  8
CUT
100
AcDbLine
 10
12.014717097724
 20
-12.100000011
 30
0.0
 11
12.014717097724
 21
-6.464382304
 31
0.0
  0
ARC
  5
113
330
1D
100
AcDbEntity
  8
CUT
100
AcDbCircle
 10
11.614717097724
 20
-6.464382304
 30
0.0
 40
0.4
100
AcDbArc
 50
0.0
 51
60.00000000000015
  0
ARC
  5
114
330
1D
100
AcDbEntity
  8
1
100
AcDbCircle
 10
7.214736012723998
 20
5.483721371
 30
0.0
 40
2.000019006
100
AcDbArc
 50
180.000154431
 51
198.1948259989999
  0
ARC
  5
115
330
1D
100
AcDbEntity
  8
1
100
AcDbCircle
 10
7.214717097723998
 20
5.483716857
 30
0.0
 40
2.0
100
AcDbArc
 50
198.1948723389999
 51
239.999995792
  0
LINE
  5
116
330
1D
100
AcDbEntity
  8
1
100
AcDbLine
 10
6.214717171723998
 20
3.751666471
 30
0.0
 11
10.114717065724
 21
1.500000432
 31
0.0
  0
LINE
  5
117
330
1D
100
AcDbEntity
  8
1
100
AcDbLine
 10
10.114717065724
 20
2.000000001
 30
0.0
 11
10.114717065724
 21
-2.000000142
 31
0.0
  0
LINE
  5
118
330
1D
100
AcDbEntity
  8
1
100
AcDbLine
 10
10.114717065724
 20
-2.000000142
 30
0.0
 11
10.130898096724
 21
-2.356589586
 31
0.0
  0
LINE
  5
119
330
1D
100
AcDbEntity
  8
1
100
AcDbLine
 10
10.130898096724
 20
-2.356589586
 30
0.0
 11
10.155194789724
 21
-2.539953963
 31
0.0
  0
LINE
  5
11A
330
1D
100
AcDbEntity
  8
1
100
AcDbLine
 10
-1.085283000276002
 20
7.199264317
 30
0.0
 11
-1.185282830276002
 21
7.098955288
 31
0.0
  0
LINE
  5
11D
330
1D
100
AcDbEntity
  8
1
100
AcDbLine
 10
-1.185282830276002
 20
8.632523193
 30
0.0
 11
-1.085283000276002
 21
8.735313266
 31
0.0
  0
ARC
  5
11F
330
1D
100
AcDbEntity
  8
1
100
AcDbCircle
 10
-0.5388190642760021
 20
-7.079615545
 30
0.0
 40
0.651831091
100
AcDbArc
 50
187.357791629
 51
213.033492101
  0
LINE
  5
120
330
1D
100
AcDbEntity
  8
1
100
AcDbLine
 10
-1.085283000276002
 20
-8.576243464
 30
0.0
 11
-1.119430874276002
 21
-8.550257702
 31
0.0
  0
LINE
  5
121
330
1D
100
AcDbEntity
  8
1
100
AcDbLine
 10
-1.119430874276002
 20
-8.550257702
 30
0.0
 11
-1.150688853276002
 21
-8.532672469
 31
0.0
  0
LINE
  5
122
330
1D
100
AcDbEntity
  8
1
100
AcDbLine
 10
-1.150688853276002
 20
-8.532672469
 30
0.0
 11
-1.173717667276002
 21
-8.528540657
 31
0.0
  0
LINE
  5
123
330
1D
100
AcDbEntity
  8
1
100
AcDbLine
 10
-1.173717667276002
 20
-8.528540657
 30
0.0
 11
-1.185282830276002
 21
-8.546782472
 31
0.0
  0
ARC
  5
125
330
1D
100
AcDbEntity
  8
1
100
AcDbCircle
 10
-0.7280220782760021
 20
-8.546685537
 30
0.0
 40
0.478819721
100
AcDbArc
 50
197.258726453
 51
221.74390092
  0
ARC
  5
126
330
1D
100
AcDbEntity
  8
1
100
AcDbCircle
 10
-1.251985872276002
 20
-9.488793873
 30
0.0
 40
0.20667914
100
AcDbArc
 50
36.237061157
 51
71.17146148400025
  0
ARC
  5
12B
330
1D
100
AcDbEntity
  8
1
100
AcDbCircle
 10
27.660219535724
 20
-6.964851296
 30
0.0
 40
17.268408432
100
AcDbArc
 50
181.5575334609999
 51
196.9599928419999
  0
LINE
  5
12C
330
1D
100
AcDbEntity
  8
1
100
AcDbLine
 10
5.956944312723998
 20
-11.073162477
 30
0.0
 11
5.956944352723998
 21
-11.121385257
 31
0.0
  0
ARC
  5
12D
330
1D
100
AcDbEntity
  8
CUT
100
AcDbCircle
 10
6.064717097723998
 20
-11.121385257
 30
0.0
 40
0.107772745
100
AcDbArc
 50
180.0
 51
259.9999701140001
  0
LINE
  5
12E
330
1D
100
AcDbEntity
  8
CUT
100
AcDbLine
 10
6.046002498723998
 20
-11.227520696
 30
0.0
 11
11.596002556724
 21
-12.206135435
 31
0.0
  0
ARC
  5
12F
330
1D
100
AcDbEntity
  8
CUT
100
AcDbCircle
 10
11.614717097724
 20
-12.1
 30
0.0
 40
0.107772745
100
AcDbArc
 50
260.0
 51
359.9999943650003
  0
LINE
  5
130
330
1D
100
AcDbEntity
  8
CUT
100
AcDbLine
 10
11.722489843724
 20
-12.100000011
 30
0.0
 11
11.722489842724
 21
-6.464382304
 31
0.0
  0
ARC
  5
131
330
1D
100
AcDbEntity
  8
CUT
100
AcDbCircle
 10
11.614717097724
 20
-6.464382304
 30
0.0
 40
0.107772745
100
AcDbArc
 50
0.0
 51
79.99998770199927
  0
LINE
  5
132
330
1D
100
AcDbEntity
  8
CUT
100
AcDbLine
 10
11.633431627724
 20
-6.358247065
 30
0.0
 11
11.609763839724
 21
-6.354073808
 31
0.0
  0
ARC
  5
133
330
1D
100
AcDbEntity
  8
1
100
AcDbCircle
 10
104.904378833724
 20
-0.000000001
 30
0.0
 40
94.314477731
100
AcDbArc
 50
184.1504614719999
 51
185.3455672559999
  0
ARC
  5
134
330
1D
100
AcDbEntity
  8
1
100
AcDbCircle
 10
26.395995050724
 20
-7.345861963
 30
0.0
 40
15.443467262
100
AcDbArc
 50
185.346011244
 51
192.6084821249999
  0
ARC
  5
135
330
1D
100
AcDbEntity
  8
1
100
AcDbCircle
 10
15.574162816724
 20
-9.766510237
 30
0.0
 40
4.354211607
100
AcDbArc
 50
192.608482125
 51
204.9901737609999
  0
LINE
  5
136
330
1D
100
AcDbEntity
  8
1
100
AcDbLine
 10
11.609290407724
 20
-11.614532839
 30
0.0
 11
11.609763839724
 21
-11.602478207
 31
0.0
  0
LINE
  5
137
330
1D
100
AcDbEntity
  8
1
100
AcDbLine
 10
1.376027475723998
 20
-5.354189128
 30
0.0
 11
2.392890165723998
 21
-5.696914439
 31
0.0
  0
LINE
  5
138
330
1D
100
AcDbEntity
  8
1
100
AcDbLine
 10
2.392890165723998
 20
-5.696914439
 30
0.0
 11
3.114717315723998
 21
-5.931478274
 31
0.0
  0
LINE
  5
139
330
1D
100
AcDbEntity
  8
1
100
AcDbLine
 10
0.8147174967239978
 20
-3.041380831
 30
0.0
 11
0.8147174967239978
 21
-9.497894487
 31
0.0
  0
LINE
  5
13D
330
1D
100
AcDbEntity
  8
1
100
AcDbLine
 10
-1.085283000276002
 20
-9.497894487
 30
0.0
 11
-1.185282830276002
 21
-9.395211517
 31
0.0
  0
LINE
  5
13E
330
1D
100
AcDbEntity
  8
1
100
AcDbLine
 10
-1.185282830276002
 20
-9.395211517
 30
0.0
 11
-1.185282830276002
 21
9.399467334
 31
0.0
  0
LINE
  5
13F
330
1D
100
AcDbEntity
  8
1
100
AcDbLine
 10
-1.085283000276002
 20
9.49999988
 30
0.0
 11
-1.185282830276002
 21
9.399467334
 31
0.0
  0
LINE
  5
141
330
1D
100
AcDbEntity
  8
1
100
AcDbLine
 10
5.214717007723998
 20
0.000000186
 30
0.0
 11
3.403391922723998
 21
0.000000186
 31
0.0
  0
LINE
  5
142
330
1D
100
AcDbEntity
  8
CUT
100
AcDbLine
 10
11.722489843724
 20
-12.100000011
 30
0.0
 11
12.014717097724
 21
-12.100000011
 31
0.0
  0
LINE
  5
143
330
1D
100
AcDbEntity
  8
CUT
100
AcDbLine
 10
11.722489843724
 20
-6.464382448
 30
0.0
 11
12.014717097724
 21
-6.464382448
 31
0.0
  0
LINE
  5
144
330
1D
100
AcDbEntity
  8
CUT
100
AcDbLine
 10
11.633431627724
 20
-6.358247065
 30
0.0
 11
11.660477758724
 21
-6.204860565
 31
0.0
  0
LINE
  5
145
330
1D
100
AcDbEntity
  8
CUT
100
AcDbLine
 10
6.046002498723998
 20
-11.227520696
 30
0.0
 11
5.995257991723998
 21
-11.515308335
 31
0.0
  0
LINE
  5
146
330
1D
100
AcDbEntity
  8
CUT
100
AcDbLine
 10
11.596002558724
 20
-12.206135423
 30
0.0
 11
11.545257818724
 21
-12.493923101
 31
0.0
  0
LINE
  5
147
330
1D
100
AcDbEntity
  8
CUT
100
AcDbLine
 10
5.956944312723998
 20
-11.121385312
 30
0.0
 11
5.799161038723998
 21
-11.121385312
 31
0.0
  0
LINE
  5
1E7
330
1D
100
AcDbEntity
  8
1
100
AcDbLine
 10
11.68417636879077
 20
6.070459202795116
 30
0.0
 11
6.13417636879077
 21
5.091844459795117
 31
0.0
  0
LINE
  5
1EA
330
1D
100
AcDbEntity
  8
1
100
AcDbLine
 10
6.13417636879077
 20
5.091844459795117
 30
0.0
 11
5.834383579981492
 21
5.03422425358352
 31
0.0
  0
LINE
  5
1EB
330
1D
100
AcDbEntity
  8
1
100
AcDbLine
 10
5.834383579981492
 20
5.03422425358352
 30
0.0
 11
5.810654559172635
 21
5.168114775002512
 31
0.0
  0
LINE
  5
1EE
330
1D
100
AcDbEntity
  8
3
100
AcDbLine
 10
5.664717097724002
 20
11.12138531220127
 30
0.0
 11
11.68542931936656
 21
12.2478439021926
 31
0.0
  0
LINE
  5
1EF
330
1D
100
AcDbEntity
  8
3
100
AcDbLine
 10
11.68542931936656
 20
12.2478439021926
 30
0.0
 11
11.7866299050181
 21
12.17194346295395
 31
0.0
  0
LINE
  5
1F0
330
1D
100
AcDbEntity
  8
3
100
AcDbLine
 10
11.7866299050181
 20
12.17194346295395
 30
0.0
 11
11.7866299050181
 21
6.103209233729994
 31
0.0
  0
LINE
  5
1F1
330
1D
100
AcDbEntity
  8
1
100
AcDbLine
 10
5.664717097724002
 20
11.12138531220127
 30
0.0
 11
5.61127618581627
 21
11.12138531220127
 31
0.0
  0
LINE
  5
1F2
330
1D
100
AcDbEntity
  8
1
100
AcDbLine
 10
5.61127618581627
 20
11.12138531220127
 30
0.0
 11
5.594884319517159
 21
11.21433238525867
 31
0.0
  0
LINE
  5
1F4
330
1D
100
AcDbEntity
  8
1
100
AcDbLine
 10
5.664717097723997
 20
5.485767561
 30
0.0
 11
5.664717097724002
 21
11.12138531220127
 31
0.0
  0
LINE
  5
1F8
330
1D
100
AcDbEntity
  8
NOCUT
100
AcDbLine
 10
10.114717065724
 20
2.000000001
 30
0.0
 11
10.114717065724
 21
0.0
 31
0.0
  0
LINE
  5
1F9
330
1D
100
AcDbEntity
  8
NOCUT
100
AcDbLine
 10
10.114717065724
 20
0.0
 30
0.0
 11
0.0
 21
0.0
 31
0.0
  0
LINE
  5
1FA
330
1D
100
AcDbEntity
  8
NOCUT
100
AcDbLine
 10
0.0
 20
0.0
 30
0.0
 11
-0.0000000000000003
 21
9.498591415231193
 31
0.0
  0
LINE
  5
1FB
330
1D
100
AcDbEntity
  8
NOCUT
100
AcDbLine
 10
-0.0000000000000003
 20
9.498591415231193
 30
0.0
 11
0.8200353129575424
 21
9.498591415231193
 31
0.0
  0
LINE
  5
1FC
330
1D
100
AcDbEntity
  8
NOCUT
100
AcDbLine
 10
0.8200353129575424
 20
9.498591415231193
 30
0.0
 11
1.376027475723998
 21
10.470307479
 31
0.0
  0
LINE
  5
1FD
330
1D
100
AcDbEntity
  8
NOCUT
100
AcDbLine
 10
1.376027475723998
 20
10.470307479
 30
0.0
 11
5.679538347266713
 21
11.22926171502567
 31
0.0
  0
LWPOLYLINE
  5
205
330
1D
100
AcDbEntity
  8
INFTOTAL
100
AcDbPolyline
 90
        4
 70
     1
 43
0.0
 10
-23.3955562206401
 20
29.37506330098901
 10
-23.3955562206401
 20
-31.78951269747645
 10
32.95832278918201
 20
-31.78951269747645
 10
32.95832278918201
 20
29.37506330098901
  0
LINE
  5
20D
330
1D
100
AcDbEntity
  8
NOCUT
100
AcDbLine
 10
11.814717102724
 20
6.11797236
 30
0.0
 11
11.814717102724
 21
5.267876149232497
 31
0.0
  0
ARC
  5
20E
330
1D
100
AcDbEntity
  8
NOCUT
100
AcDbCircle
 10
14.09753856611045
 20
2.004195577683493
 30
0.0
 40
3.982823710234273
100
AcDbArc
 50
124.9713378487401
 51
180.0603563949942
  0
LINE
  5
26C
330
1D
100
AcDbEntity
  8
4
100
AcDbLine
 10
11.878994285724
 20
0.0
 30
0.0
 11
0.0
 21
0.0
 31
0.0
  0
ARC
  5
282
330
1D
100
AcDbEntity
  8
CUT
100
AcDbCircle
 10
11.614717097724
 20
6.464382303999998
 30
0.0
 40
0.4
100
AcDbArc
 50
280.0000000000006
 51
0.0000205980000825
  0
LINE
  5
283
330
1D
100
AcDbEntity
  8
CUT
100
AcDbLine
 10
12.014717097724
 20
6.464382447999999
 30
0.0
 11
12.014717097724
 21
12.1
 31
0.0
  0
ARC
  5
284
330
1D
100
AcDbEntity
  8
CUT
100
AcDbCircle
 10
11.614717097724
 20
12.1
 30
0.0
 40
0.4
100
AcDbArc
 50
0.0
 51
100.0000011189993
  0
LINE
  5
285
330
1D
100
AcDbEntity
  8
CUT
100
AcDbLine
 10
11.545257818724
 20
12.493923101
 30
0.0
 11
5.995257826724
 21
11.515308358
 31
0.0
  0
ARC
  5
286
330
1D
100
AcDbEntity
  8
CUT
100
AcDbCircle
 10
6.064717097723999
 20
11.121385257
 30
0.0
 40
0.4
100
AcDbArc
 50
100.0000000000007
 51
179.9999920930001
  0
ARC
  5
287
330
1D
100
AcDbEntity
  8
CUT
100
AcDbCircle
 10
6.064717097723999
 20
5.485767561
 30
0.0
 40
0.4
100
AcDbArc
 50
180.0
 51
279.9999999999995
  0
LINE
  5
288
330
1D
100
AcDbEntity
  8
CUT
100
AcDbLine
 10
11.68417636879077
 20
6.070459202795115
 30
0.0
 11
6.134176368790769
 21
5.091844459795117
 31
0.0
  0
LINE
  5
289
330
1D
100
AcDbEntity
  8
CUT
100
AcDbLine
 10
5.664717097723994
 20
5.485767561
 30
0.0
 11
5.664717097724001
 21
11.12138531220127
 31
0.0
  0
CIRCLE
  5
28A
330
1D
100
AcDbEntity
  8
1
100
AcDbCircle
 10
8.708717097723998
 20
8.636883780999998
 30
0.0
 40
1.725
  0
HATCH
  5
293
330
1D
100
AcDbEntity
  8
7
100
AcDbHatch
 10
0.0
 20
0.0
 30
0.0
210
0.0
220
0.0
230
1.0
  2
ANSI37
 70
     0
 71
     0
 91
        2
 92
        7
 72
     1
 73
     1
 93
        8
 10
12.01471709772398
 20
6.464382447850874
 42
0.0
 10
12.014717097724
 20
12.1
 42
0.466307663626454
 10
11.54525781890386
 20
12.49392310013624
 42
0.0
 10
5.995257826673921
 20
11.51530835815366
 42
0.3639702213515293
 10
5.664717097724001
 20
11.12138527540042
 42
0.0
 10
5.664717097723994
 20
5.485767561
 42
0.4663076581549913
 10
6.134176368790762
 20
5.091844459795117
 42
0.0
 10
11.68417636879077
 20
6.070459202795115
 42
0.3639703360833261
 97
        0
 92
       22
 72
     1
 73
     1
 93
        2
 10
6.983717097723996
 20
8.636883780999998
 42
-0.9999999999999997
 10
10.433717097724
 20
8.636883780999998
 42
-0.9999999999999997
 97
        0
 75
     0
 76
     1
 52
90.0
 41
5.0
 77
     0
 78
     2
 53
135.0
 43
-30.44286396527451
 44
-4.085631418241717
 45
-0.4419417382415922
 46
-0.4419417382415922
 79
     0
 53
225.0
 43
-30.44286396527451
 44
-4.085631418241717
 45
0.4419417382415922
 46
-0.4419417382415923
 79
     0
 47
0.0
 98
        2
 10
6.006670367075039
 20
8.44048381452065
 10
6.006670367075039
 20
8.44048381452065
1001
ACAD
1010
0.0
1020
0.0
1030
0.0
1001
PE_URL
1000

  0
LINE
  5
2AB
330
1D
100
AcDbEntity
  8
NOCUT
100
AcDbLine
 10
5.664717097724002
 20
11.12138531220127
 30
0.0
 11
11.68542931936656
 21
12.2478439021926
 31
0.0
  0
LINE
  5
2AC
330
1D
100
AcDbEntity
  8
NOCUT
100
AcDbLine
 10
11.68542931936656
 20
12.2478439021926
 30
0.0
 11
11.7866299050181
 21
12.17194346295395
 31
0.0
  0
LINE
  5
2AD
330
1D
100
AcDbEntity
  8
NOCUT
100
AcDbLine
 10
11.7866299050181
 20
12.17194346295395
 30
0.0
 11
11.7866299050181
 21
6.103209233729994
 31
0.0
  0
ARC
  5
2AE
330
1D
100
AcDbEntity
  8
NOCUT
100
AcDbCircle
 10
11.614717097724
 20
6.464382304
 30
0.0
 40
0.4000000000000007
100
AcDbArc
 50
295.4537272695996
 51
300.0000161985292
  0
ARC
  5
2AF
330
1D
100
AcDbEntity
  8
NOCUT
100
AcDbCircle
 10
6.068866327937331
 20
11.12204709942833
 30
0.0
 40
0.4038208146328612
100
AcDbArc
 50
164.6033071513172
 51
180.0938207432336
  0
ENDSEC
  0
SECTION
  2
OBJECTS
  0
DICTIONARY
  5
C
330
0
100
AcDbDictionary
281
     1
  3
ACAD_COLOR
350
225
  3
ACAD_DETAILVIEWSTYLE
350
1E2
  3
ACAD_GROUP
350
D
  3
ACAD_LAYOUT
350
1A
  3
ACAD_MATERIAL
350
185
  3
ACAD_MLEADERSTYLE
350
192
  3
ACAD_MLINESTYLE
350
17
  3
ACAD_PLOTSETTINGS
350
19
  3
ACAD_PLOTSTYLENAME
350
E
  3
ACAD_SCALELIST
350
14E
  3
ACAD_SECTIONVIEWSTYLE
350
1E3
  3
ACAD_TABLESTYLE
350
1DB
  3
ACAD_VISUALSTYLE
350
174
  3
ACDB_RECOMPOSE_DATA
350
2B6
  3
AcDbVariableDictionary
350
190
  3
APPDATA
350
1DE
  0
SUN
  5
216
330
148
100
AcDbSun
 90
        1
290
     0
 63
     7
421
 16777215
 40
1.0
291
     1
 91
  2455826
 92
 54000000
292
     0
 70
     2
 71
   256
280
     1
  0
DICTIONARY
  5
1E4
330
2
100
AcDbDictionary
280
     1
281
     1
  3
ACAD_LAYERSTATES
360
1E5
  0
DICTIONARY
  5
291
330
1D
100
AcDbDictionary
280
     1
281
     1
  3
ACAD_SORTENTS
360
292
  0
DICTIONARY
  5
225
102
{ACAD_REACTORS
330
C
102
}
330
C
100
AcDbDictionary
281
     1
  0
DICTIONARY
  5
1E2
102
{ACAD_REACTORS
330
C
102
}
330
C
100
AcDbDictionary
281
     1
  0
DICTIONARY
  5
D
102
{ACAD_REACTORS
330
C
102
}
330
C
100
AcDbDictionary
281
     1
  0
DICTIONARY
  5
1A
102
{ACAD_REACTORS
330
C
102
}
330
C
100
AcDbDictionary
281
     1
  3
Layout1
350
1C
  3
Model
350
1E
  0
DICTIONARY
  5
185
102
{ACAD_REACTORS
330
C
102
}
330
C
100
AcDbDictionary
281
     1
  3
ByBlock
350
187
  3
ByLayer
350
186
  3
Global
350
188
  0
DICTIONARY
  5
192
102
{ACAD_REACTORS
330
C
102
}
330
C
100
AcDbDictionary
281
     1
  3
Standard
350
1DD
  0
DICTIONARY
  5
17
102
{ACAD_REACTORS
330
C
102
}
330
C
100
AcDbDictionary
281
     1
  3
Standard
350
18
  0
DICTIONARY
  5
19
102
{ACAD_REACTORS
330
C
102
}
330
C
100
AcDbDictionary
281
     1
  0
ACDBDICTIONARYWDFLT
  5
E
102
{ACAD_REACTORS
330
C
102
}
330
C
100
AcDbDictionary
281
     1
  3
Normal
350
F
100
AcDbDictionaryWithDefault
340
F
  0
DICTIONARY
  5
14E
102
{ACAD_REACTORS
330
C
102
}
330
C
100
AcDbDictionary
281
     1
  3
A0
350
14F
  3
A1
350
150
  3
A2
350
151
  3
A3
350
152
  3
A4
350
153
  3
A5
350
154
  3
A6
350
155
  3
A7
350
156
  3
A8
350
157
  3
A9
350
158
  3
B0
350
159
  3
B1
350
15A
  3
B2
350
15B
  3
B3
350
15C
  3
B4
350
15D
  3
B5
350
15E
  3
B6
350
15F
  3
B7
350
160
  3
B8
350
161
  3
B9
350
162
  3
C0
350
163
  3
C1
350
164
  3
C2
350
165
  3
C3
350
166
  3
C4
350
167
  3
C5
350
168
  3
C6
350
169
  3
C7
350
16A
  3
C8
350
16B
  3
C9
350
16C
  3
D0
350
16D
  3
D1
350
16E
  3
D2
350
16F
  0
DICTIONARY
  5
1E3
102
{ACAD_REACTORS
330
C
102
}
330
C
100
AcDbDictionary
281
     1
  0
DICTIONARY
  5
1DB
102
{ACAD_REACTORS
330
C
102
}
330
C
100
AcDbDictionary
281
     1
  3
Standard
350
1DC
  0
DICTIONARY
  5
174
102
{ACAD_REACTORS
330
C
102
}
330
C
100
AcDbDictionary
281
     1
  3
2dWireframe
350
179
  3
3D Hidden
350
17B
  3
3dWireframe
350
17A
  3
Basic
350
17C
  3
Brighten
350
180
  3
ColorChange
350
184
  3
Conceptual
350
17E
  3
Dim
350
17F
  3
EdgeColorOff
350
1D5
  3
Facepattern
350
183
  3
Flat
350
175
  3
FlatWithEdges
350
176
  3
Gouraud
350
177
  3
GouraudWithEdges
350
178
  3
Hidden
350
1D2
  3
JitterOff
350
1D3
  3
Linepattern
350
182
  3
OverhangOff
350
1D4
  3
Realistic
350
17D
  3
Shaded
350
1DA
  3
Shaded with edges
350
1D9
  3
Shades of Gray
350
1D6
  3
Sketchy
350
1D7
  3
Thicken
350
181
  3
Wireframe
350
1D1
  3
X-Ray
350
1D8
  0
XRECORD
  5
2B6
102
{ACAD_REACTORS
330
C
102
}
330
C
100
AcDbXrecord
280
     1
 90
        1
330
1DC
  0
DICTIONARY
  5
190
102
{ACAD_REACTORS
330
C
102
}
330
C
100
AcDbDictionary
281
     1
  3
CANNOSCALE
350
1DF
  3
CMLEADERSTYLE
350
1E1
  3
CTABLESTYLE
350
1E0
  3
DIMASSOC
350
194
  3
HIDETEXT
350
195
  3
MSLTSCALE
350
193
  0
DICTIONARY
  5
1DE
102
{ACAD_REACTORS
330
C
102
}
330
C
100
AcDbDictionary
281
     1
  0
DICTIONARY
  5
1E5
102
{ACAD_REACTORS
330
1E4
102
}
330
1E4
100
AcDbDictionary
281
     1
  0
SORTENTSTABLE
  5
292
102
{ACAD_REACTORS
330
291
102
}
330
291
100
AcDbSortentsTable
330
1D
331
282
  5
284
331
283
  5
285
331
284
  5
286
331
285
  5
287
331
286
  5
288
331
287
  5
289
331
288
  5
28A
331
289
  5
290
331
28A
  5
293
331
0
  5
282
331
293
  5
283
  0
LAYOUT
  5
1C
102
{ACAD_REACTORS
330
1A
102
}
330
1A
100
AcDbPlotSettings
  1

  2
none_device
  4

  6

 40
0.0
 41
0.0
 42
0.0
 43
0.0
 44
0.0
 45
0.0
 46
0.0
 47
0.0
 48
0.0
 49
0.0
140
0.0
141
0.0
142
1.0
143
1.0
 70
   688
 72
     0
 73
     0
 74
     5
  7

 75
    16
 76
     0
 77
     2
 78
   300
147
1.0
148
0.0
149
0.0
100
AcDbLayout
  1
Layout1
 70
     1
 71
     1
 10
0.0
 20
0.0
 11
12.0
 21
9.0
 12
0.0
 22
0.0
 32
0.0
 14
1.000000000000000E+20
 24
1.000000000000000E+20
 34
1.000000000000000E+20
 15
-1.000000000000000E+20
 25
-1.000000000000000E+20
 35
-1.000000000000000E+20
146
0.0
 13
0.0
 23
0.0
 33
0.0
 16
1.0
 26
0.0
 36
0.0
 17
0.0
 27
1.0
 37
0.0
 76
     0
330
1B
  0
LAYOUT
  5
1E
102
{ACAD_REACTORS
330
1A
102
}
330
1A
100
AcDbPlotSettings
  1

  2
none_device
  4

  6

 40
0.0
 41
0.0
 42
0.0
 43
0.0
 44
0.0
 45
0.0
 46
0.0
 47
0.0
 48
0.0
 49
0.0
140
0.0
141
0.0
142
1.0
143
1.0
 70
  1712
 72
     0
 73
     0
 74
     0
  7

 75
     0
 76
     0
 77
     2
 78
   300
147
1.0
148
0.0
149
0.0
100
AcDbLayout
  1
Model
 70
     1
 71
     0
 10
0.0
 20
0.0
 11
12.0
 21
9.0
 12
0.0
 22
0.0
 32
0.0
 14
-23.3955562206401
 24
-31.78951269747645
 34
0.0
 15
32.95832278918201
 25
29.37506330098901
 35
0.0
146
0.0
 13
0.0
 23
0.0
 33
0.0
 16
1.0
 26
0.0
 36
0.0
 17
0.0
 27
1.0
 37
0.0
 76
     0
330
1D
331
148
  0
MATERIAL
  5
187
102
{ACAD_REACTORS
330
185
102
}
330
185
100
AcDbMaterial
  1
ByBlock
 72
     1
 94
      127
  0
MATERIAL
  5
186
102
{ACAD_REACTORS
330
185
102
}
330
185
100
AcDbMaterial
  1
ByLayer
 72
     1
 94
      127
  0
MATERIAL
  5
188
102
{ACAD_REACTORS
330
185
102
}
330
185
100
AcDbMaterial
  1
Global
 72
     1
 94
      127
  0
MLEADERSTYLE
  5
1DD
102
{ACAD_REACTORS
330
192
102
}
330
192
100
AcDbMLeaderStyle
179
     2
170
     2
171
     1
172
     0
 90
        2
 40
0.0
 41
0.0
173
     1
 91
-1056964608
340
14
 92
       -2
290
     1
 42
0.09
291
     1
 43
0.36
  3
Standard
341
0
 44
0.18
300

342
11
174
     1
178
     1
175
     1
176
     0
 93
-1056964608
 45
0.18
292
     0
297
     0
 46
0.18
343
0
 94
-1056964608
 47
1.0
 49
1.0
140
1.0
293
     1
141
0.0
294
     1
177
     0
142
1.0
295
     0
296
     0
143
0.125
271
     0
272
     9
273
     9
298
     0
  0
MLINESTYLE
  5
18
102
{ACAD_REACTORS
330
17
102
}
330
17
100
AcDbMlineStyle
  2
Standard
 70
     0
  3

 62
   256
 51
90.0
 52
90.0
 71
     2
 49
0.5
 62
   256
  6
BYLAYER
 49
-0.5
 62
   256
  6
BYLAYER
  0
ACDBPLACEHOLDER
  5
F
102
{ACAD_REACTORS
330
E
102
}
330
E
  0
SCALE
  5
14F
102
{ACAD_REACTORS
330
14E
102
}
330
14E
100
AcDbScale
 70
     0
300
1:1
140
1.0
141
1.0
290
     1
  0
SCALE
  5
150
102
{ACAD_REACTORS
330
14E
102
}
330
14E
100
AcDbScale
 70
     0
300
1:2
140
1.0
141
2.0
290
     0
  0
SCALE
  5
151
102
{ACAD_REACTORS
330
14E
102
}
330
14E
100
AcDbScale
 70
     0
300
1:4
140
1.0
141
4.0
290
     0
  0
SCALE
  5
152
102
{ACAD_REACTORS
330
14E
102
}
330
14E
100
AcDbScale
 70
     0
300
1:5
140
1.0
141
5.0
290
     0
  0
SCALE
  5
153
102
{ACAD_REACTORS
330
14E
102
}
330
14E
100
AcDbScale
 70
     0
300
1:8
140
1.0
141
8.0
290
     0
  0
SCALE
  5
154
102
{ACAD_REACTORS
330
14E
102
}
330
14E
100
AcDbScale
 70
     0
300
1:10
140
1.0
141
10.0
290
     0
  0
SCALE
  5
155
102
{ACAD_REACTORS
330
14E
102
}
330
14E
100
AcDbScale
 70
     0
300
1:16
140
1.0
141
16.0
290
     0
  0
SCALE
  5
156
102
{ACAD_REACTORS
330
14E
102
}
330
14E
100
AcDbScale
 70
     0
300
1:20
140
1.0
141
20.0
290
     0
  0
SCALE
  5
157
102
{ACAD_REACTORS
330
14E
102
}
330
14E
100
AcDbScale
 70
     0
300
1:30
140
1.0
141
30.0
290
     0
  0
SCALE
  5
158
102
{ACAD_REACTORS
330
14E
102
}
330
14E
100
AcDbScale
 70
     0
300
1:40
140
1.0
141
40.0
290
     0
  0
SCALE
  5
159
102
{ACAD_REACTORS
330
14E
102
}
330
14E
100
AcDbScale
 70
     0
300
1:50
140
1.0
141
50.0
290
     0
  0
SCALE
  5
15A
102
{ACAD_REACTORS
330
14E
102
}
330
14E
100
AcDbScale
 70
     0
300
1:100
140
1.0
141
100.0
290
     0
  0
SCALE
  5
15B
102
{ACAD_REACTORS
330
14E
102
}
330
14E
100
AcDbScale
 70
     0
300
2:1
140
2.0
141
1.0
290
     0
  0
SCALE
  5
15C
102
{ACAD_REACTORS
330
14E
102
}
330
14E
100
AcDbScale
 70
     0
300
4:1
140
4.0
141
1.0
290
     0
  0
SCALE
  5
15D
102
{ACAD_REACTORS
330
14E
102
}
330
14E
100
AcDbScale
 70
     0
300
8:1
140
8.0
141
1.0
290
     0
  0
SCALE
  5
15E
102
{ACAD_REACTORS
330
14E
102
}
330
14E
100
AcDbScale
 70
     0
300
10:1
140
10.0
141
1.0
290
     0
  0
SCALE
  5
15F
102
{ACAD_REACTORS
330
14E
102
}
330
14E
100
AcDbScale
 70
     0
300
100:1
140
100.0
141
1.0
290
     0
  0
SCALE
  5
160
102
{ACAD_REACTORS
330
14E
102
}
330
14E
100
AcDbScale
 70
     0
300
1/128" = 1'-0"
140
0.0078125
141
12.0
290
     0
  0
SCALE
  5
161
102
{ACAD_REACTORS
330
14E
102
}
330
14E
100
AcDbScale
 70
     0
300
1/64" = 1'-0"
140
0.015625
141
12.0
290
     0
  0
SCALE
  5
162
102
{ACAD_REACTORS
330
14E
102
}
330
14E
100
AcDbScale
 70
     0
300
1/32" = 1'-0"
140
0.03125
141
12.0
290
     0
  0
SCALE
  5
163
102
{ACAD_REACTORS
330
14E
102
}
330
14E
100
AcDbScale
 70
     0
300
1/16" = 1'-0"
140
0.0625
141
12.0
290
     0
  0
SCALE
  5
164
102
{ACAD_REACTORS
330
14E
102
}
330
14E
100
AcDbScale
 70
     0
300
3/32" = 1'-0"
140
0.09375
141
12.0
290
     0
  0
SCALE
  5
165
102
{ACAD_REACTORS
330
14E
102
}
330
14E
100
AcDbScale
 70
     0
300
1/8" = 1'-0"
140
0.125
141
12.0
290
     0
  0
SCALE
  5
166
102
{ACAD_REACTORS
330
14E
102
}
330
14E
100
AcDbScale
 70
     0
300
3/16" = 1'-0"
140
0.1875
141
12.0
290
     0
  0
SCALE
  5
167
102
{ACAD_REACTORS
330
14E
102
}
330
14E
100
AcDbScale
 70
     0
300
1/4" = 1'-0"
140
0.25
141
12.0
290
     0
  0
SCALE
  5
168
102
{ACAD_REACTORS
330
14E
102
}
330
14E
100
AcDbScale
 70
     0
300
3/8" = 1'-0"
140
0.375
141
12.0
290
     0
  0
SCALE
  5
169
102
{ACAD_REACTORS
330
14E
102
}
330
14E
100
AcDbScale
 70
     0
300
1/2" = 1'-0"
140
0.5
141
12.0
290
     0
  0
SCALE
  5
16A
102
{ACAD_REACTORS
330
14E
102
}
330
14E
100
AcDbScale
 70
     0
300
3/4" = 1'-0"
140
0.75
141
12.0
290
     0
  0
SCALE
  5
16B
102
{ACAD_REACTORS
330
14E
102
}
330
14E
100
AcDbScale
 70
     0
300
1" = 1'-0"
140
1.0
141
12.0
290
     0
  0
SCALE
  5
16C
102
{ACAD_REACTORS
330
14E
102
}
330
14E
100
AcDbScale
 70
     0
300
1-1/2" = 1'-0"
140
1.5
141
12.0
290
     0
  0
SCALE
  5
16D
102
{ACAD_REACTORS
330
14E
102
}
330
14E
100
AcDbScale
 70
     0
300
3" = 1'-0"
140
3.0
141
12.0
290
     0
  0
SCALE
  5
16E
102
{ACAD_REACTORS
330
14E
102
}
330
14E
100
AcDbScale
 70
     0
300
6" = 1'-0"
140
6.0
141
12.0
290
     0
  0
SCALE
  5
16F
102
{ACAD_REACTORS
330
14E
102
}
330
14E
100
AcDbScale
 70
     0
300
1'-0" = 1'-0"
140
12.0
141
12.0
290
     0
  0
TABLESTYLE
  5
1DC
102
{ACAD_REACTORS
330
1DB
102
}
102
{ACAD_XDICTIONARY
360
2B4
102
}
330
1DB
100
AcDbTableStyle
  3
Standard
 70
     0
 71
     0
 40
0.06
 41
0.06
280
     0
281
     0
  7
Standard
140
0.18
170
     2
 62
     0
 63
   257
283
     0
 90
        4
 91
        0
  1

274
    -2
284
     1
 64
     0
275
    -2
285
     1
 65
     0
276
    -2
286
     1
 66
     0
277
    -2
287
     1
 67
     0
278
    -2
288
     1
 68
     0
279
    -2
289
     1
 69
     0
  7
Standard
140
0.25
170
     5
 62
     0
 63
   257
283
     0
 90
        4
 91
        0
  1

274
    -2
284
     1
 64
     0
275
    -2
285
     1
 65
     0
276
    -2
286
     1
 66
     0
277
    -2
287
     1
 67
     0
278
    -2
288
     1
 68
     0
279
    -2
289
     1
 69
     0
  7
Standard
140
0.18
170
     5
 62
     0
 63
   257
283
     0
 90
        4
 91
        0
  1

274
    -2
284
     1
 64
     0
275
    -2
285
     1
 65
     0
276
    -2
286
     1
 66
     0
277
    -2
287
     1
 67
     0
278
    -2
288
     1
 68
     0
279
    -2
289
     1
 69
     0
  0
VISUALSTYLE
  5
179
102
{ACAD_REACTORS
330
174
102
}
330
174
100
AcDbVisualStyle
  2
2dWireframe
 70
     4
177
     3
291
     0
 70
    58
 90
        0
176
     1
 90
        2
176
     1
 90
        0
176
     1
 90
        0
176
     1
 40
-0.6
176
     1
 40
-30.0
176
     1
 62
     7
176
     1
 90
        1
176
     1
 90
        4
176
     1
 62
     7
176
     1
 62
   257
176
     1
 90
        1
176
     1
 90
        1
176
     1
 40
1.0
176
     1
 90
        0
176
     1
 62
   257
176
     1
 40
1.0
176
     1
 90
        1
176
     1
 90
        6
176
     1
 90
        2
176
     1
 62
     7
176
     1
 90
        5
176
     1
 90
        0
176
     1
 90
        0
176
     1
290
     0
176
     1
 90
        1
176
     1
 40
0.0
176
     1
 90
        0
176
     1
290
     1
176
     1
290
     1
176
     1
290
     0
176
     1
290
     0
176
     1
290
     0
176
     1
290
     0
176
     1
290
     0
176
     1
290
     0
176
     1
290
     0
176
     1
 90
       50
176
     1
 40
0.0
176
     1
 40
1.0
176
     1
 90
        0
176
     1
 62
    18
420
        0
176
     1
 90
       50
176
     1
 90
        3
176
     1
 62
     5
420
      255
176
     1
290
     0
176
     1
 90
       50
176
     1
 90
       50
176
     1
 90
       50
176
     1
290
     0
176
     1
 90
       50
176
     1
 62
   256
176
     0
 40
1.0
176
     0
 90
        2
176
     1
  1
strokes_ogs.tif
176
     1
290
     0
176
     1
 40
1.0
176
     1
 40
1.0
176
     1
  0
VISUALSTYLE
  5
17B
102
{ACAD_REACTORS
330
174
102
}
330
174
100
AcDbVisualStyle
  2
3D Hidden
 70
     6
177
     3
291
     0
 70
    58
 90
        1
176
     1
 90
        2
176
     1
 90
        2
176
     1
 90
        0
176
     1
 40
-0.6
176
     1
 40
-30.0
176
     1
 62
     7
176
     1
 90
        2
176
     1
 90
        2
176
     1
 62
     7
176
     1
 62
   257
176
     1
 90
        2
176
     1
 90
        1
176
     1
 40
40.0
176
     1
 90
        0
176
     1
 62
   257
176
     1
 40
1.0
176
     1
 90
        1
176
     1
 90
        6
176
     1
 90
        2
176
     1
 62
     7
176
     1
 90
        3
176
     1
 90
        0
176
     1
 90
        0
176
     1
290
     0
176
     1
 90
        1
176
     1
 40
0.0
176
     1
 90
        0
176
     1
290
     0
176
     1
290
     1
176
     1
290
     1
176
     1
290
     0
176
     1
290
     0
176
     1
290
     0
176
     1
290
     0
176
     1
290
     0
176
     1
290
     0
176
     1
 90
       50
176
     1
 40
0.0
176
     1
 40
1.0
176
     1
 90
        0
176
     1
 62
    18
420
        0
176
     1
 90
       50
176
     1
 90
        3
176
     1
 62
     5
420
      255
176
     1
290
     0
176
     1
 90
       50
176
     1
 90
       50
176
     1
 90
       50
176
     1
290
     0
176
     1
 90
       50
176
     1
 62
   256
176
     0
 40
1.0
176
     0
 90
        2
176
     1
  1
strokes_ogs.tif
176
     1
290
     0
176
     1
 40
1.0
176
     1
 40
1.0
176
     1
  0
VISUALSTYLE
  5
17A
102
{ACAD_REACTORS
330
174
102
}
330
174
100
AcDbVisualStyle
  2
3dWireframe
 70
     5
177
     3
291
     0
 70
    58
 90
        0
176
     1
 90
        2
176
     1
 90
        0
176
     1
 90
        0
176
     1
 40
-0.6
176
     1
 40
-30.0
176
     1
 62
     7
176
     1
 90
        1
176
     1
 90
        4
176
     1
 62
     7
176
     1
 62
   257
176
     1
 90
        1
176
     1
 90
        1
176
     1
 40
1.0
176
     1
 90
        0
176
     1
 62
   257
176
     1
 40
1.0
176
     1
 90
        1
176
     1
 90
        6
176
     1
 90
        2
176
     1
 62
     7
176
     1
 90
        5
176
     1
 90
        0
176
     1
 90
        0
176
     1
290
     0
176
     1
 90
        1
176
     1
 40
0.0
176
     1
 90
        0
176
     1
290
     0
176
     1
290
     1
176
     1
290
     1
176
     1
290
     0
176
     1
290
     0
176
     1
290
     0
176
     1
290
     0
176
     1
290
     0
176
     1
290
     0
176
     1
 90
       50
176
     1
 40
0.0
176
     1
 40
1.0
176
     1
 90
        0
176
     1
 62
    18
420
        0
176
     1
 90
       50
176
     1
 90
        3
176
     1
 62
     5
420
      255
176
     1
290
     0
176
     1
 90
       50
176
     1
 90
       50
176
     1
 90
       50
176
     1
290
     0
176
     1
 90
       50
176
     1
 62
   256
176
     0
 40
1.0
176
     0
 90
        2
176
     1
  1
strokes_ogs.tif
176
     1
290
     0
176
     1
 40
1.0
176
     1
 40
1.0
176
     1
  0
VISUALSTYLE
  5
17C
102
{ACAD_REACTORS
330
174
102
}
330
174
100
AcDbVisualStyle
  2
Basic
 70
     7
177
     3
291
     1
 70
    58
 90
        1
176
     1
 90
        0
176
     1
 90
        1
176
     1
 90
        0
176
     1
 40
-0.6
176
     1
 40
-30.0
176
     1
 62
     7
176
     1
 90
        0
176
     1
 90
        4
176
     1
 62
     7
176
     1
 62
   257
176
     1
 90
        1
176
     1
 90
        1
176
     1
 40
1.0
176
     1
 90
        8
176
     1
 62
     7
176
     1
 40
1.0
176
     1
 90
        1
176
     1
 90
        6
176
     1
 90
        2
176
     1
 62
     7
176
     1
 90
        5
176
     1
 90
        0
176
     1
 90
        0
176
     1
290
     0
176
     1
 90
        1
176
     1
 40
0.0
176
     1
 90
        0
176
     1
290
     0
176
     1
290
     1
176
     1
290
     1
176
     1
290
     0
176
     1
290
     0
176
     1
290
     0
176
     1
290
     0
176
     1
290
     0
176
     1
290
     0
176
     1
 90
       50
176
     1
 40
0.0
176
     1
 40
1.0
176
     1
 90
        0
176
     1
 62
    18
420
        0
176
     1
 90
       50
176
     1
 90
        3
176
     1
 62
     5
420
      255
176
     1
290
     0
176
     1
 90
       50
176
     1
 90
       50
176
     1
 90
       50
176
     1
290
     0
176
     1
 90
       50
176
     1
 62
   256
176
     0
 40
1.0
176
     0
 90
        2
176
     1
  1
strokes_ogs.tif
176
     1
290
     0
176
     1
 40
1.0
176
     1
 40
1.0
176
     1
  0
VISUALSTYLE
  5
180
102
{ACAD_REACTORS
330
174
102
}
330
174
100
AcDbVisualStyle
  2
Brighten
 70
    12
177
     3
291
     1
 70
    58
 90
        2
176
     1
 90
        2
176
     1
 90
        0
176
     1
 90
        0
176
     1
 40
-0.6
176
     1
 40
-30.0
176
     1
 62
     7
176
     1
 90
        1
176
     1
 90
        4
176
     1
 62
     7
176
     1
 62
   257
176
     1
 90
        1
176
     1
 90
        1
176
     1
 40
1.0
176
     1
 90
        8
176
     1
 62
     7
176
     1
 40
1.0
176
     1
 90
        1
176
     1
 90
        6
176
     1
 90
        2
176
     1
 62
     7
176
     1
 90
        5
176
     1
 90
        0
176
     1
 90
        0
176
     1
290
     0
176
     1
 90
        1
176
     1
 40
50.0
176
     1
 90
        0
176
     1
290
     0
176
     1
290
     1
176
     1
290
     1
176
     1
290
     0
176
     1
290
     0
176
     1
290
     0
176
     1
290
     0
176
     1
290
     0
176
     1
290
     0
176
     1
 90
       50
176
     1
 40
0.0
176
     1
 40
1.0
176
     1
 90
        0
176
     1
 62
    18
420
        0
176
     1
 90
       50
176
     1
 90
        3
176
     1
 62
     5
420
      255
176
     1
290
     0
176
     1
 90
       50
176
     1
 90
       50
176
     1
 90
       50
176
     1
290
     0
176
     1
 90
       50
176
     1
 62
   256
176
     0
 40
1.0
176
     0
 90
        2
176
     1
  1
strokes_ogs.tif
176
     1
290
     0
176
     1
 40
1.0
176
     1
 40
1.0
176
     1
  0
VISUALSTYLE
  5
184
102
{ACAD_REACTORS
330
174
102
}
330
174
100
AcDbVisualStyle
  2
ColorChange
 70
    16
177
     3
291
     1
 70
    58
 90
        2
176
     1
 90
        2
176
     1
 90
        3
176
     1
 90
        0
176
     1
 40
-0.6
176
     1
 40
-30.0
176
     1
 62
     8
176
     1
 90
        1
176
     1
 90
        4
176
     1
 62
     7
176
     1
 62
   257
176
     1
 90
        1
176
     1
 90
        1
176
     1
 40
1.0
176
     1
 90
        8
176
     1
 62
     8
176
     1
 40
1.0
176
     1
 90
        1
176
     1
 90
        6
176
     1
 90
        2
176
     1
 62
     7
176
     1
 90
        5
176
     1
 90
        0
176
     1
 90
        0
176
     1
290
     0
176
     1
 90
        1
176
     1
 40
0.0
176
     1
 90
        0
176
     1
290
     0
176
     1
290
     1
176
     1
290
     1
176
     1
290
     0
176
     1
290
     0
176
     1
290
     0
176
     1
290
     0
176
     1
290
     0
176
     1
290
     0
176
     1
 90
       50
176
     1
 40
0.0
176
     1
 40
1.0
176
     1
 90
        0
176
     1
 62
    18
420
        0
176
     1
 90
       50
176
     1
 90
        3
176
     1
 62
     5
420
      255
176
     1
290
     0
176
     1
 90
       50
176
     1
 90
       50
176
     1
 90
       50
176
     1
290
     0
176
     1
 90
       50
176
     1
 62
   256
176
     0
 40
1.0
176
     0
 90
        2
176
     1
  1
strokes_ogs.tif
176
     1
290
     0
176
     1
 40
1.0
176
     1
 40
1.0
176
     1
  0
VISUALSTYLE
  5
17E
102
{ACAD_REACTORS
330
174
102
}
330
174
100
AcDbVisualStyle
  2
Conceptual
 70
     9
177
     3
291
     0
 70
    58
 90
        3
176
     1
 90
        2
176
     1
 90
        0
176
     1
 90
        0
176
     1
 40
-0.6
176
     1
 40
-30.0
176
     1
 62
     7
176
     1
 90
        2
176
     1
 90
        2
176
     1
 62
     7
176
     1
 62
   257
176
     1
 90
        1
176
     1
 90
        1
176
     1
 40
40.0
176
     1
 90
        8
176
     1
 62
     7
176
     1
 40
1.0
176
     1
 90
        1
176
     1
 90
        6
176
     1
 90
        2
176
     1
 62
     7
176
     1
 90
        3
176
     1
 90
        0
176
     1
 90
        0
176
     1
290
     0
176
     1
 90
        1
176
     1
 40
0.0
176
     1
 90
        0
176
     1
290
     0
176
     1
290
     1
176
     1
290
     1
176
     1
290
     0
176
     1
290
     0
176
     1
290
     0
176
     1
290
     0
176
     1
290
     0
176
     1
290
     0
176
     1
 90
       50
176
     1
 40
0.0
176
     1
 40
1.0
176
     1
 90
        0
176
     1
 62
    18
420
        0
176
     1
 90
       50
176
     1
 90
        3
176
     1
 62
     5
420
      255
176
     1
290
     0
176
     1
 90
       50
176
     1
 90
       50
176
     1
 90
       50
176
     1
290
     0
176
     1
 90
       50
176
     1
 62
   256
176
     0
 40
1.0
176
     0
 90
        2
176
     1
  1
strokes_ogs.tif
176
     1
290
     0
176
     1
 40
1.0
176
     1
 40
1.0
176
     1
  0
VISUALSTYLE
  5
17F
102
{ACAD_REACTORS
330
174
102
}
330
174
100
AcDbVisualStyle
  2
Dim
 70
    11
177
     3
291
     1
 70
    58
 90
        2
176
     1
 90
        2
176
     1
 90
        0
176
     1
 90
        0
176
     1
 40
-0.6
176
     1
 40
-30.0
176
     1
 62
     7
176
     1
 90
        1
176
     1
 90
        4
176
     1
 62
     7
176
     1
 62
   257
176
     1
 90
        1
176
     1
 90
        1
176
     1
 40
1.0
176
     1
 90
        8
176
     1
 62
     7
176
     1
 40
1.0
176
     1
 90
        1
176
     1
 90
        6
176
     1
 90
        2
176
     1
 62
     7
176
     1
 90
        5
176
     1
 90
        0
176
     1
 90
        0
176
     1
290
     0
176
     1
 90
        1
176
     1
 40
-50.0
176
     1
 90
        0
176
     1
290
     0
176
     1
290
     1
176
     1
290
     1
176
     1
290
     0
176
     1
290
     0
176
     1
290
     0
176
     1
290
     0
176
     1
290
     0
176
     1
290
     0
176
     1
 90
       50
176
     1
 40
0.0
176
     1
 40
1.0
176
     1
 90
        0
176
     1
 62
    18
420
        0
176
     1
 90
       50
176
     1
 90
        3
176
     1
 62
     5
420
      255
176
     1
290
     0
176
     1
 90
       50
176
     1
 90
       50
176
     1
 90
       50
176
     1
290
     0
176
     1
 90
       50
176
     1
 62
   256
176
     0
 40
1.0
176
     0
 90
        2
176
     1
  1
strokes_ogs.tif
176
     1
290
     0
176
     1
 40
1.0
176
     1
 40
1.0
176
     1
  0
VISUALSTYLE
  5
1D5
102
{ACAD_REACTORS
330
174
102
}
330
174
100
AcDbVisualStyle
  2
EdgeColorOff
 70
    22
177
     3
291
     1
 70
    58
 90
        2
176
     0
 90
        2
176
     0
 90
        0
176
     0
 90
        0
176
     0
 40
0.6
176
     0
 40
30.0
176
     0
 62
     7
420
 16777215
176
     0
 90
        1
176
     0
 90
        4
176
     0
 62
     7
176
     0
 62
   257
176
     0
 90
        1
176
     0
 90
        1
176
     0
 40
1.0
176
     0
 90
        8
176
     2
 62
     7
176
     0
 40
1.0
176
     0
 90
        1
176
     0
 90
        6
176
     0
 90
        2
176
     0
 62
     7
176
     0
 90
        5
176
     0
 90
        0
176
     0
 90
        0
176
     0
290
     0
176
     0
 90
        1
176
     0
 40
0.0
176
     0
 90
        0
176
     0
290
     0
176
     0
290
     1
176
     0
290
     1
176
     0
290
     0
176
     0
290
     0
176
     0
290
     0
176
     0
290
     0
176
     0
290
     0
176
     0
290
     0
176
     0
 90
       50
176
     0
 40
0.0
176
     0
 40
1.0
176
     0
 90
        0
176
     0
 62
    18
420
        0
176
     0
 90
       50
176
     0
 90
        3
176
     0
 62
     5
420
      255
176
     0
290
     0
176
     0
 90
       50
176
     0
 90
       50
176
     0
 90
       50
176
     0
290
     0
176
     0
 90
       50
176
     0
 62
   256
176
     0
 40
1.0
176
     0
 90
        2
176
     0
  1
strokes_ogs.tif
176
     0
290
     0
176
     0
 40
1.0
176
     0
 40
1.0
176
     0
  0
VISUALSTYLE
  5
183
102
{ACAD_REACTORS
330
174
102
}
330
174
100
AcDbVisualStyle
  2
Facepattern
 70
    15
177
     3
291
     1
 70
    58
 90
        2
176
     1
 90
        2
176
     1
 90
        0
176
     1
 90
        0
176
     1
 40
-0.6
176
     1
 40
-30.0
176
     1
 62
     7
176
     1
 90
        1
176
     1
 90
        4
176
     1
 62
     7
176
     1
 62
   257
176
     1
 90
        1
176
     1
 90
        1
176
     1
 40
1.0
176
     1
 90
        8
176
     1
 62
     7
176
     1
 40
1.0
176
     1
 90
        1
176
     1
 90
        6
176
     1
 90
        2
176
     1
 62
     7
176
     1
 90
        5
176
     1
 90
        0
176
     1
 90
        0
176
     1
290
     0
176
     1
 90
        1
176
     1
 40
0.0
176
     1
 90
        0
176
     1
290
     0
176
     1
290
     1
176
     1
290
     1
176
     1
290
     0
176
     1
290
     0
176
     1
290
     0
176
     1
290
     0
176
     1
290
     0
176
     1
290
     0
176
     1
 90
       50
176
     1
 40
0.0
176
     1
 40
1.0
176
     1
 90
        0
176
     1
 62
    18
420
        0
176
     1
 90
       50
176
     1
 90
        3
176
     1
 62
     5
420
      255
176
     1
290
     0
176
     1
 90
       50
176
     1
 90
       50
176
     1
 90
       50
176
     1
290
     0
176
     1
 90
       50
176
     1
 62
   256
176
     0
 40
1.0
176
     0
 90
        2
176
     1
  1
strokes_ogs.tif
176
     1
290
     0
176
     1
 40
1.0
176
     1
 40
1.0
176
     1
  0
VISUALSTYLE
  5
175
102
{ACAD_REACTORS
330
174
102
}
330
174
100
AcDbVisualStyle
  2
Flat
 70
     0
177
     3
291
     1
 70
    58
 90
        2
176
     1
 90
        1
176
     1
 90
        1
176
     1
 90
        2
176
     1
 40
-0.6
176
     1
 40
30.0
176
     1
 62
     7
176
     1
 90
        0
176
     1
 90
        4
176
     1
 62
     7
176
     1
 62
   257
176
     1
 90
        1
176
     1
 90
        1
176
     1
 40
1.0
176
     1
 90
        8
176
     1
 62
     7
176
     1
 40
1.0
176
     1
 90
        1
176
     1
 90
        6
176
     1
 90
        2
176
     1
 62
     7
176
     1
 90
        5
176
     1
 90
        0
176
     1
 90
        0
176
     1
290
     0
176
     1
 90
       13
176
     1
 40
0.0
176
     1
 90
        0
176
     1
290
     0
176
     1
290
     1
176
     1
290
     1
176
     1
290
     0
176
     1
290
     0
176
     1
290
     0
176
     1
290
     0
176
     1
290
     0
176
     1
290
     0
176
     1
 90
       50
176
     1
 40
0.0
176
     1
 40
1.0
176
     1
 90
        0
176
     1
 62
    18
420
        0
176
     1
 90
       50
176
     1
 90
        3
176
     1
 62
     5
420
      255
176
     1
290
     0
176
     1
 90
       50
176
     1
 90
       50
176
     1
 90
       50
176
     1
290
     0
176
     1
 90
       50
176
     1
 62
   256
176
     0
 40
1.0
176
     0
 90
        2
176
     1
  1
strokes_ogs.tif
176
     1
290
     0
176
     1
 40
1.0
176
     1
 40
1.0
176
     1
  0
VISUALSTYLE
  5
176
102
{ACAD_REACTORS
330
174
102
}
330
174
100
AcDbVisualStyle
  2
FlatWithEdges
 70
     1
177
     3
291
     1
 70
    58
 90
        2
176
     1
 90
        1
176
     1
 90
        1
176
     1
 90
        2
176
     1
 40
-0.6
176
     1
 40
30.0
176
     1
 62
     7
176
     1
 90
        1
176
     1
 90
        4
176
     1
 62
     7
176
     1
 62
   257
176
     1
 90
        1
176
     1
 90
        1
176
     1
 40
1.0
176
     1
 90
        0
176
     1
 62
   257
176
     1
 40
1.0
176
     1
 90
        1
176
     1
 90
        6
176
     1
 90
        2
176
     1
 62
     7
176
     1
 90
        5
176
     1
 90
        0
176
     1
 90
        0
176
     1
290
     0
176
     1
 90
       13
176
     1
 40
0.0
176
     1
 90
        0
176
     1
290
     0
176
     1
290
     1
176
     1
290
     1
176
     1
290
     0
176
     1
290
     0
176
     1
290
     0
176
     1
290
     0
176
     1
290
     0
176
     1
290
     0
176
     1
 90
       50
176
     1
 40
0.0
176
     1
 40
1.0
176
     1
 90
        0
176
     1
 62
    18
420
        0
176
     1
 90
       50
176
     1
 90
        3
176
     1
 62
     5
420
      255
176
     1
290
     0
176
     1
 90
       50
176
     1
 90
       50
176
     1
 90
       50
176
     1
290
     0
176
     1
 90
       50
176
     1
 62
   256
176
     0
 40
1.0
176
     0
 90
        2
176
     1
  1
strokes_ogs.tif
176
     1
290
     0
176
     1
 40
1.0
176
     1
 40
1.0
176
     1
  0
VISUALSTYLE
  5
177
102
{ACAD_REACTORS
330
174
102
}
330
174
100
AcDbVisualStyle
  2
Gouraud
 70
     2
177
     3
291
     1
 70
    58
 90
        2
176
     1
 90
        2
176
     1
 90
        1
176
     1
 90
        2
176
     1
 40
-0.6
176
     1
 40
30.0
176
     1
 62
     7
176
     1
 90
        0
176
     1
 90
        4
176
     1
 62
     7
176
     1
 62
   257
176
     1
 90
        1
176
     1
 90
        1
176
     1
 40
1.0
176
     1
 90
        0
176
     1
 62
     7
176
     1
 40
1.0
176
     1
 90
        1
176
     1
 90
        6
176
     1
 90
        2
176
     1
 62
     7
176
     1
 90
        5
176
     1
 90
        0
176
     1
 90
        0
176
     1
290
     0
176
     1
 90
       13
176
     1
 40
0.0
176
     1
 90
        0
176
     1
290
     0
176
     1
290
     1
176
     1
290
     1
176
     1
290
     0
176
     1
290
     0
176
     1
290
     0
176
     1
290
     0
176
     1
290
     0
176
     1
290
     0
176
     1
 90
       50
176
     1
 40
0.0
176
     1
 40
1.0
176
     1
 90
        0
176
     1
 62
    18
420
        0
176
     1
 90
       50
176
     1
 90
        3
176
     1
 62
     5
420
      255
176
     1
290
     0
176
     1
 90
       50
176
     1
 90
       50
176
     1
 90
       50
176
     1
290
     0
176
     1
 90
       50
176
     1
 62
   256
176
     0
 40
1.0
176
     0
 90
        2
176
     1
  1
strokes_ogs.tif
176
     1
290
     0
176
     1
 40
1.0
176
     1
 40
1.0
176
     1
  0
VISUALSTYLE
  5
178
102
{ACAD_REACTORS
330
174
102
}
330
174
100
AcDbVisualStyle
  2
GouraudWithEdges
 70
     3
177
     3
291
     1
 70
    58
 90
        2
176
     1
 90
        2
176
     1
 90
        1
176
     1
 90
        2
176
     1
 40
-0.6
176
     1
 40
30.0
176
     1
 62
     7
176
     1
 90
        1
176
     1
 90
        4
176
     1
 62
     7
176
     1
 62
   257
176
     1
 90
        1
176
     1
 90
        1
176
     1
 40
1.0
176
     1
 90
        0
176
     1
 62
   257
176
     1
 40
1.0
176
     1
 90
        1
176
     1
 90
        6
176
     1
 90
        2
176
     1
 62
     7
176
     1
 90
        5
176
     1
 90
        0
176
     1
 90
        0
176
     1
290
     0
176
     1
 90
       13
176
     1
 40
0.0
176
     1
 90
        0
176
     1
290
     0
176
     1
290
     1
176
     1
290
     1
176
     1
290
     0
176
     1
290
     0
176
     1
290
     0
176
     1
290
     0
176
     1
290
     0
176
     1
290
     0
176
     1
 90
       50
176
     1
 40
0.0
176
     1
 40
1.0
176
     1
 90
        0
176
     1
 62
    18
420
        0
176
     1
 90
       50
176
     1
 90
        3
176
     1
 62
     5
420
      255
176
     1
290
     0
176
     1
 90
       50
176
     1
 90
       50
176
     1
 90
       50
176
     1
290
     0
176
     1
 90
       50
176
     1
 62
   256
176
     0
 40
1.0
176
     0
 90
        2
176
     1
  1
strokes_ogs.tif
176
     1
290
     0
176
     1
 40
1.0
176
     1
 40
1.0
176
     1
  0
VISUALSTYLE
  5
1D2
102
{ACAD_REACTORS
330
174
102
}
330
174
100
AcDbVisualStyle
  2
Hidden
 70
     6
177
     3
291
     0
 70
    58
 90
        1
176
     1
 90
        2
176
     1
 90
        2
176
     1
 90
        0
176
     1
 40
0.6
176
     1
 40
30.0
176
     1
 62
     7
420
 16777215
176
     1
 90
        2
176
     1
 90
        2
176
     1
 62
     7
176
     1
 62
   257
176
     1
 90
        2
176
     1
 90
        1
176
     1
 40
40.0
176
     1
 90
        0
176
     1
 62
   257
176
     1
 40
1.0
176
     1
 90
        1
176
     1
 90
        6
176
     1
 90
        2
176
     1
 62
     7
176
     1
 90
        3
176
     1
 90
        0
176
     1
 90
        0
176
     1
290
     0
176
     1
 90
        1
176
     1
 40
0.0
176
     1
 90
        0
176
     1
290
     0
176
     1
290
     1
176
     1
290
     1
176
     1
290
     0
176
     1
290
     0
176
     1
290
     0
176
     1
290
     0
176
     1
290
     0
176
     1
290
     0
176
     1
 90
       50
176
     1
 40
0.0
176
     1
 40
1.0
176
     1
 90
        0
176
     1
 62
    18
420
        0
176
     1
 90
       50
176
     1
 90
        3
176
     1
 62
     5
420
      255
176
     1
290
     0
176
     1
 90
       50
176
     1
 90
       50
176
     1
 90
       50
176
     1
290
     0
176
     1
 90
       50
176
     1
 62
   256
176
     0
 40
1.0
176
     0
 90
        2
176
     1
  1
strokes_ogs.tif
176
     1
290
     0
176
     1
 40
1.0
176
     1
 40
1.0
176
     1
  0
VISUALSTYLE
  5
1D3
102
{ACAD_REACTORS
330
174
102
}
330
174
100
AcDbVisualStyle
  2
JitterOff
 70
    20
177
     3
291
     1
 70
    58
 90
        2
176
     0
 90
        2
176
     0
 90
        0
176
     0
 90
        0
176
     0
 40
0.6
176
     0
 40
30.0
176
     0
 62
     7
420
 16777215
176
     0
 90
        1
176
     0
 90
        4
176
     0
 62
     7
176
     0
 62
   257
176
     0
 90
        1
176
     0
 90
        1
176
     0
 40
1.0
176
     0
 90
       10
176
     2
 62
     7
176
     0
 40
1.0
176
     0
 90
        1
176
     0
 90
        6
176
     0
 90
        2
176
     0
 62
     7
176
     0
 90
        5
176
     0
 90
        0
176
     0
 90
        0
176
     0
290
     0
176
     0
 90
        1
176
     0
 40
0.0
176
     0
 90
        0
176
     0
290
     0
176
     0
290
     1
176
     0
290
     1
176
     0
290
     0
176
     0
290
     0
176
     0
290
     0
176
     0
290
     0
176
     0
290
     0
176
     0
290
     0
176
     0
 90
       50
176
     0
 40
0.0
176
     0
 40
1.0
176
     0
 90
        0
176
     0
 62
    18
420
        0
176
     0
 90
       50
176
     0
 90
        3
176
     0
 62
     5
420
      255
176
     0
290
     0
176
     0
 90
       50
176
     0
 90
       50
176
     0
 90
       50
176
     0
290
     0
176
     0
 90
       50
176
     0
 62
   256
176
     0
 40
1.0
176
     0
 90
        2
176
     0
  1
strokes_ogs.tif
176
     0
290
     0
176
     0
 40
1.0
176
     0
 40
1.0
176
     0
  0
VISUALSTYLE
  5
182
102
{ACAD_REACTORS
330
174
102
}
330
174
100
AcDbVisualStyle
  2
Linepattern
 70
    14
177
     3
291
     1
 70
    58
 90
        2
176
     1
 90
        2
176
     1
 90
        0
176
     1
 90
        0
176
     1
 40
-0.6
176
     1
 40
-30.0
176
     1
 62
     7
176
     1
 90
        1
176
     1
 90
        4
176
     1
 62
     7
176
     1
 62
   257
176
     1
 90
        7
176
     1
 90
        7
176
     1
 40
1.0
176
     1
 90
        8
176
     1
 62
     7
176
     1
 40
1.0
176
     1
 90
        1
176
     1
 90
        6
176
     1
 90
        2
176
     1
 62
     7
176
     1
 90
        5
176
     1
 90
        0
176
     1
 90
        0
176
     1
290
     0
176
     1
 90
        1
176
     1
 40
0.0
176
     1
 90
        0
176
     1
290
     0
176
     1
290
     1
176
     1
290
     1
176
     1
290
     0
176
     1
290
     0
176
     1
290
     0
176
     1
290
     0
176
     1
290
     0
176
     1
290
     0
176
     1
 90
       50
176
     1
 40
0.0
176
     1
 40
1.0
176
     1
 90
        0
176
     1
 62
    18
420
        0
176
     1
 90
       50
176
     1
 90
        3
176
     1
 62
     5
420
      255
176
     1
290
     0
176
     1
 90
       50
176
     1
 90
       50
176
     1
 90
       50
176
     1
290
     0
176
     1
 90
       50
176
     1
 62
   256
176
     0
 40
1.0
176
     0
 90
        2
176
     1
  1
strokes_ogs.tif
176
     1
290
     0
176
     1
 40
1.0
176
     1
 40
1.0
176
     1
  0
VISUALSTYLE
  5
1D4
102
{ACAD_REACTORS
330
174
102
}
330
174
100
AcDbVisualStyle
  2
OverhangOff
 70
    21
177
     3
291
     1
 70
    58
 90
        2
176
     0
 90
        2
176
     0
 90
        0
176
     0
 90
        0
176
     0
 40
0.6
176
     0
 40
30.0
176
     0
 62
     7
420
 16777215
176
     0
 90
        1
176
     0
 90
        4
176
     0
 62
     7
176
     0
 62
   257
176
     0
 90
        1
176
     0
 90
        1
176
     0
 40
1.0
176
     0
 90
        9
176
     2
 62
     7
176
     0
 40
1.0
176
     0
 90
        1
176
     0
 90
        6
176
     0
 90
        2
176
     0
 62
     7
176
     0
 90
        5
176
     0
 90
        0
176
     0
 90
        0
176
     0
290
     0
176
     0
 90
        1
176
     0
 40
0.0
176
     0
 90
        0
176
     0
290
     0
176
     0
290
     1
176
     0
290
     1
176
     0
290
     0
176
     0
290
     0
176
     0
290
     0
176
     0
290
     0
176
     0
290
     0
176
     0
290
     0
176
     0
 90
       50
176
     0
 40
0.0
176
     0
 40
1.0
176
     0
 90
        0
176
     0
 62
    18
420
        0
176
     0
 90
       50
176
     0
 90
        3
176
     0
 62
     5
420
      255
176
     0
290
     0
176
     0
 90
       50
176
     0
 90
       50
176
     0
 90
       50
176
     0
290
     0
176
     0
 90
       50
176
     0
 62
   256
176
     0
 40
1.0
176
     0
 90
        2
176
     0
  1
strokes_ogs.tif
176
     0
290
     0
176
     0
 40
1.0
176
     0
 40
1.0
176
     0
  0
VISUALSTYLE
  5
17D
102
{ACAD_REACTORS
330
174
102
}
330
174
100
AcDbVisualStyle
  2
Realistic
 70
     8
177
     3
291
     0
 70
    58
 90
        2
176
     1
 90
        2
176
     1
 90
        0
176
     1
 90
        0
176
     1
 40
-0.6
176
     1
 40
-30.0
176
     1
 62
     7
176
     1
 90
        1
176
     1
 90
        0
176
     1
 62
     7
176
     1
 62
   257
176
     1
 90
        1
176
     1
 90
        1
176
     1
 40
1.0
176
     1
 90
        8
176
     1
 62
     8
176
     1
 40
1.0
176
     1
 90
        1
176
     1
 90
        6
176
     1
 90
        2
176
     1
 62
     7
176
     1
 90
        5
176
     1
 90
        0
176
     1
 90
        0
176
     1
290
     0
176
     1
 90
       13
176
     1
 40
0.0
176
     1
 90
        0
176
     1
290
     0
176
     1
290
     1
176
     1
290
     1
176
     1
290
     0
176
     1
290
     0
176
     1
290
     0
176
     1
290
     0
176
     1
290
     0
176
     1
290
     0
176
     1
 90
       50
176
     1
 40
0.0
176
     1
 40
1.0
176
     1
 90
        0
176
     1
 62
    18
420
        0
176
     1
 90
       50
176
     1
 90
        3
176
     1
 62
     5
420
      255
176
     1
290
     0
176
     1
 90
       50
176
     1
 90
       50
176
     1
 90
       50
176
     1
290
     0
176
     1
 90
       50
176
     1
 62
   256
176
     0
 40
1.0
176
     0
 90
        2
176
     1
  1
strokes_ogs.tif
176
     1
290
     0
176
     1
 40
1.0
176
     1
 40
1.0
176
     1
  0
VISUALSTYLE
  5
1DA
102
{ACAD_REACTORS
330
174
102
}
330
174
100
AcDbVisualStyle
  2
Shaded
 70
    27
177
     3
291
     0
 70
    58
 90
        2
176
     1
 90
        2
176
     1
 90
        1
176
     1
 90
        2
176
     1
 40
0.6
176
     1
 40
30.0
176
     1
 62
     7
420
 16777215
176
     1
 90
        0
176
     1
 90
        4
176
     1
 62
     7
176
     1
 62
   257
176
     1
 90
        1
176
     1
 90
        1
176
     1
 40
1.0
176
     1
 90
        8
176
     1
 62
   257
176
     1
 40
1.0
176
     1
 90
        1
176
     1
 90
        6
176
     1
 90
        2
176
     1
 62
     8
420
  7895160
176
     1
 90
        3
176
     1
 90
        0
176
     1
 90
        0
176
     1
290
     0
176
     1
 90
        5
176
     1
 40
0.0
176
     1
 90
        0
176
     1
290
     0
176
     1
290
     1
176
     1
290
     1
176
     1
290
     0
176
     1
290
     0
176
     1
290
     0
176
     1
290
     0
176
     1
290
     0
176
     1
290
     0
176
     1
 90
       50
176
     1
 40
0.0
176
     1
 40
1.0
176
     1
 90
        0
176
     1
 62
    18
420
        0
176
     1
 90
       50
176
     1
 90
        3
176
     1
 62
     5
420
      255
176
     1
290
     0
176
     1
 90
       50
176
     1
 90
       50
176
     1
 90
       50
176
     1
290
     0
176
     1
 90
       50
176
     1
 62
   256
176
     0
 40
1.0
176
     0
 90
        2
176
     1
  1
strokes_ogs.tif
176
     1
290
     0
176
     1
 40
1.0
176
     1
 40
1.0
176
     1
  0
VISUALSTYLE
  5
1D9
102
{ACAD_REACTORS
330
174
102
}
330
174
100
AcDbVisualStyle
  2
Shaded with edges
 70
    26
177
     3
291
     0
 70
    58
 90
        2
176
     1
 90
        2
176
     1
 90
        1
176
     1
 90
        2
176
     1
 40
0.6
176
     1
 40
30.0
176
     1
 62
     7
420
 16777215
176
     1
 90
        1
176
     1
 90
       10
176
     1
 62
     7
176
     1
 62
   257
176
     1
 90
        2
176
     1
 90
        1
176
     1
 40
1.0
176
     1
 90
        8
176
     1
 62
   257
176
     1
 40
1.0
176
     1
 90
        1
176
     1
 90
        6
176
     1
 90
        2
176
     1
 62
     7
176
     1
 90
        3
176
     1
 90
        0
176
     1
 90
        0
176
     1
290
     0
176
     1
 90
        5
176
     1
 40
0.0
176
     1
 90
        0
176
     1
290
     0
176
     1
290
     1
176
     1
290
     1
176
     1
290
     0
176
     1
290
     0
176
     1
290
     0
176
     1
290
     0
176
     1
290
     0
176
     1
290
     0
176
     1
 90
       50
176
     1
 40
0.0
176
     1
 40
1.0
176
     1
 90
        0
176
     1
 62
    18
420
        0
176
     1
 90
       50
176
     1
 90
        3
176
     1
 62
     5
420
      255
176
     1
290
     0
176
     1
 90
       50
176
     1
 90
       50
176
     1
 90
       50
176
     1
290
     0
176
     1
 90
       50
176
     1
 62
   256
176
     0
 40
1.0
176
     0
 90
        2
176
     1
  1
strokes_ogs.tif
176
     1
290
     0
176
     1
 40
1.0
176
     1
 40
1.0
176
     1
  0
VISUALSTYLE
  5
1D6
102
{ACAD_REACTORS
330
174
102
}
330
174
100
AcDbVisualStyle
  2
Shades of Gray
 70
    23
177
     3
291
     0
 70
    58
 90
        2
176
     1
 90
        2
176
     1
 90
        3
176
     1
 90
        0
176
     1
 40
0.6
176
     1
 40
30.0
176
     1
 62
     7
420
 16777215
176
     1
 90
        2
176
     1
 90
        2
176
     1
 62
     7
176
     1
 62
     7
176
     1
 90
        1
176
     1
 90
        1
176
     1
 40
40.0
176
     1
 90
        8
176
     1
 62
     7
176
     1
 40
1.0
176
     1
 90
        1
176
     1
 90
        6
176
     1
 90
        2
176
     1
 62
     7
176
     1
 90
        3
176
     1
 90
        0
176
     1
 90
        0
176
     1
290
     0
176
     1
 90
        1
176
     1
 40
0.0
176
     1
 90
        0
176
     1
290
     0
176
     1
290
     1
176
     1
290
     1
176
     1
290
     0
176
     1
290
     0
176
     1
290
     0
176
     1
290
     0
176
     1
290
     0
176
     1
290
     0
176
     1
 90
       50
176
     1
 40
0.0
176
     1
 40
1.0
176
     1
 90
        0
176
     1
 62
    18
420
        0
176
     1
 90
       50
176
     1
 90
        3
176
     1
 62
     5
420
      255
176
     1
290
     0
176
     1
 90
       50
176
     1
 90
       50
176
     1
 90
       50
176
     1
290
     0
176
     1
 90
       50
176
     1
 62
   256
176
     0
 40
1.0
176
     0
 90
        2
176
     1
  1
strokes_ogs.tif
176
     1
290
     0
176
     1
 40
1.0
176
     1
 40
1.0
176
     1
  0
VISUALSTYLE
  5
1D7
102
{ACAD_REACTORS
330
174
102
}
330
174
100
AcDbVisualStyle
  2
Sketchy
 70
    24
177
     3
291
     0
 70
    58
 90
        1
176
     1
 90
        2
176
     1
 90
        2
176
     1
 90
        0
176
     1
 40
0.6
176
     1
 40
30.0
176
     1
 62
     7
420
 16777215
176
     1
 90
        2
176
     1
 90
        2
176
     1
 62
     7
176
     1
 62
     7
176
     1
 90
        1
176
     1
 90
        1
176
     1
 40
40.0
176
     1
 90
       11
176
     1
 62
     7
176
     1
 40
1.0
176
     1
 90
        1
176
     1
 90
        6
176
     1
 90
        2
176
     1
 62
     7
176
     1
 90
        6
176
     1
 90
        0
176
     1
 90
        0
176
     1
290
     0
176
     1
 90
        1
176
     1
 40
0.0
176
     1
 90
        0
176
     1
290
     0
176
     1
290
     1
176
     1
290
     1
176
     1
290
     0
176
     1
290
     0
176
     1
290
     0
176
     1
290
     0
176
     1
290
     0
176
     1
290
     0
176
     1
 90
       50
176
     1
 40
0.0
176
     1
 40
1.0
176
     1
 90
        0
176
     1
 62
    18
420
        0
176
     1
 90
       50
176
     1
 90
        3
176
     1
 62
     5
420
      255
176
     1
290
     0
176
     1
 90
       50
176
     1
 90
       50
176
     1
 90
       50
176
     1
290
     0
176
     1
 90
       50
176
     1
 62
   256
176
     0
 40
1.0
176
     0
 90
        2
176
     1
  1
strokes_ogs.tif
176
     1
290
     0
176
     1
 40
1.0
176
     1
 40
1.0
176
     1
  0
VISUALSTYLE
  5
181
102
{ACAD_REACTORS
330
174
102
}
330
174
100
AcDbVisualStyle
  2
Thicken
 70
    13
177
     3
291
     1
 70
    58
 90
        2
176
     1
 90
        2
176
     1
 90
        0
176
     1
 90
        0
176
     1
 40
-0.6
176
     1
 40
-30.0
176
     1
 62
     7
176
     1
 90
        1
176
     1
 90
        4
176
     1
 62
     7
176
     1
 62
   257
176
     1
 90
        1
176
     1
 90
        1
176
     1
 40
1.0
176
     1
 90
       12
176
     1
 62
     7
176
     1
 40
1.0
176
     1
 90
        1
176
     1
 90
        6
176
     1
 90
        2
176
     1
 62
     7
176
     1
 90
        5
176
     1
 90
        0
176
     1
 90
        0
176
     1
290
     0
176
     1
 90
        1
176
     1
 40
0.0
176
     1
 90
        0
176
     1
290
     0
176
     1
290
     1
176
     1
290
     1
176
     1
290
     0
176
     1
290
     0
176
     1
290
     0
176
     1
290
     0
176
     1
290
     0
176
     1
290
     0
176
     1
 90
       50
176
     1
 40
0.0
176
     1
 40
1.0
176
     1
 90
        0
176
     1
 62
    18
420
        0
176
     1
 90
       50
176
     1
 90
        3
176
     1
 62
     5
420
      255
176
     1
290
     0
176
     1
 90
       50
176
     1
 90
       50
176
     1
 90
       50
176
     1
290
     0
176
     1
 90
       50
176
     1
 62
   256
176
     0
 40
1.0
176
     0
 90
        2
176
     1
  1
strokes_ogs.tif
176
     1
290
     0
176
     1
 40
1.0
176
     1
 40
1.0
176
     1
  0
VISUALSTYLE
  5
1D1
102
{ACAD_REACTORS
330
174
102
}
330
174
100
AcDbVisualStyle
  2
Wireframe
 70
     5
177
     3
291
     0
 70
    58
 90
        0
176
     1
 90
        2
176
     1
 90
        0
176
     1
 90
        0
176
     1
 40
0.6
176
     1
 40
30.0
176
     1
 62
     7
420
 16777215
176
     1
 90
        1
176
     1
 90
        4
176
     1
 62
     7
176
     1
 62
   257
176
     1
 90
        1
176
     1
 90
        1
176
     1
 40
1.0
176
     1
 90
        0
176
     1
 62
   257
176
     1
 40
1.0
176
     1
 90
        1
176
     1
 90
        6
176
     1
 90
        2
176
     1
 62
     7
176
     1
 90
        3
176
     1
 90
        0
176
     1
 90
        0
176
     1
290
     0
176
     1
 90
        1
176
     1
 40
0.0
176
     1
 90
        0
176
     1
290
     0
176
     1
290
     1
176
     1
290
     1
176
     1
290
     0
176
     1
290
     0
176
     1
290
     0
176
     1
290
     0
176
     1
290
     0
176
     1
290
     0
176
     1
 90
       50
176
     1
 40
0.0
176
     1
 40
1.0
176
     1
 90
        0
176
     1
 62
    18
420
        0
176
     1
 90
       50
176
     1
 90
        3
176
     1
 62
     5
420
      255
176
     1
290
     0
176
     1
 90
       50
176
     1
 90
       50
176
     1
 90
       50
176
     1
290
     0
176
     1
 90
       50
176
     1
 62
   256
176
     0
 40
1.0
176
     0
 90
        2
176
     1
  1
strokes_ogs.tif
176
     1
290
     0
176
     1
 40
1.0
176
     1
 40
1.0
176
     1
  0
VISUALSTYLE
  5
1D8
102
{ACAD_REACTORS
330
174
102
}
330
174
100
AcDbVisualStyle
  2
X-Ray
 70
    25
177
     3
291
     0
 70
    58
 90
        2
176
     1
 90
        2
176
     1
 90
        1
176
     1
 90
        1
176
     1
 40
0.5
176
     1
 40
30.0
176
     1
 62
     7
420
 16777215
176
     1
 90
        1
176
     1
 90
        0
176
     1
 62
     7
176
     1
 62
   257
176
     1
 90
        1
176
     1
 90
        1
176
     1
 40
1.0
176
     1
 90
        8
176
     1
 62
     7
176
     1
 40
1.0
176
     1
 90
        1
176
     1
 90
        6
176
     1
 90
        2
176
     1
 62
     7
176
     1
 90
        3
176
     1
 90
        0
176
     1
 90
        0
176
     1
290
     0
176
     1
 90
       13
176
     1
 40
0.0
176
     1
 90
        0
176
     1
290
     0
176
     1
290
     1
176
     1
290
     1
176
     1
290
     0
176
     1
290
     0
176
     1
290
     0
176
     1
290
     0
176
     1
290
     0
176
     1
290
     0
176
     1
 90
       50
176
     1
 40
0.0
176
     1
 40
1.0
176
     1
 90
        0
176
     1
 62
    18
420
        0
176
     1
 90
       50
176
     1
 90
        3
176
     1
 62
     5
420
      255
176
     1
290
     0
176
     1
 90
       50
176
     1
 90
       50
176
     1
 90
       50
176
     1
290
     0
176
     1
 90
       50
176
     1
 62
   256
176
     0
 40
1.0
176
     0
 90
        2
176
     1
  1
strokes_ogs.tif
176
     1
290
     0
176
     1
 40
1.0
176
     1
 40
1.0
176
     1
  0
DICTIONARYVAR
  5
1DF
102
{ACAD_REACTORS
330
190
102
}
330
190
100
DictionaryVariables
280
     0
  1
1:1
  0
DICTIONARYVAR
  5
1E1
102
{ACAD_REACTORS
330
190
102
}
330
190
100
DictionaryVariables
280
     0
  1
Standard
  0
DICTIONARYVAR
  5
1E0
102
{ACAD_REACTORS
330
190
102
}
330
190
100
DictionaryVariables
280
     0
  1
Standard
  0
DICTIONARYVAR
  5
194
102
{ACAD_REACTORS
330
190
102
}
330
190
100
DictionaryVariables
280
     0
  1
2
  0
DICTIONARYVAR
  5
195
102
{ACAD_REACTORS
330
190
102
}
330
190
100
DictionaryVariables
280
     0
  1
1
  0
DICTIONARYVAR
  5
193
102
{ACAD_REACTORS
330
190
102
}
330
190
100
DictionaryVariables
280
     0
  1
0
  0
DICTIONARY
  5
2B4
330
1DC
100
AcDbDictionary
280
     1
281
     1
  3
ACAD_ROUNDTRIP_2008_TABLESTYLE_CELLSTYLEMAP
360
2B5
  0
CELLSTYLEMAP
  5
2B5
102
{ACAD_REACTORS
330
2B4
102
}
330
2B4
100
AcDbCellStyleMap
 90
        3
300
CELLSTYLE
  1
TABLEFORMAT_BEGIN
 90
        5
170
     1
 91
        0
 92
    32768
 62
   257
 93
        1
300
CONTENTFORMAT
  1
CONTENTFORMAT_BEGIN
 90
        0
 91
        0
 92
        4
 93
        0
300

 40
0.0
140
1.0
 94
        5
 62
     0
340
11
144
0.25
309
CONTENTFORMAT_END
171
     1
301
MARGIN
  1
CELLMARGIN_BEGIN
 40
0.06
 40
0.06
 40
0.06
 40
0.06
 40
0.06
 40
0.06
309
CELLMARGIN_END
 94
        6
 95
        1
302
GRIDFORMAT
  1
GRIDFORMAT_BEGIN
 90
        0
 91
        1
 62
     0
 92
       -2
340
14
 93
        0
 40
0.045
309
GRIDFORMAT_END
 95
        2
302
GRIDFORMAT
  1
GRIDFORMAT_BEGIN
 90
        0
 91
        1
 62
     0
 92
       -2
340
14
 93
        0
 40
0.045
309
GRIDFORMAT_END
 95
        4
302
GRIDFORMAT
  1
GRIDFORMAT_BEGIN
 90
        0
 91
        1
 62
     0
 92
       -2
340
14
 93
        0
 40
0.045
309
GRIDFORMAT_END
 95
        8
302
GRIDFORMAT
  1
GRIDFORMAT_BEGIN
 90
        0
 91
        1
 62
     0
 92
       -2
340
14
 93
        0
 40
0.045
309
GRIDFORMAT_END
 95
       16
302
GRIDFORMAT
  1
GRIDFORMAT_BEGIN
 90
        0
 91
        1
 62
     0
 92
       -2
340
14
 93
        0
 40
0.045
309
GRIDFORMAT_END
 95
       32
302
GRIDFORMAT
  1
GRIDFORMAT_BEGIN
 90
        0
 91
        1
 62
     0
 92
       -2
340
14
 93
        0
 40
0.045
309
GRIDFORMAT_END
309
TABLEFORMAT_END
  1
CELLSTYLE_BEGIN
 90
        1
 91
        1
300
_TITLE
309
CELLSTYLE_END
300
CELLSTYLE
  1
TABLEFORMAT_BEGIN
 90
        5
170
     1
 91
        0
 92
        0
 62
   257
 93
        1
300
CONTENTFORMAT
  1
CONTENTFORMAT_BEGIN
 90
        0
 91
        0
 92
        4
 93
        0
300

 40
0.0
140
1.0
 94
        5
 62
     0
340
11
144
0.18
309
CONTENTFORMAT_END
171
     1
301
MARGIN
  1
CELLMARGIN_BEGIN
 40
0.06
 40
0.06
 40
0.06
 40
0.06
 40
0.06
 40
0.06
309
CELLMARGIN_END
 94
        6
 95
        1
302
GRIDFORMAT
  1
GRIDFORMAT_BEGIN
 90
        0
 91
        1
 62
     0
 92
       -2
340
14
 93
        0
 40
0.045
309
GRIDFORMAT_END
 95
        2
302
GRIDFORMAT
  1
GRIDFORMAT_BEGIN
 90
        0
 91
        1
 62
     0
 92
       -2
340
14
 93
        0
 40
0.045
309
GRIDFORMAT_END
 95
        4
302
GRIDFORMAT
  1
GRIDFORMAT_BEGIN
 90
        0
 91
        1
 62
     0
 92
       -2
340
14
 93
        0
 40
0.045
309
GRIDFORMAT_END
 95
        8
302
GRIDFORMAT
  1
GRIDFORMAT_BEGIN
 90
        0
 91
        1
 62
     0
 92
       -2
340
14
 93
        0
 40
0.045
309
GRIDFORMAT_END
 95
       16
302
GRIDFORMAT
  1
GRIDFORMAT_BEGIN
 90
        0
 91
        1
 62
     0
 92
       -2
340
14
 93
        0
 40
0.045
309
GRIDFORMAT_END
 95
       32
302
GRIDFORMAT
  1
GRIDFORMAT_BEGIN
 90
        0
 91
        1
 62
     0
 92
       -2
340
14
 93
        0
 40
0.045
309
GRIDFORMAT_END
309
TABLEFORMAT_END
  1
CELLSTYLE_BEGIN
 90
        2
 91
        1
300
_HEADER
309
CELLSTYLE_END
300
CELLSTYLE
  1
TABLEFORMAT_BEGIN
 90
        5
170
     1
 91
        0
 92
        0
 62
   257
 93
        1
300
CONTENTFORMAT
  1
CONTENTFORMAT_BEGIN
 90
        0
 91
        0
 92
        4
 93
        0
300

 40
0.0
140
1.0
 94
        2
 62
     0
340
11
144
0.18
309
CONTENTFORMAT_END
171
     1
301
MARGIN
  1
CELLMARGIN_BEGIN
 40
0.06
 40
0.06
 40
0.06
 40
0.06
 40
0.06
 40
0.06
309
CELLMARGIN_END
 94
        6
 95
        1
302
GRIDFORMAT
  1
GRIDFORMAT_BEGIN
 90
        0
 91
        1
 62
     0
 92
       -2
340
14
 93
        0
 40
0.045
309
GRIDFORMAT_END
 95
        2
302
GRIDFORMAT
  1
GRIDFORMAT_BEGIN
 90
        0
 91
        1
 62
     0
 92
       -2
340
14
 93
        0
 40
0.045
309
GRIDFORMAT_END
 95
        4
302
GRIDFORMAT
  1
GRIDFORMAT_BEGIN
 90
        0
 91
        1
 62
     0
 92
       -2
340
14
 93
        0
 40
0.045
309
GRIDFORMAT_END
 95
        8
302
GRIDFORMAT
  1
GRIDFORMAT_BEGIN
 90
        0
 91
        1
 62
     0
 92
       -2
340
14
 93
        0
 40
0.045
309
GRIDFORMAT_END
 95
       16
302
GRIDFORMAT
  1
GRIDFORMAT_BEGIN
 90
        0
 91
        1
 62
     0
 92
       -2
340
14
 93
        0
 40
0.045
309
GRIDFORMAT_END
 95
       32
302
GRIDFORMAT
  1
GRIDFORMAT_BEGIN
 90
        0
 91
        1
 62
     0
 92
       -2
340
14
 93
        0
 40
0.045
309
GRIDFORMAT_END
309
TABLEFORMAT_END
  1
CELLSTYLE_BEGIN
 90
        3
 91
        2
300
_DATA
309
CELLSTYLE_END
  0
ENDSEC
  0
EOF
