  0
SECTION
  2
HEADER
  9
$ACADVER
  1
AC1027
  9
$ACADMAINTVER
 70
   105
  9
$DWGCODEPAGE
  3
ANSI_1252
  9
$REQUIREDVERSIONS
160
                 0
  9
$LASTSAVEDBY
  1
matthias.ochs
  9
$INSBASE
 10
0.0
 20
0.0
 30
0.0
  9
$EXTMIN
 10
-19.31770761158647
 20
-26.30900367621754
 30
0.0
  9
$EXTMAX
 10
33.60609535658809
 20
29.98965049572473
 30
0.0
  9
$LIMMIN
 10
-29.162913615
 20
-10.308985563
  9
$LIMMAX
 10
40.544639498
 20
21.207541889
  9
$ORTHOMODE
 70
     0
  9
$REGENMODE
 70
     1
  9
$FILLMODE
 70
     1
  9
$QTEXTMODE
 70
     0
  9
$MIRRTEXT
 70
     1
  9
$LTSCALE
 40
1.0
  9
$ATTMODE
 70
     1
  9
$TEXTSIZE
 40
0.2
  9
$TRACEWID
 40
0.05
  9
$TEXTSTYLE
  7
Standard
  9
$CLAYER
  8
1
  9
$CELTYPE
  6
ByLayer
  9
$CECOLOR
 62
   256
  9
$CELTSCALE
 40
1.0
  9
$DISPSILH
 70
     0
  9
$DIMSCALE
 40
1.0
  9
$DIMASZ
 40
0.18
  9
$DIMEXO
 40
0.0625
  9
$DIMDLI
 40
0.38
  9
$DIMRND
 40
0.0
  9
$DIMDLE
 40
0.0
  9
$DIMEXE
 40
0.18
  9
$DIMTP
 40
0.0
  9
$DIMTM
 40
0.0
  9
$DIMTXT
 40
0.18
  9
$DIMCEN
 40
0.09
  9
$DIMTSZ
 40
0.0
  9
$DIMTOL
 70
     0
  9
$DIMLIM
 70
     0
  9
$DIMTIH
 70
     1
  9
$DIMTOH
 70
     1
  9
$DIMSE1
 70
     0
  9
$DIMSE2
 70
     0
  9
$DIMTAD
 70
     0
  9
$DIMZIN
 70
     0
  9
$DIMBLK
  1

  9
$DIMASO
 70
     1
  9
$DIMSHO
 70
     1
  9
$DIMPOST
  1

  9
$DIMAPOST
  1

  9
$DIMALT
 70
     0
  9
$DIMALTD
 70
     2
  9
$DIMALTF
 40
25.4
  9
$DIMLFAC
 40
1.0
  9
$DIMTOFL
 70
     0
  9
$DIMTVP
 40
0.0
  9
$DIMTIX
 70
     0
  9
$DIMSOXD
 70
     0
  9
$DIMSAH
 70
     0
  9
$DIMBLK1
  1

  9
$DIMBLK2
  1

  9
$DIMSTYLE
  2
Standard
  9
$DIMCLRD
 70
     0
  9
$DIMCLRE
 70
     0
  9
$DIMCLRT
 70
     0
  9
$DIMTFAC
 40
1.0
  9
$DIMGAP
 40
0.09
  9
$DIMJUST
 70
     0
  9
$DIMSD1
 70
     0
  9
$DIMSD2
 70
     0
  9
$DIMTOLJ
 70
     1
  9
$DIMTZIN
 70
     0
  9
$DIMALTZ
 70
     0
  9
$DIMALTTZ
 70
     0
  9
$DIMUPT
 70
     0
  9
$DIMDEC
 70
     4
  9
$DIMTDEC
 70
     4
  9
$DIMALTU
 70
     2
  9
$DIMALTTD
 70
     2
  9
$DIMTXSTY
  7
Standard
  9
$DIMAUNIT
 70
     0
  9
$DIMADEC
 70
     0
  9
$DIMALTRND
 40
0.0
  9
$DIMAZIN
 70
     0
  9
$DIMDSEP
 70
    46
  9
$DIMATFIT
 70
     3
  9
$DIMFRAC
 70
     0
  9
$DIMLDRBLK
  1

  9
$DIMLUNIT
 70
     2
  9
$DIMLWD
 70
    -2
  9
$DIMLWE
 70
    -2
  9
$DIMTMOVE
 70
     2
  9
$DIMFXL
 40
1.0
  9
$DIMFXLON
 70
     0
  9
$DIMJOGANG
 40
0.7853981633974483
  9
$DIMTFILL
 70
     0
  9
$DIMTFILLCLR
 70
     0
  9
$DIMARCSYM
 70
     0
  9
$DIMLTYPE
  6

  9
$DIMLTEX1
  6

  9
$DIMLTEX2
  6

  9
$DIMTXTDIRECTION
 70
     0
  9
$LUNITS
 70
     2
  9
$LUPREC
 70
     4
  9
$SKETCHINC
 40
0.1
  9
$FILLETRAD
 40
0.5
  9
$AUNITS
 70
     2
  9
$AUPREC
 70
     0
  9
$MENU
  1
.
  9
$ELEVATION
 40
0.0
  9
$PELEVATION
 40
0.0
  9
$THICKNESS
 40
0.0
  9
$LIMCHECK
 70
     0
  9
$CHAMFERA
 40
0.5
  9
$CHAMFERB
 40
0.5
  9
$CHAMFERC
 40
1.0
  9
$CHAMFERD
 40
0.0
  9
$SKPOLY
 70
     0
  9
$TDCREATE
 40
2458327.549555729
  9
$TDUCREATE
 40
2458327.466222396
  9
$TDUPDATE
 40
2458680.583685081
  9
$TDUUPDATE
 40
2458680.500351747
  9
$TDINDWG
 40
0.0115772454
  9
$TDUSRTIMER
 40
0.0080372917
  9
$USRTIMER
 70
     1
  9
$ANGBASE
 50
0.0
  9
$ANGDIR
 70
     0
  9
$PDMODE
 70
     0
  9
$PDSIZE
 40
0.0
  9
$PLINEWID
 40
0.0
  9
$SPLFRAME
 70
     0
  9
$SPLINETYPE
 70
     6
  9
$SPLINESEGS
 70
     8
  9
$HANDSEED
  5
29D
  9
$SURFTAB1
 70
     6
  9
$SURFTAB2
 70
     6
  9
$SURFTYPE
 70
     6
  9
$SURFU
 70
     6
  9
$SURFV
 70
     6
  9
$UCSBASE
  2

  9
$UCSNAME
  2

  9
$UCSORG
 10
0.0
 20
0.0
 30
0.0
  9
$UCSXDIR
 10
1.0
 20
0.0
 30
0.0
  9
$UCSYDIR
 10
0.0
 20
1.0
 30
0.0
  9
$UCSORTHOREF
  2

  9
$UCSORTHOVIEW
 70
     0
  9
$UCSORGTOP
 10
0.0
 20
0.0
 30
0.0
  9
$UCSORGBOTTOM
 10
0.0
 20
0.0
 30
0.0
  9
$UCSORGLEFT
 10
0.0
 20
0.0
 30
0.0
  9
$UCSORGRIGHT
 10
0.0
 20
0.0
 30
0.0
  9
$UCSORGFRONT
 10
0.0
 20
0.0
 30
0.0
  9
$UCSORGBACK
 10
0.0
 20
0.0
 30
0.0
  9
$PUCSBASE
  2

  9
$PUCSNAME
  2

  9
$PUCSORG
 10
0.0
 20
0.0
 30
0.0
  9
$PUCSXDIR
 10
1.0
 20
0.0
 30
0.0
  9
$PUCSYDIR
 10
0.0
 20
1.0
 30
0.0
  9
$PUCSORTHOREF
  2

  9
$PUCSORTHOVIEW
 70
     0
  9
$PUCSORGTOP
 10
0.0
 20
0.0
 30
0.0
  9
$PUCSORGBOTTOM
 10
0.0
 20
0.0
 30
0.0
  9
$PUCSORGLEFT
 10
0.0
 20
0.0
 30
0.0
  9
$PUCSORGRIGHT
 10
0.0
 20
0.0
 30
0.0
  9
$PUCSORGFRONT
 10
0.0
 20
0.0
 30
0.0
  9
$PUCSORGBACK
 10
0.0
 20
0.0
 30
0.0
  9
$USERI1
 70
     0
  9
$USERI2
 70
     0
  9
$USERI3
 70
     0
  9
$USERI4
 70
     0
  9
$USERI5
 70
     0
  9
$USERR1
 40
0.0
  9
$USERR2
 40
0.0
  9
$USERR3
 40
0.0
  9
$USERR4
 40
0.0
  9
$USERR5
 40
0.0
  9
$WORLDVIEW
 70
     1
  9
$SHADEDGE
 70
     3
  9
$SHADEDIF
 70
    70
  9
$TILEMODE
 70
     1
  9
$MAXACTVP
 70
    64
  9
$PINSBASE
 10
0.0
 20
0.0
 30
0.0
  9
$PLIMCHECK
 70
     0
  9
$PEXTMIN
 10
1.000000000000000E+20
 20
1.000000000000000E+20
 30
1.000000000000000E+20
  9
$PEXTMAX
 10
-1.000000000000000E+20
 20
-1.000000000000000E+20
 30
-1.000000000000000E+20
  9
$PLIMMIN
 10
0.0
 20
0.0
  9
$PLIMMAX
 10
0.0
 20
0.0
  9
$UNITMODE
 70
     0
  9
$VISRETAIN
 70
     1
  9
$PLINEGEN
 70
     0
  9
$PSLTSCALE
 70
     1
  9
$TREEDEPTH
 70
  3020
  9
$CMLSTYLE
  2
Standard
  9
$CMLJUST
 70
     0
  9
$CMLSCALE
 40
1.0
  9
$PROXYGRAPHICS
 70
     1
  9
$MEASUREMENT
 70
     0
  9
$CELWEIGHT
370
    -1
  9
$ENDCAPS
280
     0
  9
$JOINSTYLE
280
     0
  9
$LWDISPLAY
290
     0
  9
$INSUNITS
 70
     0
  9
$HYPERLINKBASE
  1

  9
$STYLESHEET
  1

  9
$XEDIT
290
     1
  9
$CEPSNTYPE
380
     0
  9
$PSTYLEMODE
290
     1
  9
$FINGERPRINTGUID
  2
{99768E3F-5AE4-4BA1-BC20-A4BC758ADA0B}
  9
$VERSIONGUID
  2
{FAEB1C32-E019-11D5-929B-00C0DF256EC4}
  9
$EXTNAMES
290
     1
  9
$PSVPSCALE
 40
0.0
  9
$OLESTARTUP
290
     0
  9
$SORTENTS
280
   127
  9
$INDEXCTL
280
     0
  9
$HIDETEXT
280
     1
  9
$XCLIPFRAME
280
     2
  9
$HALOGAP
280
     0
  9
$OBSCOLOR
 70
   257
  9
$OBSLTYPE
280
     0
  9
$INTERSECTIONDISPLAY
280
     0
  9
$INTERSECTIONCOLOR
 70
   257
  9
$DIMASSOC
280
     2
  9
$PROJECTNAME
  1

  9
$CAMERADISPLAY
290
     0
  9
$LENSLENGTH
 40
50.0
  9
$CAMERAHEIGHT
 40
0.0
  9
$STEPSPERSEC
 40
2.0
  9
$STEPSIZE
 40
6.0
  9
$3DDWFPREC
 40
2.0
  9
$PSOLWIDTH
 40
0.25
  9
$PSOLHEIGHT
 40
4.0
  9
$LOFTANG1
 40
1.570796326794897
  9
$LOFTANG2
 40
1.570796326794897
  9
$LOFTMAG1
 40
0.0
  9
$LOFTMAG2
 40
0.0
  9
$LOFTPARAM
 70
     7
  9
$LOFTNORMALS
280
     1
  9
$LATITUDE
 40
37.795
  9
$LONGITUDE
 40
-122.394
  9
$NORTHDIRECTION
 40
0.0
  9
$TIMEZONE
 70
 -8000
  9
$LIGHTGLYPHDISPLAY
280
     1
  9
$TILEMODELIGHTSYNCH
280
     1
  9
$SOLIDHIST
280
     0
  9
$SHOWHIST
280
     1
  9
$DWFFRAME
280
     2
  9
$DGNFRAME
280
     2
  9
$REALWORLDSCALE
290
     1
  9
$INTERFERECOLOR
 62
   256
  9
$CSHADOW
280
     0
  9
$SHADOWPLANELOCATION
 40
0.0
  0
ENDSEC
  0
SECTION
  2
CLASSES
  0
CLASS
  1
ACDBDICTIONARYWDFLT
  2
AcDbDictionaryWithDefault
  3
ObjectDBX Classes
 90
        0
 91
       18
280
     0
281
     0
  0
CLASS
  1
SCALE
  2
AcDbScale
  3
ObjectDBX Classes
 90
     1153
 91
       18
280
     0
281
     0
  0
CLASS
  1
VISUALSTYLE
  2
AcDbVisualStyle
  3
ObjectDBX Classes
 90
     4095
 91
       18
280
     0
281
     0
  0
CLASS
  1
MATERIAL
  2
AcDbMaterial
  3
ObjectDBX Classes
 90
     1153
 91
       18
280
     0
281
     0
  0
CLASS
  1
DICTIONARYVAR
  2
AcDbDictionaryVar
  3
ObjectDBX Classes
 90
        0
 91
       14
280
     0
281
     0
  0
CLASS
  1
ACDBPLACEHOLDER
  2
AcDbPlaceHolder
  3
ObjectDBX Classes
 90
        0
 91
        1
280
     0
281
     0
  0
CLASS
  1
LAYOUT
  2
AcDbLayout
  3
ObjectDBX Classes
 90
        0
 91
        1
280
     0
281
     0
  0
CLASS
  1
TABLESTYLE
  2
AcDbTableStyle
  3
ObjectDBX Classes
 90
     4095
 91
       18
280
     0
281
     0
  0
CLASS
  1
MLEADERSTYLE
  2
AcDbMLeaderStyle
  3
ACDB_MLEADERSTYLE_CLASS
 90
     4095
 91
       18
280
     0
281
     0
  0
CLASS
  1
SUN
  2
AcDbSun
  3
SCENEOE
 90
     1153
 91
       18
280
     0
281
     0
  0
CLASS
  1
SORTENTSTABLE
  2
AcDbSortentsTable
  3
ObjectDBX Classes
 90
        0
 91
       13
280
     0
281
     0
  0
CLASS
  1
CELLSTYLEMAP
  2
AcDbCellStyleMap
  3
ObjectDBX Classes
 90
     1152
 91
        8
280
     0
281
     0
  0
ENDSEC
  0
SECTION
  2
TABLES
  0
TABLE
  2
VPORT
  5
8
330
0
100
AcDbSymbolTable
 70
     1
  0
VPORT
  5
14C
330
8
100
AcDbSymbolTableRecord
100
AcDbViewportTableRecord
  2
*Active
 70
     0
 10
0.0
 20
0.0
 11
1.0
 21
1.0
 12
-28.54370506228308
 22
-43.23987886721216
 13
0.0
 23
0.0
 14
0.5
 24
0.5
 15
0.5
 25
0.5
 16
0.0
 26
0.0
 36
1.0
 17
0.0
 27
0.0
 37
0.0
 40
202.9059469165235
 41
1.831002331002331
 42
50.0
 43
0.0
 44
0.0
 50
0.0
 51
0.0
 71
    16
 72
   100
 73
     1
 74
     3
 75
     0
 76
     0
 77
     0
 78
     0
281
     0
 65
     1
110
0.0
120
0.0
130
0.0
111
1.0
121
0.0
131
0.0
112
0.0
122
1.0
132
0.0
 79
     0
146
0.0
348
17C
 60
     3
 61
     5
292
     1
282
     1
141
0.0
142
0.0
 63
   256
361
216
  0
ENDTAB
  0
TABLE
  2
LTYPE
  5
5
330
0
100
AcDbSymbolTable
 70
     8
  0
LTYPE
  5
14
330
5
100
AcDbSymbolTableRecord
100
AcDbLinetypeTableRecord
  2
ByBlock
 70
     0
  3

 72
    65
 73
     0
 40
0.0
  0
LTYPE
  5
15
330
5
100
AcDbSymbolTableRecord
100
AcDbLinetypeTableRecord
  2
ByLayer
 70
     0
  3

 72
    65
 73
     0
 40
0.0
  0
LTYPE
  5
16
330
5
100
AcDbSymbolTableRecord
100
AcDbLinetypeTableRecord
  2
Continuous
 70
     0
  3
Solid line
 72
    65
 73
     0
 40
0.0
  0
LTYPE
  5
20
330
5
100
AcDbSymbolTableRecord
100
AcDbLinetypeTableRecord
  2
PUNKT
 70
     0
  3
..............
 72
    65
 73
     2
 40
1.5
 49
0.7
 74
     0
 49
-0.8
 74
     0
  0
LTYPE
  5
21
330
5
100
AcDbSymbolTableRecord
100
AcDbLinetypeTableRecord
  2
GESTRICHELT
 70
     0
  3
-- -- -- -- --
 72
    65
 73
     7
 40
2.8
 49
0.9
 74
     0
 49
0.0
 74
     0
 49
0.9
 74
     0
 49
0.0
 74
     0
 49
0.2
 74
     0
 49
0.0
 74
     0
 49
-0.8
 74
     0
  0
LTYPE
  5
22
330
5
100
AcDbSymbolTableRecord
100
AcDbLinetypeTableRecord
  2
STRICHPUNKT
 70
     0
  3
--.--.--.--.--
 72
    65
 73
     4
 40
8.8
 49
5.5
 74
     0
 49
-1.3
 74
     0
 49
0.7
 74
     0
 49
-1.3
 74
     0
  0
LTYPE
  5
25
330
5
100
AcDbSymbolTableRecord
100
AcDbLinetypeTableRecord
  2
PHANTOM
 70
     0
  3
--..--..--..--
 72
    65
 73
     6
 40
14.2
 49
7.0
 74
     0
 49
-1.8
 74
     0
 49
0.9
 74
     0
 49
-1.8
 74
     0
 49
0.9
 74
     0
 49
-1.8
 74
     0
  0
LTYPE
  5
1C2
330
5
100
AcDbSymbolTableRecord
100
AcDbLinetypeTableRecord
  2
DASH
 70
     0
  3
DASH _ _ _ _ _
 72
    65
 73
     2
 40
0.75
 49
0.4
 74
     0
 49
-0.35
 74
     0
  0
LTYPE
  5
1C3
330
5
100
AcDbSymbolTableRecord
100
AcDbLinetypeTableRecord
  2
LONGDASH_DASH
 70
     0
  3
LONGDASH_DASH __ . __ . __
 72
    65
 73
     4
 40
0.85
 49
0.4
 74
     0
 49
-0.2
 74
     0
 49
0.05
 74
     0
 49
-0.2
 74
     0
  0
LTYPE
  5
1C4
330
5
100
AcDbSymbolTableRecord
100
AcDbLinetypeTableRecord
  2
LONGDASH_DASH_DASH
 70
     0
  3
LONGDASH_DASH_DASH __ . . __ . . __
 72
    65
 73
     6
 40
1.1
 49
0.4
 74
     0
 49
-0.2
 74
     0
 49
0.05
 74
     0
 49
-0.2
 74
     0
 49
0.05
 74
     0
 49
-0.2
 74
     0
  0
ENDTAB
  0
TABLE
  2
LAYER
  5
2
102
{ACAD_XDICTIONARY
360
1E1
102
}
330
0
100
AcDbSymbolTable
 70
    16
  0
LAYER
  5
18D
330
2
100
AcDbSymbolTableRecord
100
AcDbLayerTableRecord
  2
200
 70
     0
 62
     2
  6
Continuous
370
    50
390
F
347
18B
348
0
  0
LAYER
  5
1C5
330
2
100
AcDbSymbolTableRecord
100
AcDbLayerTableRecord
  2
0
 70
     0
 62
     1
  6
Continuous
370
    -3
390
F
347
18B
348
0
  0
LAYER
  5
1C6
330
2
100
AcDbSymbolTableRecord
100
AcDbLayerTableRecord
  2
1
 70
     0
 62
     4
  6
Continuous
370
    50
390
F
347
18B
348
0
  0
LAYER
  5
1C7
330
2
100
AcDbSymbolTableRecord
100
AcDbLayerTableRecord
  2
2
 70
     0
 62
     7
  6
Continuous
370
    25
390
F
347
18B
348
0
  0
LAYER
  5
1C8
330
2
100
AcDbSymbolTableRecord
100
AcDbLayerTableRecord
  2
3
 70
     0
 62
     1
  6
DASH
370
    35
390
F
347
18B
348
0
  0
LAYER
  5
1C9
330
2
100
AcDbSymbolTableRecord
100
AcDbLayerTableRecord
  2
4
 70
     0
 62
     2
  6
LONGDASH_DASH
370
    25
390
F
347
18B
348
0
  0
LAYER
  5
1CA
330
2
100
AcDbSymbolTableRecord
100
AcDbLayerTableRecord
  2
6
 70
     0
 62
     5
  6
Continuous
370
    -3
390
F
347
18B
348
0
  0
LAYER
  5
1CB
330
2
100
AcDbSymbolTableRecord
100
AcDbLayerTableRecord
  2
CUT
 70
     0
 62
     1
  6
Continuous
370
    25
390
F
347
18B
348
0
  0
LAYER
  5
1CC
330
2
100
AcDbSymbolTableRecord
100
AcDbLayerTableRecord
  2
NOCUT
 70
     0
 62
     7
  6
Continuous
370
    25
390
F
347
18B
348
0
  0
LAYER
  5
1CD
330
2
100
AcDbSymbolTableRecord
100
AcDbLayerTableRecord
  2
SK1
 70
     0
 62
     4
  6
Continuous
370
    50
390
F
347
18B
348
0
  0
LAYER
  5
1CE
330
2
100
AcDbSymbolTableRecord
100
AcDbLayerTableRecord
  2
SK2
 70
     0
 62
     7
  6
Continuous
370
    25
390
F
347
18B
348
0
  0
LAYER
  5
1CF
330
2
100
AcDbSymbolTableRecord
100
AcDbLayerTableRecord
  2
SK3
 70
     0
 62
     1
  6
DASH
370
    35
390
F
347
18B
348
0
  0
LAYER
  5
1D0
330
2
100
AcDbSymbolTableRecord
100
AcDbLayerTableRecord
  2
SK4
 70
     0
 62
     2
  6
LONGDASH_DASH
370
    25
390
F
347
18B
348
0
  0
LAYER
  5
1D1
330
2
100
AcDbSymbolTableRecord
100
AcDbLayerTableRecord
  2
SK6
 70
     0
 62
     5
  6
Continuous
370
    -3
390
F
347
18B
348
0
  0
LAYER
  5
1D2
330
2
100
AcDbSymbolTableRecord
100
AcDbLayerTableRecord
  2
INFTOTAL
 70
     0
 62
     9
  6
Continuous
370
    18
390
F
347
18B
348
0
  0
LAYER
  5
21A
330
2
100
AcDbSymbolTableRecord
100
AcDbLayerTableRecord
  2
7
 70
     0
 62
     5
  6
Continuous
370
    18
390
F
347
18B
348
0
1001
AcAecLayerStandard
1000

1000

  0
ENDTAB
  0
TABLE
  2
STYLE
  5
3
330
0
100
AcDbSymbolTable
 70
     3
  0
STYLE
  5
11
330
3
100
AcDbSymbolTableRecord
100
AcDbTextStyleTableRecord
  2
Standard
 70
     0
 40
0.0
 41
1.0
 50
0.0
 71
     0
 42
0.2
  3
txt
  4

  0
STYLE
  5
18C
330
3
100
AcDbSymbolTableRecord
100
AcDbTextStyleTableRecord
  2
BMG_Text
 70
     0
 40
3.5
 41
1.0
 50
0.0
 71
     0
 42
0.2
  3
monos.ttf
  4

1001
ACAD
1000
Monospac821 BT
1071
       49
  0
STYLE
  5
220
330
3
100
AcDbSymbolTableRecord
100
AcDbTextStyleTableRecord
  2
SLDTEXTSTYLE0
 70
     0
 40
0.0
 41
0.605
 50
0.0
 71
     0
 42
0.2
  3
TXT
  4

  0
ENDTAB
  0
TABLE
  2
VIEW
  5
6
330
0
100
AcDbSymbolTable
 70
     0
  0
ENDTAB
  0
TABLE
  2
UCS
  5
7
330
0
100
AcDbSymbolTable
 70
     0
  0
ENDTAB
  0
TABLE
  2
APPID
  5
9
330
0
100
AcDbSymbolTable
 70
     3
  0
APPID
  5
12
330
9
100
AcDbSymbolTableRecord
100
AcDbRegAppTableRecord
  2
ACAD
 70
     0
  0
APPID
  5
21B
330
9
100
AcDbSymbolTableRecord
100
AcDbRegAppTableRecord
  2
AcAecLayerStandard
 70
     0
  0
APPID
  5
223
330
9
100
AcDbSymbolTableRecord
100
AcDbRegAppTableRecord
  2
PE_URL
 70
     0
  0
ENDTAB
  0
TABLE
  2
DIMSTYLE
  5
A
330
0
100
AcDbSymbolTable
 70
     6
100
AcDbDimStyleTable
  0
DIMSTYLE
105
28
330
A
100
AcDbSymbolTableRecord
100
AcDbDimStyleTableRecord
  2
Standard
 70
     0
178
     0
340
11
  0
DIMSTYLE
105
21C
330
A
100
AcDbSymbolTableRecord
100
AcDbDimStyleTableRecord
  2
Matthias
 70
     0
 41
3.0
 44
2.0
 73
     0
 77
     1
140
3.0
147
2.0
178
     0
340
11
  0
DIMSTYLE
105
21E
102
{ACAD_REACTORS
102
}
330
A
100
AcDbSymbolTableRecord
100
AcDbDimStyleTableRecord
  2
ISO-25
 70
     0
 41
2.5
 42
0.625
 43
3.75
 44
1.25
 73
     0
 74
     0
 77
     1
 78
     8
140
2.5
141
2.5
143
0.0393700787
147
0.625
171
     3
172
     1
178
     0
271
     2
272
     2
274
     3
278
    44
283
     0
284
     8
340
11
  0
DIMSTYLE
105
21F
330
A
100
AcDbSymbolTableRecord
100
AcDbDimStyleTableRecord
  2
SLDDIMSTYLE0
 70
     0
 41
3.5
 44
0.0
 45
0.000000001
 73
     0
 74
     0
 77
     1
 78
    12
 79
     3
140
3.5
144
0.5
147
0.875
173
     1
178
     0
271
     2
272
     1
276
     2
284
    12
340
220
  0
DIMSTYLE
105
221
330
A
100
AcDbSymbolTableRecord
100
AcDbDimStyleTableRecord
  2
SLDDIMSTYLE1
 70
     0
 41
3.5
 44
0.0
 45
0.000000001
 73
     0
 74
     0
 77
     1
 78
    12
 79
     3
140
3.5
144
0.5
147
0.875
173
     1
178
     0
271
     2
272
     3
276
     2
284
    12
340
220
  0
DIMSTYLE
105
222
330
A
100
AcDbSymbolTableRecord
100
AcDbDimStyleTableRecord
  2
SLDDIMSTYLE2
 70
     0
 41
3.5
 44
0.0
 45
0.000000001
 73
     0
 74
     0
 77
     1
 78
    12
 79
     3
140
3.5
147
0.875
173
     1
178
     0
271
     2
272
     0
276
     2
284
    12
340
220
  0
ENDTAB
  0
TABLE
  2
BLOCK_RECORD
  5
1
330
0
100
AcDbSymbolTable
 70
     1
  0
BLOCK_RECORD
  5
1D
102
{ACAD_XDICTIONARY
360
293
102
}
330
1
100
AcDbSymbolTableRecord
100
AcDbBlockTableRecord
  2
*Model_Space
340
1E
 70
     0
280
     1
281
     0
  0
BLOCK_RECORD
  5
1B
330
1
100
AcDbSymbolTableRecord
100
AcDbBlockTableRecord
  2
*Paper_Space
340
1C
 70
     0
280
     1
281
     0
  0
ENDTAB
  0
ENDSEC
  0
SECTION
  2
BLOCKS
  0
BLOCK
  5
175
330
1D
100
AcDbEntity
  8
0
100
AcDbBlockBegin
  2
*Model_Space
 70
     0
 10
0.0
 20
0.0
 30
0.0
  3
*Model_Space
  1

  0
ENDBLK
  5
176
330
1D
100
AcDbEntity
  8
0
100
AcDbBlockEnd
  0
BLOCK
  5
173
330
1B
100
AcDbEntity
 67
     1
  8
0
100
AcDbBlockBegin
  2
*Paper_Space
 70
     0
 10
0.0
 20
0.0
 30
0.0
  3
*Paper_Space
  1

  0
ENDBLK
  5
174
330
1B
100
AcDbEntity
 67
     1
  8
0
100
AcDbBlockEnd
  0
ENDSEC
  0
SECTION
  2
ENTITIES
  0
LINE
  5
29
330
1D
100
AcDbEntity
  8
1
100
AcDbLine
 10
1.6513886293925
 20
9.493550285999998
 30
0.0
 11
1.802328079392499
 21
9.493076242999999
 31
0.0
  0
LINE
  5
2A
330
1D
100
AcDbEntity
  8
1
100
AcDbLine
 10
1.802328079392499
 20
9.493076242999999
 30
0.0
 11
1.949013247392499
 21
9.491547941999999
 31
0.0
  0
LINE
  5
2B
330
1D
100
AcDbEntity
  8
1
100
AcDbLine
 10
1.949013247392499
 20
9.491547941999999
 30
0.0
 11
2.0871954403925
 21
9.488729759999998
 31
0.0
  0
LINE
  5
2C
330
1D
100
AcDbEntity
  8
1
100
AcDbLine
 10
2.0871954403925
 20
9.488729759999998
 30
0.0
 11
2.213087900392499
 21
9.484251029999998
 31
0.0
  0
LINE
  5
2D
330
1D
100
AcDbEntity
  8
1
100
AcDbLine
 10
2.213087900392499
 20
9.484251029999998
 30
0.0
 11
2.3228591673925
 21
9.477672166999998
 31
0.0
  0
LINE
  5
2E
330
1D
100
AcDbEntity
  8
1
100
AcDbLine
 10
2.3228591673925
 20
9.477672166999998
 30
0.0
 11
2.4137283113925
 21
9.468610398999997
 31
0.0
  0
LINE
  5
2F
330
1D
100
AcDbEntity
  8
1
100
AcDbLine
 10
2.4137283113925
 20
9.468610398999997
 30
0.0
 11
2.4828343083925
 21
9.456713683999999
 31
0.0
  0
LINE
  5
30
330
1D
100
AcDbEntity
  8
1
100
AcDbLine
 10
2.4828343083925
 20
9.456713683999999
 30
0.0
 11
2.5286889073925
 21
9.441890753999997
 31
0.0
  0
LINE
  5
31
330
1D
100
AcDbEntity
  8
1
100
AcDbLine
 10
2.5286889073925
 20
9.441890753999997
 30
0.0
 11
2.5498187533925
 21
9.424096904999999
 31
0.0
  0
LINE
  5
32
330
1D
100
AcDbEntity
  8
1
100
AcDbLine
 10
2.5498187533925
 20
9.424096904999999
 30
0.0
 11
2.5459574903925
 21
9.403774514999999
 31
0.0
  0
LINE
  5
33
330
1D
100
AcDbEntity
  8
1
100
AcDbLine
 10
2.5459574903925
 20
9.403774514999999
 30
0.0
 11
2.516632005392499
 21
9.381233714999999
 31
0.0
  0
LINE
  5
34
330
1D
100
AcDbEntity
  8
1
100
AcDbLine
 10
2.516632005392499
 20
9.381233714999999
 30
0.0
 11
2.463006451392499
 21
9.357556700999998
 31
0.0
  0
LINE
  5
35
330
1D
100
AcDbEntity
  8
1
100
AcDbLine
 10
2.463006451392499
 20
9.357556700999998
 30
0.0
 11
2.385281994392499
 21
9.333491324999999
 31
0.0
  0
LINE
  5
36
330
1D
100
AcDbEntity
  8
1
100
AcDbLine
 10
2.385281994392499
 20
9.333491324999999
 30
0.0
 11
2.2863494593925
 21
9.310537948999999
 31
0.0
  0
LINE
  5
37
330
1D
100
AcDbEntity
  8
1
100
AcDbLine
 10
2.2863494593925
 20
9.310537948999999
 30
0.0
 11
2.168479412392499
 21
9.289981796999998
 31
0.0
  0
LINE
  5
38
330
1D
100
AcDbEntity
  8
1
100
AcDbLine
 10
2.168479412392499
 20
9.289981796999998
 30
0.0
 11
2.0352425423925
 21
9.273066184999998
 31
0.0
  0
LINE
  5
39
330
1D
100
AcDbEntity
  8
1
100
AcDbLine
 10
2.0352425423925
 20
9.273066184999998
 30
0.0
 11
1.8926887203925
 21
9.261137805999999
 31
0.0
  0
LINE
  5
3A
330
1D
100
AcDbEntity
  8
1
100
AcDbLine
 10
1.8926887203925
 20
9.261137805999999
 30
0.0
 11
1.7429860673925
 21
9.254597126999998
 31
0.0
  0
LINE
  5
3B
330
1D
100
AcDbEntity
  8
1
100
AcDbLine
 10
1.7429860673925
 20
9.254597126999998
 30
0.0
 11
1.593974455392499
 21
9.253968484999998
 31
0.0
  0
LINE
  5
3C
330
1D
100
AcDbEntity
  8
1
100
AcDbLine
 10
1.593974455392499
 20
9.253968484999998
 30
0.0
 11
1.446603834392499
 21
9.258965961999998
 31
0.0
  0
LINE
  5
3D
330
1D
100
AcDbEntity
  8
1
100
AcDbLine
 10
1.446603834392499
 20
9.258965961999998
 30
0.0
 11
1.1754194643925
 21
9.284095838999999
 31
0.0
  0
LINE
  5
3E
330
1D
100
AcDbEntity
  8
1
100
AcDbLine
 10
1.1754194643925
 20
9.284095838999999
 30
0.0
 11
0.9532543263924995
 21
9.324425830999997
 31
0.0
  0
LINE
  5
3F
330
1D
100
AcDbEntity
  8
1
100
AcDbLine
 10
0.9532543263924995
 20
9.324425830999997
 30
0.0
 11
0.8679079253924995
 21
9.347965940999998
 31
0.0
  0
LINE
  5
40
330
1D
100
AcDbEntity
  8
1
100
AcDbLine
 10
0.8679079253924995
 20
9.347965940999998
 30
0.0
 11
0.8046599473924995
 21
9.371864608999998
 31
0.0
  0
LINE
  5
41
330
1D
100
AcDbEntity
  8
1
100
AcDbLine
 10
0.8046599473924995
 20
9.371864608999998
 30
0.0
 11
0.7652240243924995
 21
9.395261294999997
 31
0.0
  0
LINE
  5
42
330
1D
100
AcDbEntity
  8
1
100
AcDbLine
 10
0.7652240243924995
 20
9.395261294999997
 30
0.0
 11
0.7513957463924995
 21
9.416934102999997
 31
0.0
  0
LINE
  5
43
330
1D
100
AcDbEntity
  8
1
100
AcDbLine
 10
0.7513957463924995
 20
9.416934102999997
 30
0.0
 11
0.7639648753924995
 21
9.436008519999998
 31
0.0
  0
LINE
  5
44
330
1D
100
AcDbEntity
  8
1
100
AcDbLine
 10
0.7639648753924995
 20
9.436008519999998
 30
0.0
 11
0.8022440963924995
 21
9.452205150999998
 31
0.0
  0
LINE
  5
45
330
1D
100
AcDbEntity
  8
1
100
AcDbLine
 10
0.8022440963924995
 20
9.452205150999998
 30
0.0
 11
0.8647339783924995
 21
9.465140290999999
 31
0.0
  0
LINE
  5
46
330
1D
100
AcDbEntity
  8
1
100
AcDbLine
 10
0.8647339783924995
 20
9.465140290999999
 30
0.0
 11
0.9496966743924995
 21
9.475169702999999
 31
0.0
  0
LINE
  5
47
330
1D
100
AcDbEntity
  8
1
100
AcDbLine
 10
0.9496966743924995
 20
9.475169702999999
 30
0.0
 11
1.054146363392499
 21
9.482467546999999
 31
0.0
  0
LINE
  5
48
330
1D
100
AcDbEntity
  8
1
100
AcDbLine
 10
1.054146363392499
 20
9.482467546999999
 30
0.0
 11
1.175451129392499
 21
9.487553499999999
 31
0.0
  0
LINE
  5
49
330
1D
100
AcDbEntity
  8
1
100
AcDbLine
 10
1.175451129392499
 20
9.487553499999999
 30
0.0
 11
1.310159488392499
 21
9.490835479999998
 31
0.0
  0
LINE
  5
4A
330
1D
100
AcDbEntity
  8
1
100
AcDbLine
 10
1.310159488392499
 20
9.490835479999998
 30
0.0
 11
1.454466059392499
 21
9.492721408999998
 31
0.0
  0
LINE
  5
4B
330
1D
100
AcDbEntity
  8
1
100
AcDbLine
 10
1.454466059392499
 20
9.492721408999998
 30
0.0
 11
1.6513886293925
 21
9.493550285999998
 31
0.0
  0
ARC
  5
4C
330
1D
100
AcDbEntity
  8
1
100
AcDbCircle
 10
6.1320064803925
 20
-2.176640861000001
 30
0.0
 40
9.85251507
100
AcDbArc
 50
127.869292728
 51
135.456977739
  0
ARC
  5
4D
330
1D
100
AcDbEntity
  8
1
100
AcDbCircle
 10
-0.1026755016075005
 20
5.824109306999999
 30
0.0
 40
0.290804355
100
AcDbArc
 50
309.9153437740001
 51
50.084656226
  0
ARC
  5
4E
330
1D
100
AcDbEntity
  8
1
100
AcDbCircle
 10
-9.5333375766075
 20
-8.022773434000001
 30
0.0
 40
17.042725983
100
AcDbArc
 50
55.646111901
 51
60.727401141
  0
LINE
  5
4F
330
1D
100
AcDbEntity
  8
1
100
AcDbLine
 10
-1.198611185607501
 20
7.202473468999999
 30
0.0
 11
-0.5734981606075005
 21
7.192357442999999
 31
0.0
  0
LINE
  5
50
330
1D
100
AcDbEntity
  8
1
100
AcDbLine
 10
-0.5734981606075005
 20
7.192357442999999
 30
0.0
 11
0.0514155623924995
 21
7.205222267999999
 31
0.0
  0
LINE
  5
51
330
1D
100
AcDbEntity
  8
1
100
AcDbLine
 10
0.0514155623924995
 20
7.205222267999999
 30
0.0
 11
0.6752787523924995
 21
7.238736375999999
 31
0.0
  0
LINE
  5
52
330
1D
100
AcDbEntity
  8
1
100
AcDbLine
 10
0.6752787523924995
 20
7.238736375999999
 30
0.0
 11
1.2957370273925
 21
7.292174268999999
 31
0.0
  0
LINE
  5
53
330
1D
100
AcDbEntity
  8
1
100
AcDbLine
 10
1.2957370273925
 20
7.292174268999999
 30
0.0
 11
1.910173370392499
 21
7.365802302999999
 31
0.0
  0
LINE
  5
54
330
1D
100
AcDbEntity
  8
1
100
AcDbLine
 10
1.910173370392499
 20
7.365802302999999
 30
0.0
 11
2.5162408493925
 21
7.462165783999999
 31
0.0
  0
LINE
  5
55
330
1D
100
AcDbEntity
  8
1
100
AcDbLine
 10
2.5162408493925
 20
7.462165783999999
 30
0.0
 11
3.107377364392499
 21
7.587376050999999
 31
0.0
  0
LINE
  5
56
330
1D
100
AcDbEntity
  8
1
100
AcDbLine
 10
3.107377364392499
 20
7.587376050999999
 30
0.0
 11
3.3925352983925
 21
7.664789910999999
 31
0.0
  0
LINE
  5
57
330
1D
100
AcDbEntity
  8
1
100
AcDbLine
 10
3.3925352983925
 20
7.664789910999999
 30
0.0
 11
3.6623748383925
 21
7.757167797999999
 31
0.0
  0
LINE
  5
58
330
1D
100
AcDbEntity
  8
1
100
AcDbLine
 10
3.6623748383925
 20
7.757167797999999
 30
0.0
 11
3.8588131213925
 21
7.847275584999999
 31
0.0
  0
LINE
  5
59
330
1D
100
AcDbEntity
  8
1
100
AcDbLine
 10
3.8588131213925
 20
7.847275584999999
 30
0.0
 11
3.944049626392499
 21
7.900615222999999
 31
0.0
  0
LINE
  5
5A
330
1D
100
AcDbEntity
  8
1
100
AcDbLine
 10
3.944049626392499
 20
7.900615222999999
 30
0.0
 11
4.0111178893925
 21
7.960245012999999
 31
0.0
  0
LINE
  5
5B
330
1D
100
AcDbEntity
  8
1
100
AcDbLine
 10
4.0111178893925
 20
7.960245012999999
 30
0.0
 11
4.049941002392499
 21
8.029145188999998
 31
0.0
  0
LINE
  5
5C
330
1D
100
AcDbEntity
  8
1
100
AcDbLine
 10
4.049941002392499
 20
8.029145188999998
 30
0.0
 11
4.042956083392499
 21
8.099940604999999
 31
0.0
  0
LINE
  5
5D
330
1D
100
AcDbEntity
  8
1
100
AcDbLine
 10
4.042956083392499
 20
8.099940604999999
 30
0.0
 11
3.996723368392499
 21
8.158893323999997
 31
0.0
  0
LINE
  5
5E
330
1D
100
AcDbEntity
  8
1
100
AcDbLine
 10
3.996723368392499
 20
8.158893323999997
 30
0.0
 11
3.864861130392499
 21
8.239195681999998
 31
0.0
  0
LINE
  5
5F
330
1D
100
AcDbEntity
  8
1
100
AcDbLine
 10
3.864861130392499
 20
8.239195681999998
 30
0.0
 11
3.702485039392499
 21
8.299760519999998
 31
0.0
  0
LINE
  5
60
330
1D
100
AcDbEntity
  8
1
100
AcDbLine
 10
3.702485039392499
 20
8.299760519999998
 30
0.0
 11
3.5240790243925
 21
8.347732014999998
 31
0.0
  0
LINE
  5
61
330
1D
100
AcDbEntity
  8
1
100
AcDbLine
 10
3.5240790243925
 20
8.347732014999998
 30
0.0
 11
3.075410648392499
 21
8.430823683999998
 31
0.0
  0
LINE
  5
62
330
1D
100
AcDbEntity
  8
1
100
AcDbLine
 10
3.075410648392499
 20
8.430823683999998
 30
0.0
 11
2.617389931392499
 21
8.486711419999999
 31
0.0
  0
LINE
  5
63
330
1D
100
AcDbEntity
  8
1
100
AcDbLine
 10
2.617389931392499
 20
8.486711419999999
 30
0.0
 11
2.1510413283925
 21
8.525621145999999
 31
0.0
  0
ARC
  5
64
330
1D
100
AcDbEntity
  8
1
100
AcDbCircle
 10
-27.6688805296075
 20
-435.196210637
 30
0.0
 40
444.722713389
100
AcDbArc
 50
86.155270482
 51
86.58771541999998
  0
LINE
  5
65
330
1D
100
AcDbEntity
  8
1
100
AcDbLine
 10
-1.198611185607501
 20
8.865484967999999
 30
0.0
 11
-1.198611185607501
 21
8.741307071999998
 31
0.0
  0
ARC
  5
66
330
1D
100
AcDbEntity
  8
1
100
AcDbCircle
 10
4.7140468463925
 20
-18.273260305
 30
0.0
 40
27.777998909
100
AcDbArc
 50
99.59503161499998
 51
102.290840468
  0
ARC
  5
67
330
1D
100
AcDbEntity
  8
1
100
AcDbCircle
 10
0.0897722893924995
 20
9.230719548999998
 30
0.0
 40
0.114730544
100
AcDbArc
 50
267.076422345
 51
325.1451095959998
  0
LINE
  5
68
330
1D
100
AcDbEntity
  8
1
100
AcDbLine
 10
0.1839204123924995
 20
9.306049905999998
 30
0.0
 11
0.1839204123924995
 21
9.165151044999998
 31
0.0
  0
LINE
  5
69
330
1D
100
AcDbEntity
  8
1
100
AcDbLine
 10
-0.0090999166075005
 20
9.344842284999999
 30
0.0
 11
0.0558803223924995
 21
9.342404081999998
 31
0.0
  0
LINE
  5
6A
330
1D
100
AcDbEntity
  8
1
100
AcDbLine
 10
0.0558803223924995
 20
9.342404081999998
 30
0.0
 11
0.1127394283924995
 21
9.336140937999998
 31
0.0
  0
LINE
  5
6B
330
1D
100
AcDbEntity
  8
1
100
AcDbLine
 10
0.1127394283924995
 20
9.336140937999998
 30
0.0
 11
0.1555933053924995
 21
9.326519444999999
 31
0.0
  0
LINE
  5
6C
330
1D
100
AcDbEntity
  8
1
100
AcDbLine
 10
0.1555933053924995
 20
9.326519444999999
 30
0.0
 11
0.1798076923924995
 21
9.314239024999997
 31
0.0
  0
LINE
  5
6D
330
1D
100
AcDbEntity
  8
1
100
AcDbLine
 10
0.1798076923924995
 20
9.314239024999997
 30
0.0
 11
0.1839204123924995
 21
9.306049905999998
 31
0.0
  0
ARC
  5
6E
330
1D
100
AcDbEntity
  8
1
100
AcDbCircle
 10
-48.9755620406075
 20
-6864.770236418
 30
0.0
 40
6874.289478465
100
AcDbArc
 50
89.591871228
 51
89.60101043899999
  0
LINE
  5
6F
330
1D
100
AcDbEntity
  8
1
100
AcDbLine
 10
-1.198611185607501
 20
9.356496855999998
 30
0.0
 11
-1.1364919696075
 21
9.352392516999998
 31
0.0
  0
LINE
  5
70
330
1D
100
AcDbEntity
  8
1
100
AcDbLine
 10
-1.1364919696075
 20
9.352392516999998
 30
0.0
 11
-1.105592549607501
 21
9.351767599999999
 31
0.0
  0
LINE
  5
71
330
1D
100
AcDbEntity
  8
1
100
AcDbLine
 10
-1.198611185607501
 20
9.499999694999998
 30
0.0
 11
-1.198611185607501
 21
9.356496855999998
 31
0.0
  0
LINE
  5
72
330
1D
100
AcDbEntity
  8
1
100
AcDbLine
 10
-1.198611185607501
 20
9.499999694999998
 30
0.0
 11
3.902350589392499
 21
9.499999694999998
 31
0.0
  0
LINE
  5
73
330
1D
100
AcDbEntity
  8
1
100
AcDbLine
 10
3.902350589392499
 20
9.499999694999998
 30
0.0
 11
3.909255414392499
 21
9.488038718999999
 31
0.0
  0
LINE
  5
74
330
1D
100
AcDbEntity
  8
1
100
AcDbLine
 10
3.909255414392499
 20
9.488038718999999
 30
0.0
 11
3.9299549903925
 21
9.452185593999998
 31
0.0
  0
LINE
  5
75
330
1D
100
AcDbEntity
  8
1
100
AcDbLine
 10
3.9299549903925
 20
9.452185593999998
 30
0.0
 11
3.964397161392499
 21
9.392529725999998
 31
0.0
  0
LINE
  5
76
330
1D
100
AcDbEntity
  8
1
100
AcDbLine
 10
3.964397161392499
 20
9.392529725999998
 30
0.0
 11
4.0124962473925
 21
9.309221989999998
 31
0.0
  0
LINE
  5
77
330
1D
100
AcDbEntity
  8
1
100
AcDbLine
 10
4.0124962473925
 20
9.309221989999998
 30
0.0
 11
4.074127450392499
 21
9.202472865999999
 31
0.0
  0
LINE
  5
78
330
1D
100
AcDbEntity
  8
1
100
AcDbLine
 10
4.074127450392499
 20
9.202472865999999
 30
0.0
 11
4.149138032392499
 21
9.072550571999999
 31
0.0
  0
LINE
  5
79
330
1D
100
AcDbEntity
  8
1
100
AcDbLine
 10
4.149138032392499
 20
9.072550571999999
 30
0.0
 11
4.2373398683925
 21
8.919781073999998
 31
0.0
  0
LINE
  5
7A
330
1D
100
AcDbEntity
  8
1
100
AcDbLine
 10
4.2373398683925
 20
8.919781073999998
 30
0.0
 11
4.3385075773925
 21
8.744550868999998
 31
0.0
  0
LINE
  5
7B
330
1D
100
AcDbEntity
  8
1
100
AcDbLine
 10
4.3385075773925
 20
8.744550868999998
 30
0.0
 11
4.452391564392499
 21
8.547301403999999
 31
0.0
  0
LINE
  5
7C
330
1D
100
AcDbEntity
  8
1
100
AcDbLine
 10
4.452391564392499
 20
8.547301403999999
 30
0.0
 11
4.578699394392499
 21
8.328527211999997
 31
0.0
  0
LINE
  5
7D
330
1D
100
AcDbEntity
  8
1
100
AcDbLine
 10
4.578699394392499
 20
8.328527211999997
 30
0.0
 11
4.7171181433925
 21
8.088781497999998
 31
0.0
  0
LINE
  5
7E
330
1D
100
AcDbEntity
  8
1
100
AcDbLine
 10
4.7171181433925
 20
8.088781497999998
 30
0.0
 11
4.867293908392499
 21
7.828666828999999
 31
0.0
  0
LINE
  5
7F
330
1D
100
AcDbEntity
  8
1
100
AcDbLine
 10
4.867293908392499
 20
7.828666828999999
 30
0.0
 11
5.028854160392499
 21
7.548837922999999
 31
0.0
  0
LINE
  5
80
330
1D
100
AcDbEntity
  8
1
100
AcDbLine
 10
5.028854160392499
 20
7.548837922999999
 30
0.0
 11
5.2013872553925
 21
7.249999790999999
 31
0.0
  0
LINE
  5
81
330
1D
100
AcDbEntity
  8
1
100
AcDbLine
 10
5.2013872553925
 20
-0.000000000000001
 30
0.0
 11
5.2013872553925
 21
7.249999790999999
 31
0.0
  0
ARC
  5
82
330
1D
100
AcDbEntity
  8
1
100
AcDbCircle
 10
7.201538994392499
 20
0.000151643999999
 30
0.0
 40
2.000151744
100
AcDbArc
 50
180.004343938
 51
269.995662732
  0
LINE
  5
83
330
1D
100
AcDbEntity
  8
1
100
AcDbLine
 10
9.2013879113925
 20
-2.000000095000001
 30
0.0
 11
7.201387583392499
 21
-2.000000095000001
 31
0.0
  0
LINE
  5
84
330
1D
100
AcDbEntity
  8
1
100
AcDbLine
 10
10.0534586603925
 20
-2.491943305000001
 30
0.0
 11
9.7706793243925
 21
-2.328680130000001
 31
0.0
  0
LINE
  5
85
330
1D
100
AcDbEntity
  8
1
100
AcDbLine
 10
9.7706793243925
 20
-2.328680130000001
 30
0.0
 11
9.4866259393925
 21
-2.164681675000001
 31
0.0
  0
LINE
  5
86
330
1D
100
AcDbEntity
  8
1
100
AcDbLine
 10
9.4866259393925
 20
-2.164681675000001
 30
0.0
 11
9.2013879113925
 21
-2.000000095000001
 31
0.0
  0
LINE
  5
87
330
1D
100
AcDbEntity
  8
1
100
AcDbLine
 10
10.0534586603925
 20
-2.491943305000001
 30
0.0
 11
10.0534586603925
 21
-9.308060631000002
 31
0.0
  0
LINE
  5
88
330
1D
100
AcDbEntity
  8
1
100
AcDbLine
 10
5.885832979392499
 20
-9.308060631000002
 30
0.0
 11
10.0534586603925
 21
-9.308060631000002
 31
0.0
  0
ARC
  5
89
330
1D
100
AcDbEntity
  8
1
100
AcDbCircle
 10
5.8661837323925
 20
-9.470857958000002
 30
0.0
 40
0.163978848
100
AcDbArc
 50
83.11782736000008
 51
119.3417077610001
  0
LINE
  5
8A
330
1D
100
AcDbEntity
  8
1
100
AcDbLine
 10
5.7858312863925
 20
-9.474175051000001
 30
0.0
 11
5.7858312863925
 21
-9.327915497000001
 31
0.0
  0
ARC
  5
8B
330
1D
100
AcDbEntity
  8
1
100
AcDbCircle
 10
5.706077164392499
 20
-9.333182811000002
 30
0.0
 40
0.16628047
100
AcDbArc
 50
277.8766158129999
 51
299.4954260079999
  0
LINE
  5
8C
330
1D
100
AcDbEntity
  8
1
100
AcDbLine
 10
5.7288641473925
 20
-9.497894905000003
 30
0.0
 11
-1.198611185607501
 21
-9.497894905000003
 31
0.0
  0
LINE
  5
8D
330
1D
100
AcDbEntity
  8
1
100
AcDbLine
 10
-1.105592549607501
 20
-9.351767600000002
 30
0.0
 11
-1.1706286676075
 21
-9.354135022000001
 31
0.0
  0
LINE
  5
8E
330
1D
100
AcDbEntity
  8
1
100
AcDbLine
 10
-1.1706286676075
 20
-9.354135022000001
 30
0.0
 11
-1.198611185607501
 21
-9.356496856000001
 31
0.0
  0
ARC
  5
8F
330
1D
100
AcDbEntity
  8
1
100
AcDbCircle
 10
-48.9755620406075
 20
6864.770236418
 30
0.0
 40
6874.288680752
100
AcDbArc
 50
270.398989561
 51
270.408128772
  0
ARC
  5
90
330
1D
100
AcDbEntity
  8
1
100
AcDbCircle
 10
0.0274812123924995
 20
-9.027255511000002
 30
0.0
 40
0.319686625
100
AcDbArc
 50
263.429360969
 51
299.297981074
  0
LINE
  5
91
330
1D
100
AcDbEntity
  8
1
100
AcDbLine
 10
0.1839204123924995
 20
-9.165151045000002
 30
0.0
 11
0.1839204123924995
 21
-9.306049906000002
 31
0.0
  0
ARC
  5
92
330
1D
100
AcDbEntity
  8
1
100
AcDbCircle
 10
0.0909326953924995
 20
-9.228351991000002
 30
0.0
 40
0.112432536
100
AcDbArc
 50
34.20276462599979
 51
93.57570343400003
  0
ARC
  5
93
330
1D
100
AcDbEntity
  8
1
100
AcDbCircle
 10
4.7140468463925
 20
18.273260305
 30
0.0
 40
27.775367212
100
AcDbArc
 50
257.709159532
 51
260.404968385
  0
ARC
  5
94
330
1D
100
AcDbEntity
  8
1
100
AcDbCircle
 10
-6.7589128356075
 20
11.771502211
 30
0.0
 40
21.093783289
100
AcDbArc
 50
285.283723807
 51
288.928464416
  0
LINE
  5
95
330
1D
100
AcDbEntity
  8
1
100
AcDbLine
 10
0.0839205823924995
 20
-8.182423189000001
 30
0.0
 11
0.1360541573924995
 21
-8.156679571000002
 31
0.0
  0
LINE
  5
96
330
1D
100
AcDbEntity
  8
1
100
AcDbLine
 10
0.1360541573924995
 20
-8.156679571000002
 30
0.0
 11
0.1693638403924995
 21
-8.123634383000002
 31
0.0
  0
LINE
  5
97
330
1D
100
AcDbEntity
  8
1
100
AcDbLine
 10
0.1693638403924995
 20
-8.123634383000002
 30
0.0
 11
0.1837993403924995
 21
-8.082050830000002
 31
0.0
  0
LINE
  5
98
330
1D
100
AcDbEntity
  8
1
100
AcDbLine
 10
0.1837993403924995
 20
-8.082050830000002
 30
0.0
 11
0.1717703783924995
 21
-8.034850471000002
 31
0.0
  0
LINE
  5
99
330
1D
100
AcDbEntity
  8
1
100
AcDbLine
 10
0.1717703783924995
 20
-8.034850471000002
 30
0.0
 11
0.1290226723924995
 21
-7.990910672000001
 31
0.0
  0
LINE
  5
9A
330
1D
100
AcDbEntity
  8
1
100
AcDbLine
 10
0.1290226723924995
 20
-7.990910672000001
 30
0.0
 11
0.0839205823924995
 21
-7.967932150000001
 31
0.0
  0
ARC
  5
9B
330
1D
100
AcDbEntity
  8
1
100
AcDbCircle
 10
5.9710502113925
 20
8.022773433999998
 30
0.0
 40
17.039518655
100
AcDbArc
 50
245.1169976809999
 51
247.461812867
  0
ARC
  5
9C
330
1D
100
AcDbEntity
  8
1
100
AcDbCircle
 10
7.526752489392499
 20
11.771502211
 30
0.0
 40
21.096777254
100
AcDbArc
 50
247.461812867
 51
249.340848603
  0
ARC
  5
9D
330
1D
100
AcDbEntity
  8
1
100
AcDbCircle
 10
-9.5333375766075
 20
8.022773433999998
 30
0.0
 40
17.045637007
100
AcDbArc
 50
299.272598859
 51
304.3538880990001
  0
ARC
  5
9E
330
1D
100
AcDbEntity
  8
1
100
AcDbCircle
 10
-0.1053761326075005
 20
-5.824109307000001
 30
0.0
 40
0.292544562
100
AcDbArc
 50
310.3210307909999
 51
49.67896920899994
  0
ARC
  5
9F
330
1D
100
AcDbEntity
  8
1
100
AcDbCircle
 10
6.1320064803925
 20
2.176640860999999
 30
0.0
 40
9.855946544
100
AcDbArc
 50
221.9459093249999
 51
232.130707272
  0
LINE
  5
A0
330
1D
100
AcDbEntity
  8
1
100
AcDbLine
 10
-1.198611185607501
 20
-3.041381249000001
 30
0.0
 11
3.0013872673925
 21
-3.041381249000001
 31
0.0
  0
ARC
  5
A1
330
1D
100
AcDbEntity
  8
1
100
AcDbCircle
 10
-12.2879375786075
 20
-0.000000000000001
 30
0.0
 40
15.588889596
100
AcDbArc
 50
348.749476207
 51
0.0
  0
ARC
  5
A2
330
1D
100
AcDbEntity
  8
1
100
AcDbCircle
 10
-12.2879375786075
 20
-0.000000000000001
 30
0.0
 40
15.578000785
100
AcDbArc
 50
0.0
 51
11.250523793
  0
LINE
  5
A3
330
1D
100
AcDbEntity
  8
1
100
AcDbLine
 10
3.0013872673925
 20
3.041381248999999
 30
0.0
 11
-1.198611185607501
 21
3.041381248999999
 31
0.0
  0
LINE
  5
A4
330
1D
100
AcDbEntity
  8
1
100
AcDbLine
 10
3.0013872673925
 20
3.041381248999999
 30
0.0
 11
3.0013872673925
 21
-3.041381249000001
 31
0.0
  0
ARC
  5
A5
330
1D
100
AcDbEntity
  8
1
100
AcDbCircle
 10
11.2195478023925
 20
-9.096071030000001
 30
0.0
 40
0.403407686
100
AcDbArc
 50
260.5408528799998
 51
357.6432353580001
  0
LINE
  5
A6
330
1D
100
AcDbEntity
  8
1
100
AcDbLine
 10
10.4261609163925
 20
-2.707122825000001
 30
0.0
 11
10.5997501303925
 21
-2.807344543000001
 31
0.0
  0
LINE
  5
A7
330
1D
100
AcDbEntity
  8
1
100
AcDbLine
 10
10.5997501303925
 20
-2.807344543000001
 30
0.0
 11
10.7367085653925
 21
-2.886418020000001
 31
0.0
  0
LINE
  5
A8
330
1D
100
AcDbEntity
  8
1
100
AcDbLine
 10
10.7367085653925
 20
-2.886418020000001
 30
0.0
 11
10.8508533233925
 21
-2.952320036000001
 31
0.0
  0
LINE
  5
A9
330
1D
100
AcDbEntity
  8
1
100
AcDbLine
 10
10.8508533233925
 20
-2.952320036000001
 30
0.0
 11
10.9007759383925
 21
-2.981142374000001
 31
0.0
  0
LINE
  5
AA
330
1D
100
AcDbEntity
  8
1
100
AcDbLine
 10
10.9007759383925
 20
-2.981142374000001
 30
0.0
 11
10.9062260383925
 21
-2.984288381000001
 31
0.0
  0
LINE
  5
AB
330
1D
100
AcDbEntity
  8
1
100
AcDbLine
 10
10.0534586603925
 20
-9.308060631000002
 30
0.0
 11
10.7483929393925
 21
-9.433090687000002
 31
0.0
  0
LINE
  5
AC
330
1D
100
AcDbEntity
  8
1
100
AcDbLine
 10
10.7483929393925
 20
-9.433090687000002
 30
0.0
 11
11.1532500383925
 21
-9.505900554000002
 31
0.0
  0
LINE
  5
AD
330
1D
100
AcDbEntity
  8
1
100
AcDbLine
 10
10.4261609163925
 20
-2.707122825000001
 30
0.0
 11
10.0534586603925
 21
-2.491943305000001
 31
0.0
  0
LINE
  5
AE
330
1D
100
AcDbEntity
  8
1
100
AcDbLine
 10
9.235362559392499
 20
-0.500000024000001
 30
0.0
 11
9.6568121013925
 21
-0.743323762000001
 31
0.0
  0
LINE
  5
AF
330
1D
100
AcDbEntity
  8
1
100
AcDbLine
 10
9.6568121013925
 20
-0.743323762000001
 30
0.0
 11
10.0765759493925
 21
-0.985674560000001
 31
0.0
  0
LINE
  5
B0
330
1D
100
AcDbEntity
  8
1
100
AcDbLine
 10
10.0765759493925
 20
-0.985674560000001
 30
0.0
 11
10.4929758603925
 21
-1.226083608000001
 31
0.0
  0
ARC
  5
B1
330
1D
100
AcDbEntity
  8
1
100
AcDbCircle
 10
14.1020879103925
 20
0.500555345999999
 30
0.0
 40
4.000871389
100
AcDbArc
 50
205.5669659749999
 51
231.43350335
  0
ARC
  5
B2
330
1D
100
AcDbEntity
  8
1
100
AcDbCircle
 10
41.5289387613925
 20
-0.500000000000001
 30
0.0
 40
30.667980295
100
AcDbArc
 50
184.709454381
 51
185.344722231
  0
ARC
  5
B3
330
1D
100
AcDbEntity
  8
1
100
AcDbCircle
 10
15.9989172663925
 20
-2.888422324000001
 30
0.0
 40
5.021477671
100
AcDbArc
 50
185.345024151
 51
192.606993773
  0
ARC
  5
B4
330
1D
100
AcDbEntity
  8
1
100
AcDbCircle
 10
12.4800203133925
 20
-3.675439989000001
 30
0.0
 40
1.41564454
100
AcDbArc
 50
192.606993773
 51
207.00288411
  0
ARC
  5
B5
330
1D
100
AcDbEntity
  8
1
100
AcDbCircle
 10
11.2706116843925
 20
-4.291741447000001
 30
0.0
 40
0.058258553
100
AcDbArc
 50
207.0026238009999
 51
332.9973761990001
  0
ARC
  5
B7
330
1D
100
AcDbEntity
  8
1
100
AcDbCircle
 10
10.0612030553925
 20
-3.675439989000001
 30
0.0
 40
1.41564454
100
AcDbArc
 50
332.9971158899999
 51
347.393006227
  0
ARC
  5
B8
330
1D
100
AcDbEntity
  8
1
100
AcDbCircle
 10
6.5423061023925
 20
-2.888422324000001
 30
0.0
 40
5.021477671
100
AcDbArc
 50
347.393006227
 51
354.654975849
  0
ARC
  5
B9
330
1D
100
AcDbEntity
  8
1
100
AcDbCircle
 10
-18.9877153926075
 20
-0.500000000000001
 30
0.0
 40
30.662978383
100
AcDbArc
 50
354.655277769
 51
356.021961328
  0
LINE
  5
BA
330
1D
100
AcDbEntity
  8
1
100
AcDbLine
 10
-1.198611185607501
 20
-3.041381249000001
 30
0.0
 11
-1.298611015607501
 21
-3.024896607000001
 31
0.0
  0
LINE
  5
BC
330
1D
100
AcDbEntity
  8
1
100
AcDbLine
 10
-1.198611185607501
 20
3.041381248999999
 30
0.0
 11
-1.298611015607501
 21
3.024896606999999
 31
0.0
  0
ARC
  5
BD
330
1D
100
AcDbEntity
  8
1
100
AcDbCircle
 10
0.8165708093924995
 20
-3.766040667000001
 30
0.0
 40
2.115984789
100
AcDbArc
 50
181.578495057
 51
197.756485324
  0
LINE
  5
C0
330
1D
100
AcDbEntity
  8
1
100
AcDbLine
 10
-1.198611185607501
 20
4.411356988999999
 30
0.0
 11
-1.2784218046075
 21
4.062229302
 31
0.0
  0
LINE
  5
C1
330
1D
100
AcDbEntity
  8
1
100
AcDbLine
 10
-1.2784218046075
 20
4.062229302
 30
0.0
 11
-1.298611015607501
 21
3.824328537999999
 31
0.0
  0
ARC
  5
C2
330
1D
100
AcDbEntity
  8
1
100
AcDbCircle
 10
14.1013880723925
 20
0.499999999999999
 30
0.0
 40
4.0
100
AcDbArc
 50
231.4363971229999
 51
234.900367805
  0
LINE
  5
C3
330
1D
100
AcDbEntity
  8
1
100
AcDbLine
 10
11.8013872203925
 20
-2.772613661000001
 30
0.0
 11
11.8013872203925
 21
-3.674340434000001
 31
0.0
  0
LINE
  5
C4
330
1D
100
AcDbEntity
  8
1
100
AcDbLine
 10
11.8013872203925
 20
-3.674340434000001
 30
0.0
 11
11.7488345493925
 21
-3.722882364000001
 31
0.0
  0
LINE
  5
C5
330
1D
100
AcDbEntity
  8
1
100
AcDbLine
 10
11.6332201653925
 20
-3.702392336000001
 30
0.0
 11
11.7488345493925
 21
-3.722882364000001
 31
0.0
  0
ARC
  5
C6
330
1D
100
AcDbEntity
  8
1
100
AcDbCircle
 10
11.7586930413925
 20
-3.740464374000001
 30
0.0
 40
0.133188416
100
AcDbArc
 50
167.6391761929999
 51
174.834712783
  0
ARC
  5
C7
330
1D
100
AcDbEntity
  8
1
100
AcDbCircle
 10
12.4438145843925
 20
-3.802395933000001
 30
0.0
 40
0.821103417
100
AcDbArc
 50
174.834774516
 51
179.978511677
  0
LINE
  5
C8
330
1D
100
AcDbEntity
  8
1
100
AcDbLine
 10
11.6227111213925
 20
-9.103845805000002
 30
0.0
 11
11.6227111213925
 21
-3.802088089000001
 31
0.0
  0
LINE
  5
C9
330
1D
100
AcDbEntity
  8
1
100
AcDbLine
 10
11.6227111213925
 20
-9.103845805000002
 30
0.0
 11
11.6226142633925
 21
-9.112659842000001
 31
0.0
  0
LINE
  5
CA
330
1D
100
AcDbEntity
  8
1
100
AcDbLine
 10
10.9062260383925
 20
-2.984288381000001
 30
0.0
 11
10.9644970293925
 21
-3.017931944000001
 31
0.0
  0
ARC
  5
CC
330
1D
100
AcDbEntity
  8
1
100
AcDbCircle
 10
-0.6543164536075005
 20
-7.080413189000001
 30
0.0
 40
0.649577766
100
AcDbArc
 50
187.3124937059999
 51
213.078790024
  0
LINE
  5
CE
330
1D
100
AcDbEntity
  8
1
100
AcDbLine
 10
-1.198611185607501
 20
-6.846190430000001
 30
0.0
 11
-1.2208232286075
 21
-6.829691585000001
 31
0.0
  0
LINE
  5
CF
330
1D
100
AcDbEntity
  8
1
100
AcDbLine
 10
-1.2208232286075
 20
-6.829691585000001
 30
0.0
 11
-1.2524993726075
 21
-6.815140136000001
 31
0.0
  0
LINE
  5
D0
330
1D
100
AcDbEntity
  8
1
100
AcDbLine
 10
-1.2524993726075
 20
-6.815140136000001
 30
0.0
 11
-1.2751863906075
 21
-6.816109177000001
 31
0.0
  0
LINE
  5
D1
330
1D
100
AcDbEntity
  8
1
100
AcDbLine
 10
-1.2751863906075
 20
-6.816109177000001
 30
0.0
 11
-1.288269609607501
 21
-6.827017292000001
 31
0.0
  0
LINE
  5
D2
330
1D
100
AcDbEntity
  8
1
100
AcDbLine
 10
-1.288269609607501
 20
-6.827017292000001
 30
0.0
 11
-1.2978100786075
 21
-6.856901105000001
 31
0.0
  0
LINE
  5
D3
330
1D
100
AcDbEntity
  8
1
100
AcDbLine
 10
-1.2978100786075
 20
-6.856901105000001
 30
0.0
 11
-1.298611015607501
 21
-6.872546393000001
 31
0.0
  0
LINE
  5
D5
330
1D
100
AcDbEntity
  8
1
100
AcDbLine
 10
-1.298611015607501
 20
6.872546392999999
 30
0.0
 11
-1.2954091286075
 21
6.843508220999999
 31
0.0
  0
LINE
  5
D6
330
1D
100
AcDbEntity
  8
1
100
AcDbLine
 10
-1.2954091286075
 20
6.843508220999999
 30
0.0
 11
-1.284318939607501
 21
6.822239607999999
 31
0.0
  0
LINE
  5
D7
330
1D
100
AcDbEntity
  8
1
100
AcDbLine
 10
-1.284318939607501
 20
6.822239607999999
 30
0.0
 11
-1.267963052607501
 21
6.814179941999999
 31
0.0
  0
LINE
  5
D8
330
1D
100
AcDbEntity
  8
1
100
AcDbLine
 10
-1.267963052607501
 20
6.814179941999999
 30
0.0
 11
-1.2454939636075
 21
6.817173677999999
 31
0.0
  0
LINE
  5
D9
330
1D
100
AcDbEntity
  8
1
100
AcDbLine
 10
-1.2454939636075
 20
6.817173677999999
 30
0.0
 11
-1.2213242806075
 21
6.829370278999999
 31
0.0
  0
LINE
  5
DA
330
1D
100
AcDbEntity
  8
1
100
AcDbLine
 10
-1.2213242806075
 20
6.829370278999999
 30
0.0
 11
-1.198611185607501
 21
6.846190429999999
 31
0.0
  0
LINE
  5
DC
330
1D
100
AcDbEntity
  8
1
100
AcDbLine
 10
-1.198611185607501
 20
7.202473468999999
 30
0.0
 11
-1.298611015607501
 21
7.100830319999999
 31
0.0
  0
LINE
  5
DE
330
1D
100
AcDbEntity
  8
1
100
AcDbLine
 10
-1.298611015607501
 20
7.126453797999999
 30
0.0
 11
-1.298611015607501
 21
8.638566359999999
 31
0.0
  0
LINE
  5
E0
330
1D
100
AcDbEntity
  8
1
100
AcDbLine
 10
-1.298611015607501
 20
8.638566359999999
 30
0.0
 11
-1.198611185607501
 21
8.741307071999998
 31
0.0
  0
LINE
  5
E2
330
1D
100
AcDbEntity
  8
1
100
AcDbLine
 10
-1.198611185607501
 20
-8.576243184000003
 30
0.0
 11
-1.232760921607501
 21
-8.550257422000001
 31
0.0
  0
LINE
  5
E3
330
1D
100
AcDbEntity
  8
1
100
AcDbLine
 10
-1.232760921607501
 20
-8.550257422000001
 30
0.0
 11
-1.2640179696075
 21
-8.532673120000002
 31
0.0
  0
LINE
  5
E4
330
1D
100
AcDbEntity
  8
1
100
AcDbLine
 10
-1.2640179696075
 20
-8.532673120000002
 30
0.0
 11
-1.287045851607501
 21
-8.528540842000002
 31
0.0
  0
LINE
  5
E5
330
1D
100
AcDbEntity
  8
1
100
AcDbLine
 10
-1.287045851607501
 20
-8.528540842000002
 30
0.0
 11
-1.2970612946075
 21
-8.537068032000002
 31
0.0
  0
LINE
  5
E6
330
1D
100
AcDbEntity
  8
1
100
AcDbLine
 10
-1.2970612946075
 20
-8.537068032000002
 30
0.0
 11
-1.298611015607501
 21
-8.546782657000001
 31
0.0
  0
ARC
  5
E8
330
1D
100
AcDbEntity
  8
1
100
AcDbCircle
 10
-0.8414526256075006
 20
-8.546743826000002
 30
0.0
 40
0.478704661
100
AcDbArc
 50
197.255693469
 51
221.7468692040001
  0
ARC
  5
EA
330
1D
100
AcDbEntity
  8
1
100
AcDbCircle
 10
-0.9662516296075006
 20
8.617355389999998
 30
0.0
 40
0.33994007
100
AcDbArc
 50
133.1201833980001
 51
167.8772539290001
  0
LINE
  5
EB
330
1D
100
AcDbEntity
  8
1
100
AcDbLine
 10
-1.298611015607501
 20
9.399468078999998
 30
0.0
 11
-1.298611015607501
 21
8.638566359999999
 31
0.0
  0
ARC
  5
EC
330
1D
100
AcDbEntity
  8
1
100
AcDbCircle
 10
11.2195515833925
 20
-9.108206285000001
 30
0.0
 40
0.403183118
100
AcDbArc
 50
260.534991012
 51
0.6196737109999647
  0
ARC
  5
EE
330
1D
100
AcDbEntity
  8
1
100
AcDbCircle
 10
-1.3581161006075
 20
9.471464422999999
 30
0.0
 40
0.196619835
100
AcDbArc
 50
287.616254636
 51
324.2167819949998
  0
ARC
  5
EF
330
1D
100
AcDbEntity
  8
1
100
AcDbCircle
 10
-1.3845261006075
 20
-9.507926271000002
 30
0.0
 40
0.239781616
100
AcDbArc
 50
39.16313407200008
 51
69.00382929700001
  0
LINE
  5
F2
330
1D
100
AcDbEntity
  8
1
100
AcDbLine
 10
-1.198611185607501
 20
9.499999694999998
 30
0.0
 11
-1.298611015607501
 21
9.399468078999998
 31
0.0
  0
LINE
  5
F3
330
1D
100
AcDbEntity
  8
1
100
AcDbLine
 10
-1.198611185607501
 20
-9.497894905000003
 30
0.0
 11
-1.298611015607501
 21
-9.395211935000003
 31
0.0
  0
LINE
  5
F4
330
1D
100
AcDbEntity
  8
1
100
AcDbLine
 10
-1.298611015607501
 20
-9.395211935000003
 30
0.0
 11
-1.298611015607501
 21
7.10083032
 31
0.0
  0
ARC
  5
F5
330
1D
100
AcDbEntity
  8
1
100
AcDbCircle
 10
7.2020812353925
 20
2.983833109999999
 30
0.0
 40
2.000693983
100
AcDbArc
 50
180.003331401
 51
198.19184523
  0
LINE
  5
F6
330
1D
100
AcDbEntity
  8
1
100
AcDbLine
 10
6.2013874193925
 20
1.251665991999999
 30
0.0
 11
9.235362559392499
 21
-0.500000024000001
 31
0.0
  0
ARC
  5
F7
330
1D
100
AcDbEntity
  8
1
100
AcDbCircle
 10
7.2013880723925
 20
2.983716856999999
 30
0.0
 40
2.0
100
AcDbArc
 50
198.194872339
 51
239.9999999999999
  0
ARC
  5
F9
330
1D
100
AcDbEntity
  8
1
100
AcDbCircle
 10
6.051388072392499
 20
8.621385256999998
 30
0.0
 40
0.4
100
AcDbArc
 50
99.99999999999994
 51
180.0
  0
ARC
  5
FA
330
1D
100
AcDbEntity
  8
1
100
AcDbCircle
 10
11.6013880723925
 20
9.599999998999998
 30
0.0
 40
0.4
100
AcDbArc
 50
0.0
 51
100.0000000000001
  0
LINE
  5
FB
330
1D
100
AcDbEntity
  8
1
100
AcDbLine
 10
12.0013868803925
 20
9.600000455999998
 30
0.0
 11
12.0013868803925
 21
3.964382223999999
 31
0.0
  0
ARC
  5
FC
330
1D
100
AcDbEntity
  8
1
100
AcDbCircle
 10
11.6013880723925
 20
3.964382303999999
 30
0.0
 40
0.4
100
AcDbArc
 50
280.0000000000001
 51
0.0
  0
LINE
  5
FD
330
1D
100
AcDbEntity
  8
1
100
AcDbLine
 10
11.6708455973925
 20
3.570459316999999
 30
0.0
 11
6.1208466433925
 21
2.591844414999999
 31
0.0
  0
ARC
  5
FE
330
1D
100
AcDbEntity
  8
1
100
AcDbCircle
 10
6.051388072392499
 20
2.985767560999999
 30
0.0
 40
0.4
100
AcDbArc
 50
180.0
 51
280.0
  0
ARC
  5
100
330
1D
100
AcDbEntity
  8
CUT
100
AcDbCircle
 10
11.6013880723925
 20
-3.964382303000001
 30
0.0
 40
0.107772745
100
AcDbArc
 50
0.0
 51
78.58875940300021
  0
LINE
  5
101
330
1D
100
AcDbEntity
  8
CUT
100
AcDbLine
 10
11.7091602083925
 20
-9.600000456000002
 30
0.0
 11
11.7091602083925
 21
-3.964382224000001
 31
0.0
  0
ARC
  5
102
330
1D
100
AcDbEntity
  8
CUT
100
AcDbCircle
 10
11.6013880723925
 20
-9.599999999000001
 30
0.0
 40
0.107772745
100
AcDbArc
 50
260.0
 51
0.0
  0
LINE
  5
103
330
1D
100
AcDbEntity
  8
CUT
100
AcDbLine
 10
9.325080587392499
 20
-9.308060631000002
 30
0.0
 11
11.5826717013925
 21
-9.706135839000002
 31
0.0
  0
LINE
  5
104
330
1D
100
AcDbEntity
  8
CUT
100
AcDbLine
 10
7.6422123603925
 20
-9.308060631000002
 30
0.0
 11
11.5319295223925
 21
-9.993922897000001
 31
0.0
  0
LINE
  5
105
330
1D
100
AcDbEntity
  8
CUT
100
AcDbLine
 10
12.0013868803925
 20
-9.600000456000002
 30
0.0
 11
12.0013868803925
 21
-3.964382224000001
 31
0.0
  0
ARC
  5
106
330
1D
100
AcDbEntity
  8
CUT
100
AcDbCircle
 10
11.6013880723925
 20
-3.964382303000001
 30
0.0
 40
0.4
100
AcDbArc
 50
0.0
 51
60.00000000000009
  0
ARC
  5
107
330
1D
100
AcDbEntity
  8
CUT
100
AcDbCircle
 10
11.6013880723925
 20
-9.599999999000001
 30
0.0
 40
0.4
100
AcDbArc
 50
259.9999999999999
 51
0.0
  0
ARC
  5
108
330
1D
100
AcDbEntity
  8
1
100
AcDbCircle
 10
9.2423823403925
 20
5.189461915999999
 30
0.0
 40
0.4
100
AcDbArc
 50
65.99279436199993
 51
174.007205638
  0
ARC
  5
109
330
1D
100
AcDbEntity
  8
1
100
AcDbCircle
 10
9.466150681392499
 20
5.69188378
 30
0.0
 40
0.15
100
AcDbArc
 50
245.9927943620003
 51
54.00720563799971
  0
ARC
  5
10A
330
1D
100
AcDbEntity
  8
1
100
AcDbCircle
 10
9.7893766083925
 20
6.136883779999999
 30
0.0
 40
0.4
100
AcDbArc
 50
125.9927943619999
 51
234.0072056379999
  0
ARC
  5
10B
330
1D
100
AcDbEntity
  8
1
100
AcDbCircle
 10
9.466150681392499
 20
6.581883779999999
 30
0.0
 40
0.15
100
AcDbArc
 50
305.9927943619998
 51
114.0072056380003
  0
ARC
  5
10C
330
1D
100
AcDbEntity
  8
1
100
AcDbCircle
 10
9.2423823403925
 20
7.084305643999999
 30
0.0
 40
0.4
100
AcDbArc
 50
185.992794362
 51
294.0072056380001
  0
ARC
  5
10D
330
1D
100
AcDbEntity
  8
1
100
AcDbCircle
 10
8.6953880723925
 20
7.026883779999999
 30
0.0
 40
0.15
100
AcDbArc
 50
5.992794362000007
 51
174.007205638
  0
ARC
  5
10E
330
1D
100
AcDbEntity
  8
1
100
AcDbCircle
 10
8.1483938043925
 20
7.084305643999999
 30
0.0
 40
0.4
100
AcDbArc
 50
245.992794362
 51
354.007205638
  0
ARC
  5
10F
330
1D
100
AcDbEntity
  8
1
100
AcDbCircle
 10
7.924625463392499
 20
6.581883779999999
 30
0.0
 40
0.15
100
AcDbArc
 50
65.99279436199998
 51
234.007205638
  0
ARC
  5
110
330
1D
100
AcDbEntity
  8
1
100
AcDbCircle
 10
7.6013995353925
 20
6.136883779999999
 30
0.0
 40
0.4
100
AcDbArc
 50
305.992794362
 51
54.00720563800003
  0
ARC
  5
111
330
1D
100
AcDbEntity
  8
1
100
AcDbCircle
 10
7.924625463392499
 20
5.69188378
 30
0.0
 40
0.15
100
AcDbArc
 50
125.992794362
 51
294.007205638
  0
ARC
  5
112
330
1D
100
AcDbEntity
  8
1
100
AcDbCircle
 10
8.1483938043925
 20
5.189461915999999
 30
0.0
 40
0.4
100
AcDbArc
 50
5.992794362000049
 51
114.007205638
  0
ARC
  5
113
330
1D
100
AcDbEntity
  8
1
100
AcDbCircle
 10
8.6953880723925
 20
5.246883779999999
 30
0.0
 40
0.15
100
AcDbArc
 50
185.992794362
 51
354.007205638
  0
LINE
  5
115
330
1D
100
AcDbEntity
  8
1
100
AcDbLine
 10
-1.098611355607501
 20
-9.497894905000003
 30
0.0
 11
-1.098611355607501
 21
-9.499999694000001
 31
0.0
  0
LINE
  5
116
330
1D
100
AcDbEntity
  8
1
100
AcDbLine
 10
3.903565033392499
 20
-9.497894905000003
 30
0.0
 11
3.902350589392499
 21
-9.499999694000001
 31
0.0
  0
LINE
  5
117
330
1D
100
AcDbEntity
  8
1
100
AcDbLine
 10
5.885832979392499
 20
9.308060630999998
 30
0.0
 11
7.6422123603925
 21
9.308060630999998
 31
0.0
  0
ARC
  5
118
330
1D
100
AcDbEntity
  8
1
100
AcDbCircle
 10
5.8661837323925
 20
9.470857957999998
 30
0.0
 40
0.163978848
100
AcDbArc
 50
240.658292239
 51
276.88217264
  0
ARC
  5
119
330
1D
100
AcDbEntity
  8
1
100
AcDbCircle
 10
5.706077164392499
 20
9.333182810999999
 30
0.0
 40
0.161986931
100
AcDbArc
 50
60.50457399200021
 51
82.12338418699981
  0
LINE
  5
11A
330
1D
100
AcDbEntity
  8
1
100
AcDbLine
 10
5.7288641473925
 20
9.497894905999999
 30
0.0
 11
3.903565033392499
 21
9.497894905999999
 31
0.0
  0
LINE
  5
11B
330
1D
100
AcDbEntity
  8
1
100
AcDbLine
 10
5.2013872553925
 20
5.304573103999999
 30
0.0
 11
5.651387422392499
 21
5.384325515999999
 31
0.0
  0
LINE
  5
11C
330
1D
100
AcDbEntity
  8
1
100
AcDbLine
 10
11.8013872203925
 20
2.772613660999999
 30
0.0
 11
11.8013872203925
 21
3.617972135999999
 31
0.0
  0
ARC
  5
11D
330
1D
100
AcDbEntity
  8
1
100
AcDbCircle
 10
14.1013880723925
 20
-0.500000000000001
 30
0.0
 40
4.0
100
AcDbArc
 50
125.099632195
 51
154.435881431
  0
LINE
  5
11E
330
1D
100
AcDbEntity
  8
1
100
AcDbLine
 10
8.3693368723925
 20
-0.000000000000001
 30
0.0
 11
10.4929758603925
 21
1.226083607999999
 31
0.0
  0
LINE
  5
11F
330
1D
100
AcDbEntity
  8
1
100
AcDbLine
 10
5.534620060392499
 20
2.621556166999999
 30
0.0
 11
5.5097388473925
 21
2.617146353999999
 31
0.0
  0
LINE
  5
120
330
1D
100
AcDbEntity
  8
1
100
AcDbLine
 10
5.5097388473925
 20
2.617146353999999
 30
0.0
 11
5.4720724363925
 21
2.610470866999999
 31
0.0
  0
LINE
  5
121
330
1D
100
AcDbEntity
  8
1
100
AcDbLine
 10
5.4720724363925
 20
2.610470866999999
 30
0.0
 11
5.416973530392499
 21
2.600705949999999
 31
0.0
  0
LINE
  5
122
330
1D
100
AcDbEntity
  8
1
100
AcDbLine
 10
5.416973530392499
 20
2.600705949999999
 30
0.0
 11
5.243572443392499
 21
2.581964712999999
 31
0.0
  0
LINE
  5
123
330
1D
100
AcDbEntity
  8
1
100
AcDbLine
 10
5.806240289392499
 20
2.669694367999999
 30
0.0
 11
5.534620060392499
 21
2.621556166999999
 31
0.0
  0
LINE
  5
124
330
1D
100
AcDbEntity
  8
1
100
AcDbLine
 10
5.7858312863925
 20
9.474175050999998
 30
0.0
 11
5.7858312863925
 21
8.920517749999998
 31
0.0
  0
ARC
  5
125
330
1D
100
AcDbEntity
  8
1
100
AcDbCircle
 10
85.2014799293925
 20
-0.000000000000001
 30
0.0
 40
74.355166739
100
AcDbArc
 50
182.300217607
 51
185.345567256
  0
ARC
  5
126
330
1D
100
AcDbEntity
  8
1
100
AcDbCircle
 10
23.3015187813925
 20
-5.791847293000001
 30
0.0
 40
12.176406868
100
AcDbArc
 50
185.346011244
 51
192.608482125
  0
ARC
  5
127
330
1D
100
AcDbEntity
  8
1
100
AcDbCircle
 10
14.7690415793925
 20
-7.700408225000001
 30
0.0
 40
3.433079581
100
AcDbArc
 50
192.608482125
 51
204.172582481
  0
ARC
  5
128
330
1D
100
AcDbEntity
  8
1
100
AcDbCircle
 10
38.0700717993925
 20
-3.177965712000001
 30
0.0
 40
27.647920391
100
AcDbArc
 50
179.024208185
 51
193.205536923
  0
LINE
  5
129
330
1D
100
AcDbEntity
  8
1
100
AcDbLine
 10
11.1532500383925
 20
-9.493993595000001
 30
0.0
 11
11.1532500383925
 21
-9.505900554000002
 31
0.0
  0
LINE
  5
12A
330
1D
100
AcDbEntity
  8
CUT
100
AcDbLine
 10
11.6227111213925
 20
-3.843454644000001
 30
0.0
 11
11.6471490253925
 21
-3.704860806000001
 31
0.0
  0
LINE
  5
12B
330
1D
100
AcDbEntity
  8
CUT
100
AcDbLine
 10
11.5826717013925
 20
-9.706135839000002
 30
0.0
 11
11.5319295223925
 21
-9.993922897000001
 31
0.0
  0
LINE
  5
12C
330
1D
100
AcDbEntity
  8
CUT
100
AcDbLine
 10
11.7091602083925
 20
-9.600000456000002
 30
0.0
 11
12.0013868803925
 21
-9.600000456000002
 31
0.0
  0
LINE
  5
12D
330
1D
100
AcDbEntity
  8
CUT
100
AcDbLine
 10
11.7091602083925
 20
-3.964382224000001
 30
0.0
 11
12.0013868803925
 21
-3.964382224000001
 31
0.0
  0
LINE
  5
12E
330
1D
100
AcDbEntity
  8
1
100
AcDbLine
 10
5.4166382543925
 20
2.602597930999999
 30
0.0
 11
5.416973530392499
 21
2.600705949999999
 31
0.0
  0
LINE
  5
12F
330
1D
100
AcDbEntity
  8
1
100
AcDbLine
 10
-0.8907204596075005
 20
4.734946887
 30
0.0
 11
-1.198611185607501
 21
4.411356988999999
 31
0.0
  0
LINE
  5
130
330
1D
100
AcDbEntity
  8
SK2
100
AcDbLine
 10
23.8831139553925
 20
-9.999999999000002
 30
0.0
 11
11.6013880723925
 21
-9.999999999000002
 31
0.0
  0
LINE
  5
131
330
1D
100
AcDbEntity
  8
SK2
100
AcDbLine
 10
21.8831139553925
 20
-9.999999999000002
 30
0.0
 11
21.4331139553925
 21
-6.499999999000001
 31
0.0
  0
LINE
  5
132
330
1D
100
AcDbEntity
  8
SK2
100
AcDbLine
 10
21.4331139553925
 20
-6.499999999000001
 30
0.0
 11
22.3331139553925
 21
-6.499999999000001
 31
0.0
  0
LINE
  5
133
330
1D
100
AcDbEntity
  8
SK2
100
AcDbLine
 10
22.3331139553925
 20
-6.499999999000001
 30
0.0
 11
21.8831139553925
 21
-9.999999999000002
 31
0.0
  0
LINE
  5
134
330
1D
100
AcDbEntity
  8
SK2
100
AcDbLine
 10
23.8831139553925
 20
9.999999998999998
 30
0.0
 11
11.6013880723925
 21
9.999999998999998
 31
0.0
  0
LINE
  5
135
330
1D
100
AcDbEntity
  8
SK2
100
AcDbLine
 10
21.8831139553925
 20
9.999999998999998
 30
0.0
 11
22.3331139553925
 21
6.499999998999999
 31
0.0
  0
LINE
  5
136
330
1D
100
AcDbEntity
  8
SK2
100
AcDbLine
 10
22.3331139553925
 20
6.499999998999999
 30
0.0
 11
21.4331139553925
 21
6.499999998999999
 31
0.0
  0
LINE
  5
137
330
1D
100
AcDbEntity
  8
SK2
100
AcDbLine
 10
21.4331139553925
 20
6.499999998999999
 30
0.0
 11
21.8831139553925
 21
9.999999998999998
 31
0.0
  0
LINE
  5
138
330
1D
100
AcDbEntity
  8
SK2
100
AcDbLine
 10
21.8831139553925
 20
-6.499999999000001
 30
0.0
 11
21.8831139553925
 21
6.499999998999999
 31
0.0
  0
TEXT
  5
139
330
1D
100
AcDbEntity
  8
SK2
100
AcDbText
 10
20.38311395539251
 20
-5.061905439441302
 30
0.0
 40
3.5
  1
20
 50
90.0
  7
BMG_Text
100
AcDbText
  0
CIRCLE
  5
13A
330
1D
100
AcDbEntity
  8
SK2
100
AcDbCircle
 10
19.13311395539251
 20
-7.311905439441301
 30
0.0
 40
1.25
  0
LINE
  5
13B
330
1D
100
AcDbEntity
  8
SK2
100
AcDbLine
 10
20.38311395539251
 20
-8.5619054394413
 30
0.0
 11
17.88311395539251
 21
-6.061905439441301
 31
0.0
  0
TEXT
  5
13C
330
1D
100
AcDbEntity
  8
SK2
100
AcDbText
 10
20.3831139553925
 20
0.511393708089972
 30
0.0
 40
3.5
  1
-26
 50
90.0
  7
BMG_Text
100
AcDbText
  0
LINE
  5
13D
330
1D
100
AcDbEntity
  8
2
100
AcDbLine
 10
12.0013880723925
 20
17.898556327
 30
0.0
 11
12.0013880723925
 21
9.599999998999998
 31
0.0
  0
LINE
  5
13E
330
1D
100
AcDbEntity
  8
2
100
AcDbLine
 10
12.0013880723925
 20
15.898556327
 30
0.0
 11
8.5013880723925
 21
15.448556326
 31
0.0
  0
LINE
  5
13F
330
1D
100
AcDbEntity
  8
2
100
AcDbLine
 10
8.5013880723925
 20
15.448556326
 30
0.0
 11
8.5013880723925
 21
16.348556326
 31
0.0
  0
LINE
  5
140
330
1D
100
AcDbEntity
  8
2
100
AcDbLine
 10
8.5013880723925
 20
16.348556326
 30
0.0
 11
12.0013880723925
 21
15.898556327
 31
0.0
  0
LINE
  5
141
330
1D
100
AcDbEntity
  8
2
100
AcDbLine
 10
-10.4986119276075
 20
15.898556322
 30
0.0
 11
8.5013880723925
 21
15.898556326
 31
0.0
  0
TEXT
  5
142
330
1D
100
AcDbEntity
  8
2
100
AcDbText
 10
-2.2257996796075
 20
17.398556324
 30
0.0
 40
3.5
  1
32.5
 50
0.000000014
  7
BMG_Text
100
AcDbText
  0
LINE
  5
143
330
1D
100
AcDbEntity
  8
SK4
100
AcDbLine
 10
-4.934294576607501
 20
-0.000000000000001
 30
0.0
 11
13.9955407053925
 21
-0.000000000000001
 31
0.0
  0
TEXT
  5
144
330
1D
100
AcDbEntity
  8
SK6
100
AcDbText
 10
-4.189242805519848
 20
-17.70819259911644
 30
0.0
 40
3.5
  1
639.413
  7
BMG_Text
100
AcDbText
  0
LINE
  5
145
330
1D
100
AcDbEntity
  8
3
100
AcDbLine
 10
8.3693368723925
 20
-0.000000000000001
 30
0.0
 11
6.101388912392499
 21
-1.309400125000001
 31
0.0
  0
ARC
  5
146
330
1D
100
AcDbEntity
  8
3
100
AcDbCircle
 10
7.101388912392499
 20
-3.041450932000001
 30
0.0
 40
2.0
100
AcDbArc
 50
120.0
 51
179.999974902
  0
LINE
  5
147
330
1D
100
AcDbEntity
  8
3
100
AcDbLine
 10
5.1013888223925
 20
-3.041450932000001
 30
0.0
 11
5.1013888223925
 21
-7.250000908000001
 31
0.0
  0
LINE
  5
148
330
1D
100
AcDbEntity
  8
3
100
AcDbLine
 10
5.1013888223925
 20
-7.250000675000001
 30
0.0
 11
3.8023507583925
 21
-9.499999880000003
 31
0.0
  0
ARC
  5
149
330
1D
100
AcDbEntity
  8
3
100
AcDbCircle
 10
5.181388072392499
 20
3.929991296999999
 30
0.0
 40
1.35
100
AcDbArc
 50
101.546377233
 51
258.75382549
  0
ARC
  5
14A
330
1D
100
AcDbEntity
  8
3
100
AcDbCircle
 10
5.181377294392499
 20
3.929011809999999
 30
0.0
 40
1.349037425
100
AcDbArc
 50
258.746153992
 51
272.587572847
  0
LINE
  5
14B
330
1D
100
AcDbEntity
  8
3
100
AcDbLine
 10
4.911170648392499
 20
5.252671357999999
 30
0.0
 11
5.2007522463925
 21
5.307902513999999
 31
0.0
  0
LINE
  5
1EB
330
1D
100
AcDbEntity
  8
1
100
AcDbLine
 10
6.120847343459271
 20
2.591844459795116
 30
0.0
 11
11.6708455973925
 21
3.570459316999999
 31
0.0
  0
LINE
  5
1EE
330
1D
100
AcDbEntity
  8
1
100
AcDbLine
 10
6.1208466433925
 20
2.591844414999999
 30
0.0
 11
5.811671258235352
 21
2.544978591525972
 31
0.0
  0
LINE
  5
1EF
330
1D
100
AcDbEntity
  8
1
100
AcDbLine
 10
5.811671258235352
 20
2.544978591525972
 30
0.0
 11
5.811671258235352
 21
2.67451534115994
 31
0.0
  0
LINE
  5
1F3
330
1D
100
AcDbEntity
  8
3
100
AcDbLine
 10
7.6422123603925
 20
9.308060630999998
 30
0.0
 11
8.555188740260848
 21
9.308060630999998
 31
0.0
  0
LINE
  5
1F5
330
1D
100
AcDbEntity
  8
3
100
AcDbLine
 10
8.555188740260848
 20
9.308060630999998
 30
0.0
 11
11.61228976515104
 21
9.774001323745981
 31
0.0
  0
LINE
  5
1F6
330
1D
100
AcDbEntity
  8
3
100
AcDbLine
 10
11.61228976515104
 20
9.774001323745981
 30
0.0
 11
11.61228976515104
 21
3.817925189046126
 31
0.0
  0
LINE
  5
1F7
330
1D
100
AcDbEntity
  8
3
100
AcDbLine
 10
11.61228976515104
 20
3.817925189046126
 30
0.0
 11
11.8013872203925
 21
3.617972135999999
 31
0.0
  0
LINE
  5
1F9
330
1D
100
AcDbEntity
  8
1
100
AcDbLine
 10
11.53192880132573
 20
9.993923100204881
 30
0.0
 11
7.6422123603925
 21
9.308060630999998
 31
0.0
  0
LINE
  5
1FA
330
1D
100
AcDbEntity
  8
1
100
AcDbLine
 10
7.6422123603925
 20
9.308060630999998
 30
0.0
 11
5.981928801325727
 21
9.015308358204882
 31
0.0
  0
ARC
  5
1FB
330
1D
100
AcDbEntity
  8
1
100
AcDbCircle
 10
6.051673560966428
 20
8.620890776284972
 30
0.0
 40
0.4005365906192445
100
AcDbArc
 50
100.027935140782
 51
182.0262893221348
  0
LINE
  5
1FC
330
1D
100
AcDbEntity
  8
1
100
AcDbLine
 10
5.651387422392499
 20
8.606728583994881
 30
0.0
 11
5.651387422392499
 21
2.985522485898253
 31
0.0
  0
ARC
  5
201
330
1D
100
AcDbEntity
  8
NOCUT
100
AcDbCircle
 10
14.10139904065919
 20
-0.5000090273583467
 30
0.0
 40
4.00001420419032
100
AcDbArc
 50
125.099696148144
 51
154.4358347996793
  0
LINE
  5
202
330
1D
100
AcDbEntity
  8
NOCUT
100
AcDbLine
 10
10.4929758603925
 20
1.226083607999998
 30
0.0
 11
8.3693368723925
 21
-0.000000000000001
 31
0.0
  0
LINE
  5
203
330
1D
100
AcDbEntity
  8
NOCUT
100
AcDbLine
 10
8.3693368723925
 20
-0.000000000000001
 30
0.0
 11
0.0
 21
0.0
 31
0.0
  0
LINE
  5
204
330
1D
100
AcDbEntity
  8
NOCUT
100
AcDbLine
 10
0.0
 20
0.0
 30
0.0
 11
0.0000000000000006
 21
9.499999694999998
 31
0.0
  0
LINE
  5
205
330
1D
100
AcDbEntity
  8
NOCUT
100
AcDbLine
 10
0.0000000000000006
 20
9.499999694999998
 30
0.0
 11
5.7288641473925
 21
9.497894905999999
 31
0.0
  0
LINE
  5
206
330
1D
100
AcDbEntity
  8
NOCUT
100
AcDbLine
 10
5.7288641473925
 20
9.497894905999999
 30
0.0
 11
5.763931946050798
 21
9.484485785372842
 31
0.0
  0
LINE
  5
207
330
1D
100
AcDbEntity
  8
NOCUT
100
AcDbLine
 10
5.763931946050798
 20
9.484485785372842
 30
0.0
 11
5.785832090287353
 21
9.474175426446005
 31
0.0
  0
LINE
  5
208
330
1D
100
AcDbEntity
  8
NOCUT
100
AcDbLine
 10
5.785832090287353
 20
9.474175426446005
 30
0.0
 11
5.785832090287353
 21
9.327967820273269
 31
0.0
  0
ARC
  5
209
330
1D
100
AcDbEntity
  8
NOCUT
100
AcDbCircle
 10
5.866165962651339
 20
9.47038981750808
 30
0.0
 40
0.1635162265505958
100
AcDbArc
 50
240.5746010179927
 51
276.9080103033434
  0
LINE
  5
20A
330
1D
100
AcDbEntity
  8
NOCUT
100
AcDbLine
 10
5.885832979392499
 20
9.308060630999998
 30
0.0
 11
8.555188740260848
 21
9.308060630999998
 31
0.0
  0
LINE
  5
20F
330
1D
100
AcDbEntity
  8
NOCUT
100
AcDbLine
 10
11.8013872203925
 20
3.617972135999999
 30
0.0
 11
11.80138807241497
 21
2.77261363440651
 31
0.0
  0
LWPOLYLINE
  5
215
330
1D
100
AcDbEntity
  8
INFTOTAL
100
AcDbPolyline
 90
        4
 70
     1
 43
0.0
 10
-19.31770761158647
 20
29.98965049572473
 10
-19.31770761158647
 20
-26.30900367621754
 10
33.60609535658809
 20
-26.30900367621754
 10
33.60609535658809
 20
29.98965049572473
  0
ARC
  5
268
330
1D
100
AcDbEntity
  8
CUT
100
AcDbCircle
 10
11.6013880723925
 20
9.599999998999998
 30
0.0
 40
0.4
100
AcDbArc
 50
0.0
 51
100.0000000000006
  0
LINE
  5
269
330
1D
100
AcDbEntity
  8
CUT
100
AcDbLine
 10
12.0013868803925
 20
9.600000455999998
 30
0.0
 11
12.0013868803925
 21
3.964382223999999
 31
0.0
  0
ARC
  5
26A
330
1D
100
AcDbEntity
  8
CUT
100
AcDbCircle
 10
11.6013880723925
 20
3.964382303999999
 30
0.0
 40
0.4
100
AcDbArc
 50
279.9999999999995
 51
0.0
  0
ARC
  5
26B
330
1D
100
AcDbEntity
  8
CUT
100
AcDbCircle
 10
6.051388072392498
 20
2.985767560999999
 30
0.0
 40
0.4
100
AcDbArc
 50
180.0
 51
279.9999999999995
  0
LINE
  5
26C
330
1D
100
AcDbEntity
  8
CUT
100
AcDbLine
 10
6.120847343459268
 20
2.591844459795116
 30
0.0
 11
11.6708455973925
 21
3.570459316999999
 31
0.0
  0
CIRCLE
  5
26D
330
1D
100
AcDbEntity
  8
1
100
AcDbCircle
 10
8.695388072392497
 20
6.136883779999999
 30
0.0
 40
1.725
  0
LINE
  5
26E
330
1D
100
AcDbEntity
  8
CUT
100
AcDbLine
 10
11.53192880132573
 20
9.993923100204881
 30
0.0
 11
7.642212360392499
 21
9.308060630999998
 31
0.0
  0
LINE
  5
26F
330
1D
100
AcDbEntity
  8
CUT
100
AcDbLine
 10
7.642212360392499
 20
9.308060630999998
 30
0.0
 11
5.981928801325729
 21
9.015308358204882
 31
0.0
  0
ARC
  5
270
330
1D
100
AcDbEntity
  8
CUT
100
AcDbCircle
 10
6.051673560966428
 20
8.620890776284972
 30
0.0
 40
0.4005365906192445
100
AcDbArc
 50
100.0279351407817
 51
182.0262893221348
  0
LINE
  5
271
330
1D
100
AcDbEntity
  8
CUT
100
AcDbLine
 10
5.651387422392496
 20
8.606728583994881
 30
0.0
 11
5.651387422392496
 21
2.985522485898253
 31
0.0
  0
LINE
  5
27F
330
1D
100
AcDbEntity
  8
4
100
AcDbLine
 10
13.9955407053925
 20
-0.000000000000001
 30
0.0
 11
0.0
 21
0.0
 31
0.0
  0
LINE
  5
28E
330
1D
100
AcDbEntity
  8
NOCUT
100
AcDbLine
 10
8.555188740260848
 20
9.308060630999998
 30
0.0
 11
11.61228976515104
 21
9.774001323745981
 31
0.0
  0
LINE
  5
28F
330
1D
100
AcDbEntity
  8
NOCUT
100
AcDbLine
 10
11.61228976515104
 20
9.774001323745981
 30
0.0
 11
11.61228976515104
 21
3.817925189046126
 31
0.0
  0
LINE
  5
290
330
1D
100
AcDbEntity
  8
NOCUT
100
AcDbLine
 10
11.61228976515104
 20
3.817925189046126
 30
0.0
 11
11.8013872203925
 21
3.617972135999999
 31
0.0
  0
HATCH
  5
295
330
1D
100
AcDbEntity
  8
7
100
AcDbHatch
 10
0.0
 20
0.0
 30
0.0
210
0.0
220
0.0
230
1.0
  2
ANSI37
 70
     0
 71
     0
 91
        2
 92
        7
 72
     1
 73
     1
 93
       10
 10
12.00138777439251
 20
3.964382283999999
 42
0.0
 10
12.0013877743925
 20
9.600000113249997
 42
0.466308083458521
 10
11.53192876771099
 20
9.993923094277692
 42
0.0
 10
7.642212360392499
 20
9.308060630999998
 42
0.0
 10
5.98192880132472
 20
9.015308358204704
 42
0.3738764944039114
 10
5.651387422392496
 20
8.606728583994865
 42
0.0
 10
5.6513880723925
 20
2.985767560999999
 42
0.0
 10
5.651387422392496
 20
2.985522485898253
 42
0.4661200252318301
 10
6.120847362832336
 20
2.591844463211113
 42
0.0
 10
11.67084690694258
 20
3.570459231346336
 42
0.3639713024634874
 97
        0
 92
       22
 72
     1
 73
     1
 93
        2
 10
6.970388072392495
 20
6.136883779999999
 42
-1.000000000000002
 10
10.42038807239249
 20
6.136883779999999
 42
-1.000000000000002
 97
        0
 75
     0
 76
     1
 52
90.0
 41
5.0
 77
     0
 78
     2
 53
135.0
 43
-32.12980496032024
 44
0.0000000000000053
 45
-0.4419417382415922
 46
-0.4419417382415922
 79
     0
 53
225.0
 43
-32.12980496032024
 44
0.0000000000000053
 45
0.4419417382415922
 46
-0.4419417382415923
 79
     0
 47
0.0
 98
        2
 10
11.19546078066058
 20
7.483565224514901
 10
11.19546078066058
 20
7.483565224514901
1001
ACAD
1010
0.0
1020
0.0
1030
0.0
1001
PE_URL
1000

  0
ENDSEC
  0
SECTION
  2
OBJECTS
  0
DICTIONARY
  5
C
330
0
100
AcDbDictionary
281
     1
  3
ACAD_COLOR
350
225
  3
ACAD_DETAILVIEWSTYLE
350
1E7
  3
ACAD_GROUP
350
D
  3
ACAD_LAYOUT
350
1A
  3
ACAD_MATERIAL
350
188
  3
ACAD_MLEADERSTYLE
350
194
  3
ACAD_MLINESTYLE
350
17
  3
ACAD_PLOTSETTINGS
350
19
  3
ACAD_PLOTSTYLENAME
350
E
  3
ACAD_SCALELIST
350
151
  3
ACAD_SECTIONVIEWSTYLE
350
1E8
  3
ACAD_TABLESTYLE
350
1DD
  3
ACAD_VISUALSTYLE
350
177
  3
ACDB_RECOMPOSE_DATA
350
29C
  3
AcDbVariableDictionary
350
192
  3
APPDATA
350
1E0
  0
SUN
  5
216
330
14C
100
AcDbSun
 90
        1
290
     0
 63
     7
421
 16777215
 40
1.0
291
     1
 91
  2455826
 92
 54000000
292
     0
 70
     2
 71
   256
280
     1
  0
DICTIONARY
  5
1E1
330
2
100
AcDbDictionary
280
     1
281
     1
  3
ACAD_LAYERSTATES
360
1E2
  0
DICTIONARY
  5
293
330
1D
100
AcDbDictionary
280
     1
281
     1
  3
ACAD_SORTENTS
360
294
  0
DICTIONARY
  5
225
102
{ACAD_REACTORS
330
C
102
}
330
C
100
AcDbDictionary
281
     1
  0
DICTIONARY
  5
1E7
102
{ACAD_REACTORS
330
C
102
}
330
C
100
AcDbDictionary
281
     1
  0
DICTIONARY
  5
D
102
{ACAD_REACTORS
330
C
102
}
330
C
100
AcDbDictionary
281
     1
  0
DICTIONARY
  5
1A
102
{ACAD_REACTORS
330
C
102
}
330
C
100
AcDbDictionary
281
     1
  3
Layout1
350
1C
  3
Model
350
1E
  0
DICTIONARY
  5
188
102
{ACAD_REACTORS
330
C
102
}
330
C
100
AcDbDictionary
281
     1
  3
ByBlock
350
18A
  3
ByLayer
350
189
  3
Global
350
18B
  0
DICTIONARY
  5
194
102
{ACAD_REACTORS
330
C
102
}
330
C
100
AcDbDictionary
281
     1
  3
Standard
350
1DF
  0
DICTIONARY
  5
17
102
{ACAD_REACTORS
330
C
102
}
330
C
100
AcDbDictionary
281
     1
  3
Standard
350
18
  0
DICTIONARY
  5
19
102
{ACAD_REACTORS
330
C
102
}
330
C
100
AcDbDictionary
281
     1
  0
ACDBDICTIONARYWDFLT
  5
E
102
{ACAD_REACTORS
330
C
102
}
330
C
100
AcDbDictionary
281
     1
  3
Normal
350
F
100
AcDbDictionaryWithDefault
340
F
  0
DICTIONARY
  5
151
102
{ACAD_REACTORS
330
C
102
}
330
C
100
AcDbDictionary
281
     1
  3
A0
350
152
  3
A1
350
153
  3
A2
350
154
  3
A3
350
155
  3
A4
350
156
  3
A5
350
157
  3
A6
350
158
  3
A7
350
159
  3
A8
350
15A
  3
A9
350
15B
  3
B0
350
15C
  3
B1
350
15D
  3
B2
350
15E
  3
B3
350
15F
  3
B4
350
160
  3
B5
350
161
  3
B6
350
162
  3
B7
350
163
  3
B8
350
164
  3
B9
350
165
  3
C0
350
166
  3
C1
350
167
  3
C2
350
168
  3
C3
350
169
  3
C4
350
16A
  3
C5
350
16B
  3
C6
350
16C
  3
C7
350
16D
  3
C8
350
16E
  3
C9
350
16F
  3
D0
350
170
  3
D1
350
171
  3
D2
350
172
  0
DICTIONARY
  5
1E8
102
{ACAD_REACTORS
330
C
102
}
330
C
100
AcDbDictionary
281
     1
  0
DICTIONARY
  5
1DD
102
{ACAD_REACTORS
330
C
102
}
330
C
100
AcDbDictionary
281
     1
  3
Standard
350
1DE
  0
DICTIONARY
  5
177
102
{ACAD_REACTORS
330
C
102
}
330
C
100
AcDbDictionary
281
     1
  3
2dWireframe
350
17C
  3
3D Hidden
350
17E
  3
3dWireframe
350
17D
  3
Basic
350
17F
  3
Brighten
350
183
  3
ColorChange
350
187
  3
Conceptual
350
181
  3
Dim
350
182
  3
EdgeColorOff
350
1D7
  3
Facepattern
350
186
  3
Flat
350
178
  3
FlatWithEdges
350
179
  3
Gouraud
350
17A
  3
GouraudWithEdges
350
17B
  3
Hidden
350
1D4
  3
JitterOff
350
1D5
  3
Linepattern
350
185
  3
OverhangOff
350
1D6
  3
Realistic
350
180
  3
Shaded
350
1DC
  3
Shaded with edges
350
1DB
  3
Shades of Gray
350
1D8
  3
Sketchy
350
1D9
  3
Thicken
350
184
  3
Wireframe
350
1D3
  3
X-Ray
350
1DA
  0
XRECORD
  5
29C
102
{ACAD_REACTORS
330
C
102
}
330
C
100
AcDbXrecord
280
     1
 90
        1
330
1DE
  0
DICTIONARY
  5
192
102
{ACAD_REACTORS
330
C
102
}
330
C
100
AcDbDictionary
281
     1
  3
CANNOSCALE
350
1E4
  3
CMLEADERSTYLE
350
1E6
  3
CTABLESTYLE
350
1E5
  3
DIMASSOC
350
196
  3
HIDETEXT
350
197
  3
MSLTSCALE
350
195
  0
DICTIONARY
  5
1E0
102
{ACAD_REACTORS
330
C
102
}
330
C
100
AcDbDictionary
281
     1
  0
DICTIONARY
  5
1E2
102
{ACAD_REACTORS
330
1E1
102
}
330
1E1
100
AcDbDictionary
281
     1
  0
SORTENTSTABLE
  5
294
102
{ACAD_REACTORS
330
293
102
}
330
293
100
AcDbSortentsTable
330
1D
331
268
  5
26A
331
269
  5
26B
331
26A
  5
26C
331
26B
  5
26D
331
26C
  5
26E
331
26D
  5
26F
331
26E
  5
270
331
26F
  5
271
331
270
  5
27F
331
271
  5
28D
331
27F
  5
28E
331
0
  5
28F
331
28E
  5
290
331
28F
  5
292
331
290
  5
295
331
0
  5
268
331
295
  5
269
  0
LAYOUT
  5
1C
102
{ACAD_REACTORS
330
1A
102
}
330
1A
100
AcDbPlotSettings
  1

  2
none_device
  4

  6

 40
0.0
 41
0.0
 42
0.0
 43
0.0
 44
0.0
 45
0.0
 46
0.0
 47
0.0
 48
0.0
 49
0.0
140
0.0
141
0.0
142
1.0
143
1.0
 70
   688
 72
     0
 73
     0
 74
     5
  7

 75
    16
 76
     0
 77
     2
 78
   300
147
1.0
148
0.0
149
0.0
100
AcDbLayout
  1
Layout1
 70
     1
 71
     1
 10
0.0
 20
0.0
 11
12.0
 21
9.0
 12
0.0
 22
0.0
 32
0.0
 14
1.000000000000000E+20
 24
1.000000000000000E+20
 34
1.000000000000000E+20
 15
-1.000000000000000E+20
 25
-1.000000000000000E+20
 35
-1.000000000000000E+20
146
0.0
 13
0.0
 23
0.0
 33
0.0
 16
1.0
 26
0.0
 36
0.0
 17
0.0
 27
1.0
 37
0.0
 76
     0
330
1B
  0
LAYOUT
  5
1E
102
{ACAD_REACTORS
330
1A
102
}
330
1A
100
AcDbPlotSettings
  1

  2
none_device
  4

  6

 40
0.0
 41
0.0
 42
0.0
 43
0.0
 44
0.0
 45
0.0
 46
0.0
 47
0.0
 48
0.0
 49
0.0
140
0.0
141
0.0
142
1.0
143
1.0
 70
  1712
 72
     0
 73
     0
 74
     0
  7

 75
     0
 76
     0
 77
     2
 78
   300
147
1.0
148
0.0
149
0.0
100
AcDbLayout
  1
Model
 70
     1
 71
     0
 10
0.0
 20
0.0
 11
12.0
 21
9.0
 12
0.0
 22
0.0
 32
0.0
 14
-19.31770761158647
 24
-26.30900367621754
 34
0.0
 15
33.60609535658809
 25
29.98965049572473
 35
0.0
146
0.0
 13
0.0
 23
0.0
 33
0.0
 16
1.0
 26
0.0
 36
0.0
 17
0.0
 27
1.0
 37
0.0
 76
     0
330
1D
331
14C
  0
MATERIAL
  5
18A
102
{ACAD_REACTORS
330
188
102
}
330
188
100
AcDbMaterial
  1
ByBlock
 72
     1
 94
      127
  0
MATERIAL
  5
189
102
{ACAD_REACTORS
330
188
102
}
330
188
100
AcDbMaterial
  1
ByLayer
 72
     1
 94
      127
  0
MATERIAL
  5
18B
102
{ACAD_REACTORS
330
188
102
}
330
188
100
AcDbMaterial
  1
Global
 72
     1
 94
      127
  0
MLEADERSTYLE
  5
1DF
102
{ACAD_REACTORS
330
194
102
}
330
194
100
AcDbMLeaderStyle
179
     2
170
     2
171
     1
172
     0
 90
        2
 40
0.0
 41
0.0
173
     1
 91
-1056964608
340
14
 92
       -2
290
     1
 42
0.09
291
     1
 43
0.36
  3
Standard
341
0
 44
0.18
300

342
11
174
     1
178
     1
175
     1
176
     0
 93
-1056964608
 45
0.18
292
     0
297
     0
 46
0.18
343
0
 94
-1056964608
 47
1.0
 49
1.0
140
1.0
293
     1
141
0.0
294
     1
177
     0
142
1.0
295
     0
296
     0
143
0.125
271
     0
272
     9
273
     9
298
     0
  0
MLINESTYLE
  5
18
102
{ACAD_REACTORS
330
17
102
}
330
17
100
AcDbMlineStyle
  2
Standard
 70
     0
  3

 62
   256
 51
90.0
 52
90.0
 71
     2
 49
0.5
 62
   256
  6
BYLAYER
 49
-0.5
 62
   256
  6
BYLAYER
  0
ACDBPLACEHOLDER
  5
F
102
{ACAD_REACTORS
330
E
102
}
330
E
  0
SCALE
  5
152
102
{ACAD_REACTORS
330
151
102
}
330
151
100
AcDbScale
 70
     0
300
1:1
140
1.0
141
1.0
290
     1
  0
SCALE
  5
153
102
{ACAD_REACTORS
330
151
102
}
330
151
100
AcDbScale
 70
     0
300
1:2
140
1.0
141
2.0
290
     0
  0
SCALE
  5
154
102
{ACAD_REACTORS
330
151
102
}
330
151
100
AcDbScale
 70
     0
300
1:4
140
1.0
141
4.0
290
     0
  0
SCALE
  5
155
102
{ACAD_REACTORS
330
151
102
}
330
151
100
AcDbScale
 70
     0
300
1:5
140
1.0
141
5.0
290
     0
  0
SCALE
  5
156
102
{ACAD_REACTORS
330
151
102
}
330
151
100
AcDbScale
 70
     0
300
1:8
140
1.0
141
8.0
290
     0
  0
SCALE
  5
157
102
{ACAD_REACTORS
330
151
102
}
330
151
100
AcDbScale
 70
     0
300
1:10
140
1.0
141
10.0
290
     0
  0
SCALE
  5
158
102
{ACAD_REACTORS
330
151
102
}
330
151
100
AcDbScale
 70
     0
300
1:16
140
1.0
141
16.0
290
     0
  0
SCALE
  5
159
102
{ACAD_REACTORS
330
151
102
}
330
151
100
AcDbScale
 70
     0
300
1:20
140
1.0
141
20.0
290
     0
  0
SCALE
  5
15A
102
{ACAD_REACTORS
330
151
102
}
330
151
100
AcDbScale
 70
     0
300
1:30
140
1.0
141
30.0
290
     0
  0
SCALE
  5
15B
102
{ACAD_REACTORS
330
151
102
}
330
151
100
AcDbScale
 70
     0
300
1:40
140
1.0
141
40.0
290
     0
  0
SCALE
  5
15C
102
{ACAD_REACTORS
330
151
102
}
330
151
100
AcDbScale
 70
     0
300
1:50
140
1.0
141
50.0
290
     0
  0
SCALE
  5
15D
102
{ACAD_REACTORS
330
151
102
}
330
151
100
AcDbScale
 70
     0
300
1:100
140
1.0
141
100.0
290
     0
  0
SCALE
  5
15E
102
{ACAD_REACTORS
330
151
102
}
330
151
100
AcDbScale
 70
     0
300
2:1
140
2.0
141
1.0
290
     0
  0
SCALE
  5
15F
102
{ACAD_REACTORS
330
151
102
}
330
151
100
AcDbScale
 70
     0
300
4:1
140
4.0
141
1.0
290
     0
  0
SCALE
  5
160
102
{ACAD_REACTORS
330
151
102
}
330
151
100
AcDbScale
 70
     0
300
8:1
140
8.0
141
1.0
290
     0
  0
SCALE
  5
161
102
{ACAD_REACTORS
330
151
102
}
330
151
100
AcDbScale
 70
     0
300
10:1
140
10.0
141
1.0
290
     0
  0
SCALE
  5
162
102
{ACAD_REACTORS
330
151
102
}
330
151
100
AcDbScale
 70
     0
300
100:1
140
100.0
141
1.0
290
     0
  0
SCALE
  5
163
102
{ACAD_REACTORS
330
151
102
}
330
151
100
AcDbScale
 70
     0
300
1/128" = 1'-0"
140
0.0078125
141
12.0
290
     0
  0
SCALE
  5
164
102
{ACAD_REACTORS
330
151
102
}
330
151
100
AcDbScale
 70
     0
300
1/64" = 1'-0"
140
0.015625
141
12.0
290
     0
  0
SCALE
  5
165
102
{ACAD_REACTORS
330
151
102
}
330
151
100
AcDbScale
 70
     0
300
1/32" = 1'-0"
140
0.03125
141
12.0
290
     0
  0
SCALE
  5
166
102
{ACAD_REACTORS
330
151
102
}
330
151
100
AcDbScale
 70
     0
300
1/16" = 1'-0"
140
0.0625
141
12.0
290
     0
  0
SCALE
  5
167
102
{ACAD_REACTORS
330
151
102
}
330
151
100
AcDbScale
 70
     0
300
3/32" = 1'-0"
140
0.09375
141
12.0
290
     0
  0
SCALE
  5
168
102
{ACAD_REACTORS
330
151
102
}
330
151
100
AcDbScale
 70
     0
300
1/8" = 1'-0"
140
0.125
141
12.0
290
     0
  0
SCALE
  5
169
102
{ACAD_REACTORS
330
151
102
}
330
151
100
AcDbScale
 70
     0
300
3/16" = 1'-0"
140
0.1875
141
12.0
290
     0
  0
SCALE
  5
16A
102
{ACAD_REACTORS
330
151
102
}
330
151
100
AcDbScale
 70
     0
300
1/4" = 1'-0"
140
0.25
141
12.0
290
     0
  0
SCALE
  5
16B
102
{ACAD_REACTORS
330
151
102
}
330
151
100
AcDbScale
 70
     0
300
3/8" = 1'-0"
140
0.375
141
12.0
290
     0
  0
SCALE
  5
16C
102
{ACAD_REACTORS
330
151
102
}
330
151
100
AcDbScale
 70
     0
300
1/2" = 1'-0"
140
0.5
141
12.0
290
     0
  0
SCALE
  5
16D
102
{ACAD_REACTORS
330
151
102
}
330
151
100
AcDbScale
 70
     0
300
3/4" = 1'-0"
140
0.75
141
12.0
290
     0
  0
SCALE
  5
16E
102
{ACAD_REACTORS
330
151
102
}
330
151
100
AcDbScale
 70
     0
300
1" = 1'-0"
140
1.0
141
12.0
290
     0
  0
SCALE
  5
16F
102
{ACAD_REACTORS
330
151
102
}
330
151
100
AcDbScale
 70
     0
300
1-1/2" = 1'-0"
140
1.5
141
12.0
290
     0
  0
SCALE
  5
170
102
{ACAD_REACTORS
330
151
102
}
330
151
100
AcDbScale
 70
     0
300
3" = 1'-0"
140
3.0
141
12.0
290
     0
  0
SCALE
  5
171
102
{ACAD_REACTORS
330
151
102
}
330
151
100
AcDbScale
 70
     0
300
6" = 1'-0"
140
6.0
141
12.0
290
     0
  0
SCALE
  5
172
102
{ACAD_REACTORS
330
151
102
}
330
151
100
AcDbScale
 70
     0
300
1'-0" = 1'-0"
140
12.0
141
12.0
290
     0
  0
TABLESTYLE
  5
1DE
102
{ACAD_REACTORS
330
1DD
102
}
102
{ACAD_XDICTIONARY
360
29A
102
}
330
1DD
100
AcDbTableStyle
  3
Standard
 70
     0
 71
     0
 40
0.06
 41
0.06
280
     0
281
     0
  7
Standard
140
0.18
170
     2
 62
     0
 63
   257
283
     0
 90
        4
 91
        0
  1

274
    -2
284
     1
 64
     0
275
    -2
285
     1
 65
     0
276
    -2
286
     1
 66
     0
277
    -2
287
     1
 67
     0
278
    -2
288
     1
 68
     0
279
    -2
289
     1
 69
     0
  7
Standard
140
0.25
170
     5
 62
     0
 63
   257
283
     0
 90
        4
 91
        0
  1

274
    -2
284
     1
 64
     0
275
    -2
285
     1
 65
     0
276
    -2
286
     1
 66
     0
277
    -2
287
     1
 67
     0
278
    -2
288
     1
 68
     0
279
    -2
289
     1
 69
     0
  7
Standard
140
0.18
170
     5
 62
     0
 63
   257
283
     0
 90
        4
 91
        0
  1

274
    -2
284
     1
 64
     0
275
    -2
285
     1
 65
     0
276
    -2
286
     1
 66
     0
277
    -2
287
     1
 67
     0
278
    -2
288
     1
 68
     0
279
    -2
289
     1
 69
     0
  0
VISUALSTYLE
  5
17C
102
{ACAD_REACTORS
330
177
102
}
330
177
100
AcDbVisualStyle
  2
2dWireframe
 70
     4
177
     3
291
     0
 70
    58
 90
        0
176
     1
 90
        2
176
     1
 90
        0
176
     1
 90
        0
176
     1
 40
-0.6
176
     1
 40
-30.0
176
     1
 62
     7
176
     1
 90
        1
176
     1
 90
        4
176
     1
 62
     7
176
     1
 62
   257
176
     1
 90
        1
176
     1
 90
        1
176
     1
 40
1.0
176
     1
 90
        0
176
     1
 62
   257
176
     1
 40
1.0
176
     1
 90
        1
176
     1
 90
        6
176
     1
 90
        2
176
     1
 62
     7
176
     1
 90
        5
176
     1
 90
        0
176
     1
 90
        0
176
     1
290
     0
176
     1
 90
        1
176
     1
 40
0.0
176
     1
 90
        0
176
     1
290
     1
176
     1
290
     1
176
     1
290
     0
176
     1
290
     0
176
     1
290
     0
176
     1
290
     0
176
     1
290
     0
176
     1
290
     0
176
     1
290
     0
176
     1
 90
       50
176
     1
 40
0.0
176
     1
 40
1.0
176
     1
 90
        0
176
     1
 62
    18
420
        0
176
     1
 90
       50
176
     1
 90
        3
176
     1
 62
     5
420
      255
176
     1
290
     0
176
     1
 90
       50
176
     1
 90
       50
176
     1
 90
       50
176
     1
290
     0
176
     1
 90
       50
176
     1
 62
   256
176
     0
 40
1.0
176
     0
 90
        2
176
     1
  1
strokes_ogs.tif
176
     1
290
     0
176
     1
 40
1.0
176
     1
 40
1.0
176
     1
  0
VISUALSTYLE
  5
17E
102
{ACAD_REACTORS
330
177
102
}
330
177
100
AcDbVisualStyle
  2
3D Hidden
 70
     6
177
     3
291
     0
 70
    58
 90
        1
176
     1
 90
        2
176
     1
 90
        2
176
     1
 90
        0
176
     1
 40
-0.6
176
     1
 40
-30.0
176
     1
 62
     7
176
     1
 90
        2
176
     1
 90
        2
176
     1
 62
     7
176
     1
 62
   257
176
     1
 90
        2
176
     1
 90
        1
176
     1
 40
40.0
176
     1
 90
        0
176
     1
 62
   257
176
     1
 40
1.0
176
     1
 90
        1
176
     1
 90
        6
176
     1
 90
        2
176
     1
 62
     7
176
     1
 90
        3
176
     1
 90
        0
176
     1
 90
        0
176
     1
290
     0
176
     1
 90
        1
176
     1
 40
0.0
176
     1
 90
        0
176
     1
290
     0
176
     1
290
     1
176
     1
290
     1
176
     1
290
     0
176
     1
290
     0
176
     1
290
     0
176
     1
290
     0
176
     1
290
     0
176
     1
290
     0
176
     1
 90
       50
176
     1
 40
0.0
176
     1
 40
1.0
176
     1
 90
        0
176
     1
 62
    18
420
        0
176
     1
 90
       50
176
     1
 90
        3
176
     1
 62
     5
420
      255
176
     1
290
     0
176
     1
 90
       50
176
     1
 90
       50
176
     1
 90
       50
176
     1
290
     0
176
     1
 90
       50
176
     1
 62
   256
176
     0
 40
1.0
176
     0
 90
        2
176
     1
  1
strokes_ogs.tif
176
     1
290
     0
176
     1
 40
1.0
176
     1
 40
1.0
176
     1
  0
VISUALSTYLE
  5
17D
102
{ACAD_REACTORS
330
177
102
}
330
177
100
AcDbVisualStyle
  2
3dWireframe
 70
     5
177
     3
291
     0
 70
    58
 90
        0
176
     1
 90
        2
176
     1
 90
        0
176
     1
 90
        0
176
     1
 40
-0.6
176
     1
 40
-30.0
176
     1
 62
     7
176
     1
 90
        1
176
     1
 90
        4
176
     1
 62
     7
176
     1
 62
   257
176
     1
 90
        1
176
     1
 90
        1
176
     1
 40
1.0
176
     1
 90
        0
176
     1
 62
   257
176
     1
 40
1.0
176
     1
 90
        1
176
     1
 90
        6
176
     1
 90
        2
176
     1
 62
     7
176
     1
 90
        5
176
     1
 90
        0
176
     1
 90
        0
176
     1
290
     0
176
     1
 90
        1
176
     1
 40
0.0
176
     1
 90
        0
176
     1
290
     0
176
     1
290
     1
176
     1
290
     1
176
     1
290
     0
176
     1
290
     0
176
     1
290
     0
176
     1
290
     0
176
     1
290
     0
176
     1
290
     0
176
     1
 90
       50
176
     1
 40
0.0
176
     1
 40
1.0
176
     1
 90
        0
176
     1
 62
    18
420
        0
176
     1
 90
       50
176
     1
 90
        3
176
     1
 62
     5
420
      255
176
     1
290
     0
176
     1
 90
       50
176
     1
 90
       50
176
     1
 90
       50
176
     1
290
     0
176
     1
 90
       50
176
     1
 62
   256
176
     0
 40
1.0
176
     0
 90
        2
176
     1
  1
strokes_ogs.tif
176
     1
290
     0
176
     1
 40
1.0
176
     1
 40
1.0
176
     1
  0
VISUALSTYLE
  5
17F
102
{ACAD_REACTORS
330
177
102
}
330
177
100
AcDbVisualStyle
  2
Basic
 70
     7
177
     3
291
     1
 70
    58
 90
        1
176
     1
 90
        0
176
     1
 90
        1
176
     1
 90
        0
176
     1
 40
-0.6
176
     1
 40
-30.0
176
     1
 62
     7
176
     1
 90
        0
176
     1
 90
        4
176
     1
 62
     7
176
     1
 62
   257
176
     1
 90
        1
176
     1
 90
        1
176
     1
 40
1.0
176
     1
 90
        8
176
     1
 62
     7
176
     1
 40
1.0
176
     1
 90
        1
176
     1
 90
        6
176
     1
 90
        2
176
     1
 62
     7
176
     1
 90
        5
176
     1
 90
        0
176
     1
 90
        0
176
     1
290
     0
176
     1
 90
        1
176
     1
 40
0.0
176
     1
 90
        0
176
     1
290
     0
176
     1
290
     1
176
     1
290
     1
176
     1
290
     0
176
     1
290
     0
176
     1
290
     0
176
     1
290
     0
176
     1
290
     0
176
     1
290
     0
176
     1
 90
       50
176
     1
 40
0.0
176
     1
 40
1.0
176
     1
 90
        0
176
     1
 62
    18
420
        0
176
     1
 90
       50
176
     1
 90
        3
176
     1
 62
     5
420
      255
176
     1
290
     0
176
     1
 90
       50
176
     1
 90
       50
176
     1
 90
       50
176
     1
290
     0
176
     1
 90
       50
176
     1
 62
   256
176
     0
 40
1.0
176
     0
 90
        2
176
     1
  1
strokes_ogs.tif
176
     1
290
     0
176
     1
 40
1.0
176
     1
 40
1.0
176
     1
  0
VISUALSTYLE
  5
183
102
{ACAD_REACTORS
330
177
102
}
330
177
100
AcDbVisualStyle
  2
Brighten
 70
    12
177
     3
291
     1
 70
    58
 90
        2
176
     1
 90
        2
176
     1
 90
        0
176
     1
 90
        0
176
     1
 40
-0.6
176
     1
 40
-30.0
176
     1
 62
     7
176
     1
 90
        1
176
     1
 90
        4
176
     1
 62
     7
176
     1
 62
   257
176
     1
 90
        1
176
     1
 90
        1
176
     1
 40
1.0
176
     1
 90
        8
176
     1
 62
     7
176
     1
 40
1.0
176
     1
 90
        1
176
     1
 90
        6
176
     1
 90
        2
176
     1
 62
     7
176
     1
 90
        5
176
     1
 90
        0
176
     1
 90
        0
176
     1
290
     0
176
     1
 90
        1
176
     1
 40
50.0
176
     1
 90
        0
176
     1
290
     0
176
     1
290
     1
176
     1
290
     1
176
     1
290
     0
176
     1
290
     0
176
     1
290
     0
176
     1
290
     0
176
     1
290
     0
176
     1
290
     0
176
     1
 90
       50
176
     1
 40
0.0
176
     1
 40
1.0
176
     1
 90
        0
176
     1
 62
    18
420
        0
176
     1
 90
       50
176
     1
 90
        3
176
     1
 62
     5
420
      255
176
     1
290
     0
176
     1
 90
       50
176
     1
 90
       50
176
     1
 90
       50
176
     1
290
     0
176
     1
 90
       50
176
     1
 62
   256
176
     0
 40
1.0
176
     0
 90
        2
176
     1
  1
strokes_ogs.tif
176
     1
290
     0
176
     1
 40
1.0
176
     1
 40
1.0
176
     1
  0
VISUALSTYLE
  5
187
102
{ACAD_REACTORS
330
177
102
}
330
177
100
AcDbVisualStyle
  2
ColorChange
 70
    16
177
     3
291
     1
 70
    58
 90
        2
176
     1
 90
        2
176
     1
 90
        3
176
     1
 90
        0
176
     1
 40
-0.6
176
     1
 40
-30.0
176
     1
 62
     8
176
     1
 90
        1
176
     1
 90
        4
176
     1
 62
     7
176
     1
 62
   257
176
     1
 90
        1
176
     1
 90
        1
176
     1
 40
1.0
176
     1
 90
        8
176
     1
 62
     8
176
     1
 40
1.0
176
     1
 90
        1
176
     1
 90
        6
176
     1
 90
        2
176
     1
 62
     7
176
     1
 90
        5
176
     1
 90
        0
176
     1
 90
        0
176
     1
290
     0
176
     1
 90
        1
176
     1
 40
0.0
176
     1
 90
        0
176
     1
290
     0
176
     1
290
     1
176
     1
290
     1
176
     1
290
     0
176
     1
290
     0
176
     1
290
     0
176
     1
290
     0
176
     1
290
     0
176
     1
290
     0
176
     1
 90
       50
176
     1
 40
0.0
176
     1
 40
1.0
176
     1
 90
        0
176
     1
 62
    18
420
        0
176
     1
 90
       50
176
     1
 90
        3
176
     1
 62
     5
420
      255
176
     1
290
     0
176
     1
 90
       50
176
     1
 90
       50
176
     1
 90
       50
176
     1
290
     0
176
     1
 90
       50
176
     1
 62
   256
176
     0
 40
1.0
176
     0
 90
        2
176
     1
  1
strokes_ogs.tif
176
     1
290
     0
176
     1
 40
1.0
176
     1
 40
1.0
176
     1
  0
VISUALSTYLE
  5
181
102
{ACAD_REACTORS
330
177
102
}
330
177
100
AcDbVisualStyle
  2
Conceptual
 70
     9
177
     3
291
     0
 70
    58
 90
        3
176
     1
 90
        2
176
     1
 90
        0
176
     1
 90
        0
176
     1
 40
-0.6
176
     1
 40
-30.0
176
     1
 62
     7
176
     1
 90
        2
176
     1
 90
        2
176
     1
 62
     7
176
     1
 62
   257
176
     1
 90
        1
176
     1
 90
        1
176
     1
 40
40.0
176
     1
 90
        8
176
     1
 62
     7
176
     1
 40
1.0
176
     1
 90
        1
176
     1
 90
        6
176
     1
 90
        2
176
     1
 62
     7
176
     1
 90
        3
176
     1
 90
        0
176
     1
 90
        0
176
     1
290
     0
176
     1
 90
        1
176
     1
 40
0.0
176
     1
 90
        0
176
     1
290
     0
176
     1
290
     1
176
     1
290
     1
176
     1
290
     0
176
     1
290
     0
176
     1
290
     0
176
     1
290
     0
176
     1
290
     0
176
     1
290
     0
176
     1
 90
       50
176
     1
 40
0.0
176
     1
 40
1.0
176
     1
 90
        0
176
     1
 62
    18
420
        0
176
     1
 90
       50
176
     1
 90
        3
176
     1
 62
     5
420
      255
176
     1
290
     0
176
     1
 90
       50
176
     1
 90
       50
176
     1
 90
       50
176
     1
290
     0
176
     1
 90
       50
176
     1
 62
   256
176
     0
 40
1.0
176
     0
 90
        2
176
     1
  1
strokes_ogs.tif
176
     1
290
     0
176
     1
 40
1.0
176
     1
 40
1.0
176
     1
  0
VISUALSTYLE
  5
182
102
{ACAD_REACTORS
330
177
102
}
330
177
100
AcDbVisualStyle
  2
Dim
 70
    11
177
     3
291
     1
 70
    58
 90
        2
176
     1
 90
        2
176
     1
 90
        0
176
     1
 90
        0
176
     1
 40
-0.6
176
     1
 40
-30.0
176
     1
 62
     7
176
     1
 90
        1
176
     1
 90
        4
176
     1
 62
     7
176
     1
 62
   257
176
     1
 90
        1
176
     1
 90
        1
176
     1
 40
1.0
176
     1
 90
        8
176
     1
 62
     7
176
     1
 40
1.0
176
     1
 90
        1
176
     1
 90
        6
176
     1
 90
        2
176
     1
 62
     7
176
     1
 90
        5
176
     1
 90
        0
176
     1
 90
        0
176
     1
290
     0
176
     1
 90
        1
176
     1
 40
-50.0
176
     1
 90
        0
176
     1
290
     0
176
     1
290
     1
176
     1
290
     1
176
     1
290
     0
176
     1
290
     0
176
     1
290
     0
176
     1
290
     0
176
     1
290
     0
176
     1
290
     0
176
     1
 90
       50
176
     1
 40
0.0
176
     1
 40
1.0
176
     1
 90
        0
176
     1
 62
    18
420
        0
176
     1
 90
       50
176
     1
 90
        3
176
     1
 62
     5
420
      255
176
     1
290
     0
176
     1
 90
       50
176
     1
 90
       50
176
     1
 90
       50
176
     1
290
     0
176
     1
 90
       50
176
     1
 62
   256
176
     0
 40
1.0
176
     0
 90
        2
176
     1
  1
strokes_ogs.tif
176
     1
290
     0
176
     1
 40
1.0
176
     1
 40
1.0
176
     1
  0
VISUALSTYLE
  5
1D7
102
{ACAD_REACTORS
330
177
102
}
330
177
100
AcDbVisualStyle
  2
EdgeColorOff
 70
    22
177
     3
291
     1
 70
    58
 90
        2
176
     0
 90
        2
176
     0
 90
        0
176
     0
 90
        0
176
     0
 40
0.6
176
     0
 40
30.0
176
     0
 62
     7
420
 16777215
176
     0
 90
        1
176
     0
 90
        4
176
     0
 62
     7
176
     0
 62
   257
176
     0
 90
        1
176
     0
 90
        1
176
     0
 40
1.0
176
     0
 90
        8
176
     2
 62
     7
176
     0
 40
1.0
176
     0
 90
        1
176
     0
 90
        6
176
     0
 90
        2
176
     0
 62
     7
176
     0
 90
        5
176
     0
 90
        0
176
     0
 90
        0
176
     0
290
     0
176
     0
 90
        1
176
     0
 40
0.0
176
     0
 90
        0
176
     0
290
     0
176
     0
290
     1
176
     0
290
     1
176
     0
290
     0
176
     0
290
     0
176
     0
290
     0
176
     0
290
     0
176
     0
290
     0
176
     0
290
     0
176
     0
 90
       50
176
     0
 40
0.0
176
     0
 40
1.0
176
     0
 90
        0
176
     0
 62
    18
420
        0
176
     0
 90
       50
176
     0
 90
        3
176
     0
 62
     5
420
      255
176
     0
290
     0
176
     0
 90
       50
176
     0
 90
       50
176
     0
 90
       50
176
     0
290
     0
176
     0
 90
       50
176
     0
 62
   256
176
     0
 40
1.0
176
     0
 90
        2
176
     0
  1
strokes_ogs.tif
176
     0
290
     0
176
     0
 40
1.0
176
     0
 40
1.0
176
     0
  0
VISUALSTYLE
  5
186
102
{ACAD_REACTORS
330
177
102
}
330
177
100
AcDbVisualStyle
  2
Facepattern
 70
    15
177
     3
291
     1
 70
    58
 90
        2
176
     1
 90
        2
176
     1
 90
        0
176
     1
 90
        0
176
     1
 40
-0.6
176
     1
 40
-30.0
176
     1
 62
     7
176
     1
 90
        1
176
     1
 90
        4
176
     1
 62
     7
176
     1
 62
   257
176
     1
 90
        1
176
     1
 90
        1
176
     1
 40
1.0
176
     1
 90
        8
176
     1
 62
     7
176
     1
 40
1.0
176
     1
 90
        1
176
     1
 90
        6
176
     1
 90
        2
176
     1
 62
     7
176
     1
 90
        5
176
     1
 90
        0
176
     1
 90
        0
176
     1
290
     0
176
     1
 90
        1
176
     1
 40
0.0
176
     1
 90
        0
176
     1
290
     0
176
     1
290
     1
176
     1
290
     1
176
     1
290
     0
176
     1
290
     0
176
     1
290
     0
176
     1
290
     0
176
     1
290
     0
176
     1
290
     0
176
     1
 90
       50
176
     1
 40
0.0
176
     1
 40
1.0
176
     1
 90
        0
176
     1
 62
    18
420
        0
176
     1
 90
       50
176
     1
 90
        3
176
     1
 62
     5
420
      255
176
     1
290
     0
176
     1
 90
       50
176
     1
 90
       50
176
     1
 90
       50
176
     1
290
     0
176
     1
 90
       50
176
     1
 62
   256
176
     0
 40
1.0
176
     0
 90
        2
176
     1
  1
strokes_ogs.tif
176
     1
290
     0
176
     1
 40
1.0
176
     1
 40
1.0
176
     1
  0
VISUALSTYLE
  5
178
102
{ACAD_REACTORS
330
177
102
}
330
177
100
AcDbVisualStyle
  2
Flat
 70
     0
177
     3
291
     1
 70
    58
 90
        2
176
     1
 90
        1
176
     1
 90
        1
176
     1
 90
        2
176
     1
 40
-0.6
176
     1
 40
30.0
176
     1
 62
     7
176
     1
 90
        0
176
     1
 90
        4
176
     1
 62
     7
176
     1
 62
   257
176
     1
 90
        1
176
     1
 90
        1
176
     1
 40
1.0
176
     1
 90
        8
176
     1
 62
     7
176
     1
 40
1.0
176
     1
 90
        1
176
     1
 90
        6
176
     1
 90
        2
176
     1
 62
     7
176
     1
 90
        5
176
     1
 90
        0
176
     1
 90
        0
176
     1
290
     0
176
     1
 90
       13
176
     1
 40
0.0
176
     1
 90
        0
176
     1
290
     0
176
     1
290
     1
176
     1
290
     1
176
     1
290
     0
176
     1
290
     0
176
     1
290
     0
176
     1
290
     0
176
     1
290
     0
176
     1
290
     0
176
     1
 90
       50
176
     1
 40
0.0
176
     1
 40
1.0
176
     1
 90
        0
176
     1
 62
    18
420
        0
176
     1
 90
       50
176
     1
 90
        3
176
     1
 62
     5
420
      255
176
     1
290
     0
176
     1
 90
       50
176
     1
 90
       50
176
     1
 90
       50
176
     1
290
     0
176
     1
 90
       50
176
     1
 62
   256
176
     0
 40
1.0
176
     0
 90
        2
176
     1
  1
strokes_ogs.tif
176
     1
290
     0
176
     1
 40
1.0
176
     1
 40
1.0
176
     1
  0
VISUALSTYLE
  5
179
102
{ACAD_REACTORS
330
177
102
}
330
177
100
AcDbVisualStyle
  2
FlatWithEdges
 70
     1
177
     3
291
     1
 70
    58
 90
        2
176
     1
 90
        1
176
     1
 90
        1
176
     1
 90
        2
176
     1
 40
-0.6
176
     1
 40
30.0
176
     1
 62
     7
176
     1
 90
        1
176
     1
 90
        4
176
     1
 62
     7
176
     1
 62
   257
176
     1
 90
        1
176
     1
 90
        1
176
     1
 40
1.0
176
     1
 90
        0
176
     1
 62
   257
176
     1
 40
1.0
176
     1
 90
        1
176
     1
 90
        6
176
     1
 90
        2
176
     1
 62
     7
176
     1
 90
        5
176
     1
 90
        0
176
     1
 90
        0
176
     1
290
     0
176
     1
 90
       13
176
     1
 40
0.0
176
     1
 90
        0
176
     1
290
     0
176
     1
290
     1
176
     1
290
     1
176
     1
290
     0
176
     1
290
     0
176
     1
290
     0
176
     1
290
     0
176
     1
290
     0
176
     1
290
     0
176
     1
 90
       50
176
     1
 40
0.0
176
     1
 40
1.0
176
     1
 90
        0
176
     1
 62
    18
420
        0
176
     1
 90
       50
176
     1
 90
        3
176
     1
 62
     5
420
      255
176
     1
290
     0
176
     1
 90
       50
176
     1
 90
       50
176
     1
 90
       50
176
     1
290
     0
176
     1
 90
       50
176
     1
 62
   256
176
     0
 40
1.0
176
     0
 90
        2
176
     1
  1
strokes_ogs.tif
176
     1
290
     0
176
     1
 40
1.0
176
     1
 40
1.0
176
     1
  0
VISUALSTYLE
  5
17A
102
{ACAD_REACTORS
330
177
102
}
330
177
100
AcDbVisualStyle
  2
Gouraud
 70
     2
177
     3
291
     1
 70
    58
 90
        2
176
     1
 90
        2
176
     1
 90
        1
176
     1
 90
        2
176
     1
 40
-0.6
176
     1
 40
30.0
176
     1
 62
     7
176
     1
 90
        0
176
     1
 90
        4
176
     1
 62
     7
176
     1
 62
   257
176
     1
 90
        1
176
     1
 90
        1
176
     1
 40
1.0
176
     1
 90
        0
176
     1
 62
     7
176
     1
 40
1.0
176
     1
 90
        1
176
     1
 90
        6
176
     1
 90
        2
176
     1
 62
     7
176
     1
 90
        5
176
     1
 90
        0
176
     1
 90
        0
176
     1
290
     0
176
     1
 90
       13
176
     1
 40
0.0
176
     1
 90
        0
176
     1
290
     0
176
     1
290
     1
176
     1
290
     1
176
     1
290
     0
176
     1
290
     0
176
     1
290
     0
176
     1
290
     0
176
     1
290
     0
176
     1
290
     0
176
     1
 90
       50
176
     1
 40
0.0
176
     1
 40
1.0
176
     1
 90
        0
176
     1
 62
    18
420
        0
176
     1
 90
       50
176
     1
 90
        3
176
     1
 62
     5
420
      255
176
     1
290
     0
176
     1
 90
       50
176
     1
 90
       50
176
     1
 90
       50
176
     1
290
     0
176
     1
 90
       50
176
     1
 62
   256
176
     0
 40
1.0
176
     0
 90
        2
176
     1
  1
strokes_ogs.tif
176
     1
290
     0
176
     1
 40
1.0
176
     1
 40
1.0
176
     1
  0
VISUALSTYLE
  5
17B
102
{ACAD_REACTORS
330
177
102
}
330
177
100
AcDbVisualStyle
  2
GouraudWithEdges
 70
     3
177
     3
291
     1
 70
    58
 90
        2
176
     1
 90
        2
176
     1
 90
        1
176
     1
 90
        2
176
     1
 40
-0.6
176
     1
 40
30.0
176
     1
 62
     7
176
     1
 90
        1
176
     1
 90
        4
176
     1
 62
     7
176
     1
 62
   257
176
     1
 90
        1
176
     1
 90
        1
176
     1
 40
1.0
176
     1
 90
        0
176
     1
 62
   257
176
     1
 40
1.0
176
     1
 90
        1
176
     1
 90
        6
176
     1
 90
        2
176
     1
 62
     7
176
     1
 90
        5
176
     1
 90
        0
176
     1
 90
        0
176
     1
290
     0
176
     1
 90
       13
176
     1
 40
0.0
176
     1
 90
        0
176
     1
290
     0
176
     1
290
     1
176
     1
290
     1
176
     1
290
     0
176
     1
290
     0
176
     1
290
     0
176
     1
290
     0
176
     1
290
     0
176
     1
290
     0
176
     1
 90
       50
176
     1
 40
0.0
176
     1
 40
1.0
176
     1
 90
        0
176
     1
 62
    18
420
        0
176
     1
 90
       50
176
     1
 90
        3
176
     1
 62
     5
420
      255
176
     1
290
     0
176
     1
 90
       50
176
     1
 90
       50
176
     1
 90
       50
176
     1
290
     0
176
     1
 90
       50
176
     1
 62
   256
176
     0
 40
1.0
176
     0
 90
        2
176
     1
  1
strokes_ogs.tif
176
     1
290
     0
176
     1
 40
1.0
176
     1
 40
1.0
176
     1
  0
VISUALSTYLE
  5
1D4
102
{ACAD_REACTORS
330
177
102
}
330
177
100
AcDbVisualStyle
  2
Hidden
 70
     6
177
     3
291
     0
 70
    58
 90
        1
176
     1
 90
        2
176
     1
 90
        2
176
     1
 90
        0
176
     1
 40
0.6
176
     1
 40
30.0
176
     1
 62
     7
420
 16777215
176
     1
 90
        2
176
     1
 90
        2
176
     1
 62
     7
176
     1
 62
   257
176
     1
 90
        2
176
     1
 90
        1
176
     1
 40
40.0
176
     1
 90
        0
176
     1
 62
   257
176
     1
 40
1.0
176
     1
 90
        1
176
     1
 90
        6
176
     1
 90
        2
176
     1
 62
     7
176
     1
 90
        3
176
     1
 90
        0
176
     1
 90
        0
176
     1
290
     0
176
     1
 90
        1
176
     1
 40
0.0
176
     1
 90
        0
176
     1
290
     0
176
     1
290
     1
176
     1
290
     1
176
     1
290
     0
176
     1
290
     0
176
     1
290
     0
176
     1
290
     0
176
     1
290
     0
176
     1
290
     0
176
     1
 90
       50
176
     1
 40
0.0
176
     1
 40
1.0
176
     1
 90
        0
176
     1
 62
    18
420
        0
176
     1
 90
       50
176
     1
 90
        3
176
     1
 62
     5
420
      255
176
     1
290
     0
176
     1
 90
       50
176
     1
 90
       50
176
     1
 90
       50
176
     1
290
     0
176
     1
 90
       50
176
     1
 62
   256
176
     0
 40
1.0
176
     0
 90
        2
176
     1
  1
strokes_ogs.tif
176
     1
290
     0
176
     1
 40
1.0
176
     1
 40
1.0
176
     1
  0
VISUALSTYLE
  5
1D5
102
{ACAD_REACTORS
330
177
102
}
330
177
100
AcDbVisualStyle
  2
JitterOff
 70
    20
177
     3
291
     1
 70
    58
 90
        2
176
     0
 90
        2
176
     0
 90
        0
176
     0
 90
        0
176
     0
 40
0.6
176
     0
 40
30.0
176
     0
 62
     7
420
 16777215
176
     0
 90
        1
176
     0
 90
        4
176
     0
 62
     7
176
     0
 62
   257
176
     0
 90
        1
176
     0
 90
        1
176
     0
 40
1.0
176
     0
 90
       10
176
     2
 62
     7
176
     0
 40
1.0
176
     0
 90
        1
176
     0
 90
        6
176
     0
 90
        2
176
     0
 62
     7
176
     0
 90
        5
176
     0
 90
        0
176
     0
 90
        0
176
     0
290
     0
176
     0
 90
        1
176
     0
 40
0.0
176
     0
 90
        0
176
     0
290
     0
176
     0
290
     1
176
     0
290
     1
176
     0
290
     0
176
     0
290
     0
176
     0
290
     0
176
     0
290
     0
176
     0
290
     0
176
     0
290
     0
176
     0
 90
       50
176
     0
 40
0.0
176
     0
 40
1.0
176
     0
 90
        0
176
     0
 62
    18
420
        0
176
     0
 90
       50
176
     0
 90
        3
176
     0
 62
     5
420
      255
176
     0
290
     0
176
     0
 90
       50
176
     0
 90
       50
176
     0
 90
       50
176
     0
290
     0
176
     0
 90
       50
176
     0
 62
   256
176
     0
 40
1.0
176
     0
 90
        2
176
     0
  1
strokes_ogs.tif
176
     0
290
     0
176
     0
 40
1.0
176
     0
 40
1.0
176
     0
  0
VISUALSTYLE
  5
185
102
{ACAD_REACTORS
330
177
102
}
330
177
100
AcDbVisualStyle
  2
Linepattern
 70
    14
177
     3
291
     1
 70
    58
 90
        2
176
     1
 90
        2
176
     1
 90
        0
176
     1
 90
        0
176
     1
 40
-0.6
176
     1
 40
-30.0
176
     1
 62
     7
176
     1
 90
        1
176
     1
 90
        4
176
     1
 62
     7
176
     1
 62
   257
176
     1
 90
        7
176
     1
 90
        7
176
     1
 40
1.0
176
     1
 90
        8
176
     1
 62
     7
176
     1
 40
1.0
176
     1
 90
        1
176
     1
 90
        6
176
     1
 90
        2
176
     1
 62
     7
176
     1
 90
        5
176
     1
 90
        0
176
     1
 90
        0
176
     1
290
     0
176
     1
 90
        1
176
     1
 40
0.0
176
     1
 90
        0
176
     1
290
     0
176
     1
290
     1
176
     1
290
     1
176
     1
290
     0
176
     1
290
     0
176
     1
290
     0
176
     1
290
     0
176
     1
290
     0
176
     1
290
     0
176
     1
 90
       50
176
     1
 40
0.0
176
     1
 40
1.0
176
     1
 90
        0
176
     1
 62
    18
420
        0
176
     1
 90
       50
176
     1
 90
        3
176
     1
 62
     5
420
      255
176
     1
290
     0
176
     1
 90
       50
176
     1
 90
       50
176
     1
 90
       50
176
     1
290
     0
176
     1
 90
       50
176
     1
 62
   256
176
     0
 40
1.0
176
     0
 90
        2
176
     1
  1
strokes_ogs.tif
176
     1
290
     0
176
     1
 40
1.0
176
     1
 40
1.0
176
     1
  0
VISUALSTYLE
  5
1D6
102
{ACAD_REACTORS
330
177
102
}
330
177
100
AcDbVisualStyle
  2
OverhangOff
 70
    21
177
     3
291
     1
 70
    58
 90
        2
176
     0
 90
        2
176
     0
 90
        0
176
     0
 90
        0
176
     0
 40
0.6
176
     0
 40
30.0
176
     0
 62
     7
420
 16777215
176
     0
 90
        1
176
     0
 90
        4
176
     0
 62
     7
176
     0
 62
   257
176
     0
 90
        1
176
     0
 90
        1
176
     0
 40
1.0
176
     0
 90
        9
176
     2
 62
     7
176
     0
 40
1.0
176
     0
 90
        1
176
     0
 90
        6
176
     0
 90
        2
176
     0
 62
     7
176
     0
 90
        5
176
     0
 90
        0
176
     0
 90
        0
176
     0
290
     0
176
     0
 90
        1
176
     0
 40
0.0
176
     0
 90
        0
176
     0
290
     0
176
     0
290
     1
176
     0
290
     1
176
     0
290
     0
176
     0
290
     0
176
     0
290
     0
176
     0
290
     0
176
     0
290
     0
176
     0
290
     0
176
     0
 90
       50
176
     0
 40
0.0
176
     0
 40
1.0
176
     0
 90
        0
176
     0
 62
    18
420
        0
176
     0
 90
       50
176
     0
 90
        3
176
     0
 62
     5
420
      255
176
     0
290
     0
176
     0
 90
       50
176
     0
 90
       50
176
     0
 90
       50
176
     0
290
     0
176
     0
 90
       50
176
     0
 62
   256
176
     0
 40
1.0
176
     0
 90
        2
176
     0
  1
strokes_ogs.tif
176
     0
290
     0
176
     0
 40
1.0
176
     0
 40
1.0
176
     0
  0
VISUALSTYLE
  5
180
102
{ACAD_REACTORS
330
177
102
}
330
177
100
AcDbVisualStyle
  2
Realistic
 70
     8
177
     3
291
     0
 70
    58
 90
        2
176
     1
 90
        2
176
     1
 90
        0
176
     1
 90
        0
176
     1
 40
-0.6
176
     1
 40
-30.0
176
     1
 62
     7
176
     1
 90
        1
176
     1
 90
        0
176
     1
 62
     7
176
     1
 62
   257
176
     1
 90
        1
176
     1
 90
        1
176
     1
 40
1.0
176
     1
 90
        8
176
     1
 62
     8
176
     1
 40
1.0
176
     1
 90
        1
176
     1
 90
        6
176
     1
 90
        2
176
     1
 62
     7
176
     1
 90
        5
176
     1
 90
        0
176
     1
 90
        0
176
     1
290
     0
176
     1
 90
       13
176
     1
 40
0.0
176
     1
 90
        0
176
     1
290
     0
176
     1
290
     1
176
     1
290
     1
176
     1
290
     0
176
     1
290
     0
176
     1
290
     0
176
     1
290
     0
176
     1
290
     0
176
     1
290
     0
176
     1
 90
       50
176
     1
 40
0.0
176
     1
 40
1.0
176
     1
 90
        0
176
     1
 62
    18
420
        0
176
     1
 90
       50
176
     1
 90
        3
176
     1
 62
     5
420
      255
176
     1
290
     0
176
     1
 90
       50
176
     1
 90
       50
176
     1
 90
       50
176
     1
290
     0
176
     1
 90
       50
176
     1
 62
   256
176
     0
 40
1.0
176
     0
 90
        2
176
     1
  1
strokes_ogs.tif
176
     1
290
     0
176
     1
 40
1.0
176
     1
 40
1.0
176
     1
  0
VISUALSTYLE
  5
1DC
102
{ACAD_REACTORS
330
177
102
}
330
177
100
AcDbVisualStyle
  2
Shaded
 70
    27
177
     3
291
     0
 70
    58
 90
        2
176
     1
 90
        2
176
     1
 90
        1
176
     1
 90
        2
176
     1
 40
0.6
176
     1
 40
30.0
176
     1
 62
     7
420
 16777215
176
     1
 90
        0
176
     1
 90
        4
176
     1
 62
     7
176
     1
 62
   257
176
     1
 90
        1
176
     1
 90
        1
176
     1
 40
1.0
176
     1
 90
        8
176
     1
 62
   257
176
     1
 40
1.0
176
     1
 90
        1
176
     1
 90
        6
176
     1
 90
        2
176
     1
 62
     8
420
  7895160
176
     1
 90
        3
176
     1
 90
        0
176
     1
 90
        0
176
     1
290
     0
176
     1
 90
        5
176
     1
 40
0.0
176
     1
 90
        0
176
     1
290
     0
176
     1
290
     1
176
     1
290
     1
176
     1
290
     0
176
     1
290
     0
176
     1
290
     0
176
     1
290
     0
176
     1
290
     0
176
     1
290
     0
176
     1
 90
       50
176
     1
 40
0.0
176
     1
 40
1.0
176
     1
 90
        0
176
     1
 62
    18
420
        0
176
     1
 90
       50
176
     1
 90
        3
176
     1
 62
     5
420
      255
176
     1
290
     0
176
     1
 90
       50
176
     1
 90
       50
176
     1
 90
       50
176
     1
290
     0
176
     1
 90
       50
176
     1
 62
   256
176
     0
 40
1.0
176
     0
 90
        2
176
     1
  1
strokes_ogs.tif
176
     1
290
     0
176
     1
 40
1.0
176
     1
 40
1.0
176
     1
  0
VISUALSTYLE
  5
1DB
102
{ACAD_REACTORS
330
177
102
}
330
177
100
AcDbVisualStyle
  2
Shaded with edges
 70
    26
177
     3
291
     0
 70
    58
 90
        2
176
     1
 90
        2
176
     1
 90
        1
176
     1
 90
        2
176
     1
 40
0.6
176
     1
 40
30.0
176
     1
 62
     7
420
 16777215
176
     1
 90
        1
176
     1
 90
       10
176
     1
 62
     7
176
     1
 62
   257
176
     1
 90
        2
176
     1
 90
        1
176
     1
 40
1.0
176
     1
 90
        8
176
     1
 62
   257
176
     1
 40
1.0
176
     1
 90
        1
176
     1
 90
        6
176
     1
 90
        2
176
     1
 62
     7
176
     1
 90
        3
176
     1
 90
        0
176
     1
 90
        0
176
     1
290
     0
176
     1
 90
        5
176
     1
 40
0.0
176
     1
 90
        0
176
     1
290
     0
176
     1
290
     1
176
     1
290
     1
176
     1
290
     0
176
     1
290
     0
176
     1
290
     0
176
     1
290
     0
176
     1
290
     0
176
     1
290
     0
176
     1
 90
       50
176
     1
 40
0.0
176
     1
 40
1.0
176
     1
 90
        0
176
     1
 62
    18
420
        0
176
     1
 90
       50
176
     1
 90
        3
176
     1
 62
     5
420
      255
176
     1
290
     0
176
     1
 90
       50
176
     1
 90
       50
176
     1
 90
       50
176
     1
290
     0
176
     1
 90
       50
176
     1
 62
   256
176
     0
 40
1.0
176
     0
 90
        2
176
     1
  1
strokes_ogs.tif
176
     1
290
     0
176
     1
 40
1.0
176
     1
 40
1.0
176
     1
  0
VISUALSTYLE
  5
1D8
102
{ACAD_REACTORS
330
177
102
}
330
177
100
AcDbVisualStyle
  2
Shades of Gray
 70
    23
177
     3
291
     0
 70
    58
 90
        2
176
     1
 90
        2
176
     1
 90
        3
176
     1
 90
        0
176
     1
 40
0.6
176
     1
 40
30.0
176
     1
 62
     7
420
 16777215
176
     1
 90
        2
176
     1
 90
        2
176
     1
 62
     7
176
     1
 62
     7
176
     1
 90
        1
176
     1
 90
        1
176
     1
 40
40.0
176
     1
 90
        8
176
     1
 62
     7
176
     1
 40
1.0
176
     1
 90
        1
176
     1
 90
        6
176
     1
 90
        2
176
     1
 62
     7
176
     1
 90
        3
176
     1
 90
        0
176
     1
 90
        0
176
     1
290
     0
176
     1
 90
        1
176
     1
 40
0.0
176
     1
 90
        0
176
     1
290
     0
176
     1
290
     1
176
     1
290
     1
176
     1
290
     0
176
     1
290
     0
176
     1
290
     0
176
     1
290
     0
176
     1
290
     0
176
     1
290
     0
176
     1
 90
       50
176
     1
 40
0.0
176
     1
 40
1.0
176
     1
 90
        0
176
     1
 62
    18
420
        0
176
     1
 90
       50
176
     1
 90
        3
176
     1
 62
     5
420
      255
176
     1
290
     0
176
     1
 90
       50
176
     1
 90
       50
176
     1
 90
       50
176
     1
290
     0
176
     1
 90
       50
176
     1
 62
   256
176
     0
 40
1.0
176
     0
 90
        2
176
     1
  1
strokes_ogs.tif
176
     1
290
     0
176
     1
 40
1.0
176
     1
 40
1.0
176
     1
  0
VISUALSTYLE
  5
1D9
102
{ACAD_REACTORS
330
177
102
}
330
177
100
AcDbVisualStyle
  2
Sketchy
 70
    24
177
     3
291
     0
 70
    58
 90
        1
176
     1
 90
        2
176
     1
 90
        2
176
     1
 90
        0
176
     1
 40
0.6
176
     1
 40
30.0
176
     1
 62
     7
420
 16777215
176
     1
 90
        2
176
     1
 90
        2
176
     1
 62
     7
176
     1
 62
     7
176
     1
 90
        1
176
     1
 90
        1
176
     1
 40
40.0
176
     1
 90
       11
176
     1
 62
     7
176
     1
 40
1.0
176
     1
 90
        1
176
     1
 90
        6
176
     1
 90
        2
176
     1
 62
     7
176
     1
 90
        6
176
     1
 90
        0
176
     1
 90
        0
176
     1
290
     0
176
     1
 90
        1
176
     1
 40
0.0
176
     1
 90
        0
176
     1
290
     0
176
     1
290
     1
176
     1
290
     1
176
     1
290
     0
176
     1
290
     0
176
     1
290
     0
176
     1
290
     0
176
     1
290
     0
176
     1
290
     0
176
     1
 90
       50
176
     1
 40
0.0
176
     1
 40
1.0
176
     1
 90
        0
176
     1
 62
    18
420
        0
176
     1
 90
       50
176
     1
 90
        3
176
     1
 62
     5
420
      255
176
     1
290
     0
176
     1
 90
       50
176
     1
 90
       50
176
     1
 90
       50
176
     1
290
     0
176
     1
 90
       50
176
     1
 62
   256
176
     0
 40
1.0
176
     0
 90
        2
176
     1
  1
strokes_ogs.tif
176
     1
290
     0
176
     1
 40
1.0
176
     1
 40
1.0
176
     1
  0
VISUALSTYLE
  5
184
102
{ACAD_REACTORS
330
177
102
}
330
177
100
AcDbVisualStyle
  2
Thicken
 70
    13
177
     3
291
     1
 70
    58
 90
        2
176
     1
 90
        2
176
     1
 90
        0
176
     1
 90
        0
176
     1
 40
-0.6
176
     1
 40
-30.0
176
     1
 62
     7
176
     1
 90
        1
176
     1
 90
        4
176
     1
 62
     7
176
     1
 62
   257
176
     1
 90
        1
176
     1
 90
        1
176
     1
 40
1.0
176
     1
 90
       12
176
     1
 62
     7
176
     1
 40
1.0
176
     1
 90
        1
176
     1
 90
        6
176
     1
 90
        2
176
     1
 62
     7
176
     1
 90
        5
176
     1
 90
        0
176
     1
 90
        0
176
     1
290
     0
176
     1
 90
        1
176
     1
 40
0.0
176
     1
 90
        0
176
     1
290
     0
176
     1
290
     1
176
     1
290
     1
176
     1
290
     0
176
     1
290
     0
176
     1
290
     0
176
     1
290
     0
176
     1
290
     0
176
     1
290
     0
176
     1
 90
       50
176
     1
 40
0.0
176
     1
 40
1.0
176
     1
 90
        0
176
     1
 62
    18
420
        0
176
     1
 90
       50
176
     1
 90
        3
176
     1
 62
     5
420
      255
176
     1
290
     0
176
     1
 90
       50
176
     1
 90
       50
176
     1
 90
       50
176
     1
290
     0
176
     1
 90
       50
176
     1
 62
   256
176
     0
 40
1.0
176
     0
 90
        2
176
     1
  1
strokes_ogs.tif
176
     1
290
     0
176
     1
 40
1.0
176
     1
 40
1.0
176
     1
  0
VISUALSTYLE
  5
1D3
102
{ACAD_REACTORS
330
177
102
}
330
177
100
AcDbVisualStyle
  2
Wireframe
 70
     5
177
     3
291
     0
 70
    58
 90
        0
176
     1
 90
        2
176
     1
 90
        0
176
     1
 90
        0
176
     1
 40
0.6
176
     1
 40
30.0
176
     1
 62
     7
420
 16777215
176
     1
 90
        1
176
     1
 90
        4
176
     1
 62
     7
176
     1
 62
   257
176
     1
 90
        1
176
     1
 90
        1
176
     1
 40
1.0
176
     1
 90
        0
176
     1
 62
   257
176
     1
 40
1.0
176
     1
 90
        1
176
     1
 90
        6
176
     1
 90
        2
176
     1
 62
     7
176
     1
 90
        3
176
     1
 90
        0
176
     1
 90
        0
176
     1
290
     0
176
     1
 90
        1
176
     1
 40
0.0
176
     1
 90
        0
176
     1
290
     0
176
     1
290
     1
176
     1
290
     1
176
     1
290
     0
176
     1
290
     0
176
     1
290
     0
176
     1
290
     0
176
     1
290
     0
176
     1
290
     0
176
     1
 90
       50
176
     1
 40
0.0
176
     1
 40
1.0
176
     1
 90
        0
176
     1
 62
    18
420
        0
176
     1
 90
       50
176
     1
 90
        3
176
     1
 62
     5
420
      255
176
     1
290
     0
176
     1
 90
       50
176
     1
 90
       50
176
     1
 90
       50
176
     1
290
     0
176
     1
 90
       50
176
     1
 62
   256
176
     0
 40
1.0
176
     0
 90
        2
176
     1
  1
strokes_ogs.tif
176
     1
290
     0
176
     1
 40
1.0
176
     1
 40
1.0
176
     1
  0
VISUALSTYLE
  5
1DA
102
{ACAD_REACTORS
330
177
102
}
330
177
100
AcDbVisualStyle
  2
X-Ray
 70
    25
177
     3
291
     0
 70
    58
 90
        2
176
     1
 90
        2
176
     1
 90
        1
176
     1
 90
        1
176
     1
 40
0.5
176
     1
 40
30.0
176
     1
 62
     7
420
 16777215
176
     1
 90
        1
176
     1
 90
        0
176
     1
 62
     7
176
     1
 62
   257
176
     1
 90
        1
176
     1
 90
        1
176
     1
 40
1.0
176
     1
 90
        8
176
     1
 62
     7
176
     1
 40
1.0
176
     1
 90
        1
176
     1
 90
        6
176
     1
 90
        2
176
     1
 62
     7
176
     1
 90
        3
176
     1
 90
        0
176
     1
 90
        0
176
     1
290
     0
176
     1
 90
       13
176
     1
 40
0.0
176
     1
 90
        0
176
     1
290
     0
176
     1
290
     1
176
     1
290
     1
176
     1
290
     0
176
     1
290
     0
176
     1
290
     0
176
     1
290
     0
176
     1
290
     0
176
     1
290
     0
176
     1
 90
       50
176
     1
 40
0.0
176
     1
 40
1.0
176
     1
 90
        0
176
     1
 62
    18
420
        0
176
     1
 90
       50
176
     1
 90
        3
176
     1
 62
     5
420
      255
176
     1
290
     0
176
     1
 90
       50
176
     1
 90
       50
176
     1
 90
       50
176
     1
290
     0
176
     1
 90
       50
176
     1
 62
   256
176
     0
 40
1.0
176
     0
 90
        2
176
     1
  1
strokes_ogs.tif
176
     1
290
     0
176
     1
 40
1.0
176
     1
 40
1.0
176
     1
  0
DICTIONARYVAR
  5
1E4
102
{ACAD_REACTORS
330
192
102
}
330
192
100
DictionaryVariables
280
     0
  1
1:1
  0
DICTIONARYVAR
  5
1E6
102
{ACAD_REACTORS
330
192
102
}
330
192
100
DictionaryVariables
280
     0
  1
Standard
  0
DICTIONARYVAR
  5
1E5
102
{ACAD_REACTORS
330
192
102
}
330
192
100
DictionaryVariables
280
     0
  1
Standard
  0
DICTIONARYVAR
  5
196
102
{ACAD_REACTORS
330
192
102
}
330
192
100
DictionaryVariables
280
     0
  1
2
  0
DICTIONARYVAR
  5
197
102
{ACAD_REACTORS
330
192
102
}
330
192
100
DictionaryVariables
280
     0
  1
1
  0
DICTIONARYVAR
  5
195
102
{ACAD_REACTORS
330
192
102
}
330
192
100
DictionaryVariables
280
     0
  1
0
  0
DICTIONARY
  5
29A
330
1DE
100
AcDbDictionary
280
     1
281
     1
  3
ACAD_ROUNDTRIP_2008_TABLESTYLE_CELLSTYLEMAP
360
29B
  0
CELLSTYLEMAP
  5
29B
102
{ACAD_REACTORS
330
29A
102
}
330
29A
100
AcDbCellStyleMap
 90
        3
300
CELLSTYLE
  1
TABLEFORMAT_BEGIN
 90
        5
170
     1
 91
        0
 92
    32768
 62
   257
 93
        1
300
CONTENTFORMAT
  1
CONTENTFORMAT_BEGIN
 90
        0
 91
        0
 92
        4
 93
        0
300

 40
0.0
140
1.0
 94
        5
 62
     0
340
11
144
0.25
309
CONTENTFORMAT_END
171
     1
301
MARGIN
  1
CELLMARGIN_BEGIN
 40
0.06
 40
0.06
 40
0.06
 40
0.06
 40
0.06
 40
0.06
309
CELLMARGIN_END
 94
        6
 95
        1
302
GRIDFORMAT
  1
GRIDFORMAT_BEGIN
 90
        0
 91
        1
 62
     0
 92
       -2
340
14
 93
        0
 40
0.045
309
GRIDFORMAT_END
 95
        2
302
GRIDFORMAT
  1
GRIDFORMAT_BEGIN
 90
        0
 91
        1
 62
     0
 92
       -2
340
14
 93
        0
 40
0.045
309
GRIDFORMAT_END
 95
        4
302
GRIDFORMAT
  1
GRIDFORMAT_BEGIN
 90
        0
 91
        1
 62
     0
 92
       -2
340
14
 93
        0
 40
0.045
309
GRIDFORMAT_END
 95
        8
302
GRIDFORMAT
  1
GRIDFORMAT_BEGIN
 90
        0
 91
        1
 62
     0
 92
       -2
340
14
 93
        0
 40
0.045
309
GRIDFORMAT_END
 95
       16
302
GRIDFORMAT
  1
GRIDFORMAT_BEGIN
 90
        0
 91
        1
 62
     0
 92
       -2
340
14
 93
        0
 40
0.045
309
GRIDFORMAT_END
 95
       32
302
GRIDFORMAT
  1
GRIDFORMAT_BEGIN
 90
        0
 91
        1
 62
     0
 92
       -2
340
14
 93
        0
 40
0.045
309
GRIDFORMAT_END
309
TABLEFORMAT_END
  1
CELLSTYLE_BEGIN
 90
        1
 91
        1
300
_TITLE
309
CELLSTYLE_END
300
CELLSTYLE
  1
TABLEFORMAT_BEGIN
 90
        5
170
     1
 91
        0
 92
        0
 62
   257
 93
        1
300
CONTENTFORMAT
  1
CONTENTFORMAT_BEGIN
 90
        0
 91
        0
 92
        4
 93
        0
300

 40
0.0
140
1.0
 94
        5
 62
     0
340
11
144
0.18
309
CONTENTFORMAT_END
171
     1
301
MARGIN
  1
CELLMARGIN_BEGIN
 40
0.06
 40
0.06
 40
0.06
 40
0.06
 40
0.06
 40
0.06
309
CELLMARGIN_END
 94
        6
 95
        1
302
GRIDFORMAT
  1
GRIDFORMAT_BEGIN
 90
        0
 91
        1
 62
     0
 92
       -2
340
14
 93
        0
 40
0.045
309
GRIDFORMAT_END
 95
        2
302
GRIDFORMAT
  1
GRIDFORMAT_BEGIN
 90
        0
 91
        1
 62
     0
 92
       -2
340
14
 93
        0
 40
0.045
309
GRIDFORMAT_END
 95
        4
302
GRIDFORMAT
  1
GRIDFORMAT_BEGIN
 90
        0
 91
        1
 62
     0
 92
       -2
340
14
 93
        0
 40
0.045
309
GRIDFORMAT_END
 95
        8
302
GRIDFORMAT
  1
GRIDFORMAT_BEGIN
 90
        0
 91
        1
 62
     0
 92
       -2
340
14
 93
        0
 40
0.045
309
GRIDFORMAT_END
 95
       16
302
GRIDFORMAT
  1
GRIDFORMAT_BEGIN
 90
        0
 91
        1
 62
     0
 92
       -2
340
14
 93
        0
 40
0.045
309
GRIDFORMAT_END
 95
       32
302
GRIDFORMAT
  1
GRIDFORMAT_BEGIN
 90
        0
 91
        1
 62
     0
 92
       -2
340
14
 93
        0
 40
0.045
309
GRIDFORMAT_END
309
TABLEFORMAT_END
  1
CELLSTYLE_BEGIN
 90
        2
 91
        1
300
_HEADER
309
CELLSTYLE_END
300
CELLSTYLE
  1
TABLEFORMAT_BEGIN
 90
        5
170
     1
 91
        0
 92
        0
 62
   257
 93
        1
300
CONTENTFORMAT
  1
CONTENTFORMAT_BEGIN
 90
        0
 91
        0
 92
        4
 93
        0
300

 40
0.0
140
1.0
 94
        2
 62
     0
340
11
144
0.18
309
CONTENTFORMAT_END
171
     1
301
MARGIN
  1
CELLMARGIN_BEGIN
 40
0.06
 40
0.06
 40
0.06
 40
0.06
 40
0.06
 40
0.06
309
CELLMARGIN_END
 94
        6
 95
        1
302
GRIDFORMAT
  1
GRIDFORMAT_BEGIN
 90
        0
 91
        1
 62
     0
 92
       -2
340
14
 93
        0
 40
0.045
309
GRIDFORMAT_END
 95
        2
302
GRIDFORMAT
  1
GRIDFORMAT_BEGIN
 90
        0
 91
        1
 62
     0
 92
       -2
340
14
 93
        0
 40
0.045
309
GRIDFORMAT_END
 95
        4
302
GRIDFORMAT
  1
GRIDFORMAT_BEGIN
 90
        0
 91
        1
 62
     0
 92
       -2
340
14
 93
        0
 40
0.045
309
GRIDFORMAT_END
 95
        8
302
GRIDFORMAT
  1
GRIDFORMAT_BEGIN
 90
        0
 91
        1
 62
     0
 92
       -2
340
14
 93
        0
 40
0.045
309
GRIDFORMAT_END
 95
       16
302
GRIDFORMAT
  1
GRIDFORMAT_BEGIN
 90
        0
 91
        1
 62
     0
 92
       -2
340
14
 93
        0
 40
0.045
309
GRIDFORMAT_END
 95
       32
302
GRIDFORMAT
  1
GRIDFORMAT_BEGIN
 90
        0
 91
        1
 62
     0
 92
       -2
340
14
 93
        0
 40
0.045
309
GRIDFORMAT_END
309
TABLEFORMAT_END
  1
CELLSTYLE_BEGIN
 90
        3
 91
        2
300
_DATA
309
CELLSTYLE_END
  0
ENDSEC
  0
EOF
