  0
SECTION
  2
HEADER
  9
$ACADVER
  1
AC1015
  9
$ACADMAINTVER
 70
     6
  9
$DWGCODEPAGE
  3
ANSI_1252
  9
$INSBASE
 10
0.0
 20
0.0
 30
0.0
  9
$EXTMIN
 10
-28.21301236865692
 20
-91.33999132500477
 30
0.0
  9
$EXTMAX
 10
87.36071684195593
 20
104.6964607537565
 30
0.0
  9
$LIMMIN
 10
-141.931336089
 20
-66.943121687
  9
$LIMMAX
 10
183.638831724
 20
80.255290435
  9
$ORTHOMODE
 70
     0
  9
$REGENMODE
 70
     1
  9
$FILLMODE
 70
     1
  9
$QTEXTMODE
 70
     0
  9
$MIRRTEXT
 70
     1
  9
$LTSCALE
 40
1.0
  9
$ATTMODE
 70
     1
  9
$TEXTSIZE
 40
0.2
  9
$TRACEWID
 40
0.05
  9
$TEXTSTYLE
  7
Standard
  9
$CLAYER
  8
SK2
  9
$CELTYPE
  6
ByLayer
  9
$CECOLOR
 62
   256
  9
$CELTSCALE
 40
1.0
  9
$DISPSILH
 70
     0
  9
$DIMSCALE
 40
1.0
  9
$DIMASZ
 40
0.18
  9
$DIMEXO
 40
0.0625
  9
$DIMDLI
 40
0.38
  9
$DIMRND
 40
0.0
  9
$DIMDLE
 40
0.0
  9
$DIMEXE
 40
0.18
  9
$DIMTP
 40
0.0
  9
$DIMTM
 40
0.0
  9
$DIMTXT
 40
0.18
  9
$DIMCEN
 40
0.09
  9
$DIMTSZ
 40
0.0
  9
$DIMTOL
 70
     0
  9
$DIMLIM
 70
     0
  9
$DIMTIH
 70
     1
  9
$DIMTOH
 70
     1
  9
$DIMSE1
 70
     0
  9
$DIMSE2
 70
     0
  9
$DIMTAD
 70
     0
  9
$DIMZIN
 70
     0
  9
$DIMBLK
  1

  9
$DIMASO
 70
     1
  9
$DIMSHO
 70
     1
  9
$DIMPOST
  1

  9
$DIMAPOST
  1

  9
$DIMALT
 70
     0
  9
$DIMALTD
 70
     2
  9
$DIMALTF
 40
25.4
  9
$DIMLFAC
 40
1.0
  9
$DIMTOFL
 70
     0
  9
$DIMTVP
 40
0.0
  9
$DIMTIX
 70
     0
  9
$DIMSOXD
 70
     0
  9
$DIMSAH
 70
     0
  9
$DIMBLK1
  1

  9
$DIMBLK2
  1

  9
$DIMSTYLE
  2
Standard
  9
$DIMCLRD
 70
     0
  9
$DIMCLRE
 70
     0
  9
$DIMCLRT
 70
     0
  9
$DIMTFAC
 40
1.0
  9
$DIMGAP
 40
0.09
  9
$DIMJUST
 70
     0
  9
$DIMSD1
 70
     0
  9
$DIMSD2
 70
     0
  9
$DIMTOLJ
 70
     1
  9
$DIMTZIN
 70
     0
  9
$DIMALTZ
 70
     0
  9
$DIMALTTZ
 70
     0
  9
$DIMUPT
 70
     0
  9
$DIMDEC
 70
     4
  9
$DIMTDEC
 70
     4
  9
$DIMALTU
 70
     2
  9
$DIMALTTD
 70
     2
  9
$DIMTXSTY
  7
Standard
  9
$DIMAUNIT
 70
     0
  9
$DIMADEC
 70
     0
  9
$DIMALTRND
 40
0.0
  9
$DIMAZIN
 70
     0
  9
$DIMDSEP
 70
    46
  9
$DIMATFIT
 70
     3
  9
$DIMFRAC
 70
     0
  9
$DIMLDRBLK
  1

  9
$DIMLUNIT
 70
     2
  9
$DIMLWD
 70
    -2
  9
$DIMLWE
 70
    -2
  9
$DIMTMOVE
 70
     2
  9
$LUNITS
 70
     2
  9
$LUPREC
 70
     4
  9
$SKETCHINC
 40
0.1
  9
$FILLETRAD
 40
0.5
  9
$AUNITS
 70
     2
  9
$AUPREC
 70
     0
  9
$MENU
  1
.
  9
$ELEVATION
 40
0.0
  9
$PELEVATION
 40
0.0
  9
$THICKNESS
 40
0.0
  9
$LIMCHECK
 70
     0
  9
$CHAMFERA
 40
0.5
  9
$CHAMFERB
 40
0.5
  9
$CHAMFERC
 40
1.0
  9
$CHAMFERD
 40
0.0
  9
$SKPOLY
 70
     0
  9
$TDCREATE
 40
2458327.549554271
  9
$TDUCREATE
 40
2458327.466220938
  9
$TDUPDATE
 40
2458684.699362558
  9
$TDUUPDATE
 40
2458684.616029224
  9
$TDINDWG
 40
0.0106360301
  9
$TDUSRTIMER
 40
0.0185101389
  9
$USRTIMER
 70
     1
  9
$ANGBASE
 50
0.0
  9
$ANGDIR
 70
     0
  9
$PDMODE
 70
     0
  9
$PDSIZE
 40
0.0
  9
$PLINEWID
 40
0.0
  9
$SPLFRAME
 70
     0
  9
$SPLINETYPE
 70
     6
  9
$SPLINESEGS
 70
     8
  9
$HANDSEED
  5
306
  9
$SURFTAB1
 70
     6
  9
$SURFTAB2
 70
     6
  9
$SURFTYPE
 70
     6
  9
$SURFU
 70
     6
  9
$SURFV
 70
     6
  9
$UCSBASE
  2

  9
$UCSNAME
  2

  9
$UCSORG
 10
0.0
 20
0.0
 30
0.0
  9
$UCSXDIR
 10
1.0
 20
0.0
 30
0.0
  9
$UCSYDIR
 10
0.0
 20
1.0
 30
0.0
  9
$UCSORTHOREF
  2

  9
$UCSORTHOVIEW
 70
     0
  9
$UCSORGTOP
 10
0.0
 20
0.0
 30
0.0
  9
$UCSORGBOTTOM
 10
0.0
 20
0.0
 30
0.0
  9
$UCSORGLEFT
 10
0.0
 20
0.0
 30
0.0
  9
$UCSORGRIGHT
 10
0.0
 20
0.0
 30
0.0
  9
$UCSORGFRONT
 10
0.0
 20
0.0
 30
0.0
  9
$UCSORGBACK
 10
0.0
 20
0.0
 30
0.0
  9
$PUCSBASE
  2

  9
$PUCSNAME
  2

  9
$PUCSORG
 10
0.0
 20
0.0
 30
0.0
  9
$PUCSXDIR
 10
1.0
 20
0.0
 30
0.0
  9
$PUCSYDIR
 10
0.0
 20
1.0
 30
0.0
  9
$PUCSORTHOREF
  2

  9
$PUCSORTHOVIEW
 70
     0
  9
$PUCSORGTOP
 10
0.0
 20
0.0
 30
0.0
  9
$PUCSORGBOTTOM
 10
0.0
 20
0.0
 30
0.0
  9
$PUCSORGLEFT
 10
0.0
 20
0.0
 30
0.0
  9
$PUCSORGRIGHT
 10
0.0
 20
0.0
 30
0.0
  9
$PUCSORGFRONT
 10
0.0
 20
0.0
 30
0.0
  9
$PUCSORGBACK
 10
0.0
 20
0.0
 30
0.0
  9
$USERI1
 70
     0
  9
$USERI2
 70
     0
  9
$USERI3
 70
     0
  9
$USERI4
 70
     0
  9
$USERI5
 70
     0
  9
$USERR1
 40
0.0
  9
$USERR2
 40
0.0
  9
$USERR3
 40
0.0
  9
$USERR4
 40
0.0
  9
$USERR5
 40
0.0
  9
$WORLDVIEW
 70
     1
  9
$SHADEDGE
 70
     3
  9
$SHADEDIF
 70
    70
  9
$TILEMODE
 70
     1
  9
$MAXACTVP
 70
    64
  9
$PINSBASE
 10
0.0
 20
0.0
 30
0.0
  9
$PLIMCHECK
 70
     0
  9
$PEXTMIN
 10
1.000000000000000E+20
 20
1.000000000000000E+20
 30
1.000000000000000E+20
  9
$PEXTMAX
 10
-1.000000000000000E+20
 20
-1.000000000000000E+20
 30
-1.000000000000000E+20
  9
$PLIMMIN
 10
0.0
 20
0.0
  9
$PLIMMAX
 10
0.0
 20
0.0
  9
$UNITMODE
 70
     0
  9
$VISRETAIN
 70
     1
  9
$PLINEGEN
 70
     0
  9
$PSLTSCALE
 70
     1
  9
$TREEDEPTH
 70
  3020
  9
$CMLSTYLE
  2
Standard
  9
$CMLJUST
 70
     0
  9
$CMLSCALE
 40
1.0
  9
$PROXYGRAPHICS
 70
     1
  9
$MEASUREMENT
 70
     0
  9
$CELWEIGHT
370
    -1
  9
$ENDCAPS
280
     0
  9
$JOINSTYLE
280
     0
  9
$LWDISPLAY
290
     0
  9
$INSUNITS
 70
     0
  9
$HYPERLINKBASE
  1

  9
$STYLESHEET
  1

  9
$XEDIT
290
     1
  9
$CEPSNTYPE
380
     0
  9
$PSTYLEMODE
290
     1
  9
$FINGERPRINTGUID
  2
{3D318ECD-46FC-47F4-A3FF-C1EFAF81827F}
  9
$VERSIONGUID
  2
{FAEB1C32-E019-11D5-929B-00C0DF256EC4}
  9
$EXTNAMES
290
     1
  9
$PSVPSCALE
 40
0.0
  9
$OLESTARTUP
290
     0
  0
ENDSEC
  0
SECTION
  2
CLASSES
  0
CLASS
  1
ACDBDICTIONARYWDFLT
  2
AcDbDictionaryWithDefault
  3
ObjectDBX Classes
 90
        0
280
     0
281
     0
  0
CLASS
  1
SCALE
  2
AcDbScale
  3
ObjectDBX Classes
 90
     1153
280
     0
281
     0
  0
CLASS
  1
VISUALSTYLE
  2
AcDbVisualStyle
  3
ObjectDBX Classes
 90
     4095
280
     0
281
     0
  0
CLASS
  1
MATERIAL
  2
AcDbMaterial
  3
ObjectDBX Classes
 90
     1153
280
     0
281
     0
  0
CLASS
  1
DICTIONARYVAR
  2
AcDbDictionaryVar
  3
ObjectDBX Classes
 90
        0
280
     0
281
     0
  0
CLASS
  1
ACDBPLACEHOLDER
  2
AcDbPlaceHolder
  3
ObjectDBX Classes
 90
        0
280
     0
281
     0
  0
CLASS
  1
LAYOUT
  2
AcDbLayout
  3
ObjectDBX Classes
 90
        0
280
     0
281
     0
  0
CLASS
  1
TABLESTYLE
  2
AcDbTableStyle
  3
ObjectDBX Classes
 90
     4095
280
     0
281
     0
  0
CLASS
  1
MLEADERSTYLE
  2
AcDbMLeaderStyle
  3
ACDB_MLEADERSTYLE_CLASS
 90
     4095
280
     0
281
     0
  0
CLASS
  1
SUN
  2
AcDbSun
  3
SCENEOE
 90
     1153
280
     0
281
     0
  0
CLASS
  1
SORTENTSTABLE
  2
AcDbSortentsTable
  3
ObjectDBX Classes
 90
        0
280
     0
281
     0
  0
CLASS
  1
CELLSTYLEMAP
  2
AcDbCellStyleMap
  3
ObjectDBX Classes
 90
     1152
280
     0
281
     0
  0
ENDSEC
  0
SECTION
  2
TABLES
  0
TABLE
  2
VPORT
  5
8
330
0
100
AcDbSymbolTable
 70
     1
  0
VPORT
  5
16A
330
8
100
AcDbSymbolTableRecord
100
AcDbViewportTableRecord
  2
*Active
 70
     0
 10
0.0
 20
0.0
 11
1.0
 21
1.0
 12
-181.5729837440524
 22
41.46343511429033
 13
0.0
 23
0.0
 14
0.5
 24
0.5
 15
0.5
 25
0.5
 16
0.0
 26
0.0
 36
1.0
 17
0.0
 27
0.0
 37
0.0
 40
619.2198087051421
 41
1.831002331002331
 42
50.0
 43
0.0
 44
0.0
 50
0.0
 51
0.0
 71
    16
 72
   100
 73
     1
 74
     3
 75
     1
 76
     0
 77
     0
 78
     0
281
     0
 65
     1
110
0.0
120
0.0
130
0.0
111
1.0
121
0.0
131
0.0
112
0.0
122
1.0
132
0.0
 79
     0
146
0.0
  0
ENDTAB
  0
TABLE
  2
LTYPE
  5
5
330
0
100
AcDbSymbolTable
 70
     8
  0
LTYPE
  5
14
330
5
100
AcDbSymbolTableRecord
100
AcDbLinetypeTableRecord
  2
ByBlock
 70
     0
  3

 72
    65
 73
     0
 40
0.0
  0
LTYPE
  5
15
330
5
100
AcDbSymbolTableRecord
100
AcDbLinetypeTableRecord
  2
ByLayer
 70
     0
  3

 72
    65
 73
     0
 40
0.0
  0
LTYPE
  5
16
330
5
100
AcDbSymbolTableRecord
100
AcDbLinetypeTableRecord
  2
Continuous
 70
     0
  3
Solid line
 72
    65
 73
     0
 40
0.0
  0
LTYPE
  5
20
330
5
100
AcDbSymbolTableRecord
100
AcDbLinetypeTableRecord
  2
PUNKT
 70
     0
  3
..............
 72
    65
 73
     2
 40
1.5
 49
0.7
 74
     0
 49
-0.8
 74
     0
  0
LTYPE
  5
21
330
5
100
AcDbSymbolTableRecord
100
AcDbLinetypeTableRecord
  2
GESTRICHELT
 70
     0
  3
-- -- -- -- --
 72
    65
 73
     7
 40
2.8
 49
0.9
 74
     0
 49
0.0
 74
     0
 49
0.9
 74
     0
 49
0.0
 74
     0
 49
0.2
 74
     0
 49
0.0
 74
     0
 49
-0.8
 74
     0
  0
LTYPE
  5
22
330
5
100
AcDbSymbolTableRecord
100
AcDbLinetypeTableRecord
  2
STRICHPUNKT
 70
     0
  3
--.--.--.--.--
 72
    65
 73
     4
 40
8.8
 49
5.5
 74
     0
 49
-1.3
 74
     0
 49
0.7
 74
     0
 49
-1.3
 74
     0
  0
LTYPE
  5
25
330
5
100
AcDbSymbolTableRecord
100
AcDbLinetypeTableRecord
  2
PHANTOM
 70
     0
  3
--..--..--..--
 72
    65
 73
     6
 40
14.2
 49
7.0
 74
     0
 49
-1.8
 74
     0
 49
0.9
 74
     0
 49
-1.8
 74
     0
 49
0.9
 74
     0
 49
-1.8
 74
     0
  0
LTYPE
  5
1E2
330
5
100
AcDbSymbolTableRecord
100
AcDbLinetypeTableRecord
  2
DASH
 70
     0
  3
DASH _ _ _ _ _
 72
    65
 73
     2
 40
0.75
 49
0.4
 74
     0
 49
-0.35
 74
     0
  0
LTYPE
  5
1E3
330
5
100
AcDbSymbolTableRecord
100
AcDbLinetypeTableRecord
  2
LONGDASH_DASH
 70
     0
  3
LONGDASH_DASH __ . __ . __
 72
    65
 73
     4
 40
0.85
 49
0.4
 74
     0
 49
-0.2
 74
     0
 49
0.05
 74
     0
 49
-0.2
 74
     0
  0
LTYPE
  5
1E4
330
5
100
AcDbSymbolTableRecord
100
AcDbLinetypeTableRecord
  2
LONGDASH_DASH_DASH
 70
     0
  3
LONGDASH_DASH_DASH __ . . __ . . __
 72
    65
 73
     6
 40
1.1
 49
0.4
 74
     0
 49
-0.2
 74
     0
 49
0.05
 74
     0
 49
-0.2
 74
     0
 49
0.05
 74
     0
 49
-0.2
 74
     0
  0
ENDTAB
  0
TABLE
  2
LAYER
  5
2
102
{ACAD_XDICTIONARY
360
201
102
}
330
0
100
AcDbSymbolTable
 70
    16
  0
LAYER
  5
1AC
330
2
100
AcDbSymbolTableRecord
100
AcDbLayerTableRecord
  2
200
 70
     0
 62
     2
  6
Continuous
370
    50
390
F
  0
LAYER
  5
1E5
330
2
100
AcDbSymbolTableRecord
100
AcDbLayerTableRecord
  2
0
 70
     0
 62
     1
  6
Continuous
370
    -3
390
F
  0
LAYER
  5
1E6
330
2
100
AcDbSymbolTableRecord
100
AcDbLayerTableRecord
  2
1
 70
     0
 62
     4
  6
Continuous
370
    50
390
F
  0
LAYER
  5
1E7
330
2
100
AcDbSymbolTableRecord
100
AcDbLayerTableRecord
  2
2
 70
     0
 62
     7
  6
Continuous
370
    25
390
F
  0
LAYER
  5
1E8
330
2
100
AcDbSymbolTableRecord
100
AcDbLayerTableRecord
  2
3
 70
     0
 62
     1
  6
DASH
370
    35
390
F
  0
LAYER
  5
1E9
330
2
100
AcDbSymbolTableRecord
100
AcDbLayerTableRecord
  2
4
 70
     0
 62
     2
  6
LONGDASH_DASH
370
    25
390
F
  0
LAYER
  5
1EA
330
2
100
AcDbSymbolTableRecord
100
AcDbLayerTableRecord
  2
6
 70
     0
 62
     5
  6
Continuous
370
    -3
390
F
  0
LAYER
  5
1EB
330
2
100
AcDbSymbolTableRecord
100
AcDbLayerTableRecord
  2
CUT
 70
     0
 62
     1
  6
Continuous
370
    25
390
F
  0
LAYER
  5
1EC
330
2
100
AcDbSymbolTableRecord
100
AcDbLayerTableRecord
  2
NOCUT
 70
     0
 62
     7
  6
Continuous
370
    25
390
F
  0
LAYER
  5
1ED
330
2
100
AcDbSymbolTableRecord
100
AcDbLayerTableRecord
  2
SK1
 70
     0
 62
     4
  6
Continuous
370
    50
390
F
  0
LAYER
  5
1EE
330
2
100
AcDbSymbolTableRecord
100
AcDbLayerTableRecord
  2
SK2
 70
     0
 62
     7
  6
Continuous
370
    25
390
F
  0
LAYER
  5
1EF
330
2
100
AcDbSymbolTableRecord
100
AcDbLayerTableRecord
  2
SK3
 70
     0
 62
     1
  6
DASH
370
    35
390
F
  0
LAYER
  5
1F0
330
2
100
AcDbSymbolTableRecord
100
AcDbLayerTableRecord
  2
SK4
 70
     0
 62
     2
  6
LONGDASH_DASH
370
    25
390
F
  0
LAYER
  5
1F1
330
2
100
AcDbSymbolTableRecord
100
AcDbLayerTableRecord
  2
SK6
 70
     0
 62
     5
  6
Continuous
370
    -3
390
F
  0
LAYER
  5
1F2
330
2
100
AcDbSymbolTableRecord
100
AcDbLayerTableRecord
  2
INFTOTAL
 70
     0
 62
     9
  6
Continuous
370
    18
390
F
  0
LAYER
  5
241
330
2
100
AcDbSymbolTableRecord
100
AcDbLayerTableRecord
  2
7
 70
     0
 62
     5
  6
Continuous
370
    18
390
F
1001
AcAecLayerStandard
1000

1000

  0
ENDTAB
  0
TABLE
  2
STYLE
  5
3
330
0
100
AcDbSymbolTable
 70
     3
  0
STYLE
  5
11
330
3
100
AcDbSymbolTableRecord
100
AcDbTextStyleTableRecord
  2
Standard
 70
     0
 40
0.0
 41
1.0
 50
0.0
 71
     0
 42
0.2
  3
txt
  4

  0
STYLE
  5
1AB
330
3
100
AcDbSymbolTableRecord
100
AcDbTextStyleTableRecord
  2
BMG_Text
 70
     0
 40
3.5
 41
1.0
 50
0.0
 71
     0
 42
0.2
  3
monos.ttf
  4

1001
ACAD
1000
Monospac821 BT
1071
       49
  0
STYLE
  5
247
330
3
100
AcDbSymbolTableRecord
100
AcDbTextStyleTableRecord
  2
SLDTEXTSTYLE0
 70
     0
 40
0.0
 41
0.605
 50
0.0
 71
     0
 42
0.2
  3
TXT
  4

  0
ENDTAB
  0
TABLE
  2
VIEW
  5
6
330
0
100
AcDbSymbolTable
 70
     0
  0
ENDTAB
  0
TABLE
  2
UCS
  5
7
330
0
100
AcDbSymbolTable
 70
     0
  0
ENDTAB
  0
TABLE
  2
APPID
  5
9
330
0
100
AcDbSymbolTable
 70
     3
  0
APPID
  5
12
330
9
100
AcDbSymbolTableRecord
100
AcDbRegAppTableRecord
  2
ACAD
 70
     0
  0
APPID
  5
242
330
9
100
AcDbSymbolTableRecord
100
AcDbRegAppTableRecord
  2
AcAecLayerStandard
 70
     0
  0
APPID
  5
24A
330
9
100
AcDbSymbolTableRecord
100
AcDbRegAppTableRecord
  2
PE_URL
 70
     0
  0
ENDTAB
  0
TABLE
  2
DIMSTYLE
  5
A
330
0
100
AcDbSymbolTable
 70
     6
100
AcDbDimStyleTable
  0
DIMSTYLE
105
28
330
A
100
AcDbSymbolTableRecord
100
AcDbDimStyleTableRecord
  2
Standard
 70
     0
178
     0
340
11
  0
DIMSTYLE
105
243
330
A
100
AcDbSymbolTableRecord
100
AcDbDimStyleTableRecord
  2
Matthias
 70
     0
 41
3.0
 44
2.0
 73
     0
 77
     1
140
3.0
147
2.0
178
     0
340
11
  0
DIMSTYLE
105
245
330
A
100
AcDbSymbolTableRecord
100
AcDbDimStyleTableRecord
  2
ISO-25
 70
     0
 41
2.5
 42
0.625
 43
3.75
 44
1.25
 73
     0
 74
     0
 77
     1
 78
     8
140
2.5
141
2.5
143
0.0393700787
147
0.625
171
     3
172
     1
178
     0
271
     2
272
     2
274
     3
278
    44
283
     0
284
     8
340
11
  0
DIMSTYLE
105
246
330
A
100
AcDbSymbolTableRecord
100
AcDbDimStyleTableRecord
  2
SLDDIMSTYLE0
 70
     0
 41
3.5
 44
0.0
 45
0.000000001
 73
     0
 74
     0
 77
     1
 78
    12
 79
     3
140
3.5
144
0.5
147
0.875
173
     1
178
     0
271
     2
272
     1
276
     2
284
    12
340
247
  0
DIMSTYLE
105
248
330
A
100
AcDbSymbolTableRecord
100
AcDbDimStyleTableRecord
  2
SLDDIMSTYLE1
 70
     0
 41
3.5
 44
0.0
 45
0.000000001
 73
     0
 74
     0
 77
     1
 78
    12
 79
     3
140
3.5
144
0.5
147
0.875
173
     1
178
     0
271
     2
272
     3
276
     2
284
    12
340
247
  0
DIMSTYLE
105
249
330
A
100
AcDbSymbolTableRecord
100
AcDbDimStyleTableRecord
  2
SLDDIMSTYLE2
 70
     0
 41
3.5
 44
0.0
 45
0.000000001
 73
     0
 74
     0
 77
     1
 78
    12
 79
     3
140
3.5
147
0.875
173
     1
178
     0
271
     2
272
     0
276
     2
284
    12
340
247
  0
ENDTAB
  0
TABLE
  2
BLOCK_RECORD
  5
1
330
0
100
AcDbSymbolTable
 70
     1
  0
BLOCK_RECORD
  5
1D
102
{ACAD_XDICTIONARY
360
29E
102
}
330
1
100
AcDbSymbolTableRecord
100
AcDbBlockTableRecord
  2
*Model_Space
340
1E
  0
BLOCK_RECORD
  5
1B
330
1
100
AcDbSymbolTableRecord
100
AcDbBlockTableRecord
  2
*Paper_Space
340
1C
  0
ENDTAB
  0
ENDSEC
  0
SECTION
  2
BLOCKS
  0
BLOCK
  5
194
330
1D
100
AcDbEntity
  8
0
100
AcDbBlockBegin
  2
*Model_Space
 70
     0
 10
0.0
 20
0.0
 30
0.0
  3
*Model_Space
  1

  0
ENDBLK
  5
195
330
1D
100
AcDbEntity
  8
0
100
AcDbBlockEnd
  0
BLOCK
  5
192
330
1B
100
AcDbEntity
 67
     1
  8
0
100
AcDbBlockBegin
  2
*Paper_Space
 70
     0
 10
0.0
 20
0.0
 30
0.0
  3
*Paper_Space
  1

  0
ENDBLK
  5
193
330
1B
100
AcDbEntity
 67
     1
  8
0
100
AcDbBlockEnd
  0
ENDSEC
  0
SECTION
  2
ENTITIES
  0
LINE
  5
29
330
1D
100
AcDbEntity
  8
SK2
100
AcDbLine
 10
50.20416754555669
 20
-65.499999999
 30
0.0
 11
33.00206202355669
 21
-65.499999999
 31
0.0
  0
LINE
  5
2A
330
1D
100
AcDbEntity
  8
SK2
100
AcDbLine
 10
48.20416754555669
 20
-65.499999999
 30
0.0
 11
47.75416754555669
 21
-61.999999999
 31
0.0
  0
LINE
  5
2B
330
1D
100
AcDbEntity
  8
SK2
100
AcDbLine
 10
47.75416754555669
 20
-61.999999999
 30
0.0
 11
48.65416754555669
 21
-61.999999999
 31
0.0
  0
LINE
  5
2C
330
1D
100
AcDbEntity
  8
SK2
100
AcDbLine
 10
48.65416754555669
 20
-61.999999999
 30
0.0
 11
48.20416754555669
 21
-65.499999999
 31
0.0
  0
LINE
  5
2D
330
1D
100
AcDbEntity
  8
SK2
100
AcDbLine
 10
50.20416754555669
 20
65.499999999
 30
0.0
 11
33.00206202355669
 21
65.499999999
 31
0.0
  0
LINE
  5
2E
330
1D
100
AcDbEntity
  8
SK2
100
AcDbLine
 10
48.20416754555669
 20
65.499999999
 30
0.0
 11
48.65416754555669
 21
61.999999999
 31
0.0
  0
LINE
  5
2F
330
1D
100
AcDbEntity
  8
SK2
100
AcDbLine
 10
48.65416754555669
 20
61.999999999
 30
0.0
 11
47.75416754555669
 21
61.999999999
 31
0.0
  0
LINE
  5
30
330
1D
100
AcDbEntity
  8
SK2
100
AcDbLine
 10
47.75416754555669
 20
61.999999999
 30
0.0
 11
48.20416754555669
 21
65.499999999
 31
0.0
  0
LINE
  5
31
330
1D
100
AcDbEntity
  8
SK2
100
AcDbLine
 10
48.20416754555669
 20
-61.999999999
 30
0.0
 11
48.20416754555669
 21
61.999999999
 31
0.0
  0
TEXT
  5
32
330
1D
100
AcDbEntity
  8
SK2
100
AcDbText
 10
46.70416754555669
 20
-4.079376464
 30
0.0
 40
3.5
  1
131
 50
90.0
  7
BMG_Text
100
AcDbText
  0
CIRCLE
  5
33
330
1D
100
AcDbEntity
  8
SK2
100
AcDbCircle
 10
45.45416754555669
 20
-6.329376464
 30
0.0
 40
1.25
  0
LINE
  5
34
330
1D
100
AcDbEntity
  8
SK2
100
AcDbLine
 10
46.70416754555669
 20
-7.579376464
 30
0.0
 11
44.20416754555669
 21
-5.079376464
 31
0.0
  0
TEXT
  5
35
330
1D
100
AcDbEntity
  8
SK2
100
AcDbText
 10
46.70416754555668
 20
3.925280477114203
 30
0.0
 40
3.5
  1
-159
 50
90.0
  7
BMG_Text
100
AcDbText
  0
LINE
  5
36
330
1D
100
AcDbEntity
  8
SK4
100
AcDbLine
 10
38.50299108555669
 20
0.0
 30
0.0
 11
-6.892543215443313
 21
0.0
 31
0.0
  0
LINE
  5
38
330
1D
100
AcDbEntity
  8
2
100
AcDbLine
 10
33.80206434755669
 20
75.812168747
 30
0.0
 11
33.80206434755669
 21
64.699999481
 31
0.0
  0
LINE
  5
39
330
1D
100
AcDbEntity
  8
2
100
AcDbLine
 10
33.80206434755669
 20
73.812168747
 30
0.0
 11
30.30206434755669
 21
73.362168747
 31
0.0
  0
LINE
  5
3A
330
1D
100
AcDbEntity
  8
2
100
AcDbLine
 10
30.30206434755669
 20
73.362168747
 30
0.0
 11
30.30206434755669
 21
74.262168747
 31
0.0
  0
LINE
  5
3B
330
1D
100
AcDbEntity
  8
2
100
AcDbLine
 10
30.30206434755669
 20
74.262168747
 30
0.0
 11
33.80206434755669
 21
73.812168747
 31
0.0
  0
LINE
  5
3C
330
1D
100
AcDbEntity
  8
2
100
AcDbLine
 10
-10.8611595563319
 20
73.812168747
 30
0.0
 11
30.30206434755669
 21
73.812168747
 31
0.0
  0
TEXT
  5
3D
330
1D
100
AcDbEntity
  8
2
100
AcDbText
 10
-9.801663682605913
 20
75.31216874700002
 30
0.0
 40
3.5
  1
71 / 87 / 117
  7
BMG_Text
100
AcDbText
  0
LINE
  5
3E
330
1D
100
AcDbEntity
  8
3
100
AcDbLine
 10
0.702062834556687
 20
-44.999556126
 30
0.0
 11
17.10206477755669
 21
-44.999556126
 31
0.0
  0
LINE
  5
3F
330
1D
100
AcDbEntity
  8
1
100
AcDbLine
 10
22.86609469755669
 20
60.711338161
 30
0.0
 11
23.16582782955669
 21
60.711338161
 31
0.0
  0
ARC
  5
40
330
1D
100
AcDbEntity
  8
1
100
AcDbCircle
 10
22.86609510855669
 20
59.361338192
 30
0.0
 40
1.35
100
AcDbArc
 50
90.0
 51
270.0
  0
LINE
  5
41
330
1D
100
AcDbEntity
  8
1
100
AcDbLine
 10
23.16582782955669
 20
58.011338091
 30
0.0
 11
22.86609469755669
 21
58.011338091
 31
0.0
  0
ARC
  5
42
330
1D
100
AcDbEntity
  8
1
100
AcDbCircle
 10
27.14609510855669
 20
56.209005722
 30
0.0
 40
1.35
100
AcDbArc
 50
200.7439351409999
 51
279.256064859
  0
LINE
  5
43
330
1D
100
AcDbEntity
  8
1
100
AcDbLine
 10
32.41571339655669
 20
53.070369618
 30
0.0
 11
31.99174101755668
 21
53.22468325
 31
0.0
  0
LINE
  5
44
330
1D
100
AcDbEntity
  8
1
100
AcDbLine
 10
31.60206086755669
 20
4.862686129
 30
0.0
 11
31.60214847055669
 21
45.84541853000001
 31
0.0
  0
LINE
  5
45
330
1D
100
AcDbEntity
  8
3
100
AcDbLine
 10
18.44181048555669
 20
-17.931534467
 30
0.0
 11
28.79458751155669
 21
0.0
 31
0.0
  0
ARC
  5
46
330
1D
100
AcDbEntity
  8
3
100
AcDbCircle
 10
27.10206434855669
 20
-22.931535328
 30
0.0
 40
10.0
100
AcDbArc
 50
150.0
 51
180.0
  0
LINE
  5
47
330
1D
100
AcDbEntity
  8
3
100
AcDbLine
 10
17.10206477755669
 20
-44.999556126
 30
0.0
 11
17.10206477755669
 21
-22.931537149
 31
0.0
  0
LINE
  5
48
330
1D
100
AcDbEntity
  8
1
100
AcDbLine
 10
11.32901034155669
 20
63.059682934
 30
0.0
 11
0.6136363745566871
 21
44.499999402
 31
0.0
  0
LINE
  5
49
330
1D
100
AcDbEntity
  8
1
100
AcDbLine
 10
25.51588809955669
 20
63.059682934
 30
0.0
 11
11.32901034155669
 21
63.059682934
 31
0.0
  0
LINE
  5
4A
330
1D
100
AcDbEntity
  8
1
100
AcDbLine
 10
25.70123432955669
 20
62.838796502
 30
0.0
 11
25.51588809955669
 21
63.059682934
 31
0.0
  0
LINE
  5
4B
330
1D
100
AcDbEntity
  8
1
100
AcDbLine
 10
32.05544371455669
 20
51.027179206
 30
0.0
 11
32.41571339655669
 21
53.070369618
 31
0.0
  0
ARC
  5
4C
330
1D
100
AcDbEntity
  8
1
100
AcDbCircle
 10
61.44596679455669
 20
45.84541853
 30
0.0
 40
29.843818324
100
AcDbArc
 50
170.001098618
 51
180.0
  0
LINE
  5
4D
330
1D
100
AcDbEntity
  8
1
100
AcDbLine
 10
32.31343485255669
 20
53.265218133
 30
0.0
 11
32.30972155355668
 21
53.266570414
 31
0.0
  0
LINE
  5
4E
330
1D
100
AcDbEntity
  8
1
100
AcDbLine
 10
32.41571339655669
 20
53.070369618
 30
0.0
 11
32.31343485255669
 21
53.265218133
 31
0.0
  0
LINE
  5
4F
330
1D
100
AcDbEntity
  8
1
100
AcDbLine
 10
25.61691424655669
 20
62.939285044
 30
0.0
 11
25.82099123755669
 21
62.939285044
 31
0.0
  0
ARC
  5
51
330
1D
100
AcDbEntity
  8
1
100
AcDbCircle
 10
32.04837294055669
 20
64.7
 30
0.0
 40
0.8
100
AcDbArc
 50
9.999999999999575
 51
109.9999999999999
  0
ARC
  5
54
330
1D
100
AcDbEntity
  8
1
100
AcDbCircle
 10
22.80153944455669
 20
59.361338192
 30
0.0
 40
0.8
100
AcDbArc
 50
130.0
 51
230.0
  0
LINE
  5
55
330
1D
100
AcDbEntity
  8
1
100
AcDbLine
 10
32.83621914296646
 20
53.88375784186645
 30
0.0
 11
33.80206434755669
 21
59.361338126
 31
0.0
  0
LINE
  5
56
330
1D
100
AcDbEntity
  8
1
100
AcDbLine
 10
33.80206434755669
 20
59.361338126
 30
0.0
 11
32.83621914296646
 21
64.83891854213354
 31
0.0
  0
ARC
  5
57
330
1D
100
AcDbEntity
  8
1
100
AcDbCircle
 10
32.04837294055669
 20
54.022676384
 30
0.0
 40
0.8
100
AcDbArc
 50
250.0000000000001
 51
349.9999999999999
  0
LINE
  5
58
330
1D
100
AcDbEntity
  8
1
100
AcDbLine
 10
31.77475682589616
 20
65.45175409662873
 30
0.0
 11
26.54811062655669
 21
63.549410411
 31
0.0
  0
ARC
  5
59
330
1D
100
AcDbEntity
  8
1
100
AcDbCircle
 10
27.59729767955669
 20
58.686532682
 30
0.0
 40
0.45
100
AcDbArc
 50
328.6245509529999
 51
91.37544904700012
  0
ARC
  5
5A
330
1D
100
AcDbEntity
  8
1
100
AcDbCircle
 10
28.17359510855669
 20
58.335098088
 30
0.0
 40
0.225
100
AcDbArc
 50
148.6245509530005
 51
331.3754490469997
  0
ARC
  5
5C
330
1D
100
AcDbEntity
  8
1
100
AcDbCircle
 10
27.58109510855669
 20
59.361338192
 30
0.0
 40
0.225
100
AcDbArc
 50
88.62455095300034
 51
271.3754490469996
  0
ARC
  5
5E
330
1D
100
AcDbEntity
  8
1
100
AcDbCircle
 10
27.59729767955669
 20
60.036143702
 30
0.0
 40
0.45
100
AcDbArc
 50
268.6245509529999
 51
31.37544904700006
  0
ARC
  5
60
330
1D
100
AcDbEntity
  8
1
100
AcDbCircle
 10
28.76609510855669
 20
60.710949212
 30
0.0
 40
0.45
100
AcDbArc
 50
208.6245509530003
 51
331.3754490469997
  0
ARC
  5
61
330
1D
100
AcDbEntity
  8
1
100
AcDbCircle
 10
28.17359510855669
 20
60.387578295
 30
0.0
 40
0.225
100
AcDbArc
 50
28.62455095300024
 51
211.3754490469995
  0
ARC
  5
62
330
1D
100
AcDbEntity
  8
1
100
AcDbCircle
 10
29.35859510855669
 20
58.335098088
 30
0.0
 40
0.225
100
AcDbArc
 50
208.6245509530003
 51
31.37544904699952
  0
ARC
  5
63
330
1D
100
AcDbEntity
  8
1
100
AcDbCircle
 10
28.76609510855669
 20
58.011727171
 30
0.0
 40
0.45
100
AcDbArc
 50
28.62455095300024
 51
151.3754490469998
  0
ARC
  5
66
330
1D
100
AcDbEntity
  8
1
100
AcDbCircle
 10
29.93489253755669
 20
58.686532682
 30
0.0
 40
0.45
100
AcDbArc
 50
88.62455095299988
 51
211.375449047
  0
ARC
  5
67
330
1D
100
AcDbEntity
  8
1
100
AcDbCircle
 10
29.95109510855669
 20
59.361338192
 30
0.0
 40
0.225
100
AcDbArc
 50
268.6245509530004
 51
91.37544904699968
  0
ARC
  5
69
330
1D
100
AcDbEntity
  8
1
100
AcDbCircle
 10
29.35859510855669
 20
60.387578295
 30
0.0
 40
0.225
100
AcDbArc
 50
328.6245509530005
 51
151.3754490469998
  0
ARC
  5
6A
330
1D
100
AcDbEntity
  8
1
100
AcDbCircle
 10
29.93489253755669
 20
60.036143702
 30
0.0
 40
0.45
100
AcDbArc
 50
148.624550953
 51
271.3754490470001
  0
LINE
  5
6C
330
1D
100
AcDbEntity
  8
1
100
AcDbLine
 10
28.77738441155669
 20
0.029793499
 30
0.0
 11
31.60206086755669
 21
4.862686129
 31
0.0
  0
LINE
  5
6D
330
1D
100
AcDbEntity
  8
1
100
AcDbLine
 10
17.10206477755669
 20
44.499999402
 30
0.0
 11
-2.216273706443313
 21
44.499999402
 31
0.0
  0
LINE
  5
6E
330
1D
100
AcDbEntity
  8
1
100
AcDbLine
 10
0.0001399115566871
 20
-27.000000211
 30
0.0
 11
0.702062834556687
 21
-27.000000211
 31
0.0
  0
LINE
  5
6F
330
1D
100
AcDbEntity
  8
1
100
AcDbLine
 10
0.702062834556687
 20
-27.000000211
 30
0.0
 11
0.702062834556687
 21
-44.999556126
 31
0.0
  0
LINE
  5
70
330
1D
100
AcDbEntity
  8
1
100
AcDbLine
 10
0.702062834556687
 20
-44.999556126
 30
0.0
 11
-0.0416019664433129
 21
-44.999556126
 31
0.0
  0
LINE
  5
71
330
1D
100
AcDbEntity
  8
1
100
AcDbLine
 10
-0.0416019664433129
 20
-44.999556126
 30
0.0
 11
-0.1336352634433129
 21
-44.998712348
 31
0.0
  0
LINE
  5
72
330
1D
100
AcDbEntity
  8
1
100
AcDbLine
 10
-0.1336352634433129
 20
-44.998712348
 30
0.0
 11
-0.2498605954433129
 21
-44.997916998
 31
0.0
  0
ARC
  5
73
330
1D
100
AcDbEntity
  8
1
100
AcDbCircle
 10
0.5001405595566871
 20
86.55754881
 30
0.0
 40
131.559072287
100
AcDbArc
 50
268.258514872
 51
269.673359302
  0
ARC
  5
74
330
1D
100
AcDbEntity
  8
1
100
AcDbCircle
 10
-9.892164285443313
 20
86.55754881
 30
0.0
 40
131.561343011
100
AcDbArc
 50
272.785823685
 51
274.202913096
  0
LINE
  5
75
330
1D
100
AcDbEntity
  8
1
100
AcDbLine
 10
-0.2498605954433129
 20
-44.654324161
 30
0.0
 11
-0.1205892964433129
 21
-44.640829297
 31
0.0
  0
LINE
  5
76
330
1D
100
AcDbEntity
  8
1
100
AcDbLine
 10
-0.1205892964433129
 20
-44.640829297
 30
0.0
 11
-0.0342929474433129
 21
-44.622357445
 31
0.0
  0
LINE
  5
77
330
1D
100
AcDbEntity
  8
1
100
AcDbLine
 10
-0.0342929474433129
 20
-44.622357445
 30
0.0
 11
-0.0001767384433129
 21
-44.60060175
 31
0.0
  0
LINE
  5
78
330
1D
100
AcDbEntity
  8
1
100
AcDbLine
 10
-0.0001767384433129
 20
-44.60060175
 30
0.0
 11
-0.0227818004433129
 21
-44.577816011
 31
0.0
  0
LINE
  5
79
330
1D
100
AcDbEntity
  8
1
100
AcDbLine
 10
-0.0227818004433129
 20
-44.577816011
 30
0.0
 11
-0.1002529374433129
 21
-44.556743907
 31
0.0
  0
LINE
  5
7A
330
1D
100
AcDbEntity
  8
1
100
AcDbLine
 10
-0.1002529374433129
 20
-44.556743907
 30
0.0
 11
-0.2235563204433129
 21
-44.540158914
 31
0.0
  0
LINE
  5
7B
330
1D
100
AcDbEntity
  8
1
100
AcDbLine
 10
-0.2235563204433129
 20
-44.540158914
 30
0.0
 11
-0.2498605954433129
 21
-44.537808256
 31
0.0
  0
ARC
  5
7C
330
1D
100
AcDbEntity
  8
1
100
AcDbCircle
 10
10.89244540555669
 20
86.55754881
 30
0.0
 40
131.573241916
100
AcDbArc
 50
263.720905437
 51
265.141884429
  0
ARC
  5
7D
330
1D
100
AcDbEntity
  8
1
100
AcDbCircle
 10
-20.28446913144331
 20
86.55754881
 30
0.0
 40
131.576703739
100
AcDbArc
 50
277.329762228
 51
278.758042759
  0
LINE
  5
7E
330
1D
100
AcDbEntity
  8
1
100
AcDbLine
 10
-0.2498605954433129
 20
-43.487984197
 30
0.0
 11
-0.1203769554433129
 21
-43.459264072
 31
0.0
  0
LINE
  5
7F
330
1D
100
AcDbEntity
  8
1
100
AcDbLine
 10
-0.1203769554433129
 20
-43.459264072
 30
0.0
 11
-0.0346580254433129
 21
-43.420787411
 31
0.0
  0
LINE
  5
80
330
1D
100
AcDbEntity
  8
1
100
AcDbLine
 10
-0.0346580254433129
 20
-43.420787411
 30
0.0
 11
-0.0001804634433129
 21
-43.375458079
 31
0.0
  0
LINE
  5
81
330
1D
100
AcDbEntity
  8
1
100
AcDbLine
 10
-0.0001804634433129
 20
-43.375458079
 30
0.0
 11
-0.0239552664433129
 21
-43.327774363
 31
0.0
  0
LINE
  5
82
330
1D
100
AcDbEntity
  8
1
100
AcDbLine
 10
-0.0239552664433129
 20
-43.327774363
 30
0.0
 11
-0.1060196864433129
 21
-43.284086021
 31
0.0
  0
LINE
  5
83
330
1D
100
AcDbEntity
  8
1
100
AcDbLine
 10
-0.1060196864433129
 20
-43.284086021
 30
0.0
 11
-0.2498605954433129
 21
-43.248354899
 31
0.0
  0
ARC
  5
84
330
1D
100
AcDbEntity
  8
1
100
AcDbCircle
 10
21.28475025055669
 20
86.55754881
 30
0.0
 40
131.577200155
100
AcDbArc
 50
259.143438958
 51
260.580504153
  0
ARC
  5
85
330
1D
100
AcDbEntity
  8
1
100
AcDbCircle
 10
-30.67677397644331
 20
86.55754881
 30
0.0
 40
131.570814858
100
AcDbArc
 50
281.921534352
 51
283.136063108
  0
ARC
  5
86
330
1D
100
AcDbEntity
  8
1
100
AcDbCircle
 10
-23.48898851544331
 20
55.759747312
 30
0.0
 40
99.932102782
100
AcDbArc
 50
283.135797857
 51
283.447627668
  0
LINE
  5
87
330
1D
100
AcDbEntity
  8
1
100
AcDbLine
 10
-0.2498605954433129
 20
-41.429468872
 30
0.0
 11
-0.1199485464433129
 21
-41.383532317
 31
0.0
  0
LINE
  5
88
330
1D
100
AcDbEntity
  8
1
100
AcDbLine
 10
-0.1199485464433129
 20
-41.383532317
 30
0.0
 11
-0.0352391704433129
 21
-41.323316725
 31
0.0
  0
LINE
  5
89
330
1D
100
AcDbEntity
  8
1
100
AcDbLine
 10
-0.0352391704433129
 20
-41.323316725
 30
0.0
 11
-0.0001655624433129
 21
-41.250807675
 31
0.0
  0
LINE
  5
8A
330
1D
100
AcDbEntity
  8
1
100
AcDbLine
 10
-0.0001655624433129
 20
-41.250807675
 30
0.0
 11
-0.0265033654433129
 21
-41.172524424
 31
0.0
  0
LINE
  5
8B
330
1D
100
AcDbEntity
  8
1
100
AcDbLine
 10
-0.0265033654433129
 20
-41.172524424
 30
0.0
 11
-0.1178884614433129
 21
-41.100861015
 31
0.0
  0
LINE
  5
8C
330
1D
100
AcDbEntity
  8
1
100
AcDbLine
 10
-0.1178884614433129
 20
-41.100861015
 30
0.0
 11
-0.2498605954433129
 21
-41.051480429
 31
0.0
  0
ARC
  5
8D
330
1D
100
AcDbEntity
  8
1
100
AcDbCircle
 10
24.48926963555669
 20
55.759747312
 30
0.0
 40
99.916360361
100
AcDbArc
 50
253.733448918
 51
255.665407909
  0
ARC
  5
8E
330
1D
100
AcDbEntity
  8
1
100
AcDbCircle
 10
-33.88129336144331
 20
55.759747312
 30
0.0
 40
99.918068416
100
AcDbArc
 50
287.7029864759999
 51
289.667891257
  0
LINE
  5
8F
330
1D
100
AcDbEntity
  8
1
100
AcDbLine
 10
-0.2498605954433129
 20
-38.335324707
 30
0.0
 11
-0.1192221154433129
 21
-38.26822664
 31
0.0
  0
LINE
  5
90
330
1D
100
AcDbEntity
  8
1
100
AcDbLine
 10
-0.1192221154433129
 20
-38.26822664
 30
0.0
 11
-0.0360438334433129
 21
-38.182835536
 31
0.0
  0
LINE
  5
91
330
1D
100
AcDbEntity
  8
1
100
AcDbLine
 10
-0.0360438334433129
 20
-38.182835536
 30
0.0
 11
-0.0000985074433129
 21
-38.075448455
 31
0.0
  0
LINE
  5
92
330
1D
100
AcDbEntity
  8
1
100
AcDbLine
 10
-0.0000985074433129
 20
-38.075448455
 30
0.0
 11
-0.0316591664433129
 21
-37.954538571
 31
0.0
  0
LINE
  5
93
330
1D
100
AcDbEntity
  8
1
100
AcDbLine
 10
-0.0316591664433129
 20
-37.954538571
 30
0.0
 11
-0.1409256564433129
 21
-37.844029697
 31
0.0
  0
LINE
  5
94
330
1D
100
AcDbEntity
  8
1
100
AcDbLine
 10
-0.1409256564433129
 20
-37.844029697
 30
0.0
 11
-0.2498605954433129
 21
-37.789256753
 31
0.0
  0
ARC
  5
95
330
1D
100
AcDbEntity
  8
1
100
AcDbCircle
 10
27.51245842455669
 20
38.002611001
 30
0.0
 40
80.706610068
100
AcDbArc
 50
247.403674643
 51
247.461812867
  0
ARC
  5
96
330
1D
100
AcDbEntity
  8
1
100
AcDbCircle
 10
34.88157448055669
 20
55.759747312
 30
0.0
 40
99.932102781
100
AcDbArc
 50
247.461812867
 51
249.416812296
  0
ARC
  5
97
330
1D
100
AcDbEntity
  8
1
100
AcDbCircle
 10
-36.90448215144331
 20
38.002611001
 30
0.0
 40
80.711349899
100
AcDbArc
 50
294.450155951
 51
297.004122026
  0
ARC
  5
98
330
1D
100
AcDbEntity
  8
1
100
AcDbCircle
 10
-0.4349980694433129
 20
-33.535988512
 30
0.0
 40
0.429325414
100
AcDbArc
 50
295.5455668020002
 51
64.45443319799988
  0
ARC
  5
99
330
1D
100
AcDbEntity
  8
1
100
AcDbCircle
 10
37.90476327055669
 20
38.002611001
 30
0.0
 40
80.748506479
100
AcDbArc
 50
239.1537271819999
 51
241.7977099869999
  0
ARC
  5
9A
330
1D
100
AcDbEntity
  8
1
100
AcDbCircle
 10
-47.29678699644332
 20
38.002611001
 30
0.0
 40
80.744615946
100
AcDbArc
 50
302.849677166
 51
305.494703262
  0
ARC
  5
9B
330
1D
100
AcDbEntity
  8
1
100
AcDbCircle
 10
-27.54808344344331
 20
10.310404076
 30
0.0
 40
46.69381902
100
AcDbArc
 50
305.4947965810001
 51
305.779621786
  0
ARC
  5
9C
330
1D
100
AcDbEntity
  8
1
100
AcDbCircle
 10
-0.7159418174433129
 20
-27.023750143
 30
0.0
 40
0.716475472
100
AcDbArc
 50
310.580776822
 51
1.89960476100011
  0
ARC
  5
9D
330
1D
100
AcDbEntity
  8
1
100
AcDbCircle
 10
-0.5204224584433129
 20
33.982503345
 30
0.0
 40
0.520627773
100
AcDbArc
 50
359.0918099330001
 51
58.68895051500008
  0
LINE
  5
9E
330
1D
100
AcDbEntity
  8
1
100
AcDbLine
 10
0.0001399115566871
 20
33.974251268
 30
0.0
 11
-0.0001111904433129
 21
-27.00000021
 31
0.0
  0
LINE
  5
9F
330
1D
100
AcDbEntity
  8
1
100
AcDbLine
 10
17.10206477755669
 20
22.931537149
 30
0.0
 11
17.10206477755669
 21
44.499999402
 31
0.0
  0
ARC
  5
A0
330
1D
100
AcDbEntity
  8
1
100
AcDbCircle
 10
27.10206434855669
 20
22.931535328
 30
0.0
 40
10.0
100
AcDbArc
 50
180.0
 51
210.0
  0
LINE
  5
A1
330
1D
100
AcDbEntity
  8
1
100
AcDbLine
 10
26.04953779655669
 20
4.754564283
 30
0.0
 11
18.44181048555669
 21
17.931534467
 31
0.0
  0
LINE
  5
A2
330
1D
100
AcDbEntity
  8
1
100
AcDbLine
 10
26.04953779655669
 20
4.754564283
 30
0.0
 11
26.04953779655669
 21
-51.774159515
 31
0.0
  0
LINE
  5
A3
330
1D
100
AcDbEntity
  8
1
100
AcDbLine
 10
26.04953779655669
 20
-51.774159515
 30
0.0
 11
11.12901068155669
 21
-51.774159515
 31
0.0
  0
ARC
  5
A4
330
1D
100
AcDbEntity
  8
1
100
AcDbCircle
 10
237.2059000855567
 20
57.958405256
 30
0.0
 40
251.300608224
100
AcDbArc
 50
199.7596244459999
 51
205.890878444
  0
LINE
  5
A5
330
1D
100
AcDbEntity
  8
1
100
AcDbLine
 10
25.61691424655669
 20
-62.939285044
 30
0.0
 11
25.56298601255669
 21
-63.00355445
 31
0.0
  0
LINE
  5
A6
330
1D
100
AcDbEntity
  8
1
100
AcDbLine
 10
25.56298601255669
 20
-63.00355445
 30
0.0
 11
25.52930566355669
 21
-63.043692125
 31
0.0
  0
LINE
  5
A7
330
1D
100
AcDbEntity
  8
1
100
AcDbLine
 10
25.52930566355669
 20
-63.043692125
 30
0.0
 11
25.51588809955669
 21
-63.059682934
 31
0.0
  0
LINE
  5
A8
330
1D
100
AcDbEntity
  8
1
100
AcDbLine
 10
25.51588809955669
 20
-63.059682934
 30
0.0
 11
11.12901068155669
 21
-63.059682934
 31
0.0
  0
LINE
  5
A9
330
1D
100
AcDbEntity
  8
1
100
AcDbLine
 10
11.12901068155669
 20
-63.059682934
 30
0.0
 11
11.12901068155669
 21
-51.774159515
 31
0.0
  0
ARC
  5
AA
330
1D
100
AcDbEntity
  8
1
100
AcDbCircle
 10
62.04953762655668
 20
-0.000000002
 30
0.0
 40
63.06
100
AcDbArc
 50
235.188046386
 51
235.647096512
  0
LINE
  5
AB
330
1D
100
AcDbEntity
  8
1
100
AcDbLine
 10
26.46549998655669
 20
-52.060924912
 30
0.0
 11
26.46549998655669
 21
-62.939285044
 31
0.0
  0
LINE
  5
AC
330
1D
100
AcDbEntity
  8
1
100
AcDbLine
 10
25.61691424655669
 20
-62.939285044
 30
0.0
 11
26.46549998655669
 21
-62.939285044
 31
0.0
  0
ARC
  5
AD
330
1D
100
AcDbEntity
  8
1
100
AcDbCircle
 10
36.44907311855669
 20
-41.802872106
 30
0.0
 40
88.782312853
100
AcDbArc
 50
114.415992171
 51
116.734960897
  0
LINE
  5
AE
330
1D
100
AcDbEntity
  8
1
100
AcDbLine
 10
-0.2498605954433129
 20
39.039491234
 30
0.0
 11
-0.1178661094433129
 21
39.125299571
 31
0.0
  0
LINE
  5
AF
330
1D
100
AcDbEntity
  8
1
100
AcDbLine
 10
-0.1178661094433129
 20
39.125299571
 30
0.0
 11
-0.0357607114433129
 21
39.230762539
 31
0.0
  0
LINE
  5
B0
330
1D
100
AcDbEntity
  8
1
100
AcDbLine
 10
-0.0357607114433129
 20
39.230762539
 30
0.0
 11
0.0000914825566871
 21
39.367830871
 31
0.0
  0
LINE
  5
B1
330
1D
100
AcDbEntity
  8
1
100
AcDbLine
 10
0.0000914825566871
 20
39.367830871
 30
0.0
 11
-0.0403577194433129
 21
39.522639034
 31
0.0
  0
LINE
  5
B2
330
1D
100
AcDbEntity
  8
1
100
AcDbLine
 10
-0.0403577194433129
 20
39.522639034
 30
0.0
 11
-0.1404748964433129
 21
39.635671793
 31
0.0
  0
LINE
  5
B3
330
1D
100
AcDbEntity
  8
1
100
AcDbLine
 10
-0.1404748964433129
 20
39.635671793
 30
0.0
 11
-0.2498605954433129
 21
39.699411509
 31
0.0
  0
ARC
  5
B4
330
1D
100
AcDbEntity
  8
1
100
AcDbCircle
 10
-35.44879199944332
 20
-41.802872106
 30
0.0
 40
88.778302883
100
AcDbArc
 50
66.641612058
 51
67.461812867
  0
ARC
  5
B5
330
1D
100
AcDbEntity
  8
1
100
AcDbCircle
 10
-43.55481966044331
 20
-61.335722047
 30
0.0
 40
109.92531306
100
AcDbArc
 50
67.461812867
 51
68.628925991
  0
ARC
  5
B6
330
1D
100
AcDbEntity
  8
1
100
AcDbCircle
 10
-45.84109684444331
 20
-41.802872106
 30
0.0
 40
88.823426063
100
AcDbArc
 50
59.117481185
 51
61.52494563999999
  0
LINE
  5
B8
330
1D
100
AcDbEntity
  8
1
100
AcDbLine
 10
28.04953765955669
 20
-45.845418679
 30
0.0
 11
28.04953765955669
 21
1.290461538
 31
0.0
  0
ARC
  5
B9
330
1D
100
AcDbEntity
  8
1
100
AcDbCircle
 10
54.90883724555669
 20
-45.84541853
 30
0.0
 40
26.859299618
100
AcDbArc
 50
180.0
 51
191.12422797
  0
LINE
  5
BA
330
1D
100
AcDbEntity
  8
1
100
AcDbLine
 10
29.15305013655669
 20
-54.056470724
 30
0.0
 11
28.55616968955669
 21
-51.027179206
 31
0.0
  0
LINE
  5
BB
330
1D
100
AcDbEntity
  8
1
100
AcDbLine
 10
28.35340353555669
 20
-54.111977549
 30
0.0
 11
28.57185595555669
 21
-54.308394412
 31
0.0
  0
LINE
  5
BC
330
1D
100
AcDbEntity
  8
1
100
AcDbLine
 10
28.57185595555669
 20
-54.308394412
 30
0.0
 11
28.81196721355669
 21
-54.439663397
 31
0.0
  0
LINE
  5
BD
330
1D
100
AcDbEntity
  8
1
100
AcDbLine
 10
28.81196721355669
 20
-54.439663397
 30
0.0
 11
28.96052387355669
 21
-54.464954393
 31
0.0
  0
LINE
  5
BE
330
1D
100
AcDbEntity
  8
1
100
AcDbLine
 10
28.96052387355669
 20
-54.464954393
 30
0.0
 11
29.04013239655669
 21
-54.447676497
 31
0.0
  0
LINE
  5
BF
330
1D
100
AcDbEntity
  8
1
100
AcDbLine
 10
29.04013239655669
 20
-54.447676497
 30
0.0
 11
29.09774168255669
 21
-54.408602858
 31
0.0
  0
LINE
  5
C0
330
1D
100
AcDbEntity
  8
1
100
AcDbLine
 10
29.09774168255669
 20
-54.408602858
 30
0.0
 11
29.13552078255669
 21
-54.355347039
 31
0.0
  0
LINE
  5
C1
330
1D
100
AcDbEntity
  8
1
100
AcDbLine
 10
29.13552078255669
 20
-54.355347039
 30
0.0
 11
29.15876985355669
 21
-54.287461074
 31
0.0
  0
LINE
  5
C2
330
1D
100
AcDbEntity
  8
1
100
AcDbLine
 10
29.15876985355669
 20
-54.287461074
 30
0.0
 11
29.16770589355669
 21
-54.185251216
 31
0.0
  0
LINE
  5
C3
330
1D
100
AcDbEntity
  8
1
100
AcDbLine
 10
29.16770589355669
 20
-54.185251216
 30
0.0
 11
29.15305013655669
 21
-54.056470724
 31
0.0
  0
ARC
  5
C4
330
1D
100
AcDbEntity
  8
1
100
AcDbCircle
 10
88.8168850825567
 20
3.390127398
 30
0.0
 40
83.441682576
100
AcDbArc
 50
221.647703193
 51
223.561964197
  0
LINE
  5
C5
330
1D
100
AcDbEntity
  8
1
100
AcDbLine
 10
28.04953765955669
 20
1.290461538
 30
0.0
 11
26.04953779655669
 21
4.754564283
 31
0.0
  0
LINE
  5
C6
330
1D
100
AcDbEntity
  8
1
100
AcDbLine
 10
11.12901068155669
 20
-63.059682934
 30
0.0
 11
4.816306967556687
 21
-52.12569374
 31
0.0
  0
LINE
  5
C7
330
1D
100
AcDbEntity
  8
1
100
AcDbLine
 10
4.816306967556687
 20
-52.12569374
 30
0.0
 11
0.702062834556687
 21
-44.999556126
 31
0.0
  0
LINE
  5
C8
330
1D
100
AcDbEntity
  8
1
100
AcDbLine
 10
26.46549998655669
 20
-62.939285044
 30
0.0
 11
27.76630383755669
 21
-63.412760826
 31
0.0
  0
LINE
  5
C9
330
1D
100
AcDbEntity
  8
1
100
AcDbLine
 10
27.76630383755669
 20
-63.412760826
 30
0.0
 11
31.58144231755669
 21
-64.801346603
 31
0.0
  0
LINE
  5
CA
330
1D
100
AcDbEntity
  8
1
100
AcDbLine
 10
-3.497937481443313
 20
-29.830665769
 30
0.0
 11
-3.547934602443313
 21
-29.787843557
 31
0.0
  0
LINE
  5
CB
330
1D
100
AcDbEntity
  8
1
100
AcDbLine
 10
-3.547934602443313
 20
36.223134516
 30
0.0
 11
-3.497937481443313
 21
36.264567194
 31
0.0
  0
ARC
  5
CC
330
1D
100
AcDbEntity
  8
1
100
AcDbCircle
 10
61.44596679455669
 20
-45.84541853
 30
0.0
 40
29.843906015
100
AcDbArc
 50
180.0
 51
189.998901382
  0
LINE
  5
CD
330
1D
100
AcDbEntity
  8
1
100
AcDbLine
 10
28.77738441155669
 20
-19.499999912
 30
0.0
 11
28.77738441155669
 21
0.029793499
 31
0.0
  0
ARC
  5
CE
330
1D
100
AcDbEntity
  8
1
100
AcDbCircle
 10
116.9832248695567
 20
-19.500000002
 30
0.0
 40
88.205840414
100
AcDbArc
 50
180.0
 51
185.344722231
  0
ARC
  5
CF
330
1D
100
AcDbEntity
  8
1
100
AcDbCircle
 10
43.54296822955668
 20
-26.370591494
 30
0.0
 40
14.444900054
100
AcDbArc
 50
185.345024151
 51
192.606993773
  0
ARC
  5
D0
330
1D
100
AcDbEntity
  8
1
100
AcDbCircle
 10
33.42042699555669
 20
-28.634544907
 30
0.0
 40
4.072276178
100
AcDbArc
 50
192.606993773
 51
207.00288411
  0
ARC
  5
D1
330
1D
100
AcDbEntity
  8
1
100
AcDbCircle
 10
29.94141386155669
 20
-30.407412087
 30
0.0
 40
0.167587915
100
AcDbArc
 50
207.0026238010005
 51
332.9973761989995
  0
ARC
  5
D3
330
1D
100
AcDbEntity
  8
1
100
AcDbCircle
 10
26.46240072755669
 20
-28.634544907
 30
0.0
 40
4.072276178
100
AcDbArc
 50
332.9971158899999
 51
347.393006227
  0
ARC
  5
D4
330
1D
100
AcDbEntity
  8
1
100
AcDbCircle
 10
16.33985949355669
 20
-26.370591494
 30
0.0
 40
14.444900054
100
AcDbArc
 50
347.393006227
 51
354.654975849
  0
ARC
  5
D5
330
1D
100
AcDbEntity
  8
1
100
AcDbCircle
 10
-57.10039714644331
 20
-19.500000002
 30
0.0
 40
88.205840414
100
AcDbArc
 50
354.655277769
 51
0.0
  0
LINE
  5
D6
330
1D
100
AcDbEntity
  8
1
100
AcDbLine
 10
31.10544334955669
 20
-4.002520325
 30
0.0
 11
31.10544334955669
 21
-19.499999912
 31
0.0
  0
LINE
  5
D7
330
1D
100
AcDbEntity
  8
1
100
AcDbLine
 10
31.60206086755669
 20
-4.862686129
 30
0.0
 11
31.10544334955669
 21
-4.002520325
 31
0.0
  0
LINE
  5
D8
330
1D
100
AcDbEntity
  8
1
100
AcDbLine
 10
31.60206086755669
 20
-4.862686129
 30
0.0
 11
31.60206086755669
 21
-45.845418679
 31
0.0
  0
LINE
  5
D9
330
1D
100
AcDbEntity
  8
1
100
AcDbLine
 10
28.77738441155669
 20
0.029793499
 30
0.0
 11
28.04953765955669
 21
1.290461538
 31
0.0
  0
LINE
  5
DA
330
1D
100
AcDbEntity
  8
1
100
AcDbLine
 10
31.04507665055669
 20
-59.361338126
 30
0.0
 11
31.03613688455669
 21
-59.365359111
 31
0.0
  0
LINE
  5
DB
330
1D
100
AcDbEntity
  8
1
100
AcDbLine
 10
31.03613688455669
 20
-59.365359111
 30
0.0
 11
31.02409930755669
 21
-59.384729223
 31
0.0
  0
LINE
  5
DC
330
1D
100
AcDbEntity
  8
1
100
AcDbLine
 10
31.02409930755669
 20
-59.384729223
 30
0.0
 11
31.01804827155669
 21
-59.401405951
 31
0.0
  0
LINE
  5
DD
330
1D
100
AcDbEntity
  8
1
100
AcDbLine
 10
31.01804827155669
 20
-59.401405951
 30
0.0
 11
31.01239933455669
 21
-59.421816351
 31
0.0
  0
LINE
  5
DE
330
1D
100
AcDbEntity
  8
1
100
AcDbLine
 10
31.01239933455669
 20
-59.421816351
 30
0.0
 11
31.00966450655669
 21
-59.43356126
 31
0.0
  0
ARC
  5
DF
330
1D
100
AcDbEntity
  8
1
100
AcDbCircle
 10
30.50470879455669
 20
-59.297619839
 30
0.0
 40
0.522934356
100
AcDbArc
 50
252.8177949949998
 51
344.9323786919996
  0
LINE
  5
E0
330
1D
100
AcDbEntity
  8
1
100
AcDbLine
 10
-3.797935109443313
 20
36.28247839
 30
0.0
 11
-3.790417473443313
 21
36.213396607
 31
0.0
  0
LINE
  5
E1
330
1D
100
AcDbEntity
  8
1
100
AcDbLine
 10
-3.790417473443313
 20
36.213396607
 30
0.0
 11
-3.762891303443313
 21
36.160929618
 31
0.0
  0
LINE
  5
E2
330
1D
100
AcDbEntity
  8
1
100
AcDbLine
 10
-3.762891303443313
 20
36.160929618
 30
0.0
 11
-3.721961538443313
 21
36.141677318
 31
0.0
  0
LINE
  5
E3
330
1D
100
AcDbEntity
  8
1
100
AcDbLine
 10
-3.721961538443313
 20
36.141677318
 30
0.0
 11
-3.665735732443313
 21
36.149954913
 31
0.0
  0
LINE
  5
E4
330
1D
100
AcDbEntity
  8
1
100
AcDbLine
 10
-3.665735732443313
 20
36.149954913
 30
0.0
 11
-3.604506861443313
 21
36.181247352
 31
0.0
  0
LINE
  5
E5
330
1D
100
AcDbEntity
  8
1
100
AcDbLine
 10
-3.604506861443313
 20
36.181247352
 30
0.0
 11
-3.547934602443313
 21
36.223134516
 31
0.0
  0
ARC
  5
E7
330
1D
100
AcDbEntity
  8
1
100
AcDbCircle
 10
-2.230150956443313
 20
36.549022203
 30
0.0
 40
1.574863178
100
AcDbArc
 50
146.7996239430001
 51
174.5654227670001
  0
LINE
  5
E8
330
1D
100
AcDbEntity
  8
1
100
AcDbLine
 10
-3.497937481443313
 20
37.502324698
 30
0.0
 11
-3.547934602443313
 21
37.41136801
 31
0.0
  0
LINE
  5
E9
330
1D
100
AcDbEntity
  8
1
100
AcDbLine
 10
-3.547934602443313
 20
-31.221957387
 30
0.0
 11
-3.497937481443313
 21
-31.323702516
 31
0.0
  0
ARC
  5
EA
330
1D
100
AcDbEntity
  8
1
100
AcDbCircle
 10
-1.684634530443313
 20
-30.206053557
 30
0.0
 40
2.122250634
100
AcDbArc
 50
185.2638667929999
 51
208.59999176
  0
LINE
  5
EC
330
1D
100
AcDbEntity
  8
1
100
AcDbLine
 10
-3.547934602443313
 20
-29.787843557
 30
0.0
 11
-3.596091430443313
 21
-29.75092593
 31
0.0
  0
LINE
  5
ED
330
1D
100
AcDbEntity
  8
1
100
AcDbLine
 10
-3.596091430443313
 20
-29.75092593
 30
0.0
 11
-3.669755320443313
 21
-29.715576651
 31
0.0
  0
LINE
  5
EE
330
1D
100
AcDbEntity
  8
1
100
AcDbLine
 10
-3.669755320443313
 20
-29.715576651
 30
0.0
 11
-3.718403886443313
 21
-29.714134963
 31
0.0
  0
LINE
  5
EF
330
1D
100
AcDbEntity
  8
1
100
AcDbLine
 10
-3.718403886443313
 20
-29.714134963
 30
0.0
 11
-3.755016039443313
 21
-29.735439898
 31
0.0
  0
LINE
  5
F0
330
1D
100
AcDbEntity
  8
1
100
AcDbLine
 10
-3.755016039443313
 20
-29.735439898
 30
0.0
 11
-3.786703358443313
 21
-29.796936991
 31
0.0
  0
LINE
  5
F1
330
1D
100
AcDbEntity
  8
1
100
AcDbLine
 10
-3.786703358443313
 20
-29.796936991
 30
0.0
 11
-3.797935109443313
 21
-29.897631588
 31
0.0
  0
LINE
  5
F3
330
1D
100
AcDbEntity
  8
1
100
AcDbLine
 10
32.05544371455669
 20
-51.027179206
 30
0.0
 11
32.41571339655669
 21
-53.070369618
 31
0.0
  0
LINE
  5
F4
330
1D
100
AcDbEntity
  8
1
100
AcDbLine
 10
32.41571339655669
 20
-53.070369618
 30
0.0
 11
32.31343485255669
 21
-53.265218133
 31
0.0
  0
LINE
  5
F5
330
1D
100
AcDbEntity
  8
1
100
AcDbLine
 10
32.07639730855669
 20
-53.351493062
 30
0.0
 11
32.31343485255669
 21
-53.265218133
 31
0.0
  0
LINE
  5
F6
330
1D
100
AcDbEntity
  8
1
100
AcDbLine
 10
33.13609513255669
 20
-59.361338126
 30
0.0
 11
32.07639730855669
 21
-53.351493062
 31
0.0
  0
LINE
  5
F7
330
1D
100
AcDbEntity
  8
1
100
AcDbLine
 10
31.04507665055669
 20
-59.361338126
 30
0.0
 11
33.13609513255669
 21
-59.361338126
 31
0.0
  0
LINE
  5
F8
330
1D
100
AcDbEntity
  8
1
100
AcDbLine
 10
-3.497937481443313
 20
-35.470680775
 30
0.0
 11
-3.547934602443313
 21
-35.429784538
 31
0.0
  0
LINE
  5
F9
330
1D
100
AcDbEntity
  8
1
100
AcDbLine
 10
-3.547934602443313
 20
40.988652525
 30
0.0
 11
-3.497937481443313
 21
41.029489158
 31
0.0
  0
LINE
  5
FA
330
1D
100
AcDbEntity
  8
1
100
AcDbLine
 10
-3.547934602443313
 20
-36.426042648
 30
0.0
 11
-3.497937481443313
 21
-36.50854479
 31
0.0
  0
ARC
  5
FB
330
1D
100
AcDbEntity
  8
1
100
AcDbCircle
 10
-2.308355209443313
 20
-35.569080963
 30
0.0
 40
1.506963968
100
AcDbArc
 50
188.711246242
 51
214.657370339
  0
LINE
  5
FD
330
1D
100
AcDbEntity
  8
1
100
AcDbLine
 10
-3.547934602443313
 20
-35.429784538
 30
0.0
 11
-3.613242666443313
 21
-35.382037493
 31
0.0
  0
LINE
  5
FE
330
1D
100
AcDbEntity
  8
1
100
AcDbLine
 10
-3.613242666443313
 20
-35.382037493
 30
0.0
 11
-3.686168949443313
 21
-35.346462833
 31
0.0
  0
LINE
  5
FF
330
1D
100
AcDbEntity
  8
1
100
AcDbLine
 10
-3.686168949443313
 20
-35.346462833
 30
0.0
 11
-3.745572428443313
 21
-35.343026253
 31
0.0
  0
LINE
  5
100
330
1D
100
AcDbEntity
  8
1
100
AcDbLine
 10
-3.745572428443313
 20
-35.343026253
 30
0.0
 11
-3.778802018443313
 21
-35.36746602
 31
0.0
  0
LINE
  5
101
330
1D
100
AcDbEntity
  8
1
100
AcDbLine
 10
-3.778802018443313
 20
-35.36746602
 30
0.0
 11
-3.797562580443313
 21
-35.434558498
 31
0.0
  0
LINE
  5
102
330
1D
100
AcDbEntity
  8
1
100
AcDbLine
 10
-3.797562580443313
 20
-35.434558498
 30
0.0
 11
-3.797935109443313
 21
-35.448926942
 31
0.0
  0
ARC
  5
103
330
1D
100
AcDbEntity
  8
1
100
AcDbCircle
 10
-3.750152857443313
 20
41.159282158
 30
0.0
 40
0.264587782
100
AcDbArc
 50
268.458650505
 51
319.8426797300004
  0
LINE
  5
105
330
1D
100
AcDbEntity
  8
1
100
AcDbLine
 10
-3.797935109443313
 20
44.163307665
 30
0.0
 11
-3.797935109443313
 21
-35.44892694199999
 31
0.0
  0
LINE
  5
106
330
1D
100
AcDbEntity
  8
1
100
AcDbLine
 10
-3.797935109443313
 20
40.976947663
 30
0.0
 11
-3.791318993443313
 21
40.931469319
 31
0.0
  0
LINE
  5
107
330
1D
100
AcDbEntity
  8
1
100
AcDbLine
 10
-3.791318993443313
 20
40.931469319
 30
0.0
 11
-3.762164871443313
 21
40.896801768
 31
0.0
  0
LINE
  5
108
330
1D
100
AcDbEntity
  8
1
100
AcDbLine
 10
-3.762164871443313
 20
40.896801768
 30
0.0
 11
-3.757269840443313
 21
40.894790111
 31
0.0
  0
ARC
  5
109
330
1D
100
AcDbEntity
  8
1
100
AcDbCircle
 10
-2.681915330443313
 20
41.091040696
 30
0.0
 40
1.130147953
100
AcDbArc
 50
140.021750821
 51
170.9308524719999
  0
LINE
  5
10A
330
1D
100
AcDbEntity
  8
1
100
AcDbLine
 10
-3.497937481443313
 20
41.891163705
 30
0.0
 11
-3.547934602443313
 21
41.817157088
 31
0.0
  0
LINE
  5
10C
330
1D
100
AcDbEntity
  8
1
100
AcDbLine
 10
-0.2498605954433129
 20
42.829720793
 30
0.0
 11
-0.1194419074433129
 21
42.876719056
 31
0.0
  0
LINE
  5
10D
330
1D
100
AcDbEntity
  8
1
100
AcDbLine
 10
-0.1194419074433129
 20
42.876719056
 30
0.0
 11
-0.0345388164433129
 21
42.936852692
 31
0.0
  0
LINE
  5
10E
330
1D
100
AcDbEntity
  8
1
100
AcDbLine
 10
-0.0345388164433129
 20
42.936852692
 30
0.0
 11
-0.0000463534433129
 21
43.007119117
 31
0.0
  0
LINE
  5
10F
330
1D
100
AcDbEntity
  8
1
100
AcDbLine
 10
-0.0000463534433129
 20
43.007119117
 30
0.0
 11
-0.0279599534433129
 21
43.079412101
 31
0.0
  0
LINE
  5
110
330
1D
100
AcDbEntity
  8
1
100
AcDbLine
 10
-0.0279599534433129
 20
43.079412101
 30
0.0
 11
-0.1193115224433129
 21
43.142004428
 31
0.0
  0
LINE
  5
111
330
1D
100
AcDbEntity
  8
1
100
AcDbLine
 10
-0.1193115224433129
 20
43.142004428
 30
0.0
 11
-0.2498605954433129
 21
43.183876691
 31
0.0
  0
ARC
  5
112
330
1D
100
AcDbEntity
  8
1
100
AcDbCircle
 10
-12.60857988044331
 20
-13.970021696
 30
0.0
 40
58.474835285
100
AcDbArc
 50
77.798458411
 51
81.03733357600001
  0
ARC
  5
113
330
1D
100
AcDbEntity
  8
1
100
AcDbCircle
 10
3.216556154556687
 20
-13.970021696
 30
0.0
 40
58.472476072
100
AcDbArc
 50
93.39865037899999
 51
96.593348465
  0
LINE
  5
114
330
1D
100
AcDbEntity
  8
1
100
AcDbLine
 10
-0.2498605954433129
 20
44.39961773
 30
0.0
 11
-0.1205147914433129
 21
44.410115598
 31
0.0
  0
LINE
  5
115
330
1D
100
AcDbEntity
  8
1
100
AcDbLine
 10
-0.1205147914433129
 20
44.410115598
 30
0.0
 11
-0.0340992324433129
 21
44.423273323
 31
0.0
  0
LINE
  5
116
330
1D
100
AcDbEntity
  8
1
100
AcDbLine
 10
-0.0340992324433129
 20
44.423273323
 30
0.0
 11
-0.0001506614433129
 21
44.437064348
 31
0.0
  0
LINE
  5
117
330
1D
100
AcDbEntity
  8
1
100
AcDbLine
 10
-0.0001506614433129
 20
44.437064348
 30
0.0
 11
-0.0228712074433129
 21
44.449640928
 31
0.0
  0
LINE
  5
118
330
1D
100
AcDbEntity
  8
1
100
AcDbLine
 10
-0.0228712074433129
 20
44.449640928
 30
0.0
 11
-0.0997202204433129
 21
44.459729014
 31
0.0
  0
LINE
  5
119
330
1D
100
AcDbEntity
  8
1
100
AcDbLine
 10
-0.0997202204433129
 20
44.459729014
 30
0.0
 11
-0.2217309284433129
 21
44.466747461
 31
0.0
  0
LINE
  5
11A
330
1D
100
AcDbEntity
  8
1
100
AcDbLine
 10
-0.2217309284433129
 20
44.466747461
 30
0.0
 11
-0.2498605954433129
 21
44.467753289
 31
0.0
  0
ARC
  5
11B
330
1D
100
AcDbEntity
  8
1
100
AcDbCircle
 10
-2.216275035443313
 20
-13.970021696
 30
0.0
 40
58.470847764
100
AcDbArc
 50
88.072739361
 51
90.0
  0
ARC
  5
11C
330
1D
100
AcDbEntity
  8
1
100
AcDbCircle
 10
-2.216275035443313
 20
-13.970021696
 30
0.0
 40
58.470021695
100
AcDbArc
 50
90.0
 51
91.25601424099999
  0
ARC
  5
11D
330
1D
100
AcDbEntity
  8
1
100
AcDbCircle
 10
10.41428968355669
 20
-0.282109919
 30
0.0
 40
44.411191445
100
AcDbArc
 50
103.893800832
 51
108.256819949
  0
ARC
  5
11F
330
1D
100
AcDbEntity
  8
1
100
AcDbCircle
 10
31.75101992755669
 20
-64.329588946
 30
0.0
 40
0.501330521
100
AcDbArc
 50
250.2285502349999
 51
349.4125340429998
  0
LINE
  5
120
330
1D
100
AcDbEntity
  8
1
100
AcDbLine
 10
32.24391138955669
 20
-64.421163848
 30
0.0
 11
33.13609513255669
 21
-59.361338126
 31
0.0
  0
LINE
  5
121
330
1D
100
AcDbEntity
  8
1
100
AcDbLine
 10
-3.497937481443313
 20
-39.426763983
 30
0.0
 11
-3.547934602443313
 21
-39.385579037
 31
0.0
  0
LINE
  5
122
330
1D
100
AcDbEntity
  8
1
100
AcDbLine
 10
-3.547934602443313
 20
43.751946209
 30
0.0
 11
-3.497937481443313
 21
43.795904634
 31
0.0
  0
ARC
  5
124
330
1D
100
AcDbEntity
  8
1
100
AcDbCircle
 10
-2.876437824443313
 20
43.317403376
 30
0.0
 40
1.00414224
100
AcDbArc
 50
131.9688707379999
 51
156.5915389259999
  0
LINE
  5
125
330
1D
100
AcDbEntity
  8
1
100
AcDbLine
 10
-3.497937481443313
 20
44.120697794
 30
0.0
 11
-3.547934602443313
 21
44.063991425
 31
0.0
  0
LINE
  5
126
330
1D
100
AcDbEntity
  8
1
100
AcDbLine
 10
-3.797935109443313
 20
43.606749294
 30
0.0
 11
-3.792254041443313
 21
43.593576668
 31
0.0
  0
LINE
  5
127
330
1D
100
AcDbEntity
  8
1
100
AcDbLine
 10
-3.792254041443313
 20
43.593576668
 30
0.0
 11
-3.759404431443313
 21
43.597205101
 31
0.0
  0
LINE
  5
128
330
1D
100
AcDbEntity
  8
1
100
AcDbLine
 10
-3.759404431443313
 20
43.597205101
 30
0.0
 11
-3.704434048443313
 21
43.628035603
 31
0.0
  0
LINE
  5
129
330
1D
100
AcDbEntity
  8
1
100
AcDbLine
 10
-3.704434048443313
 20
43.628035603
 30
0.0
 11
-3.606023054443313
 21
43.702392397
 31
0.0
  0
LINE
  5
12A
330
1D
100
AcDbEntity
  8
1
100
AcDbLine
 10
-3.606023054443313
 20
43.702392397
 30
0.0
 11
-3.547934602443313
 21
43.751946209
 31
0.0
  0
LINE
  5
12B
330
1D
100
AcDbEntity
  8
1
100
AcDbLine
 10
-3.547934602443313
 20
-40.086188795
 30
0.0
 11
-3.497937481443313
 21
-40.156859415
 31
0.0
  0
ARC
  5
12C
330
1D
100
AcDbEntity
  8
1
100
AcDbCircle
 10
-2.734337450443313
 20
-39.36893242
 30
0.0
 40
1.084618382
100
AcDbArc
 50
191.2986587270001
 51
221.3989697069999
  0
LINE
  5
12D
330
1D
100
AcDbEntity
  8
1
100
AcDbLine
 10
-3.797935109443313
 20
-35.448926942
 30
0.0
 11
-3.797935109443313
 21
-39.581434311
 31
0.0
  0
LINE
  5
12E
330
1D
100
AcDbEntity
  8
1
100
AcDbLine
 10
-3.547934602443313
 20
-39.385579037
 30
0.0
 11
-3.628028343443313
 21
-39.325769501
 31
0.0
  0
LINE
  5
12F
330
1D
100
AcDbEntity
  8
1
100
AcDbLine
 10
-3.628028343443313
 20
-39.325769501
 30
0.0
 11
-3.704963039443313
 21
-39.284733566
 31
0.0
  0
LINE
  5
130
330
1D
100
AcDbEntity
  8
1
100
AcDbLine
 10
-3.704963039443313
 20
-39.284733566
 30
0.0
 11
-3.763330887443313
 21
-39.277031528
 31
0.0
  0
LINE
  5
131
330
1D
100
AcDbEntity
  8
1
100
AcDbLine
 10
-3.763330887443313
 20
-39.277031528
 30
0.0
 11
-3.791043322443313
 21
-39.299880596
 31
0.0
  0
LINE
  5
132
330
1D
100
AcDbEntity
  8
1
100
AcDbLine
 10
-3.791043322443313
 20
-39.299880596
 30
0.0
 11
-3.797935109443313
 21
-39.336805673
 31
0.0
  0
LINE
  5
135
330
1D
100
AcDbEntity
  8
1
100
AcDbLine
 10
-3.547934602443313
 20
44.435179351
 30
0.0
 11
-3.497937481443313
 21
44.486305235
 31
0.0
  0
LINE
  5
136
330
1D
100
AcDbEntity
  8
1
100
AcDbLine
 10
-3.497937481443313
 20
-42.17546943
 30
0.0
 11
-3.547934602443313
 21
-42.13285956
 31
0.0
  0
LINE
  5
137
330
1D
100
AcDbEntity
  8
1
100
AcDbLine
 10
-3.547934602443313
 20
-42.602210747
 30
0.0
 11
-3.497937481443313
 21
-42.664655926
 31
0.0
  0
ARC
  5
138
330
1D
100
AcDbEntity
  8
1
100
AcDbCircle
 10
-2.693720822443313
 20
-41.802935902
 30
0.0
 40
1.169838219
100
AcDbArc
 50
199.2822302770001
 51
223.0969862789999
  0
LINE
  5
13A
330
1D
100
AcDbEntity
  8
1
100
AcDbLine
 10
-3.547934602443313
 20
-42.13285956
 30
0.0
 11
-3.641398410443313
 21
-42.059020581
 31
0.0
  0
LINE
  5
13B
330
1D
100
AcDbEntity
  8
1
100
AcDbLine
 10
-3.641398410443313
 20
-42.059020581
 30
0.0
 11
-3.720441620443313
 21
-42.010245355
 31
0.0
  0
LINE
  5
13C
330
1D
100
AcDbEntity
  8
1
100
AcDbLine
 10
-3.720441620443313
 20
-42.010245355
 30
0.0
 11
-3.776186864443313
 21
-41.995509969
 31
0.0
  0
LINE
  5
13D
330
1D
100
AcDbEntity
  8
1
100
AcDbLine
 10
-3.776186864443313
 20
-41.995509969
 30
0.0
 11
-3.796769093443313
 21
-42.014350625
 31
0.0
  0
LINE
  5
13E
330
1D
100
AcDbEntity
  8
1
100
AcDbLine
 10
-3.796769093443313
 20
-42.014350625
 30
0.0
 11
-3.797935109443313
 21
-42.025496693
 31
0.0
  0
ARC
  5
141
330
1D
100
AcDbEntity
  8
1
100
AcDbCircle
 10
-1.999588758443313
 20
42.760512578
 30
0.0
 40
2.280763832
100
AcDbArc
 50
132.755530505
 51
142.04408675
  0
LINE
  5
142
330
1D
100
AcDbEntity
  8
1
100
AcDbLine
 10
-3.497937481443313
 20
-43.943950417
 30
0.0
 11
-3.547934602443313
 21
-43.89911096
 31
0.0
  0
LINE
  5
143
330
1D
100
AcDbEntity
  8
1
100
AcDbLine
 10
-3.547934602443313
 20
-43.89911096
 30
0.0
 11
-3.653930287443313
 21
-43.808569642
 31
0.0
  0
LINE
  5
144
330
1D
100
AcDbEntity
  8
1
100
AcDbLine
 10
-3.653930287443313
 20
-43.808569642
 30
0.0
 11
-3.733621697443313
 21
-43.750034155
 31
0.0
  0
LINE
  5
145
330
1D
100
AcDbEntity
  8
1
100
AcDbLine
 10
-3.733621697443313
 20
-43.750034155
 30
0.0
 11
-3.779647659443313
 21
-43.726928042
 31
0.0
  0
LINE
  5
146
330
1D
100
AcDbEntity
  8
1
100
AcDbLine
 10
-3.779647659443313
 20
-43.726928042
 30
0.0
 11
-3.797774921443313
 21
-43.734212847
 31
0.0
  0
LINE
  5
147
330
1D
100
AcDbEntity
  8
1
100
AcDbLine
 10
-3.797774921443313
 20
-43.734212847
 30
0.0
 11
-3.797935109443313
 21
-43.73671438
 31
0.0
  0
LINE
  5
149
330
1D
100
AcDbEntity
  8
1
100
AcDbLine
 10
-3.547934602443313
 20
-44.170060637
 30
0.0
 11
-3.497937481443313
 21
-44.22637585
 31
0.0
  0
ARC
  5
14A
330
1D
100
AcDbEntity
  8
1
100
AcDbCircle
 10
-2.761241471443313
 20
-43.328011028
 30
0.0
 40
1.152360024
100
AcDbArc
 50
205.890981755
 51
226.9465763530001
  0
LINE
  5
14C
330
1D
100
AcDbEntity
  8
1
100
AcDbLine
 10
-3.497937481443313
 20
-44.848314928
 30
0.0
 11
-3.547934602443313
 21
-44.800513865
 31
0.0
  0
LINE
  5
14D
330
1D
100
AcDbEntity
  8
1
100
AcDbLine
 10
28.77738441155669
 20
0.029793499
 30
0.0
 11
31.10544334955669
 21
-4.002520325
 31
0.0
  0
LINE
  5
14E
330
1D
100
AcDbEntity
  8
1
100
AcDbLine
 10
-3.547934602443313
 20
-44.889199989
 30
0.0
 11
-3.497937481443313
 21
-44.940758007
 31
0.0
  0
ARC
  5
14F
330
1D
100
AcDbEntity
  8
1
100
AcDbCircle
 10
-2.032746721443313
 20
-43.2612079
 30
0.0
 40
2.22399473
100
AcDbArc
 50
217.467201054
 51
227.0553809810001
  0
LINE
  5
150
330
1D
100
AcDbEntity
  8
1
100
AcDbLine
 10
-3.797935109443313
 20
-39.581434311
 30
0.0
 11
-3.797935109443313
 21
-44.61407985
 31
0.0
  0
ARC
  5
151
330
1D
100
AcDbEntity
  8
1
100
AcDbCircle
 10
-4.366132602443312
 20
-45.489153021
 30
0.0
 40
1.069425946
100
AcDbArc
 50
40.08575741799994
 51
57.90594073900002
  0
ARC
  5
153
330
1D
100
AcDbEntity
  8
CUT
100
AcDbCircle
 10
32.04837294055669
 20
-54.022676384
 30
0.0
 40
0.312545293
100
AcDbArc
 50
9.99999999999971
 51
72.53492725800021
  0
LINE
  5
154
330
1D
100
AcDbEntity
  8
CUT
100
AcDbLine
 10
33.30708985755669
 20
-59.361338126
 30
0.0
 11
32.35616998555669
 21
-53.968402999
 31
0.0
  0
LINE
  5
155
330
1D
100
AcDbEntity
  8
CUT
100
AcDbLine
 10
32.35616998555669
 20
-64.754272903
 30
0.0
 11
33.30708985755669
 21
-59.361338126
 31
0.0
  0
ARC
  5
156
330
1D
100
AcDbEntity
  8
CUT
100
AcDbCircle
 10
32.04837294055669
 20
-64.7
 30
0.0
 40
0.312545293
100
AcDbArc
 50
250.0000000000002
 51
350.0000000000003
  0
LINE
  5
157
330
1D
100
AcDbEntity
  8
CUT
100
AcDbLine
 10
26.79559795955669
 20
-63.120749988
 30
0.0
 11
31.94147614155668
 21
-64.993696496
 31
0.0
  0
LINE
  5
158
330
1D
100
AcDbEntity
  8
CUT
100
AcDbLine
 10
26.66654738455669
 20
-63.012463715
 30
0.0
 11
26.79559795955669
 21
-63.120749988
 31
0.0
  0
LINE
  5
159
330
1D
100
AcDbEntity
  8
CUT
100
AcDbLine
 10
31.77475671155669
 20
-65.451754098
 30
0.0
 11
26.54811062655669
 21
-63.549410411
 31
0.0
  0
LINE
  5
15A
330
1D
100
AcDbEntity
  8
CUT
100
AcDbLine
 10
26.79559795955669
 20
-63.120749988
 30
0.0
 11
26.54811062655669
 21
-63.549410411
 31
0.0
  0
LINE
  5
15B
330
1D
100
AcDbEntity
  8
CUT
100
AcDbLine
 10
26.54811062655669
 20
-63.549410411
 30
0.0
 11
25.82099123755669
 21
-62.939285044
 31
0.0
  0
ARC
  5
15C
330
1D
100
AcDbEntity
  8
CUT
100
AcDbCircle
 10
32.04837294055669
 20
-54.022676384
 30
0.0
 40
0.8
100
AcDbArc
 50
10.00000000000008
 51
70.93225881199979
  0
LINE
  5
15D
330
1D
100
AcDbEntity
  8
CUT
100
AcDbLine
 10
33.30708985755669
 20
-59.361338126
 30
0.0
 11
33.80206434755669
 21
-59.361338126
 31
0.0
  0
LINE
  5
15E
330
1D
100
AcDbEntity
  8
CUT
100
AcDbLine
 10
33.80206434755669
 20
-59.361338126
 30
0.0
 11
32.83621915955668
 21
-64.838918542
 31
0.0
  0
LINE
  5
15F
330
1D
100
AcDbEntity
  8
CUT
100
AcDbLine
 10
32.83621915955668
 20
-53.883757884
 30
0.0
 11
33.80206434755669
 21
-59.361338126
 31
0.0
  0
ARC
  5
160
330
1D
100
AcDbEntity
  8
CUT
100
AcDbCircle
 10
32.04837294055669
 20
-64.7
 30
0.0
 40
0.8
100
AcDbArc
 50
250.0000000000001
 51
349.9999999999994
  0
ARC
  5
161
330
1D
100
AcDbEntity
  8
1
100
AcDbCircle
 10
115.0140316845567
 20
-26.867481916
 30
0.0
 40
90.842319508
100
AcDbArc
 50
197.452181458
 51
201.253398387
  0
ARC
  5
162
330
1D
100
AcDbEntity
  8
1
100
AcDbCircle
 10
39.38186384055669
 20
-60.228652428
 30
0.0
 40
9.041934673
100
AcDbArc
 50
177.265088376
 51
210.379107408
  0
ARC
  5
163
330
1D
100
AcDbEntity
  8
1
100
AcDbCircle
 10
132.6498370455567
 20
-19.665423012
 30
0.0
 40
109.061125345
100
AcDbArc
 50
198.381181562
 51
201.340066588
  0
ARC
  5
164
330
1D
100
AcDbEntity
  8
1
100
AcDbCircle
 10
49.91130909355669
 20
-58.36038867
 30
0.0
 40
18.932085762
100
AcDbArc
 50
183.2495756939999
 51
192.261092781
  0
ARC
  5
165
330
1D
100
AcDbEntity
  8
1
100
AcDbCircle
 10
38.13411512355669
 20
-60.919855861
 30
0.0
 40
6.889561827
100
AcDbArc
 50
192.2610927809999
 51
208.954194924
  0
ARC
  5
166
330
1D
100
AcDbEntity
  8
1
100
AcDbCircle
 10
32.88336488255668
 20
-63.82491322
 30
0.0
 40
0.88875052
100
AcDbArc
 50
208.953967309
 51
222.980738052
  0
LINE
  5
167
330
1D
100
AcDbEntity
  8
CUT
100
AcDbLine
 10
31.94147614155668
 20
-64.993696496
 30
0.0
 11
31.77475671155669
 21
-65.451754098
 31
0.0
  0
LINE
  5
168
330
1D
100
AcDbEntity
  8
CUT
100
AcDbLine
 10
32.35616998555669
 20
-53.968402999
 30
0.0
 11
32.83621915955668
 21
-53.883757884
 31
0.0
  0
LINE
  5
169
330
1D
100
AcDbEntity
  8
CUT
100
AcDbLine
 10
32.35616998555669
 20
-64.754272903
 30
0.0
 11
32.83621915955668
 21
-64.838918542
 31
0.0
  0
LINE
  5
207
330
1D
100
AcDbEntity
  8
1
100
AcDbLine
 10
25.82099123755669
 20
62.939285044
 30
0.0
 11
23.16582782955669
 21
60.711338161
 31
0.0
  0
LINE
  5
208
330
1D
100
AcDbEntity
  8
1
100
AcDbLine
 10
25.88361195440864
 20
55.73084645408564
 30
0.0
 11
23.16582782955669
 21
58.011338091
 31
0.0
  0
LINE
  5
209
330
1D
100
AcDbEntity
  8
1
100
AcDbLine
 10
27.3632386125619
 20
54.87658360470071
 30
0.0
 11
31.77475682589616
 21
53.27092228737127
 31
0.0
  0
LINE
  5
20A
330
1D
100
AcDbEntity
  8
1
100
AcDbLine
 10
31.77475682589616
 20
53.27092228737127
 30
0.0
 11
31.93529322208719
 21
53.20082802344644
 31
0.0
  0
LINE
  5
20B
330
1D
100
AcDbEntity
  8
1
100
AcDbLine
 10
31.93529322208719
 20
53.20082802344644
 30
0.0
 11
31.99174101755668
 21
53.22468325
 31
0.0
  0
LINE
  5
20D
330
1D
100
AcDbEntity
  8
1
100
AcDbLine
 10
26.54811062655669
 20
63.549410411
 30
0.0
 11
22.28730935680746
 21
59.97417374649518
 31
0.0
  0
LINE
  5
20E
330
1D
100
AcDbEntity
  8
1
100
AcDbLine
 10
22.28730935680746
 20
58.74850263750481
 30
0.0
 11
26.53703874847433
 21
55.18053204751092
 31
0.0
  0
LINE
  5
20F
330
1D
100
AcDbEntity
  8
1
100
AcDbLine
 10
26.53703874847433
 20
55.18053204751092
 30
0.0
 11
31.77475682589616
 21
53.27092228737127
 31
0.0
  0
LINE
  5
211
330
1D
100
AcDbEntity
  8
3
100
AcDbLine
 10
32.30972155355668
 20
53.266570414
 30
0.0
 11
33.44443496322202
 21
59.35820814132599
 31
0.0
  0
LINE
  5
212
330
1D
100
AcDbEntity
  8
3
100
AcDbLine
 10
33.44443496322202
 20
59.35820814132599
 30
0.0
 11
32.45618820746846
 21
64.64527801773292
 31
0.0
  0
LINE
  5
213
330
1D
100
AcDbEntity
  8
3
100
AcDbLine
 10
32.45618820746846
 20
64.64527801773292
 30
0.0
 11
32.13448020966465
 21
65.03132761509748
 31
0.0
  0
LINE
  5
214
330
1D
100
AcDbEntity
  8
3
100
AcDbLine
 10
32.13448020966465
 20
65.03132761509748
 30
0.0
 11
31.5554058136178
 21
65.03132761509748
 31
0.0
  0
LINE
  5
215
330
1D
100
AcDbEntity
  8
3
100
AcDbLine
 10
31.5554058136178
 20
65.03132761509748
 30
0.0
 11
26.71048336669246
 21
63.33270938669338
 31
0.0
  0
LINE
  5
216
330
1D
100
AcDbEntity
  8
3
100
AcDbLine
 10
26.71048336669246
 20
63.33270938669338
 30
0.0
 11
25.90750020417417
 21
62.71503003091007
 31
0.0
  0
LINE
  5
217
330
1D
100
AcDbEntity
  8
3
100
AcDbLine
 10
25.90750020417417
 20
62.71503003091007
 30
0.0
 11
25.70123432955669
 21
62.838796502
 31
0.0
  0
LINE
  5
21B
330
1D
100
AcDbEntity
  8
NOCUT
100
AcDbLine
 10
28.79458751155669
 20
0.0
 30
0.0
 11
0.0
 21
0.0
 31
0.0
  0
LINE
  5
21E
330
1D
100
AcDbEntity
  8
NOCUT
100
AcDbLine
 10
0.6136363745566871
 20
44.499999402
 30
0.0
 11
11.32901034155669
 21
63.059682934
 31
0.0
  0
LINE
  5
21F
330
1D
100
AcDbEntity
  8
NOCUT
100
AcDbLine
 10
11.32901034155669
 20
63.059682934
 30
0.0
 11
25.51588809955669
 21
63.059682934
 31
0.0
  0
LINE
  5
229
330
1D
100
AcDbEntity
  8
NOCUT
100
AcDbLine
 10
32.41571339655669
 20
53.070369618
 30
0.0
 11
32.05544376650539
 21
51.02717964891551
 31
0.0
  0
ARC
  5
22A
330
1D
100
AcDbEntity
  8
NOCUT
100
AcDbCircle
 10
61.44596341123722
 20
45.84541867770267
 30
0.0
 40
29.84381494068053
100
AcDbArc
 50
170.0010986241892
 51
180.0000002835675
  0
LINE
  5
22B
330
1D
100
AcDbEntity
  8
NOCUT
100
AcDbLine
 10
31.60214847055669
 20
45.84541853000001
 30
0.0
 11
31.60206086755669
 21
4.862686129
 31
0.0
  0
LINE
  5
22C
330
1D
100
AcDbEntity
  8
NOCUT
100
AcDbLine
 10
31.60206086755669
 20
4.862686129
 30
0.0
 11
28.77738441155669
 21
0.029793499
 31
0.0
  0
LWPOLYLINE
  5
23C
330
1D
100
AcDbEntity
  8
INFTOTAL
100
AcDbPolyline
 90
        4
 70
     1
 43
0.0
 10
-28.21301236865691
 20
104.6964607537565
 10
-28.21301236865691
 20
-91.33999132500477
 10
87.36071684195593
 20
-91.33999132500477
 10
87.36071684195593
 20
104.6964607537565
  0
MTEXT
  5
271
330
1D
100
AcDbEntity
  8
SK6
100
AcDbMText
 10
63.4063310648967
 20
-84.36641725662322
 30
0.0
 40
3.5
 41
50.48325458782692
 71
     1
 72
     5
  1
{639.277}
  7
BMG_Text
 73
     1
 44
1.0
1001
ACAD
1000
ACAD_MTEXT_DEFINED_HEIGHT_BEGIN
1070
    46
1040
3.6015
1000
ACAD_MTEXT_DEFINED_HEIGHT_END
  0
ARC
  5
2A2
330
1D
100
AcDbEntity
  8
CUT
100
AcDbCircle
 10
32.04837294055665
 20
64.69999999999999
 30
0.0
 40
0.8
100
AcDbArc
 50
9.999999999998572
 51
109.9999999999984
  0
ARC
  5
2A3
330
1D
100
AcDbEntity
  8
CUT
100
AcDbCircle
 10
22.80153944455669
 20
59.361338192
 30
0.0
 40
0.8
100
AcDbArc
 50
130.0000000000007
 51
229.9999999999993
  0
LINE
  5
2A4
330
1D
100
AcDbEntity
  8
CUT
100
AcDbLine
 10
32.83621914296646
 20
53.88375784186645
 30
0.0
 11
33.80206434755667
 21
59.36133812599999
 31
0.0
  0
LINE
  5
2A5
330
1D
100
AcDbEntity
  8
CUT
100
AcDbLine
 10
33.80206434755667
 20
59.36133812599999
 30
0.0
 11
32.83621914296646
 21
64.83891854213354
 31
0.0
  0
ARC
  5
2A6
330
1D
100
AcDbEntity
  8
CUT
100
AcDbCircle
 10
32.04837294055665
 20
54.02267638399999
 30
0.0
 40
0.8
100
AcDbArc
 50
250.0000000000015
 51
350.0000000000014
  0
LINE
  5
2A7
330
1D
100
AcDbEntity
  8
CUT
100
AcDbLine
 10
31.77475682589614
 20
65.45175409662872
 30
0.0
 11
26.54811062655666
 21
63.54941041099999
 31
0.0
  0
LINE
  5
2A8
330
1D
100
AcDbEntity
  8
CUT
100
AcDbLine
 10
26.54811062655666
 20
63.54941041099999
 30
0.0
 11
22.28730935680745
 21
59.97417374649518
 31
0.0
  0
LINE
  5
2A9
330
1D
100
AcDbEntity
  8
CUT
100
AcDbLine
 10
22.28730935680745
 20
58.74850263750481
 30
0.0
 11
26.53703874847429
 21
55.18053204751092
 31
0.0
  0
LINE
  5
2AA
330
1D
100
AcDbEntity
  8
CUT
100
AcDbLine
 10
26.53703874847429
 20
55.18053204751092
 30
0.0
 11
31.77475682589614
 21
53.27092228737126
 31
0.0
  0
CIRCLE
  5
2AB
330
1D
100
AcDbEntity
  8
1
100
AcDbCircle
 10
28.76609510855668
 20
59.361338192
 30
0.0
 40
2.5
  0
HATCH
  5
2B0
330
1D
100
AcDbEntity
  8
7
100
AcDbHatch
 10
0.0
 20
0.0
 30
0.0
210
0.0
220
0.0
230
1.0
  2
ANSI37
 70
     0
 71
     0
 91
        2
 92
        7
 72
     1
 73
     1
 93
        9
 10
33.80206434755662
 20
59.36133812599999
 42
0.0
 10
32.83621914296641
 20
64.83891854213351
 42
0.4663076596643536
 10
31.77475682216818
 20
65.45175409527187
 42
0.0
 10
26.5481106265566
 20
63.54941041099999
 42
0.0
 10
22.28730936296683
 20
59.97417375166346
 42
0.466307661214623
 10
22.28730935680881
 20
58.74850263750367
 42
0.0
 10
26.53703874847429
 20
55.18053204751092
 42
0.0
 10
31.77475682588892
 20
53.2709222873739
 42
0.4663076581579261
 10
32.83621914296641
 20
53.88375784186645
 42
0.0
 97
        0
 92
       22
 72
     1
 73
     1
 93
        2
 10
26.26609510855668
 20
59.361338192
 42
-0.9999999999999999
 10
31.26609510855668
 20
59.361338192
 42
-0.9999999999999999
 97
        0
 75
     0
 76
     1
 52
90.0
 41
5.0
 77
     0
 78
     2
 53
135.0
 43
-355.7458725865425
 44
-8.058174994884077
 45
-0.4419417382415922
 46
-0.4419417382415922
 79
     0
 53
225.0
 43
-355.7458725865425
 44
-8.058174994884077
 45
0.4419417382415922
 46
-0.4419417382415923
 79
     0
 47
0.0
 98
        2
 10
32.99599635396459
 20
62.50401549911246
 10
32.99599635396459
 20
62.50401549911246
1001
ACAD
1010
0.0
1020
0.0
1030
0.0
1001
PE_URL
1000

  0
LINE
  5
2C8
330
1D
100
AcDbEntity
  8
NOCUT
100
AcDbLine
 10
32.41571339655669
 20
53.070369618
 30
0.0
 11
32.31343485255669
 21
53.265218133
 31
0.0
  0
LINE
  5
2C9
330
1D
100
AcDbEntity
  8
NOCUT
100
AcDbLine
 10
32.31343485255669
 20
53.265218133
 30
0.0
 11
32.30972155355668
 21
53.266570414
 31
0.0
  0
LINE
  5
2CA
330
1D
100
AcDbEntity
  8
NOCUT
100
AcDbLine
 10
32.30972155355668
 20
53.266570414
 30
0.0
 11
33.44443496322202
 21
59.35820814132599
 31
0.0
  0
LINE
  5
2CB
330
1D
100
AcDbEntity
  8
NOCUT
100
AcDbLine
 10
33.44443496322202
 20
59.35820814132599
 30
0.0
 11
32.45618820746846
 21
64.64527801773292
 31
0.0
  0
LINE
  5
2CC
330
1D
100
AcDbEntity
  8
NOCUT
100
AcDbLine
 10
32.45618820746846
 20
64.64527801773292
 30
0.0
 11
32.13448020966465
 21
65.03132761509748
 31
0.0
  0
LINE
  5
2CD
330
1D
100
AcDbEntity
  8
NOCUT
100
AcDbLine
 10
32.13448020966465
 20
65.03132761509748
 30
0.0
 11
31.5554058136178
 21
65.03132761509748
 31
0.0
  0
LINE
  5
2CE
330
1D
100
AcDbEntity
  8
NOCUT
100
AcDbLine
 10
31.5554058136178
 20
65.03132761509748
 30
0.0
 11
26.71048336669246
 21
63.33270938669338
 31
0.0
  0
LINE
  5
2CF
330
1D
100
AcDbEntity
  8
NOCUT
100
AcDbLine
 10
26.71048336669246
 20
63.33270938669338
 30
0.0
 11
25.90750020417417
 21
62.71503003091007
 31
0.0
  0
LINE
  5
2D0
330
1D
100
AcDbEntity
  8
NOCUT
100
AcDbLine
 10
25.90750020417417
 20
62.71503003091007
 30
0.0
 11
25.70123432955669
 21
62.838796502
 31
0.0
  0
LINE
  5
2D1
330
1D
100
AcDbEntity
  8
NOCUT
100
AcDbLine
 10
25.51588809955669
 20
63.059682934
 30
0.0
 11
25.70123432955669
 21
62.838796502
 31
0.0
  0
LINE
  5
2F5
330
1D
100
AcDbEntity
  8
NOCUT
100
AcDbLine
 10
0.0
 20
0.0
 30
0.0
 11
0.0000000000000027
 21
44.499999402
 31
0.0
  0
LINE
  5
2F6
330
1D
100
AcDbEntity
  8
NOCUT
100
AcDbLine
 10
0.0000000000000027
 20
44.499999402
 30
0.0
 11
0.6136363745566871
 21
44.499999402
 31
0.0
  0
LINE
  5
2F7
330
1D
100
AcDbEntity
  8
NOCUT
100
AcDbLine
 10
28.79458751155669
 20
0.0
 30
0.0
 11
28.77738441155669
 21
0.029793499
 31
0.0
  0
LINE
  5
2FE
330
1D
100
AcDbEntity
  8
4
100
AcDbLine
 10
38.50299108555669
 20
0.0
 30
0.0
 11
0.0
 21
0.0
 31
0.0
  0
ENDSEC
  0
SECTION
  2
OBJECTS
  0
DICTIONARY
  5
C
330
0
100
AcDbDictionary
281
     1
  3
ACAD_DETAILVIEWSTYLE
350
235
  3
ACAD_GROUP
350
D
  3
ACAD_LAYOUT
350
1A
  3
ACAD_MLINESTYLE
350
17
  3
ACAD_PLOTSETTINGS
350
19
  3
ACAD_PLOTSTYLENAME
350
E
  3
ACAD_SCALELIST
350
170
  3
ACAD_SECTIONVIEWSTYLE
350
236
  3
AcDbVariableDictionary
350
1B2
  3
APPDATA
350
200
  3
DWGPROPS
350
305
  0
DICTIONARY
  5
201
330
2
100
AcDbDictionary
280
     1
281
     1
  3
ACAD_LAYERSTATES
360
202
  0
DICTIONARY
  5
29E
330
1D
100
AcDbDictionary
280
     1
281
     1
  3
ACAD_SORTENTS
360
2AF
  0
DICTIONARY
  5
235
102
{ACAD_REACTORS
330
C
102
}
330
C
100
AcDbDictionary
281
     1
  0
DICTIONARY
  5
D
102
{ACAD_REACTORS
330
C
102
}
330
C
100
AcDbDictionary
281
     1
  0
DICTIONARY
  5
1A
102
{ACAD_REACTORS
330
C
102
}
330
C
100
AcDbDictionary
281
     1
  3
Layout1
350
1C
  3
Model
350
1E
  0
DICTIONARY
  5
17
102
{ACAD_REACTORS
330
C
102
}
330
C
100
AcDbDictionary
281
     1
  3
Standard
350
18
  0
DICTIONARY
  5
19
102
{ACAD_REACTORS
330
C
102
}
330
C
100
AcDbDictionary
281
     1
  0
ACDBDICTIONARYWDFLT
  5
E
102
{ACAD_REACTORS
330
C
102
}
330
C
100
AcDbDictionary
281
     1
  3
Normal
350
F
100
AcDbDictionaryWithDefault
340
F
  0
DICTIONARY
  5
170
102
{ACAD_REACTORS
330
C
102
}
330
C
100
AcDbDictionary
281
     1
  3
A0
350
171
  3
A1
350
172
  3
A2
350
173
  3
A3
350
174
  3
A4
350
175
  3
A5
350
176
  3
A6
350
177
  3
A7
350
178
  3
A8
350
179
  3
A9
350
17A
  3
B0
350
17B
  3
B1
350
17C
  3
B2
350
17D
  3
B3
350
17E
  3
B4
350
17F
  3
B5
350
180
  3
B6
350
181
  3
B7
350
182
  3
B8
350
183
  3
B9
350
184
  3
C0
350
185
  3
C1
350
186
  3
C2
350
187
  3
C3
350
188
  3
C4
350
189
  3
C5
350
18A
  3
C6
350
18B
  3
C7
350
18C
  3
C8
350
18D
  3
C9
350
18E
  3
D0
350
18F
  3
D1
350
190
  3
D2
350
191
  0
DICTIONARY
  5
236
102
{ACAD_REACTORS
330
C
102
}
330
C
100
AcDbDictionary
281
     1
  0
DICTIONARY
  5
1B2
102
{ACAD_REACTORS
330
C
102
}
330
C
100
AcDbDictionary
281
     1
  3
DIMASSOC
350
1B6
  3
HIDETEXT
350
1B7
  0
DICTIONARY
  5
200
102
{ACAD_REACTORS
330
C
102
}
330
C
100
AcDbDictionary
281
     1
  0
XRECORD
  5
305
102
{ACAD_REACTORS
330
C
102
}
330
C
100
AcDbXrecord
280
     1
  1
DWGPROPS COOKIE
  2

  3

  4

  6

  7

  8
matthias.ochs
  9

300
=
301
=
302
=
303
=
304
=
305
=
306
=
307
=
308
=
309
=
 40
0.0
 41
2458327.466220938
 42
2458684.616029224
  1

 90
        0
  0
DICTIONARY
  5
202
102
{ACAD_REACTORS
330
201
102
}
330
201
100
AcDbDictionary
281
     1
  0
SORTENTSTABLE
  5
2AF
102
{ACAD_REACTORS
330
29E
102
}
330
29E
100
AcDbSortentsTable
330
1D
331
2A2
  5
2A4
331
2A3
  5
2A5
331
2A4
  5
2A6
331
2A5
  5
2A7
331
2A6
  5
2A8
331
2A7
  5
2A9
331
2A8
  5
2AA
331
2A9
  5
2AB
331
2AA
  5
2AE
331
2AB
  5
2B0
331
0
  5
2A2
331
2B0
  5
2A3
  0
LAYOUT
  5
1C
102
{ACAD_REACTORS
330
1A
102
}
330
1A
100
AcDbPlotSettings
  1

  2
none_device
  4

  6

 40
0.0
 41
0.0
 42
0.0
 43
0.0
 44
0.0
 45
0.0
 46
0.0
 47
0.0
 48
0.0
 49
0.0
140
0.0
141
0.0
142
1.0
143
1.0
 70
   688
 72
     0
 73
     0
 74
     5
  7

 75
    16
147
1.0
148
0.0
149
0.0
100
AcDbLayout
  1
Layout1
 70
     1
 71
     1
 10
0.0
 20
0.0
 11
12.0
 21
9.0
 12
0.0
 22
0.0
 32
0.0
 14
1.000000000000000E+20
 24
1.000000000000000E+20
 34
1.000000000000000E+20
 15
-1.000000000000000E+20
 25
-1.000000000000000E+20
 35
-1.000000000000000E+20
146
0.0
 13
0.0
 23
0.0
 33
0.0
 16
1.0
 26
0.0
 36
0.0
 17
0.0
 27
1.0
 37
0.0
 76
     0
330
1B
  0
LAYOUT
  5
1E
102
{ACAD_REACTORS
330
1A
102
}
330
1A
100
AcDbPlotSettings
  1

  2
none_device
  4

  6

 40
0.0
 41
0.0
 42
0.0
 43
0.0
 44
0.0
 45
0.0
 46
0.0
 47
0.0
 48
0.0
 49
0.0
140
0.0
141
0.0
142
1.0
143
1.0
 70
  1712
 72
     0
 73
     0
 74
     0
  7

 75
     0
147
1.0
148
0.0
149
0.0
100
AcDbLayout
  1
Model
 70
     1
 71
     0
 10
0.0
 20
0.0
 11
12.0
 21
9.0
 12
0.0
 22
0.0
 32
0.0
 14
-28.21301236865692
 24
-91.33999132500477
 34
0.0
 15
87.36071684195593
 25
104.6964607537565
 35
0.0
146
0.0
 13
0.0
 23
0.0
 33
0.0
 16
1.0
 26
0.0
 36
0.0
 17
0.0
 27
1.0
 37
0.0
 76
     0
330
1D
331
16A
  0
MLINESTYLE
  5
18
102
{ACAD_REACTORS
330
17
102
}
330
17
100
AcDbMlineStyle
  2
Standard
 70
     0
  3

 62
   256
 51
90.0
 52
90.0
 71
     2
 49
0.5
 62
   256
  6
BYLAYER
 49
-0.5
 62
   256
  6
BYLAYER
  0
ACDBPLACEHOLDER
  5
F
102
{ACAD_REACTORS
330
E
102
}
330
E
  0
SCALE
  5
171
102
{ACAD_REACTORS
330
170
102
}
330
170
100
AcDbScale
 70
     0
300
1:1
140
1.0
141
1.0
290
     1
  0
SCALE
  5
172
102
{ACAD_REACTORS
330
170
102
}
330
170
100
AcDbScale
 70
     0
300
1:2
140
1.0
141
2.0
290
     0
  0
SCALE
  5
173
102
{ACAD_REACTORS
330
170
102
}
330
170
100
AcDbScale
 70
     0
300
1:4
140
1.0
141
4.0
290
     0
  0
SCALE
  5
174
102
{ACAD_REACTORS
330
170
102
}
330
170
100
AcDbScale
 70
     0
300
1:5
140
1.0
141
5.0
290
     0
  0
SCALE
  5
175
102
{ACAD_REACTORS
330
170
102
}
330
170
100
AcDbScale
 70
     0
300
1:8
140
1.0
141
8.0
290
     0
  0
SCALE
  5
176
102
{ACAD_REACTORS
330
170
102
}
330
170
100
AcDbScale
 70
     0
300
1:10
140
1.0
141
10.0
290
     0
  0
SCALE
  5
177
102
{ACAD_REACTORS
330
170
102
}
330
170
100
AcDbScale
 70
     0
300
1:16
140
1.0
141
16.0
290
     0
  0
SCALE
  5
178
102
{ACAD_REACTORS
330
170
102
}
330
170
100
AcDbScale
 70
     0
300
1:20
140
1.0
141
20.0
290
     0
  0
SCALE
  5
179
102
{ACAD_REACTORS
330
170
102
}
330
170
100
AcDbScale
 70
     0
300
1:30
140
1.0
141
30.0
290
     0
  0
SCALE
  5
17A
102
{ACAD_REACTORS
330
170
102
}
330
170
100
AcDbScale
 70
     0
300
1:40
140
1.0
141
40.0
290
     0
  0
SCALE
  5
17B
102
{ACAD_REACTORS
330
170
102
}
330
170
100
AcDbScale
 70
     0
300
1:50
140
1.0
141
50.0
290
     0
  0
SCALE
  5
17C
102
{ACAD_REACTORS
330
170
102
}
330
170
100
AcDbScale
 70
     0
300
1:100
140
1.0
141
100.0
290
     0
  0
SCALE
  5
17D
102
{ACAD_REACTORS
330
170
102
}
330
170
100
AcDbScale
 70
     0
300
2:1
140
2.0
141
1.0
290
     0
  0
SCALE
  5
17E
102
{ACAD_REACTORS
330
170
102
}
330
170
100
AcDbScale
 70
     0
300
4:1
140
4.0
141
1.0
290
     0
  0
SCALE
  5
17F
102
{ACAD_REACTORS
330
170
102
}
330
170
100
AcDbScale
 70
     0
300
8:1
140
8.0
141
1.0
290
     0
  0
SCALE
  5
180
102
{ACAD_REACTORS
330
170
102
}
330
170
100
AcDbScale
 70
     0
300
10:1
140
10.0
141
1.0
290
     0
  0
SCALE
  5
181
102
{ACAD_REACTORS
330
170
102
}
330
170
100
AcDbScale
 70
     0
300
100:1
140
100.0
141
1.0
290
     0
  0
SCALE
  5
182
102
{ACAD_REACTORS
330
170
102
}
330
170
100
AcDbScale
 70
     0
300
1/128" = 1'-0"
140
0.0078125
141
12.0
290
     0
  0
SCALE
  5
183
102
{ACAD_REACTORS
330
170
102
}
330
170
100
AcDbScale
 70
     0
300
1/64" = 1'-0"
140
0.015625
141
12.0
290
     0
  0
SCALE
  5
184
102
{ACAD_REACTORS
330
170
102
}
330
170
100
AcDbScale
 70
     0
300
1/32" = 1'-0"
140
0.03125
141
12.0
290
     0
  0
SCALE
  5
185
102
{ACAD_REACTORS
330
170
102
}
330
170
100
AcDbScale
 70
     0
300
1/16" = 1'-0"
140
0.0625
141
12.0
290
     0
  0
SCALE
  5
186
102
{ACAD_REACTORS
330
170
102
}
330
170
100
AcDbScale
 70
     0
300
3/32" = 1'-0"
140
0.09375
141
12.0
290
     0
  0
SCALE
  5
187
102
{ACAD_REACTORS
330
170
102
}
330
170
100
AcDbScale
 70
     0
300
1/8" = 1'-0"
140
0.125
141
12.0
290
     0
  0
SCALE
  5
188
102
{ACAD_REACTORS
330
170
102
}
330
170
100
AcDbScale
 70
     0
300
3/16" = 1'-0"
140
0.1875
141
12.0
290
     0
  0
SCALE
  5
189
102
{ACAD_REACTORS
330
170
102
}
330
170
100
AcDbScale
 70
     0
300
1/4" = 1'-0"
140
0.25
141
12.0
290
     0
  0
SCALE
  5
18A
102
{ACAD_REACTORS
330
170
102
}
330
170
100
AcDbScale
 70
     0
300
3/8" = 1'-0"
140
0.375
141
12.0
290
     0
  0
SCALE
  5
18B
102
{ACAD_REACTORS
330
170
102
}
330
170
100
AcDbScale
 70
     0
300
1/2" = 1'-0"
140
0.5
141
12.0
290
     0
  0
SCALE
  5
18C
102
{ACAD_REACTORS
330
170
102
}
330
170
100
AcDbScale
 70
     0
300
3/4" = 1'-0"
140
0.75
141
12.0
290
     0
  0
SCALE
  5
18D
102
{ACAD_REACTORS
330
170
102
}
330
170
100
AcDbScale
 70
     0
300
1" = 1'-0"
140
1.0
141
12.0
290
     0
  0
SCALE
  5
18E
102
{ACAD_REACTORS
330
170
102
}
330
170
100
AcDbScale
 70
     0
300
1-1/2" = 1'-0"
140
1.5
141
12.0
290
     0
  0
SCALE
  5
18F
102
{ACAD_REACTORS
330
170
102
}
330
170
100
AcDbScale
 70
     0
300
3" = 1'-0"
140
3.0
141
12.0
290
     0
  0
SCALE
  5
190
102
{ACAD_REACTORS
330
170
102
}
330
170
100
AcDbScale
 70
     0
300
6" = 1'-0"
140
6.0
141
12.0
290
     0
  0
SCALE
  5
191
102
{ACAD_REACTORS
330
170
102
}
330
170
100
AcDbScale
 70
     0
300
1'-0" = 1'-0"
140
12.0
141
12.0
290
     0
  0
DICTIONARYVAR
  5
1B6
102
{ACAD_REACTORS
330
1B2
102
}
330
1B2
100
DictionaryVariables
280
     0
  1
2
  0
DICTIONARYVAR
  5
1B7
102
{ACAD_REACTORS
330
1B2
102
}
330
1B2
100
DictionaryVariables
280
     0
  1
1
  0
ENDSEC
  0
EOF
