  0
SECTION
  2
HEADER
  9
$ACADVER
  1
AC1027
  9
$ACADMAINTVER
 70
   105
  9
$DWGCODEPAGE
  3
ANSI_1252
  9
$REQUIREDVERSIONS
160
                 0
  9
$LASTSAVEDBY
  1
matthias.ochs
  9
$INSBASE
 10
0.0
 20
0.0
 30
0.0
  9
$EXTMIN
 10
-25.31136547933048
 20
-44.20168562449065
 30
0.0
  9
$EXTMAX
 10
41.80215277741254
 20
51.37515510721045
 30
0.0
  9
$LIMMIN
 10
-63.881835356
 20
-25.115
  9
$LIMMAX
 10
74.862980859
 20
37.615000031
  9
$ORTHOMODE
 70
     0
  9
$REGENMODE
 70
     1
  9
$FILLMODE
 70
     1
  9
$QTEXTMODE
 70
     0
  9
$MIRRTEXT
 70
     1
  9
$LTSCALE
 40
1.0
  9
$ATTMODE
 70
     1
  9
$TEXTSIZE
 40
0.2
  9
$TRACEWID
 40
0.05
  9
$TEXTSTYLE
  7
Standard
  9
$CLAYER
  8
SK2
  9
$CELTYPE
  6
ByLayer
  9
$CECOLOR
 62
   256
  9
$CELTSCALE
 40
1.0
  9
$DISPSILH
 70
     0
  9
$DIMSCALE
 40
1.0
  9
$DIMASZ
 40
0.18
  9
$DIMEXO
 40
0.0625
  9
$DIMDLI
 40
0.38
  9
$DIMRND
 40
0.0
  9
$DIMDLE
 40
0.0
  9
$DIMEXE
 40
0.18
  9
$DIMTP
 40
0.0
  9
$DIMTM
 40
0.0
  9
$DIMTXT
 40
0.18
  9
$DIMCEN
 40
0.09
  9
$DIMTSZ
 40
0.0
  9
$DIMTOL
 70
     0
  9
$DIMLIM
 70
     0
  9
$DIMTIH
 70
     1
  9
$DIMTOH
 70
     1
  9
$DIMSE1
 70
     0
  9
$DIMSE2
 70
     0
  9
$DIMTAD
 70
     0
  9
$DIMZIN
 70
     0
  9
$DIMBLK
  1

  9
$DIMASO
 70
     1
  9
$DIMSHO
 70
     1
  9
$DIMPOST
  1

  9
$DIMAPOST
  1

  9
$DIMALT
 70
     0
  9
$DIMALTD
 70
     2
  9
$DIMALTF
 40
25.4
  9
$DIMLFAC
 40
1.0
  9
$DIMTOFL
 70
     0
  9
$DIMTVP
 40
0.0
  9
$DIMTIX
 70
     0
  9
$DIMSOXD
 70
     0
  9
$DIMSAH
 70
     0
  9
$DIMBLK1
  1

  9
$DIMBLK2
  1

  9
$DIMSTYLE
  2
Standard
  9
$DIMCLRD
 70
     0
  9
$DIMCLRE
 70
     0
  9
$DIMCLRT
 70
     0
  9
$DIMTFAC
 40
1.0
  9
$DIMGAP
 40
0.09
  9
$DIMJUST
 70
     0
  9
$DIMSD1
 70
     0
  9
$DIMSD2
 70
     0
  9
$DIMTOLJ
 70
     1
  9
$DIMTZIN
 70
     0
  9
$DIMALTZ
 70
     0
  9
$DIMALTTZ
 70
     0
  9
$DIMUPT
 70
     0
  9
$DIMDEC
 70
     4
  9
$DIMTDEC
 70
     4
  9
$DIMALTU
 70
     2
  9
$DIMALTTD
 70
     2
  9
$DIMTXSTY
  7
Standard
  9
$DIMAUNIT
 70
     0
  9
$DIMADEC
 70
     0
  9
$DIMALTRND
 40
0.0
  9
$DIMAZIN
 70
     0
  9
$DIMDSEP
 70
    46
  9
$DIMATFIT
 70
     3
  9
$DIMFRAC
 70
     0
  9
$DIMLDRBLK
  1

  9
$DIMLUNIT
 70
     2
  9
$DIMLWD
 70
    -2
  9
$DIMLWE
 70
    -2
  9
$DIMTMOVE
 70
     2
  9
$DIMFXL
 40
1.0
  9
$DIMFXLON
 70
     0
  9
$DIMJOGANG
 40
0.7853981633974483
  9
$DIMTFILL
 70
     0
  9
$DIMTFILLCLR
 70
     0
  9
$DIMARCSYM
 70
     0
  9
$DIMLTYPE
  6

  9
$DIMLTEX1
  6

  9
$DIMLTEX2
  6

  9
$DIMTXTDIRECTION
 70
     0
  9
$LUNITS
 70
     2
  9
$LUPREC
 70
     4
  9
$SKETCHINC
 40
0.1
  9
$FILLETRAD
 40
0.5
  9
$AUNITS
 70
     2
  9
$AUPREC
 70
     0
  9
$MENU
  1
.
  9
$ELEVATION
 40
0.0
  9
$PELEVATION
 40
0.0
  9
$THICKNESS
 40
0.0
  9
$LIMCHECK
 70
     0
  9
$CHAMFERA
 40
0.5
  9
$CHAMFERB
 40
0.5
  9
$CHAMFERC
 40
1.0
  9
$CHAMFERD
 40
0.0
  9
$SKPOLY
 70
     0
  9
$TDCREATE
 40
2458327.549551412
  9
$TDUCREATE
 40
2458327.466218079
  9
$TDUPDATE
 40
2458695.366409676
  9
$TDUUPDATE
 40
2458695.283076343
  9
$TDINDWG
 40
0.0091089815
  9
$TDUSRTIMER
 40
0.0183751389
  9
$USRTIMER
 70
     1
  9
$ANGBASE
 50
0.0
  9
$ANGDIR
 70
     0
  9
$PDMODE
 70
     0
  9
$PDSIZE
 40
0.0
  9
$PLINEWID
 40
0.0
  9
$SPLFRAME
 70
     0
  9
$SPLINETYPE
 70
     6
  9
$SPLINESEGS
 70
     8
  9
$HANDSEED
  5
37B
  9
$SURFTAB1
 70
     6
  9
$SURFTAB2
 70
     6
  9
$SURFTYPE
 70
     6
  9
$SURFU
 70
     6
  9
$SURFV
 70
     6
  9
$UCSBASE
  2

  9
$UCSNAME
  2

  9
$UCSORG
 10
0.0
 20
0.0
 30
0.0
  9
$UCSXDIR
 10
1.0
 20
0.0
 30
0.0
  9
$UCSYDIR
 10
0.0
 20
1.0
 30
0.0
  9
$UCSORTHOREF
  2

  9
$UCSORTHOVIEW
 70
     0
  9
$UCSORGTOP
 10
0.0
 20
0.0
 30
0.0
  9
$UCSORGBOTTOM
 10
0.0
 20
0.0
 30
0.0
  9
$UCSORGLEFT
 10
0.0
 20
0.0
 30
0.0
  9
$UCSORGRIGHT
 10
0.0
 20
0.0
 30
0.0
  9
$UCSORGFRONT
 10
0.0
 20
0.0
 30
0.0
  9
$UCSORGBACK
 10
0.0
 20
0.0
 30
0.0
  9
$PUCSBASE
  2

  9
$PUCSNAME
  2

  9
$PUCSORG
 10
0.0
 20
0.0
 30
0.0
  9
$PUCSXDIR
 10
1.0
 20
0.0
 30
0.0
  9
$PUCSYDIR
 10
0.0
 20
1.0
 30
0.0
  9
$PUCSORTHOREF
  2

  9
$PUCSORTHOVIEW
 70
     0
  9
$PUCSORGTOP
 10
0.0
 20
0.0
 30
0.0
  9
$PUCSORGBOTTOM
 10
0.0
 20
0.0
 30
0.0
  9
$PUCSORGLEFT
 10
0.0
 20
0.0
 30
0.0
  9
$PUCSORGRIGHT
 10
0.0
 20
0.0
 30
0.0
  9
$PUCSORGFRONT
 10
0.0
 20
0.0
 30
0.0
  9
$PUCSORGBACK
 10
0.0
 20
0.0
 30
0.0
  9
$USERI1
 70
     0
  9
$USERI2
 70
     0
  9
$USERI3
 70
     0
  9
$USERI4
 70
     0
  9
$USERI5
 70
     0
  9
$USERR1
 40
0.0
  9
$USERR2
 40
0.0
  9
$USERR3
 40
0.0
  9
$USERR4
 40
0.0
  9
$USERR5
 40
0.0
  9
$WORLDVIEW
 70
     1
  9
$SHADEDGE
 70
     3
  9
$SHADEDIF
 70
    70
  9
$TILEMODE
 70
     1
  9
$MAXACTVP
 70
    64
  9
$PINSBASE
 10
0.0
 20
0.0
 30
0.0
  9
$PLIMCHECK
 70
     0
  9
$PEXTMIN
 10
1.000000000000000E+20
 20
1.000000000000000E+20
 30
1.000000000000000E+20
  9
$PEXTMAX
 10
-1.000000000000000E+20
 20
-1.000000000000000E+20
 30
-1.000000000000000E+20
  9
$PLIMMIN
 10
0.0
 20
0.0
  9
$PLIMMAX
 10
0.0
 20
0.0
  9
$UNITMODE
 70
     0
  9
$VISRETAIN
 70
     1
  9
$PLINEGEN
 70
     0
  9
$PSLTSCALE
 70
     1
  9
$TREEDEPTH
 70
  3020
  9
$CMLSTYLE
  2
Standard
  9
$CMLJUST
 70
     0
  9
$CMLSCALE
 40
1.0
  9
$PROXYGRAPHICS
 70
     1
  9
$MEASUREMENT
 70
     0
  9
$CELWEIGHT
370
    -1
  9
$ENDCAPS
280
     0
  9
$JOINSTYLE
280
     0
  9
$LWDISPLAY
290
     0
  9
$INSUNITS
 70
     0
  9
$HYPERLINKBASE
  1

  9
$STYLESHEET
  1

  9
$XEDIT
290
     1
  9
$CEPSNTYPE
380
     0
  9
$PSTYLEMODE
290
     1
  9
$FINGERPRINTGUID
  2
{08D0DE1D-5907-4846-8FC6-8046B6C25FD0}
  9
$VERSIONGUID
  2
{FAEB1C32-E019-11D5-929B-00C0DF256EC4}
  9
$EXTNAMES
290
     1
  9
$PSVPSCALE
 40
0.0
  9
$OLESTARTUP
290
     0
  9
$SORTENTS
280
   127
  9
$INDEXCTL
280
     0
  9
$HIDETEXT
280
     1
  9
$XCLIPFRAME
280
     2
  9
$HALOGAP
280
     0
  9
$OBSCOLOR
 70
   257
  9
$OBSLTYPE
280
     0
  9
$INTERSECTIONDISPLAY
280
     0
  9
$INTERSECTIONCOLOR
 70
   257
  9
$DIMASSOC
280
     2
  9
$PROJECTNAME
  1

  9
$CAMERADISPLAY
290
     0
  9
$LENSLENGTH
 40
50.0
  9
$CAMERAHEIGHT
 40
0.0
  9
$STEPSPERSEC
 40
2.0
  9
$STEPSIZE
 40
6.0
  9
$3DDWFPREC
 40
2.0
  9
$PSOLWIDTH
 40
0.25
  9
$PSOLHEIGHT
 40
4.0
  9
$LOFTANG1
 40
1.570796326794897
  9
$LOFTANG2
 40
1.570796326794897
  9
$LOFTMAG1
 40
0.0
  9
$LOFTMAG2
 40
0.0
  9
$LOFTPARAM
 70
     7
  9
$LOFTNORMALS
280
     1
  9
$LATITUDE
 40
37.795
  9
$LONGITUDE
 40
-122.394
  9
$NORTHDIRECTION
 40
0.0
  9
$TIMEZONE
 70
 -8000
  9
$LIGHTGLYPHDISPLAY
280
     1
  9
$TILEMODELIGHTSYNCH
280
     1
  9
$SOLIDHIST
280
     0
  9
$SHOWHIST
280
     1
  9
$DWFFRAME
280
     2
  9
$DGNFRAME
280
     2
  9
$REALWORLDSCALE
290
     1
  9
$INTERFERECOLOR
 62
   256
  9
$CSHADOW
280
     0
  9
$SHADOWPLANELOCATION
 40
0.0
  0
ENDSEC
  0
SECTION
  2
CLASSES
  0
CLASS
  1
ACDBDICTIONARYWDFLT
  2
AcDbDictionaryWithDefault
  3
ObjectDBX Classes
 90
        0
 91
       13
280
     0
281
     0
  0
CLASS
  1
SCALE
  2
AcDbScale
  3
ObjectDBX Classes
 90
     1153
 91
       13
280
     0
281
     0
  0
CLASS
  1
VISUALSTYLE
  2
AcDbVisualStyle
  3
ObjectDBX Classes
 90
     4095
 91
       13
280
     0
281
     0
  0
CLASS
  1
MATERIAL
  2
AcDbMaterial
  3
ObjectDBX Classes
 90
     1153
 91
       13
280
     0
281
     0
  0
CLASS
  1
DICTIONARYVAR
  2
AcDbDictionaryVar
  3
ObjectDBX Classes
 90
        0
 91
       13
280
     0
281
     0
  0
CLASS
  1
ACDBPLACEHOLDER
  2
AcDbPlaceHolder
  3
ObjectDBX Classes
 90
        0
 91
        1
280
     0
281
     0
  0
CLASS
  1
LAYOUT
  2
AcDbLayout
  3
ObjectDBX Classes
 90
        0
 91
        1
280
     0
281
     0
  0
CLASS
  1
TABLESTYLE
  2
AcDbTableStyle
  3
ObjectDBX Classes
 90
     4095
 91
       13
280
     0
281
     0
  0
CLASS
  1
MLEADERSTYLE
  2
AcDbMLeaderStyle
  3
ACDB_MLEADERSTYLE_CLASS
 90
     4095
 91
       13
280
     0
281
     0
  0
CLASS
  1
SUN
  2
AcDbSun
  3
SCENEOE
 90
     1153
 91
       13
280
     0
281
     0
  0
CLASS
  1
SORTENTSTABLE
  2
AcDbSortentsTable
  3
ObjectDBX Classes
 90
        0
 91
       12
280
     0
281
     0
  0
CLASS
  1
CELLSTYLEMAP
  2
AcDbCellStyleMap
  3
ObjectDBX Classes
 90
     1152
 91
        7
280
     0
281
     0
  0
ENDSEC
  0
SECTION
  2
TABLES
  0
TABLE
  2
VPORT
  5
8
330
0
100
AcDbSymbolTable
 70
     1
  0
VPORT
  5
1FF
330
8
100
AcDbSymbolTableRecord
100
AcDbViewportTableRecord
  2
*Active
 70
     0
 10
0.0
 20
0.0
 11
1.0
 21
1.0
 12
2.59956070753741
 22
35.46903057691476
 13
0.0
 23
0.0
 14
0.5
 24
0.5
 15
0.5
 25
0.5
 16
0.0
 26
0.0
 36
1.0
 17
0.0
 27
0.0
 37
0.0
 40
253.632433645649
 41
1.831002331002331
 42
50.0
 43
0.0
 44
0.0
 50
0.0
 51
0.0
 71
    16
 72
   100
 73
     1
 74
     3
 75
     1
 76
     0
 77
     0
 78
     0
281
     0
 65
     1
110
0.0
120
0.0
130
0.0
111
1.0
121
0.0
131
0.0
112
0.0
122
1.0
132
0.0
 79
     0
146
0.0
348
230
 60
     3
 61
     5
292
     1
282
     1
141
0.0
142
0.0
 63
   256
361
2CD
  0
ENDTAB
  0
TABLE
  2
LTYPE
  5
5
330
0
100
AcDbSymbolTable
 70
     8
  0
LTYPE
  5
14
330
5
100
AcDbSymbolTableRecord
100
AcDbLinetypeTableRecord
  2
ByBlock
 70
     0
  3

 72
    65
 73
     0
 40
0.0
  0
LTYPE
  5
15
330
5
100
AcDbSymbolTableRecord
100
AcDbLinetypeTableRecord
  2
ByLayer
 70
     0
  3

 72
    65
 73
     0
 40
0.0
  0
LTYPE
  5
16
330
5
100
AcDbSymbolTableRecord
100
AcDbLinetypeTableRecord
  2
Continuous
 70
     0
  3
Solid line
 72
    65
 73
     0
 40
0.0
  0
LTYPE
  5
20
330
5
100
AcDbSymbolTableRecord
100
AcDbLinetypeTableRecord
  2
PUNKT
 70
     0
  3
..............
 72
    65
 73
     2
 40
1.5
 49
0.7
 74
     0
 49
-0.8
 74
     0
  0
LTYPE
  5
21
330
5
100
AcDbSymbolTableRecord
100
AcDbLinetypeTableRecord
  2
GESTRICHELT
 70
     0
  3
-- -- -- -- --
 72
    65
 73
     7
 40
2.8
 49
0.9
 74
     0
 49
0.0
 74
     0
 49
0.9
 74
     0
 49
0.0
 74
     0
 49
0.2
 74
     0
 49
0.0
 74
     0
 49
-0.8
 74
     0
  0
LTYPE
  5
22
330
5
100
AcDbSymbolTableRecord
100
AcDbLinetypeTableRecord
  2
STRICHPUNKT
 70
     0
  3
--.--.--.--.--
 72
    65
 73
     4
 40
8.8
 49
5.5
 74
     0
 49
-1.3
 74
     0
 49
0.7
 74
     0
 49
-1.3
 74
     0
  0
LTYPE
  5
25
330
5
100
AcDbSymbolTableRecord
100
AcDbLinetypeTableRecord
  2
PHANTOM
 70
     0
  3
--..--..--..--
 72
    65
 73
     6
 40
14.2
 49
7.0
 74
     0
 49
-1.8
 74
     0
 49
0.9
 74
     0
 49
-1.8
 74
     0
 49
0.9
 74
     0
 49
-1.8
 74
     0
  0
LTYPE
  5
277
330
5
100
AcDbSymbolTableRecord
100
AcDbLinetypeTableRecord
  2
DASH
 70
     0
  3
DASH _ _ _ _ _
 72
    65
 73
     2
 40
0.75
 49
0.4
 74
     0
 49
-0.35
 74
     0
  0
LTYPE
  5
278
330
5
100
AcDbSymbolTableRecord
100
AcDbLinetypeTableRecord
  2
LONGDASH_DASH
 70
     0
  3
LONGDASH_DASH __ . __ . __
 72
    65
 73
     4
 40
0.85
 49
0.4
 74
     0
 49
-0.2
 74
     0
 49
0.05
 74
     0
 49
-0.2
 74
     0
  0
LTYPE
  5
279
330
5
100
AcDbSymbolTableRecord
100
AcDbLinetypeTableRecord
  2
LONGDASH_DASH_DASH
 70
     0
  3
LONGDASH_DASH_DASH __ . . __ . . __
 72
    65
 73
     6
 40
1.1
 49
0.4
 74
     0
 49
-0.2
 74
     0
 49
0.05
 74
     0
 49
-0.2
 74
     0
 49
0.05
 74
     0
 49
-0.2
 74
     0
  0
ENDTAB
  0
TABLE
  2
LAYER
  5
2
102
{ACAD_XDICTIONARY
360
29B
102
}
330
0
100
AcDbSymbolTable
 70
    16
  0
LAYER
  5
241
330
2
100
AcDbSymbolTableRecord
100
AcDbLayerTableRecord
  2
200
 70
     0
 62
     2
  6
Continuous
370
    50
390
F
347
23F
348
0
  0
LAYER
  5
27A
330
2
100
AcDbSymbolTableRecord
100
AcDbLayerTableRecord
  2
0
 70
     0
 62
     1
  6
Continuous
370
    -3
390
F
347
23F
348
0
  0
LAYER
  5
27B
330
2
100
AcDbSymbolTableRecord
100
AcDbLayerTableRecord
  2
1
 70
     0
 62
     4
  6
Continuous
370
    50
390
F
347
23F
348
0
  0
LAYER
  5
27C
330
2
100
AcDbSymbolTableRecord
100
AcDbLayerTableRecord
  2
2
 70
     0
 62
     7
  6
Continuous
370
    25
390
F
347
23F
348
0
  0
LAYER
  5
27D
330
2
100
AcDbSymbolTableRecord
100
AcDbLayerTableRecord
  2
3
 70
     0
 62
     1
  6
DASH
370
    35
390
F
347
23F
348
0
  0
LAYER
  5
27E
330
2
100
AcDbSymbolTableRecord
100
AcDbLayerTableRecord
  2
4
 70
     0
 62
     2
  6
LONGDASH_DASH
370
    25
390
F
347
23F
348
0
  0
LAYER
  5
27F
330
2
100
AcDbSymbolTableRecord
100
AcDbLayerTableRecord
  2
6
 70
     0
 62
     5
  6
Continuous
370
    -3
390
F
347
23F
348
0
  0
LAYER
  5
280
330
2
100
AcDbSymbolTableRecord
100
AcDbLayerTableRecord
  2
CUT
 70
     0
 62
     1
  6
Continuous
370
    25
390
F
347
23F
348
0
  0
LAYER
  5
281
330
2
100
AcDbSymbolTableRecord
100
AcDbLayerTableRecord
  2
NOCUT
 70
     0
 62
     7
  6
Continuous
370
    25
390
F
347
23F
348
0
  0
LAYER
  5
282
330
2
100
AcDbSymbolTableRecord
100
AcDbLayerTableRecord
  2
SK1
 70
     0
 62
     4
  6
Continuous
370
    50
390
F
347
23F
348
0
  0
LAYER
  5
283
330
2
100
AcDbSymbolTableRecord
100
AcDbLayerTableRecord
  2
SK2
 70
     0
 62
     7
  6
Continuous
370
    25
390
F
347
23F
348
0
  0
LAYER
  5
284
330
2
100
AcDbSymbolTableRecord
100
AcDbLayerTableRecord
  2
SK3
 70
     0
 62
     1
  6
DASH
370
    35
390
F
347
23F
348
0
  0
LAYER
  5
285
330
2
100
AcDbSymbolTableRecord
100
AcDbLayerTableRecord
  2
SK4
 70
     0
 62
     2
  6
LONGDASH_DASH
370
    25
390
F
347
23F
348
0
  0
LAYER
  5
286
330
2
100
AcDbSymbolTableRecord
100
AcDbLayerTableRecord
  2
SK6
 70
     0
 62
     5
  6
Continuous
370
    -3
390
F
347
23F
348
0
  0
LAYER
  5
287
330
2
100
AcDbSymbolTableRecord
100
AcDbLayerTableRecord
  2
INFTOTAL
 70
     0
 62
     9
  6
Continuous
370
    18
390
F
347
23F
348
0
  0
LAYER
  5
30A
330
2
100
AcDbSymbolTableRecord
100
AcDbLayerTableRecord
  2
7
 70
     0
 62
     5
  6
Continuous
370
    18
390
F
347
23F
348
0
1001
AcAecLayerStandard
1000

1000

  0
ENDTAB
  0
TABLE
  2
STYLE
  5
3
330
0
100
AcDbSymbolTable
 70
     3
  0
STYLE
  5
11
330
3
100
AcDbSymbolTableRecord
100
AcDbTextStyleTableRecord
  2
Standard
 70
     0
 40
0.0
 41
1.0
 50
0.0
 71
     0
 42
0.2
  3
txt
  4

  0
STYLE
  5
240
330
3
100
AcDbSymbolTableRecord
100
AcDbTextStyleTableRecord
  2
BMG_Text
 70
     0
 40
3.5
 41
1.0
 50
0.0
 71
     0
 42
0.2
  3
monos.ttf
  4

1001
ACAD
1000
Monospac821 BT
1071
       49
  0
STYLE
  5
310
330
3
100
AcDbSymbolTableRecord
100
AcDbTextStyleTableRecord
  2
SLDTEXTSTYLE0
 70
     0
 40
0.0
 41
0.605
 50
0.0
 71
     0
 42
0.2
  3
TXT
  4

  0
ENDTAB
  0
TABLE
  2
VIEW
  5
6
330
0
100
AcDbSymbolTable
 70
     0
  0
ENDTAB
  0
TABLE
  2
UCS
  5
7
330
0
100
AcDbSymbolTable
 70
     0
  0
ENDTAB
  0
TABLE
  2
APPID
  5
9
330
0
100
AcDbSymbolTable
 70
     3
  0
APPID
  5
12
330
9
100
AcDbSymbolTableRecord
100
AcDbRegAppTableRecord
  2
ACAD
 70
     0
  0
APPID
  5
30B
330
9
100
AcDbSymbolTableRecord
100
AcDbRegAppTableRecord
  2
AcAecLayerStandard
 70
     0
  0
APPID
  5
313
330
9
100
AcDbSymbolTableRecord
100
AcDbRegAppTableRecord
  2
PE_URL
 70
     0
  0
ENDTAB
  0
TABLE
  2
DIMSTYLE
  5
A
330
0
100
AcDbSymbolTable
 70
     6
100
AcDbDimStyleTable
  0
DIMSTYLE
105
28
330
A
100
AcDbSymbolTableRecord
100
AcDbDimStyleTableRecord
  2
Standard
 70
     0
178
     0
340
11
  0
DIMSTYLE
105
30C
330
A
100
AcDbSymbolTableRecord
100
AcDbDimStyleTableRecord
  2
Matthias
 70
     0
 41
3.0
 44
2.0
 73
     0
 77
     1
140
3.0
147
2.0
178
     0
340
11
  0
DIMSTYLE
105
30E
102
{ACAD_REACTORS
102
}
330
A
100
AcDbSymbolTableRecord
100
AcDbDimStyleTableRecord
  2
ISO-25
 70
     0
 41
2.5
 42
0.625
 43
3.75
 44
1.25
 73
     0
 74
     0
 77
     1
 78
     8
140
2.5
141
2.5
143
0.0393700787
147
0.625
171
     3
172
     1
178
     0
271
     2
272
     2
274
     3
278
    44
283
     0
284
     8
340
11
  0
DIMSTYLE
105
30F
330
A
100
AcDbSymbolTableRecord
100
AcDbDimStyleTableRecord
  2
SLDDIMSTYLE0
 70
     0
 41
3.5
 44
0.0
 45
0.000000001
 73
     0
 74
     0
 77
     1
 78
    12
 79
     3
140
3.5
144
0.5
147
0.875
173
     1
178
     0
271
     2
272
     1
276
     2
284
    12
340
310
  0
DIMSTYLE
105
311
330
A
100
AcDbSymbolTableRecord
100
AcDbDimStyleTableRecord
  2
SLDDIMSTYLE1
 70
     0
 41
3.5
 44
0.0
 45
0.000000001
 73
     0
 74
     0
 77
     1
 78
    12
 79
     3
140
3.5
144
0.5
147
0.875
173
     1
178
     0
271
     2
272
     3
276
     2
284
    12
340
310
  0
DIMSTYLE
105
312
330
A
100
AcDbSymbolTableRecord
100
AcDbDimStyleTableRecord
  2
SLDDIMSTYLE2
 70
     0
 41
3.5
 44
0.0
 45
0.000000001
 73
     0
 74
     0
 77
     1
 78
    12
 79
     3
140
3.5
147
0.875
173
     1
178
     0
271
     2
272
     0
276
     2
284
    12
340
310
  0
ENDTAB
  0
TABLE
  2
BLOCK_RECORD
  5
1
330
0
100
AcDbSymbolTable
 70
     2
  0
BLOCK_RECORD
  5
1D
102
{ACAD_XDICTIONARY
360
324
102
}
330
1
100
AcDbSymbolTableRecord
100
AcDbBlockTableRecord
  2
*Model_Space
340
1E
 70
     0
280
     1
281
     0
  0
BLOCK_RECORD
  5
1B
330
1
100
AcDbSymbolTableRecord
100
AcDbBlockTableRecord
  2
*Paper_Space
340
1C
 70
     0
280
     1
281
     0
  0
ENDTAB
  0
ENDSEC
  0
SECTION
  2
BLOCKS
  0
BLOCK
  5
229
330
1D
100
AcDbEntity
  8
0
100
AcDbBlockBegin
  2
*Model_Space
 70
     0
 10
0.0
 20
0.0
 30
0.0
  3
*Model_Space
  1

  0
ENDBLK
  5
22A
330
1D
100
AcDbEntity
  8
0
100
AcDbBlockEnd
  0
BLOCK
  5
227
330
1B
100
AcDbEntity
 67
     1
  8
0
100
AcDbBlockBegin
  2
*Paper_Space
 70
     0
 10
0.0
 20
0.0
 30
0.0
  3
*Paper_Space
  1

  0
ENDBLK
  5
228
330
1B
100
AcDbEntity
 67
     1
  8
0
100
AcDbBlockEnd
  0
ENDSEC
  0
SECTION
  2
ENTITIES
  0
LINE
  5
29
330
1D
100
AcDbEntity
  8
SK2
100
AcDbLine
 10
30.97950273938046
 20
-24.499999556
 30
0.0
 11
18.59835726138046
 21
-24.499999556
 31
0.0
  0
LINE
  5
2A
330
1D
100
AcDbEntity
  8
SK2
100
AcDbLine
 10
28.97950273938046
 20
-24.499999556
 30
0.0
 11
28.52950273938046
 21
-20.999999556
 31
0.0
  0
LINE
  5
2B
330
1D
100
AcDbEntity
  8
SK2
100
AcDbLine
 10
28.52950273938046
 20
-20.999999556
 30
0.0
 11
29.42950273938046
 21
-20.999999556
 31
0.0
  0
LINE
  5
2C
330
1D
100
AcDbEntity
  8
SK2
100
AcDbLine
 10
29.42950273938046
 20
-20.999999556
 30
0.0
 11
28.97950273938046
 21
-24.499999556
 31
0.0
  0
LINE
  5
2D
330
1D
100
AcDbEntity
  8
SK2
100
AcDbLine
 10
30.97950273938046
 20
24.500000439
 30
0.0
 11
18.59835726138046
 21
24.500000439
 31
0.0
  0
LINE
  5
2E
330
1D
100
AcDbEntity
  8
SK2
100
AcDbLine
 10
28.97950273938046
 20
24.500000439
 30
0.0
 11
29.42950273938046
 21
21.000000439
 31
0.0
  0
LINE
  5
2F
330
1D
100
AcDbEntity
  8
SK2
100
AcDbLine
 10
29.42950273938046
 20
21.000000439
 30
0.0
 11
28.52950273938046
 21
21.000000439
 31
0.0
  0
LINE
  5
30
330
1D
100
AcDbEntity
  8
SK2
100
AcDbLine
 10
28.52950273938046
 20
21.000000439
 30
0.0
 11
28.97950273938046
 21
24.500000439
 31
0.0
  0
LINE
  5
31
330
1D
100
AcDbEntity
  8
SK2
100
AcDbLine
 10
28.97950273938046
 20
-20.999999556
 30
0.0
 11
28.97950273938046
 21
21.000000439
 31
0.0
  0
TEXT
  5
32
330
1D
100
AcDbEntity
  8
SK2
100
AcDbText
 10
27.47950273938046
 20
-3.231718856000002
 30
0.0
 40
3.5
  1
49
 50
90.0
  7
BMG_Text
100
AcDbText
  0
CIRCLE
  5
33
330
1D
100
AcDbEntity
  8
SK2
100
AcDbCircle
 10
26.22950273938046
 20
-5.481718856000001
 30
0.0
 40
1.25
  0
LINE
  5
34
330
1D
100
AcDbEntity
  8
SK2
100
AcDbLine
 10
27.47950273938046
 20
-6.731718856000001
 30
0.0
 11
24.97950273938046
 21
-4.231718856000001
 31
0.0
  0
TEXT
  5
35
330
1D
100
AcDbEntity
  8
SK2
100
AcDbText
 10
27.47950273938046
 20
2.84593833888036
 30
0.0
 40
3.5
  1
-62
 50
90.0
  7
BMG_Text
100
AcDbText
  0
LINE
  5
36
330
1D
100
AcDbEntity
  8
SK4
100
AcDbLine
 10
-5.018163386619539
 20
-0.0000000000000022
 30
0.0
 11
22.07153322538046
 21
-0.0000000000000022
 31
0.0
  0
TEXT
  5
37
330
1D
100
AcDbEntity
  8
SK6
100
AcDbText
 10
-3.939395656363011
 20
-32.30464284469355
 30
0.0
 40
3.5
  1
639.243
  7
BMG_Text
100
AcDbText
  0
LINE
  5
38
330
1D
100
AcDbEntity
  8
2
100
AcDbLine
 10
18.99835723138046
 20
34.000000056
 30
0.0
 11
18.99835723138046
 21
22.750000056
 31
0.0
  0
LINE
  5
39
330
1D
100
AcDbEntity
  8
2
100
AcDbLine
 10
18.99835723138046
 20
32.000000056
 30
0.0
 11
15.49835723238046
 21
31.550000051
 31
0.0
  0
LINE
  5
3A
330
1D
100
AcDbEntity
  8
2
100
AcDbLine
 10
15.49835723238046
 20
31.550000051
 30
0.0
 11
15.49835723038046
 21
32.450000051
 31
0.0
  0
LINE
  5
3B
330
1D
100
AcDbEntity
  8
2
100
AcDbLine
 10
15.49835723038046
 20
32.450000051
 30
0.0
 11
18.99835723138046
 21
32.000000056
 31
0.0
  0
LINE
  5
3C
330
1D
100
AcDbEntity
  8
2
100
AcDbLine
 10
-18.00164276461954
 20
32.0
 30
0.0
 11
15.49835723138046
 21
32.000000051
 31
0.0
  0
TEXT
  5
3D
330
1D
100
AcDbEntity
  8
2
100
AcDbText
 10
-1.16633068261954
 20
33.500000025
 30
0.0
 40
3.5
  1
47
 50
0.000000087
  7
BMG_Text
100
AcDbText
  0
ARC
  5
3E
330
1D
100
AcDbEntity
  8
1
100
AcDbCircle
 10
16.51109625838046
 20
21.050555358
 30
0.0
 40
0.35
100
AcDbArc
 50
161.0143315700003
 51
258.98566843
  0
ARC
  5
3F
330
1D
100
AcDbEntity
  8
1
100
AcDbCircle
 10
15.99101626838046
 20
21.22948776
 30
0.0
 40
0.2
100
AcDbArc
 50
341.0143315700001
 51
138.9856684299999
  0
ARC
  5
40
330
1D
100
AcDbEntity
  8
1
100
AcDbCircle
 10
15.57601626838046
 20
21.590424042
 30
0.0
 40
0.35
100
AcDbArc
 50
221.0143315700003
 51
318.9856684299997
  0
ARC
  5
41
330
1D
100
AcDbEntity
  8
1
100
AcDbCircle
 10
15.16101626838046
 20
21.22948776
 30
0.0
 40
0.2
100
AcDbArc
 50
41.01433157000016
 51
198.9856684299997
  0
ARC
  5
42
330
1D
100
AcDbEntity
  8
1
100
AcDbCircle
 10
14.64093627838046
 20
21.050555358
 30
0.0
 40
0.35
100
AcDbArc
 50
281.01433157
 51
18.98566842999973
  0
ARC
  5
43
330
1D
100
AcDbEntity
  8
1
100
AcDbCircle
 10
14.74601626838046
 20
20.510686675
 30
0.0
 40
0.2
100
AcDbArc
 50
101.0143315700001
 51
258.9856684299999
  0
ARC
  5
44
330
1D
100
AcDbEntity
  8
1
100
AcDbCircle
 10
14.64093627838046
 20
19.970817991
 30
0.0
 40
0.35
100
AcDbArc
 50
341.0143315700003
 51
78.98566843000005
  0
ARC
  5
45
330
1D
100
AcDbEntity
  8
1
100
AcDbCircle
 10
15.16101626838046
 20
19.79188559
 30
0.0
 40
0.2
100
AcDbArc
 50
161.0143315700003
 51
318.9856684299999
  0
ARC
  5
46
330
1D
100
AcDbEntity
  8
1
100
AcDbCircle
 10
15.57601626838046
 20
19.430949307
 30
0.0
 40
0.35
100
AcDbArc
 50
41.01433157000024
 51
138.9856684299998
  0
ARC
  5
47
330
1D
100
AcDbEntity
  8
1
100
AcDbCircle
 10
15.99101626838046
 20
19.79188559
 30
0.0
 40
0.2
100
AcDbArc
 50
221.0143315700002
 51
18.98566842999984
  0
ARC
  5
48
330
1D
100
AcDbEntity
  8
1
100
AcDbCircle
 10
16.51109625838046
 20
19.970817991
 30
0.0
 40
0.35
100
AcDbArc
 50
101.01433157
 51
198.9856684299997
  0
ARC
  5
49
330
1D
100
AcDbEntity
  8
1
100
AcDbCircle
 10
16.40601626838046
 20
20.510686675
 30
0.0
 40
0.2
100
AcDbArc
 50
281.0143315700001
 51
78.98566842999993
  0
LINE
  5
4B
330
1D
100
AcDbEntity
  8
1
100
AcDbLine
 10
17.34818364638046
 20
24.45175409499999
 30
0.0
 11
14.16238779338046
 21
23.292219276
 31
0.0
  0
ARC
  5
4C
330
1D
100
AcDbEntity
  8
1
100
AcDbCircle
 10
17.62179978738046
 20
23.7
 30
0.0
 40
0.8
100
AcDbArc
 50
10.00000000000008
 51
109.9999999999999
  0
LINE
  5
4D
330
1D
100
AcDbEntity
  8
1
100
AcDbLine
 10
18.99835723538046
 20
20.500171125
 30
0.0
 11
18.40964597838046
 21
23.83891855
 31
0.0
  0
LINE
  5
4E
330
1D
100
AcDbEntity
  8
1
100
AcDbLine
 10
18.40964597838046
 20
17.16142393299999
 30
0.0
 11
18.99835723538046
 21
20.500171125
 31
0.0
  0
ARC
  5
4F
330
1D
100
AcDbEntity
  8
1
100
AcDbCircle
 10
17.62179978738046
 20
17.300342312
 30
0.0
 40
0.8
100
AcDbArc
 50
250.0
 51
349.9999999999999
  0
ARC
  5
52
330
1D
100
AcDbEntity
  8
1
100
AcDbCircle
 10
12.07953365338046
 20
20.500171156
 30
0.0
 40
0.8
100
AcDbArc
 50
130.0000000000001
 51
229.9999999999999
  0
LINE
  5
53
330
1D
100
AcDbEntity
  8
1
100
AcDbLine
 10
11.97601631438046
 20
21.610686682
 30
0.0
 11
12.15841537538046
 21
21.610686682
 31
0.0
  0
ARC
  5
54
330
1D
100
AcDbEntity
  8
1
100
AcDbCircle
 10
11.97601626838046
 20
20.510686675
 30
0.0
 40
1.1
100
AcDbArc
 50
90.0
 51
270.0
  0
LINE
  5
55
330
1D
100
AcDbEntity
  8
1
100
AcDbLine
 10
12.13335162138046
 20
19.410686694
 30
0.0
 11
11.97601631438046
 21
19.410686694
 31
0.0
  0
ARC
  5
56
330
1D
100
AcDbEntity
  8
1
100
AcDbCircle
 10
14.59101626838046
 20
18.458206468
 30
0.0
 40
1.0
100
AcDbArc
 50
198.224093013
 51
281.630553864
  0
LINE
  5
57
330
1D
100
AcDbEntity
  8
1
100
AcDbLine
 10
18.03215975038046
 20
16.344702464
 30
0.0
 11
17.60399874938046
 21
16.50054067
 31
0.0
  0
LINE
  5
58
330
1D
100
AcDbEntity
  8
1
100
AcDbLine
 10
17.82642663638046
 20
15.177932229
 30
0.0
 11
18.03215975038046
 21
16.344702464
 31
0.0
  0
LINE
  5
59
330
1D
100
AcDbEntity
  8
1
100
AcDbLine
 10
17.59973515438046
 20
-0.0897481700000022
 30
0.0
 11
17.59973515438046
 21
12.5870515
 31
0.0
  0
LINE
  5
5A
330
1D
100
AcDbEntity
  8
3
100
AcDbLine
 10
10.06446229438046
 20
-7.625019517000002
 30
0.0
 11
17.59973515438046
 21
-0.0897481700000022
 31
0.0
  0
ARC
  5
5B
330
1D
100
AcDbEntity
  8
3
100
AcDbCircle
 10
13.59999575838046
 20
-11.160554485
 30
0.0
 40
5.0
100
AcDbArc
 50
135.0
 51
180.0
  0
LINE
  5
5C
330
1D
100
AcDbEntity
  8
3
100
AcDbLine
 10
8.59999573038046
 20
-16.025128182
 30
0.0
 11
8.59999573038046
 21
-11.160554703
 31
0.0
  0
LINE
  5
5D
330
1D
100
AcDbEntity
  8
3
100
AcDbLine
 10
6.59999540238046
 20
-19.489227202
 30
0.0
 11
8.59999573038046
 21
-16.025128182
 31
0.0
  0
LINE
  5
5E
330
1D
100
AcDbEntity
  8
3
100
AcDbLine
 10
6.59999540238046
 20
-19.489227202
 30
0.0
 11
0.2557319603804604
 21
-19.489227202
 31
0.0
  0
LINE
  5
5F
330
1D
100
AcDbEntity
  8
1
100
AcDbLine
 10
0.7999950103804604
 20
19.510259047
 30
0.0
 11
2.82072099038046
 21
23.010298154
 31
0.0
  0
LINE
  5
60
330
1D
100
AcDbEntity
  8
1
100
AcDbLine
 10
13.09006018738046
 20
23.010298154
 30
0.0
 11
2.82072099038046
 21
23.010298154
 31
0.0
  0
LINE
  5
61
330
1D
100
AcDbEntity
  8
1
100
AcDbLine
 10
13.39430092038046
 20
22.647717745
 30
0.0
 11
13.09006018738046
 21
23.010298154
 31
0.0
  0
ARC
  5
62
330
1D
100
AcDbEntity
  8
1
100
AcDbCircle
 10
32.52168817038046
 20
12.587051579
 30
0.0
 40
14.921909162
100
AcDbArc
 50
170.001098618
 51
180.0
  0
LINE
  5
63
330
1D
100
AcDbEntity
  8
1
100
AcDbLine
 10
17.96135152838046
 20
16.479598019
 30
0.0
 11
17.82920418938046
 21
16.527695242
 31
0.0
  0
LINE
  5
64
330
1D
100
AcDbEntity
  8
1
100
AcDbLine
 10
18.03215975038046
 20
16.344702464
 30
0.0
 11
17.96135152838046
 21
16.479598019
 31
0.0
  0
LINE
  5
65
330
1D
100
AcDbEntity
  8
1
100
AcDbLine
 10
13.17836819338046
 20
22.905056375
 30
0.0
 11
13.70098497838046
 21
22.905056375
 31
0.0
  0
LINE
  5
66
330
1D
100
AcDbEntity
  8
1
100
AcDbLine
 10
17.84445808938046
 20
16.53195231799999
 30
0.0
 11
17.84283281438046
 21
16.522735018
 31
0.0
  0
LINE
  5
68
330
1D
100
AcDbEntity
  8
1
100
AcDbLine
 10
-0.0174733796195396
 20
12.655033138
 30
0.0
 11
0.0428092683804604
 21
12.592038479
 31
0.0
  0
LINE
  5
69
330
1D
100
AcDbEntity
  8
1
100
AcDbLine
 10
0.0428092683804604
 20
12.592038479
 30
0.0
 11
0.0766814703804604
 21
12.506986376
 31
0.0
  0
ARC
  5
6A
330
1D
100
AcDbEntity
  8
1
100
AcDbCircle
 10
-19.39024394361954
 20
-16.478313616
 30
0.0
 40
34.986515051
100
AcDbArc
 50
56.377327849
 51
58.67771564099999
  0
ARC
  5
6B
330
1D
100
AcDbEntity
  8
1
100
AcDbCircle
 10
15.62517195038046
 20
-16.478313616
 30
0.0
 40
34.980486158
100
AcDbArc
 50
116.563028469
 51
118.744007418
  0
ARC
  5
6C
330
1D
100
AcDbEntity
  8
1
100
AcDbCircle
 10
-0.0779944296195396
 20
14.954412695
 30
0.0
 40
0.156823982
100
AcDbArc
 50
292.700684395
 51
67.299315605
  0
ARC
  5
6D
330
1D
100
AcDbEntity
  8
1
100
AcDbCircle
 10
-15.06011692461954
 20
-16.478313616
 30
0.0
 40
34.977327837
100
AcDbArc
 50
64.528097096
 51
66.652549519
  0
ARC
  5
6E
330
1D
100
AcDbEntity
  8
1
100
AcDbCircle
 10
14.48832855538046
 20
-24.173072684
 30
0.0
 40
43.302984159
100
AcDbArc
 50
111.162050608
 51
111.240985639
  0
ARC
  5
6F
330
1D
100
AcDbEntity
  8
1
100
AcDbCircle
 10
-32.76719265661954
 20
-259.102640968
 30
0.0
 40
277.120445099
100
AcDbArc
 50
83.26858471900003
 51
83.44762446199998
  0
LINE
  5
70
330
1D
100
AcDbEntity
  8
1
100
AcDbLine
 10
4.355393444380461
 20
17.891114917
 30
0.0
 11
4.871660938380461
 21
17.844630744
 31
0.0
  0
LINE
  5
71
330
1D
100
AcDbEntity
  8
1
100
AcDbLine
 10
4.871660938380461
 20
17.844630744
 30
0.0
 11
5.37738772238046
 21
17.780578103
 31
0.0
  0
LINE
  5
72
330
1D
100
AcDbEntity
  8
1
100
AcDbLine
 10
5.37738772238046
 20
17.780578103
 30
0.0
 11
5.86192133038046
 21
17.693708058
 31
0.0
  0
LINE
  5
73
330
1D
100
AcDbEntity
  8
1
100
AcDbLine
 10
5.86192133038046
 20
17.693708058
 30
0.0
 11
6.206018013380461
 21
17.60832813
 31
0.0
  0
LINE
  5
74
330
1D
100
AcDbEntity
  8
1
100
AcDbLine
 10
6.206018013380461
 20
17.60832813
 30
0.0
 11
6.51153559038046
 21
17.497966405
 31
0.0
  0
LINE
  5
75
330
1D
100
AcDbEntity
  8
1
100
AcDbLine
 10
6.51153559038046
 20
17.497966405
 30
0.0
 11
6.71299463238046
 21
17.379796472
 31
0.0
  0
LINE
  5
76
330
1D
100
AcDbEntity
  8
1
100
AcDbLine
 10
6.71299463238046
 20
17.379796472
 30
0.0
 11
6.782378164380461
 21
17.309649255
 31
0.0
  0
LINE
  5
77
330
1D
100
AcDbEntity
  8
1
100
AcDbLine
 10
6.782378164380461
 20
17.309649255
 30
0.0
 11
6.82169580938046
 21
17.233776268
 31
0.0
  0
LINE
  5
78
330
1D
100
AcDbEntity
  8
1
100
AcDbLine
 10
6.82169580938046
 20
17.233776268
 30
0.0
 11
6.82698106538046
 21
17.163006928
 31
0.0
  0
LINE
  5
79
330
1D
100
AcDbEntity
  8
1
100
AcDbLine
 10
6.82698106538046
 20
17.163006928
 30
0.0
 11
6.80479230538046
 21
17.09193584
 31
0.0
  0
LINE
  5
7A
330
1D
100
AcDbEntity
  8
1
100
AcDbLine
 10
6.80479230538046
 20
17.09193584
 30
0.0
 11
6.74942890338046
 21
17.013682392
 31
0.0
  0
LINE
  5
7B
330
1D
100
AcDbEntity
  8
1
100
AcDbLine
 10
6.74942890338046
 20
17.013682392
 30
0.0
 11
6.66873073338046
 21
16.93956029
 31
0.0
  0
LINE
  5
7C
330
1D
100
AcDbEntity
  8
1
100
AcDbLine
 10
6.66873073338046
 20
16.93956029
 30
0.0
 11
6.502725278380461
 21
16.831549224
 31
0.0
  0
LINE
  5
7D
330
1D
100
AcDbEntity
  8
1
100
AcDbLine
 10
6.502725278380461
 20
16.831549224
 30
0.0
 11
6.30570864438046
 21
16.735205766
 31
0.0
  0
LINE
  5
7E
330
1D
100
AcDbEntity
  8
1
100
AcDbLine
 10
6.30570864438046
 20
16.735205766
 30
0.0
 11
5.852922892380461
 21
16.568856653
 31
0.0
  0
LINE
  5
7F
330
1D
100
AcDbEntity
  8
1
100
AcDbLine
 10
5.852922892380461
 20
16.568856653
 30
0.0
 11
5.358373841380461
 21
16.43335666899999
 31
0.0
  0
LINE
  5
80
330
1D
100
AcDbEntity
  8
1
100
AcDbLine
 10
5.358373841380461
 20
16.43335666899999
 30
0.0
 11
4.55867136038046
 21
16.268121418
 31
0.0
  0
LINE
  5
81
330
1D
100
AcDbEntity
  8
1
100
AcDbLine
 10
4.55867136038046
 20
16.268121418
 30
0.0
 11
3.72801358038046
 21
16.14725809899999
 31
0.0
  0
LINE
  5
82
330
1D
100
AcDbEntity
  8
1
100
AcDbLine
 10
3.72801358038046
 20
16.14725809899999
 30
0.0
 11
2.882732173380461
 21
16.065666791
 31
0.0
  0
LINE
  5
83
330
1D
100
AcDbEntity
  8
1
100
AcDbLine
 10
2.882732173380461
 20
16.065666791
 30
0.0
 11
2.09146561238046
 21
16.02157798
 31
0.0
  0
LINE
  5
84
330
1D
100
AcDbEntity
  8
1
100
AcDbLine
 10
2.09146561238046
 20
16.02157798
 30
0.0
 11
1.29387537138046
 21
16.010573473
 31
0.0
  0
LINE
  5
85
330
1D
100
AcDbEntity
  8
1
100
AcDbLine
 10
1.29387537138046
 20
16.010573473
 30
0.0
 11
0.4989207733804604
 21
16.03757437699999
 31
0.0
  0
LINE
  5
86
330
1D
100
AcDbEntity
  8
1
100
AcDbLine
 10
0.4989207733804604
 20
16.03757437699999
 30
0.0
 11
-0.2844425836195396
 21
16.107483175
 31
0.0
  0
ARC
  5
87
330
1D
100
AcDbEntity
  8
1
100
AcDbCircle
 10
-39.49413728961954
 20
-564.858776145
 30
0.0
 40
584.397311936
100
AcDbArc
 50
85.696837583
 51
86.216342435
  0
ARC
  5
88
330
1D
100
AcDbEntity
  8
1
100
AcDbCircle
 10
-12.70785354361954
 20
-37.518786667
 30
0.0
 40
57.014018926
100
AcDbArc
 50
78.078224415
 51
78.35546562200001
  0
ARC
  5
89
330
1D
100
AcDbEntity
  8
1
100
AcDbCircle
 10
8.94278155138046
 20
-37.518786667
 30
0.0
 40
57.017989819
100
AcDbArc
 50
99.04138533499999
 51
100.246803522
  0
LINE
  5
8A
330
1D
100
AcDbEntity
  8
1
100
AcDbLine
 10
-0.0174733796195396
 20
18.882660534
 30
0.0
 11
0.0343156063804604
 21
18.87162995
 31
0.0
  0
LINE
  5
8B
330
1D
100
AcDbEntity
  8
1
100
AcDbLine
 10
0.0343156063804604
 20
18.87162995
 30
0.0
 11
0.0686255303804604
 21
18.856844273
 31
0.0
  0
LINE
  5
8C
330
1D
100
AcDbEntity
  8
1
100
AcDbLine
 10
0.0686255303804604
 20
18.856844273
 30
0.0
 11
0.0823997903804604
 21
18.839458343
 31
0.0
  0
LINE
  5
8D
330
1D
100
AcDbEntity
  8
1
100
AcDbLine
 10
0.0823997903804604
 20
18.839458343
 30
0.0
 11
0.0729301023804604
 21
18.82121559599999
 31
0.0
  0
LINE
  5
8E
330
1D
100
AcDbEntity
  8
1
100
AcDbLine
 10
0.0729301023804604
 20
18.82121559599999
 30
0.0
 11
0.0402909713804604
 21
18.80452257
 31
0.0
  0
LINE
  5
8F
330
1D
100
AcDbEntity
  8
1
100
AcDbLine
 10
0.0402909713804604
 20
18.80452257
 30
0.0
 11
-0.0174733796195396
 21
18.790761348
 31
0.0
  0
ARC
  5
90
330
1D
100
AcDbEntity
  8
1
100
AcDbCircle
 10
-8.37772652461954
 20
-37.518786667
 30
0.0
 40
57.017689742
100
AcDbArc
 50
81.568573479
 51
82.767924027
  0
ARC
  5
91
330
1D
100
AcDbEntity
  8
1
100
AcDbCircle
 10
4.612654532380461
 20
-37.518786667
 30
0.0
 40
57.012493804
100
AcDbArc
 50
94.658263533
 51
95.85151243599998
  0
LINE
  5
92
330
1D
100
AcDbEntity
  8
1
100
AcDbLine
 10
-0.0174733796195396
 20
19.35016584
 30
0.0
 11
0.0342355123804604
 21
19.344965335
 31
0.0
  0
LINE
  5
93
330
1D
100
AcDbEntity
  8
1
100
AcDbLine
 10
0.0342355123804604
 20
19.344965335
 30
0.0
 11
0.0687596403804604
 21
19.33785003099999
 31
0.0
  0
LINE
  5
94
330
1D
100
AcDbEntity
  8
1
100
AcDbLine
 10
0.0687596403804604
 20
19.33785003099999
 30
0.0
 11
0.0824016533804604
 21
19.329483029
 31
0.0
  0
LINE
  5
95
330
1D
100
AcDbEntity
  8
1
100
AcDbLine
 10
0.0824016533804604
 20
19.329483029
 30
0.0
 11
0.0733640993804604
 21
19.320732322
 31
0.0
  0
LINE
  5
96
330
1D
100
AcDbEntity
  8
1
100
AcDbLine
 10
0.0733640993804604
 20
19.320732322
 30
0.0
 11
0.0424125243804604
 21
19.312652167
 31
0.0
  0
LINE
  5
97
330
1D
100
AcDbEntity
  8
1
100
AcDbLine
 10
0.0424125243804604
 20
19.312652167
 30
0.0
 11
-0.0068507146195396
 21
19.306293097
 31
0.0
  0
LINE
  5
98
330
1D
100
AcDbEntity
  8
1
100
AcDbLine
 10
-0.0068507146195396
 20
19.306293097
 30
0.0
 11
-0.0174733796195396
 21
19.305384126
 31
0.0
  0
ARC
  5
99
330
1D
100
AcDbEntity
  8
1
100
AcDbCircle
 10
-4.04759950561954
 20
-37.518786667
 30
0.0
 40
57.011576096
100
AcDbArc
 50
85.946401968
 51
87.13693913300001
  0
ARC
  5
9A
330
1D
100
AcDbEntity
  8
1
100
AcDbCircle
 10
0.2825275133804604
 20
-37.518786667
 30
0.0
 40
57.008291271
100
AcDbArc
 50
90.30151426800002
 51
91.49016387
  0
LINE
  5
9B
330
1D
100
AcDbEntity
  8
1
100
AcDbLine
 10
0.0557323003804604
 20
19.489227202
 30
0.0
 11
0.0128672473804604
 21
19.488895651
 31
0.0
  0
LINE
  5
9C
330
1D
100
AcDbEntity
  8
1
100
AcDbLine
 10
0.0128672473804604
 20
19.488895651
 30
0.0
 11
-0.0174733796195396
 21
19.48871683699999
 31
0.0
  0
LINE
  5
9D
330
1D
100
AcDbEntity
  8
1
100
AcDbLine
 10
6.59999540238046
 20
19.489227202
 30
0.0
 11
0.0557323003804604
 21
19.489227202
 31
0.0
  0
LINE
  5
9E
330
1D
100
AcDbEntity
  8
1
100
AcDbLine
 10
6.59999540238046
 20
19.489227202
 30
0.0
 11
6.61007976338046
 21
19.471763041
 31
0.0
  0
LINE
  5
9F
330
1D
100
AcDbEntity
  8
1
100
AcDbLine
 10
6.61007976338046
 20
19.471763041
 30
0.0
 11
6.63598822538046
 21
19.426888194
 31
0.0
  0
LINE
  5
A0
330
1D
100
AcDbEntity
  8
1
100
AcDbLine
 10
6.63598822538046
 20
19.426888194
 30
0.0
 11
6.67768353738046
 21
19.354669716
 31
0.0
  0
LINE
  5
A1
330
1D
100
AcDbEntity
  8
1
100
AcDbLine
 10
6.67768353738046
 20
19.354669716
 30
0.0
 11
6.73510888738046
 21
19.25520446499999
 31
0.0
  0
LINE
  5
A2
330
1D
100
AcDbEntity
  8
1
100
AcDbLine
 10
6.73510888738046
 20
19.25520446499999
 30
0.0
 11
6.80818138838046
 21
19.128641453
 31
0.0
  0
LINE
  5
A3
330
1D
100
AcDbEntity
  8
1
100
AcDbLine
 10
6.80818138838046
 20
19.128641453
 30
0.0
 11
6.896799525380461
 21
18.97514831599999
 31
0.0
  0
LINE
  5
A4
330
1D
100
AcDbEntity
  8
1
100
AcDbLine
 10
6.896799525380461
 20
18.97514831599999
 30
0.0
 11
7.000837569380461
 21
18.794948574
 31
0.0
  0
LINE
  5
A5
330
1D
100
AcDbEntity
  8
1
100
AcDbLine
 10
7.000837569380461
 20
18.794948574
 30
0.0
 11
7.12015116738046
 21
18.58829181999999
 31
0.0
  0
LINE
  5
A6
330
1D
100
AcDbEntity
  8
1
100
AcDbLine
 10
7.12015116738046
 20
18.58829181999999
 30
0.0
 11
7.254569886380461
 21
18.355472352
 31
0.0
  0
LINE
  5
A7
330
1D
100
AcDbEntity
  8
1
100
AcDbLine
 10
7.254569886380461
 20
18.355472352
 30
0.0
 11
7.40390652938046
 21
18.096814271
 31
0.0
  0
LINE
  5
A8
330
1D
100
AcDbEntity
  8
1
100
AcDbLine
 10
7.40390652938046
 20
18.096814271
 30
0.0
 11
7.56795061938046
 21
17.812682655
 31
0.0
  0
LINE
  5
A9
330
1D
100
AcDbEntity
  8
1
100
AcDbLine
 10
7.56795061938046
 20
17.812682655
 30
0.0
 11
7.74647118638046
 21
17.503476109
 31
0.0
  0
LINE
  5
AA
330
1D
100
AcDbEntity
  8
1
100
AcDbLine
 10
7.74647118638046
 20
17.503476109
 30
0.0
 11
7.93921677538046
 21
17.169630494
 31
0.0
  0
LINE
  5
AB
330
1D
100
AcDbEntity
  8
1
100
AcDbLine
 10
7.93921677538046
 20
17.169630494
 30
0.0
 11
8.14591637038046
 21
16.811615195
 31
0.0
  0
LINE
  5
AC
330
1D
100
AcDbEntity
  8
1
100
AcDbLine
 10
8.14591637038046
 20
16.811615195
 30
0.0
 11
8.36627939838046
 21
16.429936852
 31
0.0
  0
LINE
  5
AD
330
1D
100
AcDbEntity
  8
1
100
AcDbLine
 10
8.36627939838046
 20
16.429936852
 30
0.0
 11
8.59999573038046
 21
16.025128182
 31
0.0
  0
LINE
  5
AE
330
1D
100
AcDbEntity
  8
1
100
AcDbLine
 10
8.59999573038046
 20
16.025128182
 30
0.0
 11
8.59999573038046
 21
11.160554703
 31
0.0
  0
ARC
  5
AF
330
1D
100
AcDbEntity
  8
1
100
AcDbCircle
 10
13.60032782238046
 20
11.16069145
 30
0.0
 40
5.000332094
100
AcDbArc
 50
180.001566898
 51
224.998431438
  0
LINE
  5
B0
330
1D
100
AcDbEntity
  8
1
100
AcDbLine
 10
10.06446229438046
 20
7.625019516999998
 30
0.0
 11
10.70670141038046
 21
6.982779468999998
 31
0.0
  0
LINE
  5
B1
330
1D
100
AcDbEntity
  8
1
100
AcDbLine
 10
10.70670141038046
 20
6.982779468999998
 30
0.0
 11
11.35776946438046
 21
6.331712346999998
 31
0.0
  0
LINE
  5
B2
330
1D
100
AcDbEntity
  8
1
100
AcDbLine
 10
11.35776946438046
 20
6.331712346999998
 30
0.0
 11
12.01684363338046
 21
5.672639574999998
 31
0.0
  0
LINE
  5
B3
330
1D
100
AcDbEntity
  8
1
100
AcDbLine
 10
12.01684363338046
 20
5.672639574999998
 30
0.0
 11
12.68309271138046
 21
5.006390031999998
 31
0.0
  0
LINE
  5
B4
330
1D
100
AcDbEntity
  8
1
100
AcDbLine
 10
12.68309271138046
 20
5.006390031999998
 30
0.0
 11
13.35567524838046
 21
4.333807494999999
 31
0.0
  0
LINE
  5
B5
330
1D
100
AcDbEntity
  8
1
100
AcDbLine
 10
13.35567524838046
 20
4.333807494999999
 30
0.0
 11
14.03374187838046
 21
3.655741329999998
 31
0.0
  0
LINE
  5
B6
330
1D
100
AcDbEntity
  8
1
100
AcDbLine
 10
14.03374187838046
 20
3.655741329999998
 30
0.0
 11
14.71643671538046
 21
2.973046492999998
 31
0.0
  0
ARC
  5
B7
330
1D
100
AcDbEntity
  8
1
100
AcDbCircle
 10
33.98683808038046
 20
-0.0105155150000022
 30
0.0
 40
19.5
100
AcDbArc
 50
171.198997183
 51
180.0
  0
ARC
  5
B8
330
1D
100
AcDbEntity
  8
1
100
AcDbCircle
 10
-26.08073223561954
 20
-0.0105155150000022
 30
0.0
 40
32.913740696
100
AcDbArc
 50
0.0
 51
9.363806038000003
  0
LINE
  5
B9
330
1D
100
AcDbEntity
  8
1
100
AcDbLine
 10
-1.20000345461954
 20
5.345555360999998
 30
0.0
 11
6.399995742380461
 21
5.345555360999998
 31
0.0
  0
ARC
  5
BA
330
1D
100
AcDbEntity
  8
1
100
AcDbCircle
 10
15.72765444938046
 20
-4.478357282000002
 30
0.0
 40
20.23398204
100
AcDbArc
 50
141.091744454
 51
141.212022181
  0
ARC
  5
BB
330
1D
100
AcDbEntity
  8
1
100
AcDbCircle
 10
12.47100476338046
 20
-1.861068590000002
 30
0.0
 40
16.055954342
100
AcDbArc
 50
141.212022181
 51
148.335939192
  0
ARC
  5
BC
330
1D
100
AcDbEntity
  8
1
100
AcDbCircle
 10
-0.5455606086195396
 20
8.582828905999998
 30
0.0
 40
0.635052218
100
AcDbArc
 50
326.259843652
 51
33.74015634799993
  0
ARC
  5
BD
330
1D
100
AcDbEntity
  8
1
100
AcDbCircle
 10
-15.16259942261954
 20
-4.478357282000002
 30
0.0
 40
20.23135964
100
AcDbArc
 50
41.53104358499999
 51
46.332894555
  0
ARC
  5
BE
330
1D
100
AcDbEntity
  8
1
100
AcDbCircle
 10
19.95529896938046
 20
-16.478313616
 30
0.0
 40
34.979035305
100
AcDbArc
 50
124.819474091
 51
125.494703262
  0
ARC
  5
BF
330
1D
100
AcDbEntity
  8
1
100
AcDbCircle
 10
11.39752743038046
 20
-4.478357282000002
 30
0.0
 40
20.233988242
100
AcDbArc
 50
125.494796581
 51
128.532969099
  0
LINE
  5
C0
330
1D
100
AcDbEntity
  8
1
100
AcDbLine
 10
0.0767205853804604
 20
12.391599234
 30
0.0
 11
0.0385307723804604
 21
12.297196653
 31
0.0
  0
LINE
  5
C1
330
1D
100
AcDbEntity
  8
1
100
AcDbLine
 10
0.0385307723804604
 20
12.297196653
 30
0.0
 11
-0.0174733796195396
 21
12.237904932
 31
0.0
  0
LINE
  5
C2
330
1D
100
AcDbEntity
  8
1
100
AcDbLine
 10
2.799995338380461
 20
19.10564151
 30
0.0
 11
3.06508699538046
 21
19.11012676
 31
0.0
  0
LINE
  5
C3
330
1D
100
AcDbEntity
  8
1
100
AcDbLine
 10
3.06508699538046
 20
19.11012676
 30
0.0
 11
3.32264797938046
 21
19.123109397
 31
0.0
  0
LINE
  5
C4
330
1D
100
AcDbEntity
  8
1
100
AcDbLine
 10
3.32264797938046
 20
19.123109397
 30
0.0
 11
3.56512246838046
 21
19.143881615
 31
0.0
  0
LINE
  5
C5
330
1D
100
AcDbEntity
  8
1
100
AcDbLine
 10
3.56512246838046
 20
19.143881615
 30
0.0
 11
3.786293884380461
 21
19.171012905
 31
0.0
  0
LINE
  5
C6
330
1D
100
AcDbEntity
  8
1
100
AcDbLine
 10
3.786293884380461
 20
19.171012905
 30
0.0
 11
3.98183250938046
 21
19.203329798
 31
0.0
  0
LINE
  5
C7
330
1D
100
AcDbEntity
  8
1
100
AcDbLine
 10
3.98183250938046
 20
19.203329798
 30
0.0
 11
4.14451779938046
 21
19.238697704
 31
0.0
  0
LINE
  5
C8
330
1D
100
AcDbEntity
  8
1
100
AcDbLine
 10
4.14451779938046
 20
19.238697704
 30
0.0
 11
4.27130526038046
 21
19.275868651
 31
0.0
  0
LINE
  5
C9
330
1D
100
AcDbEntity
  8
1
100
AcDbLine
 10
4.27130526038046
 20
19.275868651
 30
0.0
 11
4.35630893438046
 21
19.31249198
 31
0.0
  0
LINE
  5
CA
330
1D
100
AcDbEntity
  8
1
100
AcDbLine
 10
4.35630893438046
 20
19.31249198
 30
0.0
 11
4.396577460380461
 21
19.347096201
 31
0.0
  0
LINE
  5
CB
330
1D
100
AcDbEntity
  8
1
100
AcDbLine
 10
4.396577460380461
 20
19.347096201
 30
0.0
 11
4.39086193338046
 21
19.378310408
 31
0.0
  0
LINE
  5
CC
330
1D
100
AcDbEntity
  8
1
100
AcDbLine
 10
4.39086193338046
 20
19.378310408
 30
0.0
 11
4.338923005380461
 21
19.40501701499999
 31
0.0
  0
LINE
  5
CD
330
1D
100
AcDbEntity
  8
1
100
AcDbLine
 10
4.338923005380461
 20
19.40501701499999
 30
0.0
 11
4.242805858380461
 21
19.42711171099999
 31
0.0
  0
LINE
  5
CE
330
1D
100
AcDbEntity
  8
1
100
AcDbLine
 10
4.242805858380461
 20
19.42711171099999
 30
0.0
 11
4.10588933338046
 21
19.44434863
 31
0.0
  0
LINE
  5
CF
330
1D
100
AcDbEntity
  8
1
100
AcDbLine
 10
4.10588933338046
 20
19.44434863
 30
0.0
 11
3.93190989438046
 21
19.457342442
 31
0.0
  0
LINE
  5
D0
330
1D
100
AcDbEntity
  8
1
100
AcDbLine
 10
3.93190989438046
 20
19.457342442
 30
0.0
 11
3.72627107538046
 21
19.46654390899999
 31
0.0
  0
LINE
  5
D1
330
1D
100
AcDbEntity
  8
1
100
AcDbLine
 10
3.72627107538046
 20
19.46654390899999
 30
0.0
 11
3.49453287338046
 21
19.47271299
 31
0.0
  0
LINE
  5
D2
330
1D
100
AcDbEntity
  8
1
100
AcDbLine
 10
3.49453287338046
 20
19.47271299
 30
0.0
 11
3.24303480038046
 21
19.476464357
 31
0.0
  0
LINE
  5
D3
330
1D
100
AcDbEntity
  8
1
100
AcDbLine
 10
3.24303480038046
 20
19.476464357
 30
0.0
 11
2.979064455380461
 21
19.478312101
 31
0.0
  0
LINE
  5
D4
330
1D
100
AcDbEntity
  8
1
100
AcDbLine
 10
2.979064455380461
 20
19.478312101
 30
0.0
 11
2.70981164838046
 21
19.478569146
 31
0.0
  0
LINE
  5
D5
330
1D
100
AcDbEntity
  8
1
100
AcDbLine
 10
2.70981164838046
 20
19.478569146
 30
0.0
 11
2.44310135138046
 21
19.477261569
 31
0.0
  0
LINE
  5
D6
330
1D
100
AcDbEntity
  8
1
100
AcDbLine
 10
2.44310135138046
 20
19.477261569
 30
0.0
 11
2.18653874638046
 21
19.47418448
 31
0.0
  0
LINE
  5
D7
330
1D
100
AcDbEntity
  8
1
100
AcDbLine
 10
2.18653874638046
 20
19.47418448
 30
0.0
 11
1.94727638938046
 21
19.468879666
 31
0.0
  0
LINE
  5
D8
330
1D
100
AcDbEntity
  8
1
100
AcDbLine
 10
1.94727638938046
 20
19.468879666
 30
0.0
 11
1.73247615038046
 21
19.460736182
 31
0.0
  0
LINE
  5
D9
330
1D
100
AcDbEntity
  8
1
100
AcDbLine
 10
1.73247615038046
 20
19.460736182
 30
0.0
 11
1.54776321838046
 21
19.449117001
 31
0.0
  0
LINE
  5
DA
330
1D
100
AcDbEntity
  8
1
100
AcDbLine
 10
1.54776321838046
 20
19.449117001
 30
0.0
 11
1.39890061838046
 21
19.433396276
 31
0.0
  0
LINE
  5
DB
330
1D
100
AcDbEntity
  8
1
100
AcDbLine
 10
1.39890061838046
 20
19.433396276
 30
0.0
 11
1.28936777038046
 21
19.41323873
 31
0.0
  0
LINE
  5
DC
330
1D
100
AcDbEntity
  8
1
100
AcDbLine
 10
1.28936777038046
 20
19.41323873
 30
0.0
 11
1.22266085938046
 21
19.388409671
 31
0.0
  0
LINE
  5
DD
330
1D
100
AcDbEntity
  8
1
100
AcDbLine
 10
1.22266085938046
 20
19.388409671
 30
0.0
 11
1.19999619338046
 21
19.359300252
 31
0.0
  0
LINE
  5
DE
330
1D
100
AcDbEntity
  8
1
100
AcDbLine
 10
1.19999619338046
 20
19.359300252
 30
0.0
 11
1.22266831038046
 21
19.326271828
 31
0.0
  0
LINE
  5
DF
330
1D
100
AcDbEntity
  8
1
100
AcDbLine
 10
1.22266831038046
 20
19.326271828
 30
0.0
 11
1.28950188038046
 21
19.290643152
 31
0.0
  0
LINE
  5
E0
330
1D
100
AcDbEntity
  8
1
100
AcDbLine
 10
1.28950188038046
 20
19.290643152
 30
0.0
 11
1.40029573938046
 21
19.253434952
 31
0.0
  0
LINE
  5
E1
330
1D
100
AcDbEntity
  8
1
100
AcDbLine
 10
1.40029573938046
 20
19.253434952
 30
0.0
 11
1.55098186938046
 21
19.21674829399999
 31
0.0
  0
LINE
  5
E2
330
1D
100
AcDbEntity
  8
1
100
AcDbLine
 10
1.55098186938046
 20
19.21674829399999
 30
0.0
 11
1.73883335838046
 21
19.182352688
 31
0.0
  0
LINE
  5
E3
330
1D
100
AcDbEntity
  8
1
100
AcDbLine
 10
1.73883335838046
 20
19.182352688
 30
0.0
 11
1.95765691038046
 21
19.152356651
 31
0.0
  0
LINE
  5
E4
330
1D
100
AcDbEntity
  8
1
100
AcDbLine
 10
1.95765691038046
 20
19.152356651
 30
0.0
 11
2.19958843838046
 21
19.12886497
 31
0.0
  0
LINE
  5
E5
330
1D
100
AcDbEntity
  8
1
100
AcDbLine
 10
2.19958843838046
 20
19.12886497
 30
0.0
 11
2.45916480338046
 21
19.113002684
 31
0.0
  0
LINE
  5
E6
330
1D
100
AcDbEntity
  8
1
100
AcDbLine
 10
2.45916480338046
 20
19.113002684
 30
0.0
 11
2.799995338380461
 21
19.10564151
 31
0.0
  0
LINE
  5
E7
330
1D
100
AcDbEntity
  8
1
100
AcDbLine
 10
6.399995742380461
 20
5.345555360999998
 30
0.0
 11
6.399995742380461
 21
-13.33108231
 31
0.0
  0
LINE
  5
E8
330
1D
100
AcDbEntity
  8
1
100
AcDbLine
 10
6.83300858538046
 20
-0.0105161550000022
 30
0.0
 11
6.83300858538046
 21
-12.20682602
 31
0.0
  0
ARC
  5
E9
330
1D
100
AcDbEntity
  8
1
100
AcDbCircle
 10
-20.87947329561954
 20
-2.131560115000002
 30
0.0
 40
29.48895945
100
AcDbArc
 50
337.679513027
 51
340.020545248
  0
LINE
  5
EA
330
1D
100
AcDbEntity
  8
1
100
AcDbLine
 10
14.48683822638046
 20
-0.0105161550000022
 30
0.0
 11
14.48683822638046
 21
-12.317077849
 31
0.0
  0
LINE
  5
EB
330
1D
100
AcDbEntity
  8
1
100
AcDbLine
 10
15.68683805138046
 20
2.002643759999998
 30
0.0
 11
14.71643671538046
 21
2.973046492999998
 31
0.0
  0
LINE
  5
EC
330
1D
100
AcDbEntity
  8
1
100
AcDbLine
 10
15.68683805138046
 20
-12.5870515
 30
0.0
 11
15.68683805138046
 21
2.002643759999998
 31
0.0
  0
ARC
  5
ED
330
1D
100
AcDbEntity
  8
1
100
AcDbCircle
 10
29.11648788938046
 20
-12.587051579
 30
0.0
 40
13.429649809
100
AcDbArc
 50
180.0
 51
184.7673618929999
  0
LINE
  5
EE
330
1D
100
AcDbEntity
  8
1
100
AcDbLine
 10
14.99047372638046
 20
-13.400434177
 30
0.0
 11
15.11640483638046
 21
-13.636043887
 31
0.0
  0
LINE
  5
EF
330
1D
100
AcDbEntity
  8
1
100
AcDbLine
 10
15.11640483638046
 20
-13.636043887
 30
0.0
 11
15.25868019238046
 21
-13.851876031
 31
0.0
  0
LINE
  5
F0
330
1D
100
AcDbEntity
  8
1
100
AcDbLine
 10
15.25868019238046
 20
-13.851876031
 30
0.0
 11
15.37124193438046
 21
-13.986630957
 31
0.0
  0
LINE
  5
F1
330
1D
100
AcDbEntity
  8
1
100
AcDbLine
 10
15.37124193438046
 20
-13.986630957
 30
0.0
 11
15.51238526738046
 21
-14.101475138
 31
0.0
  0
LINE
  5
F2
330
1D
100
AcDbEntity
  8
1
100
AcDbLine
 10
15.51238526738046
 20
-14.101475138
 30
0.0
 11
15.56717753538046
 21
-14.123643409
 31
0.0
  0
LINE
  5
F3
330
1D
100
AcDbEntity
  8
1
100
AcDbLine
 10
15.56717753538046
 20
-14.123643409
 30
0.0
 11
15.62459194238046
 21
-14.125429686
 31
0.0
  0
LINE
  5
F4
330
1D
100
AcDbEntity
  8
1
100
AcDbLine
 10
15.62459194238046
 20
-14.125429686
 30
0.0
 11
15.66122481738046
 21
-14.108323153
 31
0.0
  0
LINE
  5
F5
330
1D
100
AcDbEntity
  8
1
100
AcDbLine
 10
15.66122481738046
 20
-14.108323153
 30
0.0
 11
15.69167487438046
 21
-14.074555259
 31
0.0
  0
LINE
  5
F6
330
1D
100
AcDbEntity
  8
1
100
AcDbLine
 10
15.69167487438046
 20
-14.074555259
 30
0.0
 11
15.71700265738046
 21
-14.017792079
 31
0.0
  0
LINE
  5
F7
330
1D
100
AcDbEntity
  8
1
100
AcDbLine
 10
15.71700265738046
 20
-14.017792079
 30
0.0
 11
15.73628219938046
 21
-13.909411278
 31
0.0
  0
LINE
  5
F8
330
1D
100
AcDbEntity
  8
1
100
AcDbLine
 10
15.73628219938046
 20
-13.909411278
 30
0.0
 11
15.73355947738046
 21
-13.703170825
 31
0.0
  0
ARC
  5
F9
330
1D
100
AcDbEntity
  8
1
100
AcDbCircle
 10
43.21399543838046
 20
0.3696892919999978
 30
0.0
 40
31.403879167
100
AcDbArc
 50
203.827678998
 51
206.007530517
  0
LINE
  5
FA
330
1D
100
AcDbEntity
  8
1
100
AcDbLine
 10
14.32498786738046
 20
-12.20682602
 30
0.0
 11
6.83300858538046
 21
-12.20682602
 31
0.0
  0
LINE
  5
FB
330
1D
100
AcDbEntity
  8
1
100
AcDbLine
 10
14.48683822638046
 20
-12.317077849
 30
0.0
 11
14.32498786738046
 21
-12.20682602
 31
0.0
  0
LINE
  5
FC
330
1D
100
AcDbEntity
  8
1
100
AcDbLine
 10
13.17836819338046
 20
-22.905056375
 30
0.0
 11
14.32498786738046
 21
-22.905056375
 31
0.0
  0
LINE
  5
FD
330
1D
100
AcDbEntity
  8
1
100
AcDbLine
 10
13.17836819338046
 20
-22.905056375
 30
0.0
 11
13.13102860138046
 21
-22.961473335
 31
0.0
  0
LINE
  5
FE
330
1D
100
AcDbEntity
  8
1
100
AcDbLine
 10
13.13102860138046
 20
-22.961473335
 30
0.0
 11
13.10158344138046
 21
-22.996564755
 31
0.0
  0
LINE
  5
FF
330
1D
100
AcDbEntity
  8
1
100
AcDbLine
 10
13.10158344138046
 20
-22.996564755
 30
0.0
 11
13.09006018738046
 21
-23.010298154
 31
0.0
  0
LINE
  5
100
330
1D
100
AcDbEntity
  8
1
100
AcDbLine
 10
13.09006018738046
 20
-23.010298154
 30
0.0
 11
2.62072133038046
 21
-23.010298154
 31
0.0
  0
LINE
  5
101
330
1D
100
AcDbEntity
  8
1
100
AcDbLine
 10
2.62072133038046
 20
-13.33108231
 30
0.0
 11
2.62072133038046
 21
-23.010298154
 31
0.0
  0
LINE
  5
102
330
1D
100
AcDbEntity
  8
1
100
AcDbLine
 10
6.399995742380461
 20
-13.33108231
 30
0.0
 11
2.62072133038046
 21
-13.33108231
 31
0.0
  0
LINE
  5
103
330
1D
100
AcDbEntity
  8
1
100
AcDbLine
 10
14.32498786738046
 20
-12.20682602
 30
0.0
 11
14.32498786738046
 21
-22.905056375
 31
0.0
  0
LINE
  5
104
330
1D
100
AcDbEntity
  8
1
100
AcDbLine
 10
0.5999953503804604
 20
-19.51025904700001
 30
0.0
 11
2.62072133038046
 21
-23.010298154
 31
0.0
  0
LINE
  5
105
330
1D
100
AcDbEntity
  8
1
100
AcDbLine
 10
0.5999953503804604
 20
-19.51025904700001
 30
0.0
 11
0.5999953503804604
 21
-5.366587672000001
 31
0.0
  0
ARC
  5
106
330
1D
100
AcDbEntity
  8
1
100
AcDbCircle
 10
49.85278128238046
 20
2.891077497999998
 30
0.0
 40
49.94022383
100
AcDbArc
 50
189.517624466
 51
198.955369199
  0
LINE
  5
107
330
1D
100
AcDbEntity
  8
1
100
AcDbLine
 10
0.5999953503804604
 20
-5.366587672000001
 30
0.0
 11
-1.20000345461954
 21
-5.366587672000001
 31
0.0
  0
LINE
  5
108
330
1D
100
AcDbEntity
  8
1
100
AcDbLine
 10
-1.30000514761954
 20
-6.117608059000002
 30
0.0
 11
-1.20000345461954
 21
-6.591507826000002
 31
0.0
  0
LINE
  5
109
330
1D
100
AcDbEntity
  8
1
100
AcDbLine
 10
-1.39709738861954
 20
-5.338916216000002
 30
0.0
 11
-1.38264139961954
 21
-5.552330647000002
 31
0.0
  0
LINE
  5
10A
330
1D
100
AcDbEntity
  8
1
100
AcDbLine
 10
-1.38264139961954
 20
-5.552330647000002
 30
0.0
 11
-1.30000514761954
 21
-6.117608059000002
 31
0.0
  0
LINE
  5
10B
330
1D
100
AcDbEntity
  8
1
100
AcDbLine
 10
-1.20000345461954
 20
-5.366587672000001
 30
0.0
 11
-1.39709738861954
 21
-5.338916216000002
 31
0.0
  0
LINE
  5
10C
330
1D
100
AcDbEntity
  8
1
100
AcDbLine
 10
-1.39709738861954
 20
5.317885767999998
 30
0.0
 11
-1.39709738861954
 21
-5.338916216000002
 31
0.0
  0
LINE
  5
10D
330
1D
100
AcDbEntity
  8
1
100
AcDbLine
 10
-1.39709738861954
 20
5.317885767999998
 30
0.0
 11
-1.20000345461954
 21
5.345555360999998
 31
0.0
  0
ARC
  5
10E
330
1D
100
AcDbEntity
  8
1
100
AcDbCircle
 10
-4.04759950561954
 20
37.497755637
 30
0.0
 40
57.010003324
100
AcDbArc
 50
272.8630608669999
 51
274.053598032
  0
LINE
  5
10F
330
1D
100
AcDbEntity
  8
1
100
AcDbLine
 10
-0.0174733796195396
 20
-19.32641504
 30
0.0
 11
0.0342746283804604
 21
-19.332307052
 31
0.0
  0
LINE
  5
110
330
1D
100
AcDbEntity
  8
1
100
AcDbLine
 10
0.0342746283804604
 20
-19.332307052
 30
0.0
 11
0.0687968933804604
 21
-19.34004122
 31
0.0
  0
LINE
  5
111
330
1D
100
AcDbEntity
  8
1
100
AcDbLine
 10
0.0687968933804604
 20
-19.34004122
 30
0.0
 11
0.0824091043804604
 21
-19.348705314
 31
0.0
  0
LINE
  5
112
330
1D
100
AcDbEntity
  8
1
100
AcDbLine
 10
0.0824091043804604
 20
-19.348705314
 30
0.0
 11
0.0732504773804604
 21
-19.357282329
 31
0.0
  0
LINE
  5
113
330
1D
100
AcDbEntity
  8
1
100
AcDbLine
 10
0.0732504773804604
 20
-19.357282329
 30
0.0
 11
0.0421852823804604
 21
-19.36478553
 31
0.0
  0
LINE
  5
114
330
1D
100
AcDbEntity
  8
1
100
AcDbLine
 10
0.0421852823804604
 20
-19.36478553
 30
0.0
 11
-0.0070686436195396
 21
-19.37042329100001
 31
0.0
  0
LINE
  5
115
330
1D
100
AcDbEntity
  8
1
100
AcDbLine
 10
-0.0070686436195396
 20
-19.37042329100001
 30
0.0
 11
-0.0174733796195396
 21
-19.37119815100001
 31
0.0
  0
ARC
  5
116
330
1D
100
AcDbEntity
  8
1
100
AcDbCircle
 10
4.612654532380461
 20
37.497755637
 30
0.0
 40
57.014399146
100
AcDbArc
 50
264.148487564
 51
265.3417364670001
  0
ARC
  5
117
330
1D
100
AcDbEntity
  8
1
100
AcDbCircle
 10
-8.37772652461954
 20
37.497755637
 30
0.0
 40
57.016445711
100
AcDbArc
 50
277.232075973
 51
278.4314265209999
  0
LINE
  5
118
330
1D
100
AcDbEntity
  8
1
100
AcDbLine
 10
-0.0174733796195396
 20
-18.811790865
 30
0.0
 11
0.0343957003804604
 21
-18.823587462
 31
0.0
  0
LINE
  5
119
330
1D
100
AcDbEntity
  8
1
100
AcDbLine
 10
0.0343957003804604
 20
-18.823587462
 30
0.0
 11
0.0687056233804604
 21
-18.839059524
 31
0.0
  0
LINE
  5
11A
330
1D
100
AcDbEntity
  8
1
100
AcDbLine
 10
0.0687056233804604
 20
-18.839059524
 30
0.0
 11
0.0824184173804604
 21
-18.856832419
 31
0.0
  0
LINE
  5
11B
330
1D
100
AcDbEntity
  8
1
100
AcDbLine
 10
0.0824184173804604
 20
-18.856832419
 30
0.0
 11
0.0726786453804604
 21
-18.87492755
 31
0.0
  0
LINE
  5
11C
330
1D
100
AcDbEntity
  8
1
100
AcDbLine
 10
0.0726786453804604
 20
-18.87492755
 30
0.0
 11
0.0397861953804604
 21
-18.890940245
 31
0.0
  0
LINE
  5
11D
330
1D
100
AcDbEntity
  8
1
100
AcDbLine
 10
0.0397861953804604
 20
-18.890940245
 30
0.0
 11
-0.0174733796195396
 21
-18.90369005100001
 31
0.0
  0
ARC
  5
11E
330
1D
100
AcDbEntity
  8
1
100
AcDbCircle
 10
8.94278155138046
 20
37.497755637
 30
0.0
 40
57.017611823
100
AcDbArc
 50
259.753196478
 51
260.958614665
  0
ARC
  5
11F
330
1D
100
AcDbEntity
  8
1
100
AcDbCircle
 10
-12.70785354361954
 20
37.497755637
 30
0.0
 40
57.014921249
100
AcDbArc
 50
281.6445343780001
 51
282.861778057
  0
LINE
  5
120
330
1D
100
AcDbEntity
  8
1
100
AcDbLine
 10
-0.0174733796195396
 20
-17.937364649
 30
0.0
 11
0.0346061783804604
 21
-17.955842089
 31
0.0
  0
LINE
  5
121
330
1D
100
AcDbEntity
  8
1
100
AcDbLine
 10
0.0346061783804604
 20
-17.955842089
 30
0.0
 11
0.0685454363804604
 21
-17.97972865
 31
0.0
  0
LINE
  5
122
330
1D
100
AcDbEntity
  8
1
100
AcDbLine
 10
0.0685454363804604
 20
-17.97972865
 30
0.0
 11
0.0824351813804604
 21
-18.007974733
 31
0.0
  0
LINE
  5
123
330
1D
100
AcDbEntity
  8
1
100
AcDbLine
 10
0.0824351813804604
 20
-18.007974733
 30
0.0
 11
0.0715461573804604
 21
-18.037609417
 31
0.0
  0
LINE
  5
124
330
1D
100
AcDbEntity
  8
1
100
AcDbLine
 10
0.0715461573804604
 20
-18.037609417
 30
0.0
 11
0.0350774283804604
 21
-18.0638634
 31
0.0
  0
LINE
  5
125
330
1D
100
AcDbEntity
  8
1
100
AcDbLine
 10
0.0350774283804604
 20
-18.0638634
 30
0.0
 11
-0.0174733796195396
 21
-18.081710335
 31
0.0
  0
ARC
  5
126
330
1D
100
AcDbEntity
  8
1
100
AcDbCircle
 10
10.15820153638046
 20
24.152041655
 30
0.0
 40
43.29786638
100
AcDbArc
 50
254.791808239
 51
256.408777439
  0
ARC
  5
127
330
1D
100
AcDbEntity
  8
1
100
AcDbCircle
 10
-13.92327352961954
 20
24.152041655
 30
0.0
 40
43.297304671
100
AcDbArc
 50
287.089084438
 51
288.732853185
  0
LINE
  5
128
330
1D
100
AcDbEntity
  8
1
100
AcDbLine
 10
-0.0174733796195396
 20
-16.646497544
 30
0.0
 11
0.0349470433804604
 21
-16.673149202
 31
0.0
  0
LINE
  5
129
330
1D
100
AcDbEntity
  8
1
100
AcDbLine
 10
0.0349470433804604
 20
-16.673149202
 30
0.0
 11
0.0683312323804604
 21
-16.706754114
 31
0.0
  0
LINE
  5
12A
330
1D
100
AcDbEntity
  8
1
100
AcDbLine
 10
0.0683312323804604
 20
-16.706754114
 30
0.0
 11
0.0824687083804604
 21
-16.748306468
 31
0.0
  0
LINE
  5
12B
330
1D
100
AcDbEntity
  8
1
100
AcDbLine
 10
0.0824687083804604
 20
-16.748306468
 30
0.0
 11
0.0693482363804604
 21
-16.79362881500001
 31
0.0
  0
LINE
  5
12C
330
1D
100
AcDbEntity
  8
1
100
AcDbLine
 10
0.0693482363804604
 20
-16.79362881500001
 30
0.0
 11
0.0262335893804604
 21
-16.833494544
 31
0.0
  0
LINE
  5
12D
330
1D
100
AcDbEntity
  8
1
100
AcDbLine
 10
0.0262335893804604
 20
-16.833494544
 30
0.0
 11
-0.0174733796195396
 21
-16.853439748
 31
0.0
  0
ARC
  5
12E
330
1D
100
AcDbEntity
  8
1
100
AcDbCircle
 10
14.48832855538046
 20
24.152041655
 30
0.0
 40
43.303078035
100
AcDbArc
 50
248.759014361
 51
250.427305833
  0
ARC
  5
12F
330
1D
100
AcDbEntity
  8
1
100
AcDbCircle
 10
-15.06011692461954
 20
16.457282587
 30
0.0
 40
34.973260297
100
AcDbArc
 50
293.347450481
 51
295.471902904
  0
ARC
  5
130
330
1D
100
AcDbEntity
  8
1
100
AcDbCircle
 10
-0.0779396736195396
 20
-14.975443609
 30
0.0
 40
0.156803289
100
AcDbArc
 50
292.6821606999999
 51
67.31783930000007
  0
ARC
  5
131
330
1D
100
AcDbEntity
  8
1
100
AcDbCircle
 10
15.62517195038046
 20
16.457282587
 30
0.0
 40
34.987063284
100
AcDbArc
 50
241.255992582
 51
243.436971531
  0
ARC
  5
132
330
1D
100
AcDbEntity
  8
1
100
AcDbCircle
 10
-19.39024394361954
 20
16.457282587
 30
0.0
 40
34.991229485
100
AcDbArc
 50
301.3222843589999
 51
303.622672151
  0
ARC
  5
133
330
1D
100
AcDbEntity
  8
1
100
AcDbCircle
 10
-0.1775171986195396
 20
-12.467501812
 30
0.0
 40
0.262893162
100
AcDbArc
 50
307.5012642950002
 51
52.49873570499991
  0
ARC
  5
134
330
1D
100
AcDbEntity
  8
1
100
AcDbCircle
 10
11.39752743038046
 20
4.457326252999998
 30
0.0
 40
20.221897657
100
AcDbArc
 50
231.467030901
 51
234.505203419
  0
ARC
  5
135
330
1D
100
AcDbEntity
  8
1
100
AcDbCircle
 10
19.95529896938046
 20
16.457282587
 30
0.0
 40
34.972862207
100
AcDbArc
 50
234.505296738
 51
235.180525909
  0
ARC
  5
136
330
1D
100
AcDbEntity
  8
1
100
AcDbCircle
 10
-15.16259942261954
 20
4.457326252999998
 30
0.0
 40
20.221952039
100
AcDbArc
 50
313.667105445
 51
318.468956415
  0
ARC
  5
137
330
1D
100
AcDbEntity
  8
1
100
AcDbCircle
 10
-0.5369845066195396
 20
-8.603860751000001
 30
0.0
 40
0.627938438
100
AcDbArc
 50
325.8252417410001
 51
34.17475825899994
  0
ARC
  5
138
330
1D
100
AcDbEntity
  8
1
100
AcDbCircle
 10
12.47100476338046
 20
1.840037560999998
 30
0.0
 40
16.061987692
100
AcDbArc
 50
211.664060808
 51
218.787977819
  0
ARC
  5
139
330
1D
100
AcDbEntity
  8
1
100
AcDbCircle
 10
15.72765444938046
 20
4.457326252999998
 30
0.0
 40
20.233988242
100
AcDbArc
 50
218.787977819
 51
218.908255546
  0
LINE
  5
13A
330
1D
100
AcDbEntity
  8
1
100
AcDbLine
 10
0.0557323003804604
 20
-19.51025904700001
 30
0.0
 11
0.5999953503804604
 21
-19.51025904700001
 31
0.0
  0
LINE
  5
13B
330
1D
100
AcDbEntity
  8
1
100
AcDbLine
 10
-0.0174733796195396
 20
-19.509746354
 30
0.0
 11
0.0342224743804604
 21
-19.510079768
 31
0.0
  0
LINE
  5
13C
330
1D
100
AcDbEntity
  8
1
100
AcDbLine
 10
0.0342224743804604
 20
-19.510079768
 30
0.0
 11
0.0557323003804604
 21
-19.51025904700001
 31
0.0
  0
ARC
  5
13D
330
1D
100
AcDbEntity
  8
1
100
AcDbCircle
 10
0.2825275133804604
 20
37.497755637
 30
0.0
 40
57.008756748
100
AcDbArc
 50
268.50983613
 51
269.698485732
  0
LINE
  5
13E
330
1D
100
AcDbEntity
  8
1
100
AcDbLine
 10
-1.30000514761954
 20
6.096575747999998
 30
0.0
 11
-1.35741187161954
 21
5.754474889999998
 31
0.0
  0
LINE
  5
13F
330
1D
100
AcDbEntity
  8
1
100
AcDbLine
 10
-1.35741187161954
 20
5.754474889999998
 30
0.0
 11
-1.39709738861954
 21
5.317885767999998
 31
0.0
  0
LINE
  5
140
330
1D
100
AcDbEntity
  8
1
100
AcDbLine
 10
-1.20000345461954
 20
6.570477377999998
 30
0.0
 11
-1.30000514761954
 21
6.096575747999998
 31
0.0
  0
ARC
  5
141
330
1D
100
AcDbEntity
  8
1
100
AcDbCircle
 10
32.52168817038046
 20
-12.587051579
 30
0.0
 40
14.921953008
100
AcDbArc
 50
180.0
 51
189.998901382
  0
LINE
  5
142
330
1D
100
AcDbEntity
  8
1
100
AcDbLine
 10
15.77354907238046
 20
-4.260515455000002
 30
0.0
 11
15.77354907238046
 21
1.915933902999998
 31
0.0
  0
ARC
  5
143
330
1D
100
AcDbEntity
  8
1
100
AcDbCircle
 10
75.30751359738045
 20
-4.260515515000002
 30
0.0
 40
59.533964523
100
AcDbArc
 50
180.0
 51
185.344722231
  0
ARC
  5
144
330
1D
100
AcDbEntity
  8
1
100
AcDbCircle
 10
25.73948484938046
 20
-8.897777041000001
 30
0.0
 40
9.749492362
100
AcDbArc
 50
185.345024151
 51
192.606993773
  0
ARC
  5
145
330
1D
100
AcDbEntity
  8
1
100
AcDbCircle
 10
18.90734076638046
 20
-10.425817832
 30
0.0
 40
2.748556607
100
AcDbArc
 50
192.606993773
 51
207.00288411
  0
ARC
  5
146
330
1D
100
AcDbEntity
  8
1
100
AcDbCircle
 10
16.55920323338046
 20
-11.622403129
 30
0.0
 40
0.113112385
100
AcDbArc
 50
207.0026238010002
 51
270.0
  0
ARC
  5
147
330
1D
100
AcDbEntity
  8
1
100
AcDbCircle
 10
16.55920323338046
 20
-11.622403129
 30
0.0
 40
0.113112385
100
AcDbArc
 50
270.0
 51
332.9973761989998
  0
ARC
  5
148
330
1D
100
AcDbEntity
  8
1
100
AcDbCircle
 10
14.21106570038046
 20
-10.425817832
 30
0.0
 40
2.748556607
100
AcDbArc
 50
332.9971158899999
 51
347.393006227
  0
ARC
  5
149
330
1D
100
AcDbEntity
  8
1
100
AcDbCircle
 10
7.378921617380461
 20
-8.897777041000001
 30
0.0
 40
9.749492362
100
AcDbArc
 50
347.393006227
 51
354.654975849
  0
ARC
  5
14A
330
1D
100
AcDbEntity
  8
1
100
AcDbCircle
 10
-42.18910713161954
 20
-4.260515515000002
 30
0.0
 40
59.533964523
100
AcDbArc
 50
354.655277769
 51
0.0
  0
LINE
  5
14B
330
1D
100
AcDbEntity
  8
1
100
AcDbLine
 10
17.34485742838046
 20
0.3446250819999979
 30
0.0
 11
17.34485742838046
 21
-4.260515455000002
 31
0.0
  0
LINE
  5
14C
330
1D
100
AcDbEntity
  8
1
100
AcDbLine
 10
17.59973515438046
 20
0.0897481699999979
 30
0.0
 11
17.34485742838046
 21
0.3446250819999979
 31
0.0
  0
LINE
  5
14D
330
1D
100
AcDbEntity
  8
1
100
AcDbLine
 10
17.59973515438046
 20
0.0897481699999979
 30
0.0
 11
17.59973515438046
 21
-12.5870515
 31
0.0
  0
LINE
  5
14E
330
1D
100
AcDbEntity
  8
1
100
AcDbLine
 10
15.77354907238046
 20
1.915933902999998
 30
0.0
 11
15.68683805138046
 21
2.002643759999998
 31
0.0
  0
ARC
  5
14F
330
1D
100
AcDbEntity
  8
1
100
AcDbCircle
 10
21.71414149738046
 20
-21.601283282
 30
0.0
 40
4.269172334
100
AcDbArc
 50
165.199241645
 51
187.767911573
  0
LINE
  5
150
330
1D
100
AcDbEntity
  8
1
100
AcDbLine
 10
-1.20000345461954
 20
-10.170499455
 30
0.0
 11
-1.30000514761954
 21
-10.073011402
 31
0.0
  0
LINE
  5
151
330
1D
100
AcDbEntity
  8
1
100
AcDbLine
 10
-1.30000514761954
 20
10.051979091
 30
0.0
 11
-1.20000345461954
 21
10.149469938
 31
0.0
  0
LINE
  5
152
330
1D
100
AcDbEntity
  8
1
100
AcDbLine
 10
17.82642663638046
 20
-15.177932229
 30
0.0
 11
18.03215975038046
 21
-16.344702463
 31
0.0
  0
LINE
  5
153
330
1D
100
AcDbEntity
  8
1
100
AcDbLine
 10
18.03215975038046
 20
-16.344702463
 30
0.0
 11
17.96135152838046
 21
-16.479598019
 31
0.0
  0
LINE
  5
154
330
1D
100
AcDbEntity
  8
1
100
AcDbLine
 10
17.84283281438046
 20
-16.522735018
 30
0.0
 11
17.96135152838046
 21
-16.479598019
 31
0.0
  0
LINE
  5
155
330
1D
100
AcDbEntity
  8
1
100
AcDbLine
 10
18.54601625338046
 20
-20.510686688
 30
0.0
 11
17.84283281438046
 21
-16.522735018
 31
0.0
  0
LINE
  5
156
330
1D
100
AcDbEntity
  8
1
100
AcDbLine
 10
17.58662027038046
 20
-20.510686688
 30
0.0
 11
18.54601625338046
 21
-20.510686688
 31
0.0
  0
LINE
  5
157
330
1D
100
AcDbEntity
  8
1
100
AcDbLine
 10
-1.30000514761954
 20
-11.106232773
 30
0.0
 11
-1.20000345461954
 21
-11.361249383
 31
0.0
  0
LINE
  5
158
330
1D
100
AcDbEntity
  8
1
100
AcDbLine
 10
-1.40000497761954
 20
-10.673642751
 30
0.0
 11
-1.38775994861954
 21
-10.798805054
 31
0.0
  0
LINE
  5
159
330
1D
100
AcDbEntity
  8
1
100
AcDbLine
 10
-1.38775994861954
 20
-10.798805054
 30
0.0
 11
-1.30000514761954
 21
-11.106232773
 31
0.0
  0
LINE
  5
15A
330
1D
100
AcDbEntity
  8
1
100
AcDbLine
 10
-1.40000497761954
 20
-10.164308023
 30
0.0
 11
-1.40000497761954
 21
-10.673642751
 31
0.0
  0
LINE
  5
15B
330
1D
100
AcDbEntity
  8
1
100
AcDbLine
 10
-1.30000514761954
 20
-10.073011402
 30
0.0
 11
-1.31266182161954
 21
-10.06171539
 31
0.0
  0
LINE
  5
15C
330
1D
100
AcDbEntity
  8
1
100
AcDbLine
 10
-1.31266182161954
 20
-10.06171539
 30
0.0
 11
-1.33712021461954
 21
-10.046953928
 31
0.0
  0
LINE
  5
15D
330
1D
100
AcDbEntity
  8
1
100
AcDbLine
 10
-1.33712021461954
 20
-10.046953928
 30
0.0
 11
-1.35431988061954
 21
-10.044080797
 31
0.0
  0
LINE
  5
15E
330
1D
100
AcDbEntity
  8
1
100
AcDbLine
 10
-1.35431988061954
 20
-10.044080797
 30
0.0
 11
-1.36889507861954
 21
-10.049104352
 31
0.0
  0
LINE
  5
15F
330
1D
100
AcDbEntity
  8
1
100
AcDbLine
 10
-1.36889507861954
 20
-10.049104352
 30
0.0
 11
-1.38327469861954
 21
-10.065891441
 31
0.0
  0
LINE
  5
160
330
1D
100
AcDbEntity
  8
1
100
AcDbLine
 10
-1.38327469861954
 20
-10.065891441
 30
0.0
 11
-1.396123225619539
 21
-10.108073834
 31
0.0
  0
LINE
  5
161
330
1D
100
AcDbEntity
  8
1
100
AcDbLine
 10
-1.396123225619539
 20
-10.108073834
 30
0.0
 11
-1.40000497761954
 21
-10.164308023
 31
0.0
  0
LINE
  5
162
330
1D
100
AcDbEntity
  8
1
100
AcDbLine
 10
-1.40000497761954
 20
10.652611371
 30
0.0
 11
-1.40000497761954
 21
10.143278506
 31
0.0
  0
ARC
  5
163
330
1D
100
AcDbEntity
  8
1
100
AcDbCircle
 10
-0.1074646526195396
 20
10.581676244
 30
0.0
 40
1.294485335
100
AcDbArc
 50
157.109044074
 51
176.858735993
  0
LINE
  5
164
330
1D
100
AcDbEntity
  8
1
100
AcDbLine
 10
-1.20000345461954
 20
11.340218004
 30
0.0
 11
-1.30000514761954
 21
11.085203256
 31
0.0
  0
LINE
  5
165
330
1D
100
AcDbEntity
  8
1
100
AcDbLine
 10
-1.40000497761954
 20
10.143278506
 30
0.0
 11
-1.39474300561954
 21
10.079307821
 31
0.0
  0
LINE
  5
166
330
1D
100
AcDbEntity
  8
1
100
AcDbLine
 10
-1.39474300561954
 20
10.079307821
 30
0.0
 11
-1.38640580561954
 21
10.051286187
 31
0.0
  0
LINE
  5
167
330
1D
100
AcDbEntity
  8
1
100
AcDbLine
 10
-1.38640580561954
 20
10.051286187
 30
0.0
 11
-1.37148788061954
 21
10.029996153
 31
0.0
  0
LINE
  5
168
330
1D
100
AcDbEntity
  8
1
100
AcDbLine
 10
-1.37148788061954
 20
10.029996153
 30
0.0
 11
-1.35694248461954
 21
10.023350235
 31
0.0
  0
LINE
  5
169
330
1D
100
AcDbEntity
  8
1
100
AcDbLine
 10
-1.35694248461954
 20
10.023350235
 30
0.0
 11
-1.33918402561954
 21
10.025194254
 31
0.0
  0
LINE
  5
16A
330
1D
100
AcDbEntity
  8
1
100
AcDbLine
 10
-1.33918402561954
 20
10.025194254
 30
0.0
 11
-1.32146468261954
 21
10.03419083
 31
0.0
  0
LINE
  5
16B
330
1D
100
AcDbEntity
  8
1
100
AcDbLine
 10
-1.32146468261954
 20
10.03419083
 30
0.0
 11
-1.30000514761954
 21
10.051979091
 31
0.0
  0
LINE
  5
16C
330
1D
100
AcDbEntity
  8
1
100
AcDbLine
 10
-1.40000497761954
 20
10.143278506
 30
0.0
 11
-1.40000497761954
 21
-10.164308023
 31
0.0
  0
ARC
  5
16D
330
1D
100
AcDbEntity
  8
1
100
AcDbCircle
 10
-0.2047819776195396
 20
12.433537816
 30
0.0
 40
0.287331895
100
AcDbArc
 50
350.317178354
 51
13.49582945099999
  0
LINE
  5
16E
330
1D
100
AcDbEntity
  8
1
100
AcDbLine
 10
-1.20000345461954
 20
-13.434209522
 30
0.0
 11
-1.30000514761954
 21
-13.349759985
 31
0.0
  0
LINE
  5
16F
330
1D
100
AcDbEntity
  8
1
100
AcDbLine
 10
-1.30000514761954
 20
13.328729537
 30
0.0
 11
-1.20000345461954
 21
13.413178142
 31
0.0
  0
LINE
  5
170
330
1D
100
AcDbEntity
  8
1
100
AcDbLine
 10
-1.30000514761954
 20
-14.025983062
 30
0.0
 11
-1.20000345461954
 21
-14.218572188
 31
0.0
  0
ARC
  5
171
330
1D
100
AcDbEntity
  8
1
100
AcDbCircle
 10
-0.6270748726195396
 20
-13.637341933
 30
0.0
 40
0.777095285
100
AcDbArc
 50
185.9348744569999
 51
210.007959424
  0
LINE
  5
172
330
1D
100
AcDbEntity
  8
1
100
AcDbLine
 10
-1.40000497761954
 20
-13.386430811
 30
0.0
 11
-1.40000497761954
 21
-13.717692006
 31
0.0
  0
LINE
  5
173
330
1D
100
AcDbEntity
  8
1
100
AcDbLine
 10
-1.30000514761954
 20
-13.349759985
 30
0.0
 11
-1.320440227619539
 21
-13.334329832
 31
0.0
  0
LINE
  5
174
330
1D
100
AcDbEntity
  8
1
100
AcDbLine
 10
-1.320440227619539
 20
-13.334329832
 30
0.0
 11
-1.35086281061954
 21
-13.320035893
 31
0.0
  0
LINE
  5
175
330
1D
100
AcDbEntity
  8
1
100
AcDbLine
 10
-1.35086281061954
 20
-13.320035893
 30
0.0
 11
-1.37362805961954
 21
-13.320726003
 31
0.0
  0
LINE
  5
176
330
1D
100
AcDbEntity
  8
1
100
AcDbLine
 10
-1.37362805961954
 20
-13.320726003
 30
0.0
 11
-1.38705214361954
 21
-13.331178237
 31
0.0
  0
LINE
  5
177
330
1D
100
AcDbEntity
  8
1
100
AcDbLine
 10
-1.38705214361954
 20
-13.331178237
 30
0.0
 11
-1.39804174961954
 21
-13.360139575
 31
0.0
  0
LINE
  5
178
330
1D
100
AcDbEntity
  8
1
100
AcDbLine
 10
-1.39804174961954
 20
-13.360139575
 30
0.0
 11
-1.40000497761954
 21
-13.386430811
 31
0.0
  0
LINE
  5
179
330
1D
100
AcDbEntity
  8
1
100
AcDbLine
 10
-1.40000497761954
 20
13.696661558
 30
0.0
 11
-1.40000497761954
 21
13.365397569
 31
0.0
  0
ARC
  5
17A
330
1D
100
AcDbEntity
  8
1
100
AcDbCircle
 10
-0.7477354056195396
 20
13.655448875
 30
0.0
 40
0.653570256
100
AcDbArc
 50
147.672407242
 51
176.3846572779999
  0
LINE
  5
17B
330
1D
100
AcDbEntity
  8
1
100
AcDbLine
 10
-1.20000345461954
 20
14.19754174
 30
0.0
 11
-1.30000514761954
 21
14.004951682
 31
0.0
  0
LINE
  5
17C
330
1D
100
AcDbEntity
  8
1
100
AcDbLine
 10
-1.40000497761954
 20
13.365397569
 30
0.0
 11
-1.39621449461954
 21
13.330461796
 31
0.0
  0
LINE
  5
17D
330
1D
100
AcDbEntity
  8
1
100
AcDbLine
 10
-1.39621449461954
 20
13.330461796
 30
0.0
 11
-1.38544095561954
 21
13.308158483
 31
0.0
  0
LINE
  5
17E
330
1D
100
AcDbEntity
  8
1
100
AcDbLine
 10
-1.38544095561954
 20
13.308158483
 30
0.0
 11
-1.36957308161954
 21
13.298446652
 31
0.0
  0
LINE
  5
17F
330
1D
100
AcDbEntity
  8
1
100
AcDbLine
 10
-1.36957308161954
 20
13.298446652
 30
0.0
 11
-1.34753612661954
 21
13.299906965
 31
0.0
  0
LINE
  5
180
330
1D
100
AcDbEntity
  8
1
100
AcDbLine
 10
-1.34753612661954
 20
13.299906965
 30
0.0
 11
-1.32462372861954
 21
13.310639527
 31
0.0
  0
LINE
  5
181
330
1D
100
AcDbEntity
  8
1
100
AcDbLine
 10
-1.32462372861954
 20
13.310639527
 30
0.0
 11
-1.30000514761954
 21
13.328729537
 31
0.0
  0
LINE
  5
182
330
1D
100
AcDbEntity
  8
1
100
AcDbLine
 10
-1.40000497761954
 20
-10.673642751
 30
0.0
 11
-1.40000497761954
 21
-13.386430811
 31
0.0
  0
LINE
  5
183
330
1D
100
AcDbEntity
  8
1
100
AcDbLine
 10
-1.40000497761954
 20
13.365397569
 30
0.0
 11
-1.40000497761954
 21
10.652611371
 31
0.0
  0
LINE
  5
184
330
1D
100
AcDbEntity
  8
1
100
AcDbLine
 10
-1.30000514761954
 20
15.549594876
 30
0.0
 11
-1.20000345461954
 21
15.631283041
 31
0.0
  0
LINE
  5
185
330
1D
100
AcDbEntity
  8
1
100
AcDbLine
 10
-1.20000345461954
 20
-15.652314421
 30
0.0
 11
-1.30000514761954
 21
-15.570627186
 31
0.0
  0
LINE
  5
186
330
1D
100
AcDbEntity
  8
1
100
AcDbLine
 10
14.32498786738046
 20
-22.905056375
 30
0.0
 11
15.73432875038046
 21
-23.418089036
 31
0.0
  0
LINE
  5
187
330
1D
100
AcDbEntity
  8
1
100
AcDbLine
 10
15.73432875038046
 20
-23.418089036
 30
0.0
 11
17.33576725338046
 21
-24.00093061
 31
0.0
  0
LINE
  5
188
330
1D
100
AcDbEntity
  8
1
100
AcDbLine
 10
17.99699184638046
 20
-23.624358942
 30
0.0
 11
18.54601625338046
 21
-20.510686688
 31
0.0
  0
LINE
  5
189
330
1D
100
AcDbEntity
  8
1
100
AcDbLine
 10
17.48473777138046
 20
-22.189860126
 30
0.0
 11
17.53053905138046
 21
-22.695824281
 31
0.0
  0
LINE
  5
18A
330
1D
100
AcDbEntity
  8
1
100
AcDbLine
 10
17.53053905138046
 20
-22.695824281
 30
0.0
 11
17.57452553338046
 21
-23.01258036
 31
0.0
  0
LINE
  5
18B
330
1D
100
AcDbEntity
  8
1
100
AcDbLine
 10
17.57452553338046
 20
-23.01258036
 30
0.0
 11
17.62804142338046
 21
-23.283382655
 31
0.0
  0
LINE
  5
18C
330
1D
100
AcDbEntity
  8
1
100
AcDbLine
 10
17.62804142338046
 20
-23.283382655
 30
0.0
 11
17.71611252538046
 21
-23.566964617
 31
0.0
  0
LINE
  5
18D
330
1D
100
AcDbEntity
  8
1
100
AcDbLine
 10
17.71611252538046
 20
-23.566964617
 30
0.0
 11
17.78749339438046
 21
-23.697661828
 31
0.0
  0
LINE
  5
18E
330
1D
100
AcDbEntity
  8
1
100
AcDbLine
 10
17.78749339438046
 20
-23.697661828
 30
0.0
 11
17.84249660738046
 21
-23.750998206
 31
0.0
  0
LINE
  5
18F
330
1D
100
AcDbEntity
  8
1
100
AcDbLine
 10
17.84249660738046
 20
-23.750998206
 30
0.0
 11
17.88377189238046
 21
-23.765388828
 31
0.0
  0
LINE
  5
190
330
1D
100
AcDbEntity
  8
1
100
AcDbLine
 10
17.88377189238046
 20
-23.765388828
 30
0.0
 11
17.91433266038046
 21
-23.76065957200001
 31
0.0
  0
LINE
  5
191
330
1D
100
AcDbEntity
  8
1
100
AcDbLine
 10
17.91433266038046
 20
-23.76065957200001
 30
0.0
 11
17.93684715038046
 21
-23.747100097
 31
0.0
  0
LINE
  5
192
330
1D
100
AcDbEntity
  8
1
100
AcDbLine
 10
17.93684715038046
 20
-23.747100097
 30
0.0
 11
17.95345298138046
 21
-23.730017255
 31
0.0
  0
LINE
  5
193
330
1D
100
AcDbEntity
  8
1
100
AcDbLine
 10
17.95345298138046
 20
-23.730017255
 30
0.0
 11
17.96577833738046
 21
-23.712072357
 31
0.0
  0
LINE
  5
194
330
1D
100
AcDbEntity
  8
1
100
AcDbLine
 10
17.96577833738046
 20
-23.712072357
 30
0.0
 11
17.97502963038046
 21
-23.694497718
 31
0.0
  0
LINE
  5
195
330
1D
100
AcDbEntity
  8
1
100
AcDbLine
 10
17.97502963038046
 20
-23.694497718
 30
0.0
 11
17.98552097938046
 21
-23.66814850700001
 31
0.0
  0
LINE
  5
196
330
1D
100
AcDbEntity
  8
1
100
AcDbLine
 10
17.98552097938046
 20
-23.66814850700001
 30
0.0
 11
17.99031752338046
 21
-23.652583313
 31
0.0
  0
LINE
  5
197
330
1D
100
AcDbEntity
  8
1
100
AcDbLine
 10
17.99031752338046
 20
-23.652583313
 30
0.0
 11
17.99457203738046
 21
-23.635784582
 31
0.0
  0
LINE
  5
198
330
1D
100
AcDbEntity
  8
1
100
AcDbLine
 10
17.99457203738046
 20
-23.635784582
 30
0.0
 11
17.99699184638046
 21
-23.624358942
 31
0.0
  0
ARC
  5
199
330
1D
100
AcDbEntity
  8
1
100
AcDbCircle
 10
17.83774634938046
 20
-22.165937221
 30
0.0
 40
0.353818261
100
AcDbArc
 50
182.0036027839998
 51
183.8769282119997
  0
LINE
  5
19A
330
1D
100
AcDbEntity
  8
1
100
AcDbLine
 10
-1.40000497761954
 20
15.787301924
 30
0.0
 11
-1.40000497761954
 21
15.55324566
 31
0.0
  0
ARC
  5
19B
330
1D
100
AcDbEntity
  8
1
100
AcDbCircle
 10
-0.9076514496195396
 20
15.724567973
 30
0.0
 40
0.496334106
100
AcDbArc
 50
142.2325609100001
 51
172.7387006419999
  0
LINE
  5
19C
330
1D
100
AcDbEntity
  8
1
100
AcDbLine
 10
-1.20000345461954
 20
16.18820649
 30
0.0
 11
-1.30000514761954
 21
16.028551724
 31
0.0
  0
LINE
  5
19D
330
1D
100
AcDbEntity
  8
1
100
AcDbLine
 10
-1.40000497761954
 20
15.55324566
 30
0.0
 11
-1.39770833661954
 21
15.533889052
 31
0.0
  0
LINE
  5
19E
330
1D
100
AcDbEntity
  8
1
100
AcDbLine
 10
-1.39770833661954
 20
15.533889052
 30
0.0
 11
-1.38668892761954
 21
15.516938981
 31
0.0
  0
LINE
  5
19F
330
1D
100
AcDbEntity
  8
1
100
AcDbLine
 10
-1.38668892761954
 20
15.516938981
 30
0.0
 11
-1.36924711861954
 21
15.512852337
 31
0.0
  0
LINE
  5
1A0
330
1D
100
AcDbEntity
  8
1
100
AcDbLine
 10
-1.36924711861954
 20
15.512852337
 30
0.0
 11
-1.34563622861954
 21
15.519598838
 31
0.0
  0
LINE
  5
1A1
330
1D
100
AcDbEntity
  8
1
100
AcDbLine
 10
-1.34563622861954
 20
15.519598838
 30
0.0
 11
-1.31118288161954
 21
15.540836718
 31
0.0
  0
LINE
  5
1A2
330
1D
100
AcDbEntity
  8
1
100
AcDbLine
 10
-1.31118288161954
 20
15.540836718
 30
0.0
 11
-1.30000514761954
 21
15.549594876
 31
0.0
  0
LINE
  5
1A3
330
1D
100
AcDbEntity
  8
1
100
AcDbLine
 10
-1.30000514761954
 20
-16.049583103
 30
0.0
 11
-1.20000345461954
 21
-16.209236938
 31
0.0
  0
ARC
  5
1A4
330
1D
100
AcDbEntity
  8
1
100
AcDbCircle
 10
-0.8610149736195396
 20
-15.72626787
 30
0.0
 40
0.545201901
100
AcDbArc
 50
188.657336194
 51
216.3715587350002
  0
LINE
  5
1A5
330
1D
100
AcDbEntity
  8
1
100
AcDbLine
 10
-1.40000497761954
 20
-15.574277971
 30
0.0
 11
-1.40000497761954
 21
-15.808334235
 31
0.0
  0
LINE
  5
1A6
330
1D
100
AcDbEntity
  8
1
100
AcDbLine
 10
-1.30000514761954
 20
-15.570627186
 30
0.0
 11
-1.32689615561954
 21
-15.550959516
 31
0.0
  0
LINE
  5
1A7
330
1D
100
AcDbEntity
  8
1
100
AcDbLine
 10
-1.32689615561954
 20
-15.550959516
 30
0.0
 11
-1.35635947661954
 21
-15.536462549
 31
0.0
  0
LINE
  5
1A8
330
1D
100
AcDbEntity
  8
1
100
AcDbLine
 10
-1.35635947661954
 20
-15.536462549
 30
0.0
 11
-1.38013241661954
 21
-15.534906309
 31
0.0
  0
LINE
  5
1A9
330
1D
100
AcDbEntity
  8
1
100
AcDbLine
 10
-1.38013241661954
 20
-15.534906309
 30
0.0
 11
-1.39318769661954
 21
-15.544654462
 31
0.0
  0
LINE
  5
1AA
330
1D
100
AcDbEntity
  8
1
100
AcDbLine
 10
-1.39318769661954
 20
-15.544654462
 30
0.0
 11
-1.39996399961954
 21
-15.571353618
 31
0.0
  0
LINE
  5
1AB
330
1D
100
AcDbEntity
  8
1
100
AcDbLine
 10
-1.39996399961954
 20
-15.571353618
 30
0.0
 11
-1.40000497761954
 21
-15.574277971
 31
0.0
  0
LINE
  5
1AC
330
1D
100
AcDbEntity
  8
1
100
AcDbLine
 10
-1.40000497761954
 20
-13.717692006
 30
0.0
 11
-1.40000497761954
 21
-15.574277971
 31
0.0
  0
LINE
  5
1AD
330
1D
100
AcDbEntity
  8
1
100
AcDbLine
 10
-1.40000497761954
 20
15.55324566
 30
0.0
 11
-1.40000497761954
 21
13.696661558
 31
0.0
  0
LINE
  5
1AE
330
1D
100
AcDbEntity
  8
1
100
AcDbLine
 10
-1.20000345461954
 20
-17.233644273
 30
0.0
 11
-1.30000514761954
 21
-17.151072748
 31
0.0
  0
ARC
  5
1AF
330
1D
100
AcDbEntity
  8
1
100
AcDbCircle
 10
17.50578532738046
 20
-23.53065635700001
 30
0.0
 40
0.500064014
100
AcDbArc
 50
250.123575645
 51
349.2000078909998
  0
LINE
  5
1B0
330
1D
100
AcDbEntity
  8
1
100
AcDbLine
 10
-1.30000514761954
 20
-17.491078131
 30
0.0
 11
-1.20000345461954
 21
-17.629489895
 31
0.0
  0
ARC
  5
1B1
330
1D
100
AcDbEntity
  8
1
100
AcDbCircle
 10
-0.9892588486195396
 20
-17.209032062
 30
0.0
 40
0.419658489
100
AcDbArc
 50
191.829260228
 51
222.228171099
  0
LINE
  5
1B2
330
1D
100
AcDbEntity
  8
1
100
AcDbLine
 10
-1.40000497761954
 20
-17.129110765
 30
0.0
 11
-1.40000497761954
 21
-17.29506034
 31
0.0
  0
LINE
  5
1B3
330
1D
100
AcDbEntity
  8
1
100
AcDbLine
 10
-1.30000514761954
 20
-17.151072748
 30
0.0
 11
-1.33252879461954
 21
-17.12667069900001
 31
0.0
  0
LINE
  5
1B4
330
1D
100
AcDbEntity
  8
1
100
AcDbLine
 10
-1.33252879461954
 20
-17.12667069900001
 30
0.0
 11
-1.36343752861954
 21
-17.109953925
 31
0.0
  0
LINE
  5
1B5
330
1D
100
AcDbEntity
  8
1
100
AcDbLine
 10
-1.36343752861954
 20
-17.109953925
 30
0.0
 11
-1.38672990561954
 21
-17.106611874
 31
0.0
  0
LINE
  5
1B6
330
1D
100
AcDbEntity
  8
1
100
AcDbLine
 10
-1.38672990561954
 20
-17.106611874
 30
0.0
 11
-1.39756677561954
 21
-17.115616366
 31
0.0
  0
LINE
  5
1B7
330
1D
100
AcDbEntity
  8
1
100
AcDbLine
 10
-1.39756677561954
 20
-17.115616366
 30
0.0
 11
-1.40000497761954
 21
-17.129110765
 31
0.0
  0
LINE
  5
1B8
330
1D
100
AcDbEntity
  8
1
100
AcDbLine
 10
-1.40000497761954
 20
-15.808334235
 30
0.0
 11
-1.40000497761954
 21
-17.129110765
 31
0.0
  0
LINE
  5
1B9
330
1D
100
AcDbEntity
  8
1
100
AcDbLine
 10
-1.30000514761954
 20
18.237231638
 30
0.0
 11
-1.20000345461954
 21
18.322689798
 31
0.0
  0
LINE
  5
1BA
330
1D
100
AcDbEntity
  8
1
100
AcDbLine
 10
-1.20000345461954
 20
-18.34372210900001
 30
0.0
 11
-1.30000514761954
 21
-18.258263949
 31
0.0
  0
LINE
  5
1BB
330
1D
100
AcDbEntity
  8
1
100
AcDbLine
 10
-1.40000497761954
 20
-18.213864077
 30
0.0
 11
-1.40000497761954
 21
-18.325533845
 31
0.0
  0
LINE
  5
1BC
330
1D
100
AcDbEntity
  8
1
100
AcDbLine
 10
-1.30000514761954
 20
-18.258263949
 30
0.0
 11
-1.33765851961954
 21
-18.228371754
 31
0.0
  0
LINE
  5
1BD
330
1D
100
AcDbEntity
  8
1
100
AcDbLine
 10
-1.33765851961954
 20
-18.228371754
 30
0.0
 11
-1.36932721161954
 21
-18.208603036
 31
0.0
  0
LINE
  5
1BE
330
1D
100
AcDbEntity
  8
1
100
AcDbLine
 10
-1.36932721161954
 20
-18.208603036
 30
0.0
 11
-1.39156346961954
 21
-18.202467017
 31
0.0
  0
LINE
  5
1BF
330
1D
100
AcDbEntity
  8
1
100
AcDbLine
 10
-1.39156346961954
 20
-18.202467017
 30
0.0
 11
-1.39961195961954
 21
-18.209861252
 31
0.0
  0
LINE
  5
1C0
330
1D
100
AcDbEntity
  8
1
100
AcDbLine
 10
-1.39961195961954
 20
-18.209861252
 30
0.0
 11
-1.40000497761954
 21
-18.213864077
 31
0.0
  0
LINE
  5
1C1
330
1D
100
AcDbEntity
  8
1
100
AcDbLine
 10
-1.30000514761954
 20
-18.487215634
 30
0.0
 11
-1.20000345461954
 21
-18.61046081
 31
0.0
  0
ARC
  5
1C2
330
1D
100
AcDbEntity
  8
1
100
AcDbCircle
 10
-0.9630905026195397
 20
-18.167068938
 30
0.0
 40
0.464763795
100
AcDbArc
 50
199.9352477049998
 51
223.5381513829999
  0
LINE
  5
1C3
330
1D
100
AcDbEntity
  8
1
100
AcDbLine
 10
-1.40000497761954
 20
18.192833629
 30
0.0
 11
-1.39793557861954
 21
18.184895035
 31
0.0
  0
LINE
  5
1C4
330
1D
100
AcDbEntity
  8
1
100
AcDbLine
 10
-1.39793557861954
 20
18.184895035
 30
0.0
 11
-1.38512989361954
 21
18.181784418
 31
0.0
  0
LINE
  5
1C5
330
1D
100
AcDbEntity
  8
1
100
AcDbLine
 10
-1.38512989361954
 20
18.181784418
 30
0.0
 11
-1.36365918261954
 21
18.19053885
 31
0.0
  0
LINE
  5
1C6
330
1D
100
AcDbEntity
  8
1
100
AcDbLine
 10
-1.36365918261954
 20
18.19053885
 30
0.0
 11
-1.33483847461954
 21
18.209392544
 31
0.0
  0
LINE
  5
1C7
330
1D
100
AcDbEntity
  8
1
100
AcDbLine
 10
-1.33483847461954
 20
18.209392544
 30
0.0
 11
-1.30000514761954
 21
18.237231638
 31
0.0
  0
LINE
  5
1C8
330
1D
100
AcDbEntity
  8
1
100
AcDbLine
 10
-1.40000497761954
 20
18.30450293099999
 30
0.0
 11
-1.40000497761954
 21
18.192833629
 31
0.0
  0
ARC
  5
1C9
330
1D
100
AcDbEntity
  8
1
100
AcDbCircle
 10
-1.07020852161954
 20
18.212289552
 30
0.0
 40
0.34244563
100
AcDbArc
 50
132.14781436
 51
164.3786389059999
  0
LINE
  5
1CA
330
1D
100
AcDbEntity
  8
1
100
AcDbLine
 10
-1.20000345461954
 20
18.589428034
 30
0.0
 11
-1.30000514761954
 21
18.466184255
 31
0.0
  0
LINE
  5
1CB
330
1D
100
AcDbEntity
  8
1
100
AcDbLine
 10
-1.40000497761954
 20
18.192833629
 30
0.0
 11
-1.40000497761954
 21
15.787301924
 31
0.0
  0
LINE
  5
1CC
330
1D
100
AcDbEntity
  8
1
100
AcDbLine
 10
-1.40000497761954
 20
-17.29506034
 30
0.0
 11
-1.40000497761954
 21
-18.213864077
 31
0.0
  0
LINE
  5
1CD
330
1D
100
AcDbEntity
  8
1
100
AcDbLine
 10
-1.20000345461954
 20
-19.065088719
 30
0.0
 11
-1.30000514761954
 21
-18.975271039
 31
0.0
  0
LINE
  5
1CE
330
1D
100
AcDbEntity
  8
1
100
AcDbLine
 10
-1.30000514761954
 20
18.954238262
 30
0.0
 11
-1.20000345461954
 21
19.044058737
 31
0.0
  0
LINE
  5
1CF
330
1D
100
AcDbEntity
  8
1
100
AcDbLine
 10
-1.30000514761954
 20
-19.107814539
 30
0.0
 11
-1.20000345461954
 21
-19.219567195
 31
0.0
  0
ARC
  5
1D0
330
1D
100
AcDbEntity
  8
1
100
AcDbCircle
 10
-0.9811258886195396
 20
-18.764807968
 30
0.0
 40
0.468334805
100
AcDbArc
 50
206.568414503
 51
227.0876431019999
  0
LINE
  5
1D1
330
1D
100
AcDbEntity
  8
1
100
AcDbLine
 10
-1.40000497761954
 20
-18.909655638
 30
0.0
 11
-1.40000497761954
 21
-18.974278249
 31
0.0
  0
LINE
  5
1D2
330
1D
100
AcDbEntity
  8
1
100
AcDbLine
 10
-1.30000514761954
 20
-18.975271039
 30
0.0
 11
-1.34248649561954
 21
-18.938876349
 31
0.0
  0
LINE
  5
1D3
330
1D
100
AcDbEntity
  8
1
100
AcDbLine
 10
-1.34248649561954
 20
-18.938876349
 30
0.0
 11
-1.37438243061954
 21
-18.915305041
 31
0.0
  0
LINE
  5
1D4
330
1D
100
AcDbEntity
  8
1
100
AcDbLine
 10
-1.37438243061954
 20
-18.915305041
 30
0.0
 11
-1.39276115061954
 21
-18.905934539
 31
0.0
  0
LINE
  5
1D5
330
1D
100
AcDbEntity
  8
1
100
AcDbLine
 10
-1.39276115061954
 20
-18.905934539
 30
0.0
 11
-1.39994909861954
 21
-18.908741079
 31
0.0
  0
LINE
  5
1D6
330
1D
100
AcDbEntity
  8
1
100
AcDbLine
 10
-1.39994909861954
 20
-18.908741079
 30
0.0
 11
-1.40000497761954
 21
-18.909655638
 31
0.0
  0
ARC
  5
1D7
330
1D
100
AcDbEntity
  8
1
100
AcDbCircle
 10
-1.00927718961954
 20
18.764859526
 30
0.0
 40
0.433772027
100
AcDbArc
 50
132.084984826
 51
154.2591492939999
  0
LINE
  5
1D8
330
1D
100
AcDbEntity
  8
1
100
AcDbLine
 10
-1.20000345461954
 20
19.198535349
 30
0.0
 11
-1.30000514761954
 21
19.08678409099999
 31
0.0
  0
ARC
  5
1D9
330
1D
100
AcDbEntity
  8
1
100
AcDbCircle
 10
-1.43834716261954
 20
19.056071314
 30
0.0
 40
0.171780335
100
AcDbArc
 50
282.8973327840001
 51
323.6433513190001
  0
LINE
  5
1DA
330
1D
100
AcDbEntity
  8
1
100
AcDbLine
 10
-1.40000497761954
 20
18.953247335
 30
0.0
 11
-1.40000497761954
 21
18.888624724
 31
0.0
  0
LINE
  5
1DB
330
1D
100
AcDbEntity
  8
1
100
AcDbLine
 10
-1.40000497761954
 20
-18.325533845
 30
0.0
 11
-1.40000497761954
 21
-18.909655638
 31
0.0
  0
LINE
  5
1DC
330
1D
100
AcDbEntity
  8
1
100
AcDbLine
 10
-1.40000497761954
 20
18.888624724
 30
0.0
 11
-1.40000497761954
 21
18.30450293099999
 31
0.0
  0
LINE
  5
1DD
330
1D
100
AcDbEntity
  8
1
100
AcDbLine
 10
15.77354907238046
 20
1.915933902999998
 30
0.0
 11
17.34485742838046
 21
0.3446250819999979
 31
0.0
  0
LINE
  5
1DE
330
1D
100
AcDbEntity
  8
1
100
AcDbLine
 10
-1.20000345461954
 20
-19.44108599400001
 30
0.0
 11
-1.30000514761954
 21
-19.345550459
 31
0.0
  0
LINE
  5
1DF
330
1D
100
AcDbEntity
  8
1
100
AcDbLine
 10
-1.30000514761954
 20
19.324520942
 30
0.0
 11
-1.20000345461954
 21
19.420056012
 31
0.0
  0
LINE
  5
1E0
330
1D
100
AcDbEntity
  8
1
100
AcDbLine
 10
-1.20000345461954
 20
19.470690157
 30
0.0
 11
-1.30000514761954
 21
19.367957827
 31
0.0
  0
ARC
  5
1E1
330
1D
100
AcDbEntity
  8
1
100
AcDbCircle
 10
-1.79916613161954
 20
19.798326815
 30
0.0
 40
0.688225031
100
AcDbArc
 50
305.4495856519999
 51
316.492766278
  0
LINE
  5
1E2
330
1D
100
AcDbEntity
  8
1
100
AcDbLine
 10
-1.40000497761954
 20
19.25885525
 30
0.0
 11
-1.40000497761954
 21
19.23768069999999
 31
0.0
  0
ARC
  5
1E3
330
1D
100
AcDbEntity
  8
1
100
AcDbCircle
 10
-0.6691965536195396
 20
18.689399873
 30
0.0
 40
0.926477404
100
AcDbArc
 50
132.911490106
 51
142.073817323
  0
ARC
  5
1E4
330
1D
100
AcDbEntity
  8
1
100
AcDbCircle
 10
-1.62378350861954
 20
-19.617406212
 30
0.0
 40
0.422774145
100
AcDbArc
 50
40.01800701800013
 51
58.04116208199994
  0
LINE
  5
1E5
330
1D
100
AcDbEntity
  8
1
100
AcDbLine
 10
-1.30000514761954
 20
-19.388988275
 30
0.0
 11
-1.20000345461954
 21
-19.491721071
 31
0.0
  0
ARC
  5
1E6
330
1D
100
AcDbEntity
  8
1
100
AcDbCircle
 10
-0.6462674296195396
 20
-18.68940416
 30
0.0
 40
0.957492004
100
AcDbArc
 50
218.07540362
 51
226.9402634369999
  0
LINE
  5
1E7
330
1D
100
AcDbEntity
  8
1
100
AcDbLine
 10
-1.40000497761954
 20
-19.25871254500001
 30
0.0
 11
-1.40000497761954
 21
-19.279887561
 31
0.0
  0
LINE
  5
1E8
330
1D
100
AcDbEntity
  8
1
100
AcDbLine
 10
-1.40000497761954
 20
-18.974278249
 30
0.0
 11
-1.40000497761954
 21
-19.25871254500001
 31
0.0
  0
LINE
  5
1E9
330
1D
100
AcDbEntity
  8
1
100
AcDbLine
 10
-1.40000497761954
 20
19.23768069999999
 30
0.0
 11
-1.40000497761954
 21
18.953247335
 31
0.0
  0
ARC
  5
1EA
330
1D
100
AcDbEntity
  8
CUT
100
AcDbCircle
 10
17.62179978738046
 20
-17.30034231200001
 30
0.0
 40
0.507772745
100
AcDbArc
 50
10.00000000000002
 51
56.00368295300005
  0
LINE
  5
1EB
330
1D
100
AcDbEntity
  8
CUT
100
AcDbLine
 10
18.70162189138046
 20
-20.500171125
 30
0.0
 11
18.12185833838046
 21
-17.21216844
 31
0.0
  0
LINE
  5
1EC
330
1D
100
AcDbEntity
  8
CUT
100
AcDbLine
 10
18.12185833838046
 20
-23.78817381
 30
0.0
 11
18.70162189138046
 21
-20.500171125
 31
0.0
  0
ARC
  5
1ED
330
1D
100
AcDbEntity
  8
CUT
100
AcDbCircle
 10
17.62179978738046
 20
-23.7
 30
0.0
 40
0.507772745
100
AcDbArc
 50
249.9999999999998
 51
349.9999999999999
  0
LINE
  5
1EE
330
1D
100
AcDbEntity
  8
CUT
100
AcDbLine
 10
14.31075586138046
 20
-23.035238973
 30
0.0
 11
17.44813132238046
 21
-24.177150287
 31
0.0
  0
LINE
  5
1EF
330
1D
100
AcDbEntity
  8
CUT
100
AcDbLine
 10
14.15561009338046
 20
-22.905056375
 30
0.0
 11
14.31075586138046
 21
-23.035238973
 31
0.0
  0
LINE
  5
1F0
330
1D
100
AcDbEntity
  8
CUT
100
AcDbLine
 10
14.31075586138046
 20
-23.035238973
 30
0.0
 11
14.16238779338046
 21
-23.292219276
 31
0.0
  0
LINE
  5
1F1
330
1D
100
AcDbEntity
  8
CUT
100
AcDbLine
 10
14.16238779338046
 20
-23.292219276
 30
0.0
 11
13.70098497838046
 21
-22.905056375
 31
0.0
  0
LINE
  5
1F2
330
1D
100
AcDbEntity
  8
CUT
100
AcDbLine
 10
17.34818364638046
 20
-24.451754095
 30
0.0
 11
14.16238779338046
 21
-23.292219276
 31
0.0
  0
ARC
  5
1F3
330
1D
100
AcDbEntity
  8
CUT
100
AcDbCircle
 10
17.62179978738046
 20
-17.30034231200001
 30
0.0
 40
0.8
100
AcDbArc
 50
10.00000000000008
 51
73.83986950099998
  0
LINE
  5
1F4
330
1D
100
AcDbEntity
  8
CUT
100
AcDbLine
 10
18.40964597838046
 20
-17.161423933
 30
0.0
 11
18.99835723538046
 21
-20.500171125
 31
0.0
  0
LINE
  5
1F5
330
1D
100
AcDbEntity
  8
CUT
100
AcDbLine
 10
18.70162189138046
 20
-20.500171125
 30
0.0
 11
18.99835723538046
 21
-20.500171125
 31
0.0
  0
LINE
  5
1F6
330
1D
100
AcDbEntity
  8
CUT
100
AcDbLine
 10
18.99835723538046
 20
-20.500171125
 30
0.0
 11
18.40964597838046
 21
-23.83891855
 31
0.0
  0
ARC
  5
1F7
330
1D
100
AcDbEntity
  8
CUT
100
AcDbCircle
 10
17.62179978738046
 20
-23.7
 30
0.0
 40
0.8
100
AcDbArc
 50
250.0
 51
349.9999999999999
  0
LINE
  5
1F8
330
1D
100
AcDbEntity
  8
1
100
AcDbLine
 10
15.73355947738046
 20
-13.703170825
 30
0.0
 11
15.86576351138046
 21
-14.449443329
 31
0.0
  0
LINE
  5
1F9
330
1D
100
AcDbEntity
  8
1
100
AcDbLine
 10
15.86576351138046
 20
-14.449443329
 30
0.0
 11
16.03487236538046
 21
-15.177932229
 31
0.0
  0
ARC
  5
1FA
330
1D
100
AcDbEntity
  8
1
100
AcDbCircle
 10
199.4908038593805
 20
31.467007412
 30
0.0
 40
189.292971725
100
AcDbArc
 50
194.265568673
 51
195.323513723
  0
ARC
  5
1FB
330
1D
100
AcDbEntity
  8
1
100
AcDbCircle
 10
46.27510161738046
 20
-10.515519305
 30
0.0
 40
30.392334869
100
AcDbArc
 50
195.32376505
 51
199.208515643
  0
LINE
  5
1FC
330
1D
100
AcDbEntity
  8
CUT
100
AcDbLine
 10
17.44813132238046
 20
-24.177150287
 30
0.0
 11
17.34818364638046
 21
-24.451754095
 31
0.0
  0
LINE
  5
1FD
330
1D
100
AcDbEntity
  8
CUT
100
AcDbLine
 10
18.12185833838046
 20
-17.21216844
 30
0.0
 11
18.40964597838046
 21
-17.161423933
 31
0.0
  0
LINE
  5
1FE
330
1D
100
AcDbEntity
  8
CUT
100
AcDbLine
 10
18.12185833838046
 20
-23.78817381
 30
0.0
 11
18.40964597838046
 21
-23.83891855
 31
0.0
  0
LINE
  5
2A0
330
1D
100
AcDbEntity
  8
1
100
AcDbLine
 10
12.15841537538046
 20
21.610686682
 30
0.0
 11
13.70098497838046
 21
22.905056375
 31
0.0
  0
LINE
  5
2A1
330
1D
100
AcDbEntity
  8
3
100
AcDbLine
 10
13.70098497838046
 20
22.905056375
 30
0.0
 11
17.36854982159726
 21
24.20024547308692
 31
0.0
  0
LINE
  5
2A2
330
1D
100
AcDbEntity
  8
3
100
AcDbLine
 10
17.36854982159726
 20
24.20024547308692
 30
0.0
 11
17.96049253755627
 21
24.20024547308692
 31
0.0
  0
LINE
  5
2A3
330
1D
100
AcDbEntity
  8
3
100
AcDbLine
 10
17.96049253755627
 20
24.20024547308692
 30
0.0
 11
18.6811184526368
 21
20.57137925785998
 31
0.0
  0
LINE
  5
2A4
330
1D
100
AcDbEntity
  8
3
100
AcDbLine
 10
18.6811184526368
 20
20.57137925785998
 30
0.0
 11
18.01196581720488
 21
16.91677640280875
 31
0.0
  0
LINE
  5
2A5
330
1D
100
AcDbEntity
  8
1
100
AcDbLine
 10
17.84580685334293
 20
16.53234437294099
 30
0.0
 11
17.84364545188046
 21
16.527343668
 31
0.0
  0
LINE
  5
2A6
330
1D
100
AcDbEntity
  8
1
100
AcDbLine
 10
12.13335162138046
 20
19.410686694
 30
0.0
 11
13.641175638424
 21
18.14547211158242
 31
0.0
  0
LINE
  5
2A7
330
1D
100
AcDbEntity
  8
1
100
AcDbLine
 10
14.79261653462193
 20
17.4787385856009
 30
0.0
 11
17.34818367271993
 21
16.54858821537127
 31
0.0
  0
LINE
  5
2A8
330
1D
100
AcDbEntity
  8
1
100
AcDbLine
 10
17.34818367271993
 20
16.54858821537127
 30
0.0
 11
17.82603518874932
 21
16.37037851312856
 31
0.0
  0
LINE
  5
2A9
330
1D
100
AcDbEntity
  8
1
100
AcDbLine
 10
17.82603518874932
 20
16.37037851312856
 30
0.0
 11
17.84189513947554
 21
16.41395327282999
 31
0.0
  0
LINE
  5
2AB
330
1D
100
AcDbEntity
  8
1
100
AcDbLine
 10
14.16238779338046
 20
23.292219276
 30
0.0
 11
11.56530356563123
 21
21.11300671049518
 31
0.0
  0
LINE
  5
2AC
330
1D
100
AcDbEntity
  8
1
100
AcDbLine
 10
11.56530356563123
 20
19.88733560150482
 30
0.0
 11
14.15374973523541
 21
17.71304689405827
 31
0.0
  0
LINE
  5
2AD
330
1D
100
AcDbEntity
  8
1
100
AcDbLine
 10
17.34818367271993
 20
16.54858821537127
 30
0.0
 11
14.15374973523541
 21
17.71304689405827
 31
0.0
  0
LINE
  5
2B5
330
1D
100
AcDbEntity
  8
NOCUT
100
AcDbLine
 10
17.59973515438046
 20
-0.0000000000000022
 30
0.0
 11
0.0
 21
0.0
 31
0.0
  0
LINE
  5
2B6
330
1D
100
AcDbEntity
  8
NOCUT
100
AcDbLine
 10
0.0
 20
0.0
 30
0.0
 11
0.0000000000000012
 21
19.48626339617577
 31
0.0
  0
LINE
  5
2B8
330
1D
100
AcDbEntity
  8
NOCUT
100
AcDbLine
 10
0.0000000000000012
 20
19.48626339617577
 30
0.0
 11
0.7835501389532742
 21
19.48626339617577
 31
0.0
  0
LINE
  5
2B9
330
1D
100
AcDbEntity
  8
NOCUT
100
AcDbLine
 10
0.7835501389532742
 20
19.48626339617577
 30
0.0
 11
2.82072099038046
 21
23.010298154
 31
0.0
  0
LINE
  5
2BA
330
1D
100
AcDbEntity
  8
NOCUT
100
AcDbLine
 10
2.82072099038046
 20
23.010298154
 30
0.0
 11
13.09006018738046
 21
23.010298154
 31
0.0
  0
LINE
  5
2BB
330
1D
100
AcDbEntity
  8
NOCUT
100
AcDbLine
 10
13.09006018738046
 20
23.010298154
 30
0.0
 11
13.17836819338046
 21
22.905056375
 31
0.0
  0
LINE
  5
2BC
330
1D
100
AcDbEntity
  8
NOCUT
100
AcDbLine
 10
13.17836819338046
 20
22.905056375
 30
0.0
 11
13.70098497838046
 21
22.905056375
 31
0.0
  0
LINE
  5
2C4
330
1D
100
AcDbEntity
  8
NOCUT
100
AcDbLine
 10
17.84580685334292
 20
16.53234437294099
 30
0.0
 11
17.84364545188046
 21
16.527343668
 31
0.0
  0
LINE
  5
2C5
330
1D
100
AcDbEntity
  8
NOCUT
100
AcDbLine
 10
17.84364545188046
 20
16.527343668
 30
0.0
 11
17.84283281438046
 21
16.522735018
 31
0.0
  0
LINE
  5
2C6
330
1D
100
AcDbEntity
  8
NOCUT
100
AcDbLine
 10
17.84283281438046
 20
16.522735018
 30
0.0
 11
17.96135152838046
 21
16.479598019
 31
0.0
  0
LINE
  5
2C7
330
1D
100
AcDbEntity
  8
NOCUT
100
AcDbLine
 10
17.96135152838046
 20
16.479598019
 30
0.0
 11
18.03215975038046
 21
16.344702464
 31
0.0
  0
LINE
  5
2C8
330
1D
100
AcDbEntity
  8
NOCUT
100
AcDbLine
 10
18.03215975038046
 20
16.344702464
 30
0.0
 11
17.82642665635481
 21
15.17793213845775
 31
0.0
  0
ARC
  5
2C9
330
1D
100
AcDbEntity
  8
NOCUT
100
AcDbCircle
 10
32.52168817037962
 20
12.58705157900008
 30
0.0
 40
14.92190916199916
100
AcDbArc
 50
170.0010986179998
 51
180.0000000000002
  0
LINE
  5
2CA
330
1D
100
AcDbEntity
  8
NOCUT
100
AcDbLine
 10
17.59977900838046
 20
12.587051579
 30
0.0
 11
17.59973515438046
 21
-0.0000000000000022
 31
0.0
  0
LWPOLYLINE
  5
2CC
330
1D
100
AcDbEntity
  8
INFTOTAL
100
AcDbPolyline
 90
        4
 70
     1
 43
0.0
 10
-25.31136547933048
 20
51.37515510721045
 10
-25.31136547933048
 20
-44.20168562449065
 10
41.80215277741255
 20
-44.20168562449065
 10
41.80215277741255
 20
51.37515510721045
  0
LINE
  5
2FB
330
1D
100
AcDbEntity
  8
CUT
100
AcDbLine
 10
17.34818364638046
 20
24.451754095
 30
0.0
 11
14.16238779338045
 21
23.292219276
 31
0.0
  0
ARC
  5
2FC
330
1D
100
AcDbEntity
  8
CUT
100
AcDbCircle
 10
17.62179978738045
 20
23.7
 30
0.0
 40
0.8
100
AcDbArc
 50
10.00000000000008
 51
109.9999999999994
  0
LINE
  5
2FD
330
1D
100
AcDbEntity
  8
CUT
100
AcDbLine
 10
18.99835723538045
 20
20.500171125
 30
0.0
 11
18.40964597838045
 21
23.83891855
 31
0.0
  0
LINE
  5
2FE
330
1D
100
AcDbEntity
  8
CUT
100
AcDbLine
 10
18.40964597838045
 20
17.161423933
 30
0.0
 11
18.99835723538045
 21
20.500171125
 31
0.0
  0
ARC
  5
2FF
330
1D
100
AcDbEntity
  8
CUT
100
AcDbCircle
 10
17.62179978738045
 20
17.300342312
 30
0.0
 40
0.8
100
AcDbArc
 50
250.0000000000006
 51
349.9999999999999
  0
ARC
  5
300
330
1D
100
AcDbEntity
  8
CUT
100
AcDbCircle
 10
12.07953365338046
 20
20.500171156
 30
0.0
 40
0.8
100
AcDbArc
 50
130.0000000000006
 51
229.9999999999994
  0
LINE
  5
301
330
1D
100
AcDbEntity
  8
CUT
100
AcDbLine
 10
14.16238779338045
 20
23.292219276
 30
0.0
 11
11.56530356563122
 21
21.11300671049518
 31
0.0
  0
LINE
  5
302
330
1D
100
AcDbEntity
  8
CUT
100
AcDbLine
 10
11.56530356563122
 20
19.88733560150482
 30
0.0
 11
14.1537497352354
 21
17.71304689405827
 31
0.0
  0
LINE
  5
303
330
1D
100
AcDbEntity
  8
CUT
100
AcDbLine
 10
17.34818367271992
 20
16.54858821537128
 30
0.0
 11
14.1537497352354
 21
17.71304689405827
 31
0.0
  0
CIRCLE
  5
304
330
1D
100
AcDbEntity
  8
1
100
AcDbCircle
 10
15.57601626838045
 20
20.510686675
 30
0.0
 40
1.699999999999999
  0
HATCH
  5
327
330
1D
100
AcDbEntity
  8
7
100
AcDbHatch
 10
0.0
 20
0.0
 30
0.0
210
0.0
220
0.0
230
1.0
  2
ANSI37
 70
     0
 71
     0
 91
        2
 92
        7
 72
     1
 73
     1
 93
        9
 10
18.99835723538045
 20
20.500171125
 42
0.0
 10
18.40964598693777
 20
23.83891854410016
 42
0.4663076601247946
 10
17.34818366613505
 20
24.45175409622155
 42
0.0
 10
14.16238779338045
 20
23.292219276
 42
0.0
 10
11.56530356563122
 20
21.11300671049517
 42
0.4663076581547529
 10
11.56530356563076
 20
19.88733560150519
 42
0.0
 10
14.1537497352354
 20
17.71304689405827
 42
0.0
 10
17.34818367272326
 20
16.54858821537006
 42
0.4663076813154802
 10
18.40964598693775
 20
17.16142381064984
 42
0.0
 97
        0
 92
       22
 72
     1
 73
     1
 93
        2
 10
13.87601626838045
 20
20.510686675
 42
-0.9999999999999999
 10
17.27601626838045
 20
20.510686675
 42
-0.9999999999999999
 97
        0
 75
     0
 76
     1
 52
90.0
 41
5.0
 77
     0
 78
     2
 53
135.0
 43
-76.07106621719865
 44
-14.47474352978998
 45
-0.4419417382415922
 46
-0.4419417382415922
 79
     0
 53
225.0
 43
-76.07106621719865
 44
-14.47474352978998
 45
0.4419417382415922
 46
-0.4419417382415923
 79
     0
 47
0.0
 98
        2
 10
18.8935800980132
 20
21.06558695050435
 10
18.8935800980132
 20
21.06558695050435
1001
ACAD
1010
0.0
1020
0.0
1030
0.0
1001
PE_URL
1000

  0
LINE
  5
32B
330
1D
100
AcDbEntity
  8
3
100
AcDbLine
 10
18.01196581720488
 20
16.91677640280875
 30
0.0
 11
17.84580685334293
 21
16.53234437294099
 31
0.0
  0
LINE
  5
35F
330
1D
100
AcDbEntity
  8
NOCUT
100
AcDbLine
 10
13.70098497838046
 20
22.905056375
 30
0.0
 11
17.36854982159726
 21
24.20024547308692
 31
0.0
  0
LINE
  5
360
330
1D
100
AcDbEntity
  8
NOCUT
100
AcDbLine
 10
17.36854982159726
 20
24.20024547308692
 30
0.0
 11
17.96049253755627
 21
24.20024547308692
 31
0.0
  0
LINE
  5
361
330
1D
100
AcDbEntity
  8
NOCUT
100
AcDbLine
 10
17.96049253755627
 20
24.20024547308692
 30
0.0
 11
18.6811184526368
 21
20.57137925785998
 31
0.0
  0
LINE
  5
362
330
1D
100
AcDbEntity
  8
NOCUT
100
AcDbLine
 10
18.6811184526368
 20
20.57137925785998
 30
0.0
 11
18.01196581720488
 21
16.91677640280875
 31
0.0
  0
LINE
  5
363
330
1D
100
AcDbEntity
  8
NOCUT
100
AcDbLine
 10
18.01196581720488
 20
16.91677640280875
 30
0.0
 11
17.84364545188046
 21
16.527343668
 31
0.0
  0
LINE
  5
36C
330
1D
100
AcDbEntity
  8
4
100
AcDbLine
 10
22.07153322538046
 20
-0.0000000000000022
 30
0.0
 11
0.0
 21
0.0
 31
0.0
  0
ENDSEC
  0
SECTION
  2
OBJECTS
  0
DICTIONARY
  5
C
330
0
100
AcDbDictionary
281
     1
  3
ACAD_COLOR
350
315
  3
ACAD_DETAILVIEWSTYLE
350
299
  3
ACAD_GROUP
350
D
  3
ACAD_LAYOUT
350
1A
  3
ACAD_MATERIAL
350
23C
  3
ACAD_MLEADERSTYLE
350
249
  3
ACAD_MLINESTYLE
350
17
  3
ACAD_PLOTSETTINGS
350
19
  3
ACAD_PLOTSTYLENAME
350
E
  3
ACAD_SCALELIST
350
205
  3
ACAD_SECTIONVIEWSTYLE
350
29A
  3
ACAD_TABLESTYLE
350
292
  3
ACAD_VISUALSTYLE
350
22B
  3
ACDB_RECOMPOSE_DATA
350
37A
  3
AcDbVariableDictionary
350
247
  3
APPDATA
350
295
  0
SUN
  5
2CD
330
1FF
100
AcDbSun
 90
        1
290
     0
 63
     7
421
 16777215
 40
1.0
291
     1
 91
  2455826
 92
 54000000
292
     0
 70
     2
 71
   256
280
     1
  0
DICTIONARY
  5
29B
330
2
100
AcDbDictionary
280
     1
281
     1
  3
ACAD_LAYERSTATES
360
29C
  0
DICTIONARY
  5
324
330
1D
100
AcDbDictionary
280
     1
281
     1
  3
ACAD_SORTENTS
360
325
  0
DICTIONARY
  5
315
102
{ACAD_REACTORS
330
C
102
}
330
C
100
AcDbDictionary
281
     1
  0
DICTIONARY
  5
299
102
{ACAD_REACTORS
330
C
102
}
330
C
100
AcDbDictionary
281
     1
  0
DICTIONARY
  5
D
102
{ACAD_REACTORS
330
C
102
}
330
C
100
AcDbDictionary
281
     1
  0
DICTIONARY
  5
1A
102
{ACAD_REACTORS
330
C
102
}
330
C
100
AcDbDictionary
281
     1
  3
Layout1
350
1C
  3
Model
350
1E
  0
DICTIONARY
  5
23C
102
{ACAD_REACTORS
330
C
102
}
330
C
100
AcDbDictionary
281
     1
  3
ByBlock
350
23E
  3
ByLayer
350
23D
  3
Global
350
23F
  0
DICTIONARY
  5
249
102
{ACAD_REACTORS
330
C
102
}
330
C
100
AcDbDictionary
281
     1
  3
Standard
350
294
  0
DICTIONARY
  5
17
102
{ACAD_REACTORS
330
C
102
}
330
C
100
AcDbDictionary
281
     1
  3
Standard
350
18
  0
DICTIONARY
  5
19
102
{ACAD_REACTORS
330
C
102
}
330
C
100
AcDbDictionary
281
     1
  0
ACDBDICTIONARYWDFLT
  5
E
102
{ACAD_REACTORS
330
C
102
}
330
C
100
AcDbDictionary
281
     1
  3
Normal
350
F
100
AcDbDictionaryWithDefault
340
F
  0
DICTIONARY
  5
205
102
{ACAD_REACTORS
330
C
102
}
330
C
100
AcDbDictionary
281
     1
  3
A0
350
206
  3
A1
350
207
  3
A2
350
208
  3
A3
350
209
  3
A4
350
20A
  3
A5
350
20B
  3
A6
350
20C
  3
A7
350
20D
  3
A8
350
20E
  3
A9
350
20F
  3
B0
350
210
  3
B1
350
211
  3
B2
350
212
  3
B3
350
213
  3
B4
350
214
  3
B5
350
215
  3
B6
350
216
  3
B7
350
217
  3
B8
350
218
  3
B9
350
219
  3
C0
350
21A
  3
C1
350
21B
  3
C2
350
21C
  3
C3
350
21D
  3
C4
350
21E
  3
C5
350
21F
  3
C6
350
220
  3
C7
350
221
  3
C8
350
222
  3
C9
350
223
  3
D0
350
224
  3
D1
350
225
  3
D2
350
226
  0
DICTIONARY
  5
29A
102
{ACAD_REACTORS
330
C
102
}
330
C
100
AcDbDictionary
281
     1
  0
DICTIONARY
  5
292
102
{ACAD_REACTORS
330
C
102
}
330
C
100
AcDbDictionary
281
     1
  3
Standard
350
293
  0
DICTIONARY
  5
22B
102
{ACAD_REACTORS
330
C
102
}
330
C
100
AcDbDictionary
281
     1
  3
2dWireframe
350
230
  3
3D Hidden
350
232
  3
3dWireframe
350
231
  3
Basic
350
233
  3
Brighten
350
237
  3
ColorChange
350
23B
  3
Conceptual
350
235
  3
Dim
350
236
  3
EdgeColorOff
350
28C
  3
Facepattern
350
23A
  3
Flat
350
22C
  3
FlatWithEdges
350
22D
  3
Gouraud
350
22E
  3
GouraudWithEdges
350
22F
  3
Hidden
350
289
  3
JitterOff
350
28A
  3
Linepattern
350
239
  3
OverhangOff
350
28B
  3
Realistic
350
234
  3
Shaded
350
291
  3
Shaded with edges
350
290
  3
Shades of Gray
350
28D
  3
Sketchy
350
28E
  3
Thicken
350
238
  3
Wireframe
350
288
  3
X-Ray
350
28F
  0
XRECORD
  5
37A
102
{ACAD_REACTORS
330
C
102
}
330
C
100
AcDbXrecord
280
     1
 90
        1
330
293
  0
DICTIONARY
  5
247
102
{ACAD_REACTORS
330
C
102
}
330
C
100
AcDbDictionary
281
     1
  3
CANNOSCALE
350
296
  3
CMLEADERSTYLE
350
298
  3
CTABLESTYLE
350
297
  3
DIMASSOC
350
24B
  3
HIDETEXT
350
24C
  3
MSLTSCALE
350
24A
  0
DICTIONARY
  5
295
102
{ACAD_REACTORS
330
C
102
}
330
C
100
AcDbDictionary
281
     1
  0
DICTIONARY
  5
29C
102
{ACAD_REACTORS
330
29B
102
}
330
29B
100
AcDbDictionary
281
     1
  0
SORTENTSTABLE
  5
325
102
{ACAD_REACTORS
330
324
102
}
330
324
100
AcDbSortentsTable
330
1D
331
2FB
  5
2FE
331
2FC
  5
2FF
331
2FD
  5
300
331
2FE
  5
301
331
2FF
  5
302
331
300
  5
303
331
301
  5
304
331
302
  5
320
331
303
  5
321
331
304
  5
323
331
0
  5
326
331
0
  5
327
331
0
  5
2FB
331
0
  5
2FC
331
327
  5
2FD
  0
LAYOUT
  5
1C
102
{ACAD_REACTORS
330
1A
102
}
330
1A
100
AcDbPlotSettings
  1

  2
none_device
  4

  6

 40
0.0
 41
0.0
 42
0.0
 43
0.0
 44
0.0
 45
0.0
 46
0.0
 47
0.0
 48
0.0
 49
0.0
140
0.0
141
0.0
142
1.0
143
1.0
 70
   688
 72
     0
 73
     0
 74
     5
  7

 75
    16
 76
     0
 77
     2
 78
   300
147
1.0
148
0.0
149
0.0
100
AcDbLayout
  1
Layout1
 70
     1
 71
     1
 10
0.0
 20
0.0
 11
12.0
 21
9.0
 12
0.0
 22
0.0
 32
0.0
 14
1.000000000000000E+20
 24
1.000000000000000E+20
 34
1.000000000000000E+20
 15
-1.000000000000000E+20
 25
-1.000000000000000E+20
 35
-1.000000000000000E+20
146
0.0
 13
0.0
 23
0.0
 33
0.0
 16
1.0
 26
0.0
 36
0.0
 17
0.0
 27
1.0
 37
0.0
 76
     0
330
1B
  0
LAYOUT
  5
1E
102
{ACAD_REACTORS
330
1A
102
}
330
1A
100
AcDbPlotSettings
  1

  2
none_device
  4

  6

 40
0.0
 41
0.0
 42
0.0
 43
0.0
 44
0.0
 45
0.0
 46
0.0
 47
0.0
 48
0.0
 49
0.0
140
0.0
141
0.0
142
1.0
143
1.0
 70
  1712
 72
     0
 73
     0
 74
     0
  7

 75
     0
 76
     0
 77
     2
 78
   300
147
1.0
148
0.0
149
0.0
100
AcDbLayout
  1
Model
 70
     1
 71
     0
 10
0.0
 20
0.0
 11
12.0
 21
9.0
 12
0.0
 22
0.0
 32
0.0
 14
-25.31136547933048
 24
-44.20168562449065
 34
0.0
 15
41.80215277741254
 25
51.37515510721045
 35
0.0
146
0.0
 13
0.0
 23
0.0
 33
0.0
 16
1.0
 26
0.0
 36
0.0
 17
0.0
 27
1.0
 37
0.0
 76
     0
330
1D
331
1FF
  0
MATERIAL
  5
23E
102
{ACAD_REACTORS
330
23C
102
}
330
23C
100
AcDbMaterial
  1
ByBlock
 72
     1
 94
      127
  0
MATERIAL
  5
23D
102
{ACAD_REACTORS
330
23C
102
}
330
23C
100
AcDbMaterial
  1
ByLayer
 72
     1
 94
      127
  0
MATERIAL
  5
23F
102
{ACAD_REACTORS
330
23C
102
}
330
23C
100
AcDbMaterial
  1
Global
 72
     1
 94
      127
  0
MLEADERSTYLE
  5
294
102
{ACAD_REACTORS
330
249
102
}
330
249
100
AcDbMLeaderStyle
179
     2
170
     2
171
     1
172
     0
 90
        2
 40
0.0
 41
0.0
173
     1
 91
-1056964608
340
14
 92
       -2
290
     1
 42
0.09
291
     1
 43
0.36
  3
Standard
341
0
 44
0.18
300

342
11
174
     1
178
     1
175
     1
176
     0
 93
-1056964608
 45
0.18
292
     0
297
     0
 46
0.18
343
0
 94
-1056964608
 47
1.0
 49
1.0
140
1.0
293
     1
141
0.0
294
     1
177
     0
142
1.0
295
     0
296
     0
143
0.125
271
     0
272
     9
273
     9
298
     0
  0
MLINESTYLE
  5
18
102
{ACAD_REACTORS
330
17
102
}
330
17
100
AcDbMlineStyle
  2
Standard
 70
     0
  3

 62
   256
 51
90.0
 52
90.0
 71
     2
 49
0.5
 62
   256
  6
BYLAYER
 49
-0.5
 62
   256
  6
BYLAYER
  0
ACDBPLACEHOLDER
  5
F
102
{ACAD_REACTORS
330
E
102
}
330
E
  0
SCALE
  5
206
102
{ACAD_REACTORS
330
205
102
}
330
205
100
AcDbScale
 70
     0
300
1:1
140
1.0
141
1.0
290
     1
  0
SCALE
  5
207
102
{ACAD_REACTORS
330
205
102
}
330
205
100
AcDbScale
 70
     0
300
1:2
140
1.0
141
2.0
290
     0
  0
SCALE
  5
208
102
{ACAD_REACTORS
330
205
102
}
330
205
100
AcDbScale
 70
     0
300
1:4
140
1.0
141
4.0
290
     0
  0
SCALE
  5
209
102
{ACAD_REACTORS
330
205
102
}
330
205
100
AcDbScale
 70
     0
300
1:5
140
1.0
141
5.0
290
     0
  0
SCALE
  5
20A
102
{ACAD_REACTORS
330
205
102
}
330
205
100
AcDbScale
 70
     0
300
1:8
140
1.0
141
8.0
290
     0
  0
SCALE
  5
20B
102
{ACAD_REACTORS
330
205
102
}
330
205
100
AcDbScale
 70
     0
300
1:10
140
1.0
141
10.0
290
     0
  0
SCALE
  5
20C
102
{ACAD_REACTORS
330
205
102
}
330
205
100
AcDbScale
 70
     0
300
1:16
140
1.0
141
16.0
290
     0
  0
SCALE
  5
20D
102
{ACAD_REACTORS
330
205
102
}
330
205
100
AcDbScale
 70
     0
300
1:20
140
1.0
141
20.0
290
     0
  0
SCALE
  5
20E
102
{ACAD_REACTORS
330
205
102
}
330
205
100
AcDbScale
 70
     0
300
1:30
140
1.0
141
30.0
290
     0
  0
SCALE
  5
20F
102
{ACAD_REACTORS
330
205
102
}
330
205
100
AcDbScale
 70
     0
300
1:40
140
1.0
141
40.0
290
     0
  0
SCALE
  5
210
102
{ACAD_REACTORS
330
205
102
}
330
205
100
AcDbScale
 70
     0
300
1:50
140
1.0
141
50.0
290
     0
  0
SCALE
  5
211
102
{ACAD_REACTORS
330
205
102
}
330
205
100
AcDbScale
 70
     0
300
1:100
140
1.0
141
100.0
290
     0
  0
SCALE
  5
212
102
{ACAD_REACTORS
330
205
102
}
330
205
100
AcDbScale
 70
     0
300
2:1
140
2.0
141
1.0
290
     0
  0
SCALE
  5
213
102
{ACAD_REACTORS
330
205
102
}
330
205
100
AcDbScale
 70
     0
300
4:1
140
4.0
141
1.0
290
     0
  0
SCALE
  5
214
102
{ACAD_REACTORS
330
205
102
}
330
205
100
AcDbScale
 70
     0
300
8:1
140
8.0
141
1.0
290
     0
  0
SCALE
  5
215
102
{ACAD_REACTORS
330
205
102
}
330
205
100
AcDbScale
 70
     0
300
10:1
140
10.0
141
1.0
290
     0
  0
SCALE
  5
216
102
{ACAD_REACTORS
330
205
102
}
330
205
100
AcDbScale
 70
     0
300
100:1
140
100.0
141
1.0
290
     0
  0
SCALE
  5
217
102
{ACAD_REACTORS
330
205
102
}
330
205
100
AcDbScale
 70
     0
300
1/128" = 1'-0"
140
0.0078125
141
12.0
290
     0
  0
SCALE
  5
218
102
{ACAD_REACTORS
330
205
102
}
330
205
100
AcDbScale
 70
     0
300
1/64" = 1'-0"
140
0.015625
141
12.0
290
     0
  0
SCALE
  5
219
102
{ACAD_REACTORS
330
205
102
}
330
205
100
AcDbScale
 70
     0
300
1/32" = 1'-0"
140
0.03125
141
12.0
290
     0
  0
SCALE
  5
21A
102
{ACAD_REACTORS
330
205
102
}
330
205
100
AcDbScale
 70
     0
300
1/16" = 1'-0"
140
0.0625
141
12.0
290
     0
  0
SCALE
  5
21B
102
{ACAD_REACTORS
330
205
102
}
330
205
100
AcDbScale
 70
     0
300
3/32" = 1'-0"
140
0.09375
141
12.0
290
     0
  0
SCALE
  5
21C
102
{ACAD_REACTORS
330
205
102
}
330
205
100
AcDbScale
 70
     0
300
1/8" = 1'-0"
140
0.125
141
12.0
290
     0
  0
SCALE
  5
21D
102
{ACAD_REACTORS
330
205
102
}
330
205
100
AcDbScale
 70
     0
300
3/16" = 1'-0"
140
0.1875
141
12.0
290
     0
  0
SCALE
  5
21E
102
{ACAD_REACTORS
330
205
102
}
330
205
100
AcDbScale
 70
     0
300
1/4" = 1'-0"
140
0.25
141
12.0
290
     0
  0
SCALE
  5
21F
102
{ACAD_REACTORS
330
205
102
}
330
205
100
AcDbScale
 70
     0
300
3/8" = 1'-0"
140
0.375
141
12.0
290
     0
  0
SCALE
  5
220
102
{ACAD_REACTORS
330
205
102
}
330
205
100
AcDbScale
 70
     0
300
1/2" = 1'-0"
140
0.5
141
12.0
290
     0
  0
SCALE
  5
221
102
{ACAD_REACTORS
330
205
102
}
330
205
100
AcDbScale
 70
     0
300
3/4" = 1'-0"
140
0.75
141
12.0
290
     0
  0
SCALE
  5
222
102
{ACAD_REACTORS
330
205
102
}
330
205
100
AcDbScale
 70
     0
300
1" = 1'-0"
140
1.0
141
12.0
290
     0
  0
SCALE
  5
223
102
{ACAD_REACTORS
330
205
102
}
330
205
100
AcDbScale
 70
     0
300
1-1/2" = 1'-0"
140
1.5
141
12.0
290
     0
  0
SCALE
  5
224
102
{ACAD_REACTORS
330
205
102
}
330
205
100
AcDbScale
 70
     0
300
3" = 1'-0"
140
3.0
141
12.0
290
     0
  0
SCALE
  5
225
102
{ACAD_REACTORS
330
205
102
}
330
205
100
AcDbScale
 70
     0
300
6" = 1'-0"
140
6.0
141
12.0
290
     0
  0
SCALE
  5
226
102
{ACAD_REACTORS
330
205
102
}
330
205
100
AcDbScale
 70
     0
300
1'-0" = 1'-0"
140
12.0
141
12.0
290
     0
  0
TABLESTYLE
  5
293
102
{ACAD_REACTORS
330
292
102
}
102
{ACAD_XDICTIONARY
360
378
102
}
330
292
100
AcDbTableStyle
  3
Standard
 70
     0
 71
     0
 40
0.06
 41
0.06
280
     0
281
     0
  7
Standard
140
0.18
170
     2
 62
     0
 63
   257
283
     0
 90
        4
 91
        0
  1

274
    -2
284
     1
 64
     0
275
    -2
285
     1
 65
     0
276
    -2
286
     1
 66
     0
277
    -2
287
     1
 67
     0
278
    -2
288
     1
 68
     0
279
    -2
289
     1
 69
     0
  7
Standard
140
0.25
170
     5
 62
     0
 63
   257
283
     0
 90
        4
 91
        0
  1

274
    -2
284
     1
 64
     0
275
    -2
285
     1
 65
     0
276
    -2
286
     1
 66
     0
277
    -2
287
     1
 67
     0
278
    -2
288
     1
 68
     0
279
    -2
289
     1
 69
     0
  7
Standard
140
0.18
170
     5
 62
     0
 63
   257
283
     0
 90
        4
 91
        0
  1

274
    -2
284
     1
 64
     0
275
    -2
285
     1
 65
     0
276
    -2
286
     1
 66
     0
277
    -2
287
     1
 67
     0
278
    -2
288
     1
 68
     0
279
    -2
289
     1
 69
     0
  0
VISUALSTYLE
  5
230
102
{ACAD_REACTORS
330
22B
102
}
330
22B
100
AcDbVisualStyle
  2
2dWireframe
 70
     4
177
     3
291
     0
 70
    58
 90
        0
176
     1
 90
        2
176
     1
 90
        0
176
     1
 90
        0
176
     1
 40
-0.6
176
     1
 40
-30.0
176
     1
 62
     7
176
     1
 90
        1
176
     1
 90
        4
176
     1
 62
     7
176
     1
 62
   257
176
     1
 90
        1
176
     1
 90
        1
176
     1
 40
1.0
176
     1
 90
        0
176
     1
 62
   257
176
     1
 40
1.0
176
     1
 90
        1
176
     1
 90
        6
176
     1
 90
        2
176
     1
 62
     7
176
     1
 90
        5
176
     1
 90
        0
176
     1
 90
        0
176
     1
290
     0
176
     1
 90
        1
176
     1
 40
0.0
176
     1
 90
        0
176
     1
290
     1
176
     1
290
     1
176
     1
290
     0
176
     1
290
     0
176
     1
290
     0
176
     1
290
     0
176
     1
290
     0
176
     1
290
     0
176
     1
290
     0
176
     1
 90
       50
176
     1
 40
0.0
176
     1
 40
1.0
176
     1
 90
        0
176
     1
 62
    18
420
        0
176
     1
 90
       50
176
     1
 90
        3
176
     1
 62
     5
420
      255
176
     1
290
     0
176
     1
 90
       50
176
     1
 90
       50
176
     1
 90
       50
176
     1
290
     0
176
     1
 90
       50
176
     1
 62
   256
176
     0
 40
1.0
176
     0
 90
        2
176
     1
  1
strokes_ogs.tif
176
     1
290
     0
176
     1
 40
1.0
176
     1
 40
1.0
176
     1
  0
VISUALSTYLE
  5
232
102
{ACAD_REACTORS
330
22B
102
}
330
22B
100
AcDbVisualStyle
  2
3D Hidden
 70
     6
177
     3
291
     0
 70
    58
 90
        1
176
     1
 90
        2
176
     1
 90
        2
176
     1
 90
        0
176
     1
 40
-0.6
176
     1
 40
-30.0
176
     1
 62
     7
176
     1
 90
        2
176
     1
 90
        2
176
     1
 62
     7
176
     1
 62
   257
176
     1
 90
        2
176
     1
 90
        1
176
     1
 40
40.0
176
     1
 90
        0
176
     1
 62
   257
176
     1
 40
1.0
176
     1
 90
        1
176
     1
 90
        6
176
     1
 90
        2
176
     1
 62
     7
176
     1
 90
        3
176
     1
 90
        0
176
     1
 90
        0
176
     1
290
     0
176
     1
 90
        1
176
     1
 40
0.0
176
     1
 90
        0
176
     1
290
     0
176
     1
290
     1
176
     1
290
     1
176
     1
290
     0
176
     1
290
     0
176
     1
290
     0
176
     1
290
     0
176
     1
290
     0
176
     1
290
     0
176
     1
 90
       50
176
     1
 40
0.0
176
     1
 40
1.0
176
     1
 90
        0
176
     1
 62
    18
420
        0
176
     1
 90
       50
176
     1
 90
        3
176
     1
 62
     5
420
      255
176
     1
290
     0
176
     1
 90
       50
176
     1
 90
       50
176
     1
 90
       50
176
     1
290
     0
176
     1
 90
       50
176
     1
 62
   256
176
     0
 40
1.0
176
     0
 90
        2
176
     1
  1
strokes_ogs.tif
176
     1
290
     0
176
     1
 40
1.0
176
     1
 40
1.0
176
     1
  0
VISUALSTYLE
  5
231
102
{ACAD_REACTORS
330
22B
102
}
330
22B
100
AcDbVisualStyle
  2
3dWireframe
 70
     5
177
     3
291
     0
 70
    58
 90
        0
176
     1
 90
        2
176
     1
 90
        0
176
     1
 90
        0
176
     1
 40
-0.6
176
     1
 40
-30.0
176
     1
 62
     7
176
     1
 90
        1
176
     1
 90
        4
176
     1
 62
     7
176
     1
 62
   257
176
     1
 90
        1
176
     1
 90
        1
176
     1
 40
1.0
176
     1
 90
        0
176
     1
 62
   257
176
     1
 40
1.0
176
     1
 90
        1
176
     1
 90
        6
176
     1
 90
        2
176
     1
 62
     7
176
     1
 90
        5
176
     1
 90
        0
176
     1
 90
        0
176
     1
290
     0
176
     1
 90
        1
176
     1
 40
0.0
176
     1
 90
        0
176
     1
290
     0
176
     1
290
     1
176
     1
290
     1
176
     1
290
     0
176
     1
290
     0
176
     1
290
     0
176
     1
290
     0
176
     1
290
     0
176
     1
290
     0
176
     1
 90
       50
176
     1
 40
0.0
176
     1
 40
1.0
176
     1
 90
        0
176
     1
 62
    18
420
        0
176
     1
 90
       50
176
     1
 90
        3
176
     1
 62
     5
420
      255
176
     1
290
     0
176
     1
 90
       50
176
     1
 90
       50
176
     1
 90
       50
176
     1
290
     0
176
     1
 90
       50
176
     1
 62
   256
176
     0
 40
1.0
176
     0
 90
        2
176
     1
  1
strokes_ogs.tif
176
     1
290
     0
176
     1
 40
1.0
176
     1
 40
1.0
176
     1
  0
VISUALSTYLE
  5
233
102
{ACAD_REACTORS
330
22B
102
}
330
22B
100
AcDbVisualStyle
  2
Basic
 70
     7
177
     3
291
     1
 70
    58
 90
        1
176
     1
 90
        0
176
     1
 90
        1
176
     1
 90
        0
176
     1
 40
-0.6
176
     1
 40
-30.0
176
     1
 62
     7
176
     1
 90
        0
176
     1
 90
        4
176
     1
 62
     7
176
     1
 62
   257
176
     1
 90
        1
176
     1
 90
        1
176
     1
 40
1.0
176
     1
 90
        8
176
     1
 62
     7
176
     1
 40
1.0
176
     1
 90
        1
176
     1
 90
        6
176
     1
 90
        2
176
     1
 62
     7
176
     1
 90
        5
176
     1
 90
        0
176
     1
 90
        0
176
     1
290
     0
176
     1
 90
        1
176
     1
 40
0.0
176
     1
 90
        0
176
     1
290
     0
176
     1
290
     1
176
     1
290
     1
176
     1
290
     0
176
     1
290
     0
176
     1
290
     0
176
     1
290
     0
176
     1
290
     0
176
     1
290
     0
176
     1
 90
       50
176
     1
 40
0.0
176
     1
 40
1.0
176
     1
 90
        0
176
     1
 62
    18
420
        0
176
     1
 90
       50
176
     1
 90
        3
176
     1
 62
     5
420
      255
176
     1
290
     0
176
     1
 90
       50
176
     1
 90
       50
176
     1
 90
       50
176
     1
290
     0
176
     1
 90
       50
176
     1
 62
   256
176
     0
 40
1.0
176
     0
 90
        2
176
     1
  1
strokes_ogs.tif
176
     1
290
     0
176
     1
 40
1.0
176
     1
 40
1.0
176
     1
  0
VISUALSTYLE
  5
237
102
{ACAD_REACTORS
330
22B
102
}
330
22B
100
AcDbVisualStyle
  2
Brighten
 70
    12
177
     3
291
     1
 70
    58
 90
        2
176
     1
 90
        2
176
     1
 90
        0
176
     1
 90
        0
176
     1
 40
-0.6
176
     1
 40
-30.0
176
     1
 62
     7
176
     1
 90
        1
176
     1
 90
        4
176
     1
 62
     7
176
     1
 62
   257
176
     1
 90
        1
176
     1
 90
        1
176
     1
 40
1.0
176
     1
 90
        8
176
     1
 62
     7
176
     1
 40
1.0
176
     1
 90
        1
176
     1
 90
        6
176
     1
 90
        2
176
     1
 62
     7
176
     1
 90
        5
176
     1
 90
        0
176
     1
 90
        0
176
     1
290
     0
176
     1
 90
        1
176
     1
 40
50.0
176
     1
 90
        0
176
     1
290
     0
176
     1
290
     1
176
     1
290
     1
176
     1
290
     0
176
     1
290
     0
176
     1
290
     0
176
     1
290
     0
176
     1
290
     0
176
     1
290
     0
176
     1
 90
       50
176
     1
 40
0.0
176
     1
 40
1.0
176
     1
 90
        0
176
     1
 62
    18
420
        0
176
     1
 90
       50
176
     1
 90
        3
176
     1
 62
     5
420
      255
176
     1
290
     0
176
     1
 90
       50
176
     1
 90
       50
176
     1
 90
       50
176
     1
290
     0
176
     1
 90
       50
176
     1
 62
   256
176
     0
 40
1.0
176
     0
 90
        2
176
     1
  1
strokes_ogs.tif
176
     1
290
     0
176
     1
 40
1.0
176
     1
 40
1.0
176
     1
  0
VISUALSTYLE
  5
23B
102
{ACAD_REACTORS
330
22B
102
}
330
22B
100
AcDbVisualStyle
  2
ColorChange
 70
    16
177
     3
291
     1
 70
    58
 90
        2
176
     1
 90
        2
176
     1
 90
        3
176
     1
 90
        0
176
     1
 40
-0.6
176
     1
 40
-30.0
176
     1
 62
     8
176
     1
 90
        1
176
     1
 90
        4
176
     1
 62
     7
176
     1
 62
   257
176
     1
 90
        1
176
     1
 90
        1
176
     1
 40
1.0
176
     1
 90
        8
176
     1
 62
     8
176
     1
 40
1.0
176
     1
 90
        1
176
     1
 90
        6
176
     1
 90
        2
176
     1
 62
     7
176
     1
 90
        5
176
     1
 90
        0
176
     1
 90
        0
176
     1
290
     0
176
     1
 90
        1
176
     1
 40
0.0
176
     1
 90
        0
176
     1
290
     0
176
     1
290
     1
176
     1
290
     1
176
     1
290
     0
176
     1
290
     0
176
     1
290
     0
176
     1
290
     0
176
     1
290
     0
176
     1
290
     0
176
     1
 90
       50
176
     1
 40
0.0
176
     1
 40
1.0
176
     1
 90
        0
176
     1
 62
    18
420
        0
176
     1
 90
       50
176
     1
 90
        3
176
     1
 62
     5
420
      255
176
     1
290
     0
176
     1
 90
       50
176
     1
 90
       50
176
     1
 90
       50
176
     1
290
     0
176
     1
 90
       50
176
     1
 62
   256
176
     0
 40
1.0
176
     0
 90
        2
176
     1
  1
strokes_ogs.tif
176
     1
290
     0
176
     1
 40
1.0
176
     1
 40
1.0
176
     1
  0
VISUALSTYLE
  5
235
102
{ACAD_REACTORS
330
22B
102
}
330
22B
100
AcDbVisualStyle
  2
Conceptual
 70
     9
177
     3
291
     0
 70
    58
 90
        3
176
     1
 90
        2
176
     1
 90
        0
176
     1
 90
        0
176
     1
 40
-0.6
176
     1
 40
-30.0
176
     1
 62
     7
176
     1
 90
        2
176
     1
 90
        2
176
     1
 62
     7
176
     1
 62
   257
176
     1
 90
        1
176
     1
 90
        1
176
     1
 40
40.0
176
     1
 90
        8
176
     1
 62
     7
176
     1
 40
1.0
176
     1
 90
        1
176
     1
 90
        6
176
     1
 90
        2
176
     1
 62
     7
176
     1
 90
        3
176
     1
 90
        0
176
     1
 90
        0
176
     1
290
     0
176
     1
 90
        1
176
     1
 40
0.0
176
     1
 90
        0
176
     1
290
     0
176
     1
290
     1
176
     1
290
     1
176
     1
290
     0
176
     1
290
     0
176
     1
290
     0
176
     1
290
     0
176
     1
290
     0
176
     1
290
     0
176
     1
 90
       50
176
     1
 40
0.0
176
     1
 40
1.0
176
     1
 90
        0
176
     1
 62
    18
420
        0
176
     1
 90
       50
176
     1
 90
        3
176
     1
 62
     5
420
      255
176
     1
290
     0
176
     1
 90
       50
176
     1
 90
       50
176
     1
 90
       50
176
     1
290
     0
176
     1
 90
       50
176
     1
 62
   256
176
     0
 40
1.0
176
     0
 90
        2
176
     1
  1
strokes_ogs.tif
176
     1
290
     0
176
     1
 40
1.0
176
     1
 40
1.0
176
     1
  0
VISUALSTYLE
  5
236
102
{ACAD_REACTORS
330
22B
102
}
330
22B
100
AcDbVisualStyle
  2
Dim
 70
    11
177
     3
291
     1
 70
    58
 90
        2
176
     1
 90
        2
176
     1
 90
        0
176
     1
 90
        0
176
     1
 40
-0.6
176
     1
 40
-30.0
176
     1
 62
     7
176
     1
 90
        1
176
     1
 90
        4
176
     1
 62
     7
176
     1
 62
   257
176
     1
 90
        1
176
     1
 90
        1
176
     1
 40
1.0
176
     1
 90
        8
176
     1
 62
     7
176
     1
 40
1.0
176
     1
 90
        1
176
     1
 90
        6
176
     1
 90
        2
176
     1
 62
     7
176
     1
 90
        5
176
     1
 90
        0
176
     1
 90
        0
176
     1
290
     0
176
     1
 90
        1
176
     1
 40
-50.0
176
     1
 90
        0
176
     1
290
     0
176
     1
290
     1
176
     1
290
     1
176
     1
290
     0
176
     1
290
     0
176
     1
290
     0
176
     1
290
     0
176
     1
290
     0
176
     1
290
     0
176
     1
 90
       50
176
     1
 40
0.0
176
     1
 40
1.0
176
     1
 90
        0
176
     1
 62
    18
420
        0
176
     1
 90
       50
176
     1
 90
        3
176
     1
 62
     5
420
      255
176
     1
290
     0
176
     1
 90
       50
176
     1
 90
       50
176
     1
 90
       50
176
     1
290
     0
176
     1
 90
       50
176
     1
 62
   256
176
     0
 40
1.0
176
     0
 90
        2
176
     1
  1
strokes_ogs.tif
176
     1
290
     0
176
     1
 40
1.0
176
     1
 40
1.0
176
     1
  0
VISUALSTYLE
  5
28C
102
{ACAD_REACTORS
330
22B
102
}
330
22B
100
AcDbVisualStyle
  2
EdgeColorOff
 70
    22
177
     3
291
     1
 70
    58
 90
        2
176
     0
 90
        2
176
     0
 90
        0
176
     0
 90
        0
176
     0
 40
0.6
176
     0
 40
30.0
176
     0
 62
     7
420
 16777215
176
     0
 90
        1
176
     0
 90
        4
176
     0
 62
     7
176
     0
 62
   257
176
     0
 90
        1
176
     0
 90
        1
176
     0
 40
1.0
176
     0
 90
        8
176
     2
 62
     7
176
     0
 40
1.0
176
     0
 90
        1
176
     0
 90
        6
176
     0
 90
        2
176
     0
 62
     7
176
     0
 90
        5
176
     0
 90
        0
176
     0
 90
        0
176
     0
290
     0
176
     0
 90
        1
176
     0
 40
0.0
176
     0
 90
        0
176
     0
290
     0
176
     0
290
     1
176
     0
290
     1
176
     0
290
     0
176
     0
290
     0
176
     0
290
     0
176
     0
290
     0
176
     0
290
     0
176
     0
290
     0
176
     0
 90
       50
176
     0
 40
0.0
176
     0
 40
1.0
176
     0
 90
        0
176
     0
 62
    18
420
        0
176
     0
 90
       50
176
     0
 90
        3
176
     0
 62
     5
420
      255
176
     0
290
     0
176
     0
 90
       50
176
     0
 90
       50
176
     0
 90
       50
176
     0
290
     0
176
     0
 90
       50
176
     0
 62
   256
176
     0
 40
1.0
176
     0
 90
        2
176
     0
  1
strokes_ogs.tif
176
     0
290
     0
176
     0
 40
1.0
176
     0
 40
1.0
176
     0
  0
VISUALSTYLE
  5
23A
102
{ACAD_REACTORS
330
22B
102
}
330
22B
100
AcDbVisualStyle
  2
Facepattern
 70
    15
177
     3
291
     1
 70
    58
 90
        2
176
     1
 90
        2
176
     1
 90
        0
176
     1
 90
        0
176
     1
 40
-0.6
176
     1
 40
-30.0
176
     1
 62
     7
176
     1
 90
        1
176
     1
 90
        4
176
     1
 62
     7
176
     1
 62
   257
176
     1
 90
        1
176
     1
 90
        1
176
     1
 40
1.0
176
     1
 90
        8
176
     1
 62
     7
176
     1
 40
1.0
176
     1
 90
        1
176
     1
 90
        6
176
     1
 90
        2
176
     1
 62
     7
176
     1
 90
        5
176
     1
 90
        0
176
     1
 90
        0
176
     1
290
     0
176
     1
 90
        1
176
     1
 40
0.0
176
     1
 90
        0
176
     1
290
     0
176
     1
290
     1
176
     1
290
     1
176
     1
290
     0
176
     1
290
     0
176
     1
290
     0
176
     1
290
     0
176
     1
290
     0
176
     1
290
     0
176
     1
 90
       50
176
     1
 40
0.0
176
     1
 40
1.0
176
     1
 90
        0
176
     1
 62
    18
420
        0
176
     1
 90
       50
176
     1
 90
        3
176
     1
 62
     5
420
      255
176
     1
290
     0
176
     1
 90
       50
176
     1
 90
       50
176
     1
 90
       50
176
     1
290
     0
176
     1
 90
       50
176
     1
 62
   256
176
     0
 40
1.0
176
     0
 90
        2
176
     1
  1
strokes_ogs.tif
176
     1
290
     0
176
     1
 40
1.0
176
     1
 40
1.0
176
     1
  0
VISUALSTYLE
  5
22C
102
{ACAD_REACTORS
330
22B
102
}
330
22B
100
AcDbVisualStyle
  2
Flat
 70
     0
177
     3
291
     1
 70
    58
 90
        2
176
     1
 90
        1
176
     1
 90
        1
176
     1
 90
        2
176
     1
 40
-0.6
176
     1
 40
30.0
176
     1
 62
     7
176
     1
 90
        0
176
     1
 90
        4
176
     1
 62
     7
176
     1
 62
   257
176
     1
 90
        1
176
     1
 90
        1
176
     1
 40
1.0
176
     1
 90
        8
176
     1
 62
     7
176
     1
 40
1.0
176
     1
 90
        1
176
     1
 90
        6
176
     1
 90
        2
176
     1
 62
     7
176
     1
 90
        5
176
     1
 90
        0
176
     1
 90
        0
176
     1
290
     0
176
     1
 90
       13
176
     1
 40
0.0
176
     1
 90
        0
176
     1
290
     0
176
     1
290
     1
176
     1
290
     1
176
     1
290
     0
176
     1
290
     0
176
     1
290
     0
176
     1
290
     0
176
     1
290
     0
176
     1
290
     0
176
     1
 90
       50
176
     1
 40
0.0
176
     1
 40
1.0
176
     1
 90
        0
176
     1
 62
    18
420
        0
176
     1
 90
       50
176
     1
 90
        3
176
     1
 62
     5
420
      255
176
     1
290
     0
176
     1
 90
       50
176
     1
 90
       50
176
     1
 90
       50
176
     1
290
     0
176
     1
 90
       50
176
     1
 62
   256
176
     0
 40
1.0
176
     0
 90
        2
176
     1
  1
strokes_ogs.tif
176
     1
290
     0
176
     1
 40
1.0
176
     1
 40
1.0
176
     1
  0
VISUALSTYLE
  5
22D
102
{ACAD_REACTORS
330
22B
102
}
330
22B
100
AcDbVisualStyle
  2
FlatWithEdges
 70
     1
177
     3
291
     1
 70
    58
 90
        2
176
     1
 90
        1
176
     1
 90
        1
176
     1
 90
        2
176
     1
 40
-0.6
176
     1
 40
30.0
176
     1
 62
     7
176
     1
 90
        1
176
     1
 90
        4
176
     1
 62
     7
176
     1
 62
   257
176
     1
 90
        1
176
     1
 90
        1
176
     1
 40
1.0
176
     1
 90
        0
176
     1
 62
   257
176
     1
 40
1.0
176
     1
 90
        1
176
     1
 90
        6
176
     1
 90
        2
176
     1
 62
     7
176
     1
 90
        5
176
     1
 90
        0
176
     1
 90
        0
176
     1
290
     0
176
     1
 90
       13
176
     1
 40
0.0
176
     1
 90
        0
176
     1
290
     0
176
     1
290
     1
176
     1
290
     1
176
     1
290
     0
176
     1
290
     0
176
     1
290
     0
176
     1
290
     0
176
     1
290
     0
176
     1
290
     0
176
     1
 90
       50
176
     1
 40
0.0
176
     1
 40
1.0
176
     1
 90
        0
176
     1
 62
    18
420
        0
176
     1
 90
       50
176
     1
 90
        3
176
     1
 62
     5
420
      255
176
     1
290
     0
176
     1
 90
       50
176
     1
 90
       50
176
     1
 90
       50
176
     1
290
     0
176
     1
 90
       50
176
     1
 62
   256
176
     0
 40
1.0
176
     0
 90
        2
176
     1
  1
strokes_ogs.tif
176
     1
290
     0
176
     1
 40
1.0
176
     1
 40
1.0
176
     1
  0
VISUALSTYLE
  5
22E
102
{ACAD_REACTORS
330
22B
102
}
330
22B
100
AcDbVisualStyle
  2
Gouraud
 70
     2
177
     3
291
     1
 70
    58
 90
        2
176
     1
 90
        2
176
     1
 90
        1
176
     1
 90
        2
176
     1
 40
-0.6
176
     1
 40
30.0
176
     1
 62
     7
176
     1
 90
        0
176
     1
 90
        4
176
     1
 62
     7
176
     1
 62
   257
176
     1
 90
        1
176
     1
 90
        1
176
     1
 40
1.0
176
     1
 90
        0
176
     1
 62
     7
176
     1
 40
1.0
176
     1
 90
        1
176
     1
 90
        6
176
     1
 90
        2
176
     1
 62
     7
176
     1
 90
        5
176
     1
 90
        0
176
     1
 90
        0
176
     1
290
     0
176
     1
 90
       13
176
     1
 40
0.0
176
     1
 90
        0
176
     1
290
     0
176
     1
290
     1
176
     1
290
     1
176
     1
290
     0
176
     1
290
     0
176
     1
290
     0
176
     1
290
     0
176
     1
290
     0
176
     1
290
     0
176
     1
 90
       50
176
     1
 40
0.0
176
     1
 40
1.0
176
     1
 90
        0
176
     1
 62
    18
420
        0
176
     1
 90
       50
176
     1
 90
        3
176
     1
 62
     5
420
      255
176
     1
290
     0
176
     1
 90
       50
176
     1
 90
       50
176
     1
 90
       50
176
     1
290
     0
176
     1
 90
       50
176
     1
 62
   256
176
     0
 40
1.0
176
     0
 90
        2
176
     1
  1
strokes_ogs.tif
176
     1
290
     0
176
     1
 40
1.0
176
     1
 40
1.0
176
     1
  0
VISUALSTYLE
  5
22F
102
{ACAD_REACTORS
330
22B
102
}
330
22B
100
AcDbVisualStyle
  2
GouraudWithEdges
 70
     3
177
     3
291
     1
 70
    58
 90
        2
176
     1
 90
        2
176
     1
 90
        1
176
     1
 90
        2
176
     1
 40
-0.6
176
     1
 40
30.0
176
     1
 62
     7
176
     1
 90
        1
176
     1
 90
        4
176
     1
 62
     7
176
     1
 62
   257
176
     1
 90
        1
176
     1
 90
        1
176
     1
 40
1.0
176
     1
 90
        0
176
     1
 62
   257
176
     1
 40
1.0
176
     1
 90
        1
176
     1
 90
        6
176
     1
 90
        2
176
     1
 62
     7
176
     1
 90
        5
176
     1
 90
        0
176
     1
 90
        0
176
     1
290
     0
176
     1
 90
       13
176
     1
 40
0.0
176
     1
 90
        0
176
     1
290
     0
176
     1
290
     1
176
     1
290
     1
176
     1
290
     0
176
     1
290
     0
176
     1
290
     0
176
     1
290
     0
176
     1
290
     0
176
     1
290
     0
176
     1
 90
       50
176
     1
 40
0.0
176
     1
 40
1.0
176
     1
 90
        0
176
     1
 62
    18
420
        0
176
     1
 90
       50
176
     1
 90
        3
176
     1
 62
     5
420
      255
176
     1
290
     0
176
     1
 90
       50
176
     1
 90
       50
176
     1
 90
       50
176
     1
290
     0
176
     1
 90
       50
176
     1
 62
   256
176
     0
 40
1.0
176
     0
 90
        2
176
     1
  1
strokes_ogs.tif
176
     1
290
     0
176
     1
 40
1.0
176
     1
 40
1.0
176
     1
  0
VISUALSTYLE
  5
289
102
{ACAD_REACTORS
330
22B
102
}
330
22B
100
AcDbVisualStyle
  2
Hidden
 70
     6
177
     3
291
     0
 70
    58
 90
        1
176
     1
 90
        2
176
     1
 90
        2
176
     1
 90
        0
176
     1
 40
0.6
176
     1
 40
30.0
176
     1
 62
     7
420
 16777215
176
     1
 90
        2
176
     1
 90
        2
176
     1
 62
     7
176
     1
 62
   257
176
     1
 90
        2
176
     1
 90
        1
176
     1
 40
40.0
176
     1
 90
        0
176
     1
 62
   257
176
     1
 40
1.0
176
     1
 90
        1
176
     1
 90
        6
176
     1
 90
        2
176
     1
 62
     7
176
     1
 90
        3
176
     1
 90
        0
176
     1
 90
        0
176
     1
290
     0
176
     1
 90
        1
176
     1
 40
0.0
176
     1
 90
        0
176
     1
290
     0
176
     1
290
     1
176
     1
290
     1
176
     1
290
     0
176
     1
290
     0
176
     1
290
     0
176
     1
290
     0
176
     1
290
     0
176
     1
290
     0
176
     1
 90
       50
176
     1
 40
0.0
176
     1
 40
1.0
176
     1
 90
        0
176
     1
 62
    18
420
        0
176
     1
 90
       50
176
     1
 90
        3
176
     1
 62
     5
420
      255
176
     1
290
     0
176
     1
 90
       50
176
     1
 90
       50
176
     1
 90
       50
176
     1
290
     0
176
     1
 90
       50
176
     1
 62
   256
176
     0
 40
1.0
176
     0
 90
        2
176
     1
  1
strokes_ogs.tif
176
     1
290
     0
176
     1
 40
1.0
176
     1
 40
1.0
176
     1
  0
VISUALSTYLE
  5
28A
102
{ACAD_REACTORS
330
22B
102
}
330
22B
100
AcDbVisualStyle
  2
JitterOff
 70
    20
177
     3
291
     1
 70
    58
 90
        2
176
     0
 90
        2
176
     0
 90
        0
176
     0
 90
        0
176
     0
 40
0.6
176
     0
 40
30.0
176
     0
 62
     7
420
 16777215
176
     0
 90
        1
176
     0
 90
        4
176
     0
 62
     7
176
     0
 62
   257
176
     0
 90
        1
176
     0
 90
        1
176
     0
 40
1.0
176
     0
 90
       10
176
     2
 62
     7
176
     0
 40
1.0
176
     0
 90
        1
176
     0
 90
        6
176
     0
 90
        2
176
     0
 62
     7
176
     0
 90
        5
176
     0
 90
        0
176
     0
 90
        0
176
     0
290
     0
176
     0
 90
        1
176
     0
 40
0.0
176
     0
 90
        0
176
     0
290
     0
176
     0
290
     1
176
     0
290
     1
176
     0
290
     0
176
     0
290
     0
176
     0
290
     0
176
     0
290
     0
176
     0
290
     0
176
     0
290
     0
176
     0
 90
       50
176
     0
 40
0.0
176
     0
 40
1.0
176
     0
 90
        0
176
     0
 62
    18
420
        0
176
     0
 90
       50
176
     0
 90
        3
176
     0
 62
     5
420
      255
176
     0
290
     0
176
     0
 90
       50
176
     0
 90
       50
176
     0
 90
       50
176
     0
290
     0
176
     0
 90
       50
176
     0
 62
   256
176
     0
 40
1.0
176
     0
 90
        2
176
     0
  1
strokes_ogs.tif
176
     0
290
     0
176
     0
 40
1.0
176
     0
 40
1.0
176
     0
  0
VISUALSTYLE
  5
239
102
{ACAD_REACTORS
330
22B
102
}
330
22B
100
AcDbVisualStyle
  2
Linepattern
 70
    14
177
     3
291
     1
 70
    58
 90
        2
176
     1
 90
        2
176
     1
 90
        0
176
     1
 90
        0
176
     1
 40
-0.6
176
     1
 40
-30.0
176
     1
 62
     7
176
     1
 90
        1
176
     1
 90
        4
176
     1
 62
     7
176
     1
 62
   257
176
     1
 90
        7
176
     1
 90
        7
176
     1
 40
1.0
176
     1
 90
        8
176
     1
 62
     7
176
     1
 40
1.0
176
     1
 90
        1
176
     1
 90
        6
176
     1
 90
        2
176
     1
 62
     7
176
     1
 90
        5
176
     1
 90
        0
176
     1
 90
        0
176
     1
290
     0
176
     1
 90
        1
176
     1
 40
0.0
176
     1
 90
        0
176
     1
290
     0
176
     1
290
     1
176
     1
290
     1
176
     1
290
     0
176
     1
290
     0
176
     1
290
     0
176
     1
290
     0
176
     1
290
     0
176
     1
290
     0
176
     1
 90
       50
176
     1
 40
0.0
176
     1
 40
1.0
176
     1
 90
        0
176
     1
 62
    18
420
        0
176
     1
 90
       50
176
     1
 90
        3
176
     1
 62
     5
420
      255
176
     1
290
     0
176
     1
 90
       50
176
     1
 90
       50
176
     1
 90
       50
176
     1
290
     0
176
     1
 90
       50
176
     1
 62
   256
176
     0
 40
1.0
176
     0
 90
        2
176
     1
  1
strokes_ogs.tif
176
     1
290
     0
176
     1
 40
1.0
176
     1
 40
1.0
176
     1
  0
VISUALSTYLE
  5
28B
102
{ACAD_REACTORS
330
22B
102
}
330
22B
100
AcDbVisualStyle
  2
OverhangOff
 70
    21
177
     3
291
     1
 70
    58
 90
        2
176
     0
 90
        2
176
     0
 90
        0
176
     0
 90
        0
176
     0
 40
0.6
176
     0
 40
30.0
176
     0
 62
     7
420
 16777215
176
     0
 90
        1
176
     0
 90
        4
176
     0
 62
     7
176
     0
 62
   257
176
     0
 90
        1
176
     0
 90
        1
176
     0
 40
1.0
176
     0
 90
        9
176
     2
 62
     7
176
     0
 40
1.0
176
     0
 90
        1
176
     0
 90
        6
176
     0
 90
        2
176
     0
 62
     7
176
     0
 90
        5
176
     0
 90
        0
176
     0
 90
        0
176
     0
290
     0
176
     0
 90
        1
176
     0
 40
0.0
176
     0
 90
        0
176
     0
290
     0
176
     0
290
     1
176
     0
290
     1
176
     0
290
     0
176
     0
290
     0
176
     0
290
     0
176
     0
290
     0
176
     0
290
     0
176
     0
290
     0
176
     0
 90
       50
176
     0
 40
0.0
176
     0
 40
1.0
176
     0
 90
        0
176
     0
 62
    18
420
        0
176
     0
 90
       50
176
     0
 90
        3
176
     0
 62
     5
420
      255
176
     0
290
     0
176
     0
 90
       50
176
     0
 90
       50
176
     0
 90
       50
176
     0
290
     0
176
     0
 90
       50
176
     0
 62
   256
176
     0
 40
1.0
176
     0
 90
        2
176
     0
  1
strokes_ogs.tif
176
     0
290
     0
176
     0
 40
1.0
176
     0
 40
1.0
176
     0
  0
VISUALSTYLE
  5
234
102
{ACAD_REACTORS
330
22B
102
}
330
22B
100
AcDbVisualStyle
  2
Realistic
 70
     8
177
     3
291
     0
 70
    58
 90
        2
176
     1
 90
        2
176
     1
 90
        0
176
     1
 90
        0
176
     1
 40
-0.6
176
     1
 40
-30.0
176
     1
 62
     7
176
     1
 90
        1
176
     1
 90
        0
176
     1
 62
     7
176
     1
 62
   257
176
     1
 90
        1
176
     1
 90
        1
176
     1
 40
1.0
176
     1
 90
        8
176
     1
 62
     8
176
     1
 40
1.0
176
     1
 90
        1
176
     1
 90
        6
176
     1
 90
        2
176
     1
 62
     7
176
     1
 90
        5
176
     1
 90
        0
176
     1
 90
        0
176
     1
290
     0
176
     1
 90
       13
176
     1
 40
0.0
176
     1
 90
        0
176
     1
290
     0
176
     1
290
     1
176
     1
290
     1
176
     1
290
     0
176
     1
290
     0
176
     1
290
     0
176
     1
290
     0
176
     1
290
     0
176
     1
290
     0
176
     1
 90
       50
176
     1
 40
0.0
176
     1
 40
1.0
176
     1
 90
        0
176
     1
 62
    18
420
        0
176
     1
 90
       50
176
     1
 90
        3
176
     1
 62
     5
420
      255
176
     1
290
     0
176
     1
 90
       50
176
     1
 90
       50
176
     1
 90
       50
176
     1
290
     0
176
     1
 90
       50
176
     1
 62
   256
176
     0
 40
1.0
176
     0
 90
        2
176
     1
  1
strokes_ogs.tif
176
     1
290
     0
176
     1
 40
1.0
176
     1
 40
1.0
176
     1
  0
VISUALSTYLE
  5
291
102
{ACAD_REACTORS
330
22B
102
}
330
22B
100
AcDbVisualStyle
  2
Shaded
 70
    27
177
     3
291
     0
 70
    58
 90
        2
176
     1
 90
        2
176
     1
 90
        1
176
     1
 90
        2
176
     1
 40
0.6
176
     1
 40
30.0
176
     1
 62
     7
420
 16777215
176
     1
 90
        0
176
     1
 90
        4
176
     1
 62
     7
176
     1
 62
   257
176
     1
 90
        1
176
     1
 90
        1
176
     1
 40
1.0
176
     1
 90
        8
176
     1
 62
   257
176
     1
 40
1.0
176
     1
 90
        1
176
     1
 90
        6
176
     1
 90
        2
176
     1
 62
     8
420
  7895160
176
     1
 90
        3
176
     1
 90
        0
176
     1
 90
        0
176
     1
290
     0
176
     1
 90
        5
176
     1
 40
0.0
176
     1
 90
        0
176
     1
290
     0
176
     1
290
     1
176
     1
290
     1
176
     1
290
     0
176
     1
290
     0
176
     1
290
     0
176
     1
290
     0
176
     1
290
     0
176
     1
290
     0
176
     1
 90
       50
176
     1
 40
0.0
176
     1
 40
1.0
176
     1
 90
        0
176
     1
 62
    18
420
        0
176
     1
 90
       50
176
     1
 90
        3
176
     1
 62
     5
420
      255
176
     1
290
     0
176
     1
 90
       50
176
     1
 90
       50
176
     1
 90
       50
176
     1
290
     0
176
     1
 90
       50
176
     1
 62
   256
176
     0
 40
1.0
176
     0
 90
        2
176
     1
  1
strokes_ogs.tif
176
     1
290
     0
176
     1
 40
1.0
176
     1
 40
1.0
176
     1
  0
VISUALSTYLE
  5
290
102
{ACAD_REACTORS
330
22B
102
}
330
22B
100
AcDbVisualStyle
  2
Shaded with edges
 70
    26
177
     3
291
     0
 70
    58
 90
        2
176
     1
 90
        2
176
     1
 90
        1
176
     1
 90
        2
176
     1
 40
0.6
176
     1
 40
30.0
176
     1
 62
     7
420
 16777215
176
     1
 90
        1
176
     1
 90
       10
176
     1
 62
     7
176
     1
 62
   257
176
     1
 90
        2
176
     1
 90
        1
176
     1
 40
1.0
176
     1
 90
        8
176
     1
 62
   257
176
     1
 40
1.0
176
     1
 90
        1
176
     1
 90
        6
176
     1
 90
        2
176
     1
 62
     7
176
     1
 90
        3
176
     1
 90
        0
176
     1
 90
        0
176
     1
290
     0
176
     1
 90
        5
176
     1
 40
0.0
176
     1
 90
        0
176
     1
290
     0
176
     1
290
     1
176
     1
290
     1
176
     1
290
     0
176
     1
290
     0
176
     1
290
     0
176
     1
290
     0
176
     1
290
     0
176
     1
290
     0
176
     1
 90
       50
176
     1
 40
0.0
176
     1
 40
1.0
176
     1
 90
        0
176
     1
 62
    18
420
        0
176
     1
 90
       50
176
     1
 90
        3
176
     1
 62
     5
420
      255
176
     1
290
     0
176
     1
 90
       50
176
     1
 90
       50
176
     1
 90
       50
176
     1
290
     0
176
     1
 90
       50
176
     1
 62
   256
176
     0
 40
1.0
176
     0
 90
        2
176
     1
  1
strokes_ogs.tif
176
     1
290
     0
176
     1
 40
1.0
176
     1
 40
1.0
176
     1
  0
VISUALSTYLE
  5
28D
102
{ACAD_REACTORS
330
22B
102
}
330
22B
100
AcDbVisualStyle
  2
Shades of Gray
 70
    23
177
     3
291
     0
 70
    58
 90
        2
176
     1
 90
        2
176
     1
 90
        3
176
     1
 90
        0
176
     1
 40
0.6
176
     1
 40
30.0
176
     1
 62
     7
420
 16777215
176
     1
 90
        2
176
     1
 90
        2
176
     1
 62
     7
176
     1
 62
     7
176
     1
 90
        1
176
     1
 90
        1
176
     1
 40
40.0
176
     1
 90
        8
176
     1
 62
     7
176
     1
 40
1.0
176
     1
 90
        1
176
     1
 90
        6
176
     1
 90
        2
176
     1
 62
     7
176
     1
 90
        3
176
     1
 90
        0
176
     1
 90
        0
176
     1
290
     0
176
     1
 90
        1
176
     1
 40
0.0
176
     1
 90
        0
176
     1
290
     0
176
     1
290
     1
176
     1
290
     1
176
     1
290
     0
176
     1
290
     0
176
     1
290
     0
176
     1
290
     0
176
     1
290
     0
176
     1
290
     0
176
     1
 90
       50
176
     1
 40
0.0
176
     1
 40
1.0
176
     1
 90
        0
176
     1
 62
    18
420
        0
176
     1
 90
       50
176
     1
 90
        3
176
     1
 62
     5
420
      255
176
     1
290
     0
176
     1
 90
       50
176
     1
 90
       50
176
     1
 90
       50
176
     1
290
     0
176
     1
 90
       50
176
     1
 62
   256
176
     0
 40
1.0
176
     0
 90
        2
176
     1
  1
strokes_ogs.tif
176
     1
290
     0
176
     1
 40
1.0
176
     1
 40
1.0
176
     1
  0
VISUALSTYLE
  5
28E
102
{ACAD_REACTORS
330
22B
102
}
330
22B
100
AcDbVisualStyle
  2
Sketchy
 70
    24
177
     3
291
     0
 70
    58
 90
        1
176
     1
 90
        2
176
     1
 90
        2
176
     1
 90
        0
176
     1
 40
0.6
176
     1
 40
30.0
176
     1
 62
     7
420
 16777215
176
     1
 90
        2
176
     1
 90
        2
176
     1
 62
     7
176
     1
 62
     7
176
     1
 90
        1
176
     1
 90
        1
176
     1
 40
40.0
176
     1
 90
       11
176
     1
 62
     7
176
     1
 40
1.0
176
     1
 90
        1
176
     1
 90
        6
176
     1
 90
        2
176
     1
 62
     7
176
     1
 90
        6
176
     1
 90
        0
176
     1
 90
        0
176
     1
290
     0
176
     1
 90
        1
176
     1
 40
0.0
176
     1
 90
        0
176
     1
290
     0
176
     1
290
     1
176
     1
290
     1
176
     1
290
     0
176
     1
290
     0
176
     1
290
     0
176
     1
290
     0
176
     1
290
     0
176
     1
290
     0
176
     1
 90
       50
176
     1
 40
0.0
176
     1
 40
1.0
176
     1
 90
        0
176
     1
 62
    18
420
        0
176
     1
 90
       50
176
     1
 90
        3
176
     1
 62
     5
420
      255
176
     1
290
     0
176
     1
 90
       50
176
     1
 90
       50
176
     1
 90
       50
176
     1
290
     0
176
     1
 90
       50
176
     1
 62
   256
176
     0
 40
1.0
176
     0
 90
        2
176
     1
  1
strokes_ogs.tif
176
     1
290
     0
176
     1
 40
1.0
176
     1
 40
1.0
176
     1
  0
VISUALSTYLE
  5
238
102
{ACAD_REACTORS
330
22B
102
}
330
22B
100
AcDbVisualStyle
  2
Thicken
 70
    13
177
     3
291
     1
 70
    58
 90
        2
176
     1
 90
        2
176
     1
 90
        0
176
     1
 90
        0
176
     1
 40
-0.6
176
     1
 40
-30.0
176
     1
 62
     7
176
     1
 90
        1
176
     1
 90
        4
176
     1
 62
     7
176
     1
 62
   257
176
     1
 90
        1
176
     1
 90
        1
176
     1
 40
1.0
176
     1
 90
       12
176
     1
 62
     7
176
     1
 40
1.0
176
     1
 90
        1
176
     1
 90
        6
176
     1
 90
        2
176
     1
 62
     7
176
     1
 90
        5
176
     1
 90
        0
176
     1
 90
        0
176
     1
290
     0
176
     1
 90
        1
176
     1
 40
0.0
176
     1
 90
        0
176
     1
290
     0
176
     1
290
     1
176
     1
290
     1
176
     1
290
     0
176
     1
290
     0
176
     1
290
     0
176
     1
290
     0
176
     1
290
     0
176
     1
290
     0
176
     1
 90
       50
176
     1
 40
0.0
176
     1
 40
1.0
176
     1
 90
        0
176
     1
 62
    18
420
        0
176
     1
 90
       50
176
     1
 90
        3
176
     1
 62
     5
420
      255
176
     1
290
     0
176
     1
 90
       50
176
     1
 90
       50
176
     1
 90
       50
176
     1
290
     0
176
     1
 90
       50
176
     1
 62
   256
176
     0
 40
1.0
176
     0
 90
        2
176
     1
  1
strokes_ogs.tif
176
     1
290
     0
176
     1
 40
1.0
176
     1
 40
1.0
176
     1
  0
VISUALSTYLE
  5
288
102
{ACAD_REACTORS
330
22B
102
}
330
22B
100
AcDbVisualStyle
  2
Wireframe
 70
     5
177
     3
291
     0
 70
    58
 90
        0
176
     1
 90
        2
176
     1
 90
        0
176
     1
 90
        0
176
     1
 40
0.6
176
     1
 40
30.0
176
     1
 62
     7
420
 16777215
176
     1
 90
        1
176
     1
 90
        4
176
     1
 62
     7
176
     1
 62
   257
176
     1
 90
        1
176
     1
 90
        1
176
     1
 40
1.0
176
     1
 90
        0
176
     1
 62
   257
176
     1
 40
1.0
176
     1
 90
        1
176
     1
 90
        6
176
     1
 90
        2
176
     1
 62
     7
176
     1
 90
        3
176
     1
 90
        0
176
     1
 90
        0
176
     1
290
     0
176
     1
 90
        1
176
     1
 40
0.0
176
     1
 90
        0
176
     1
290
     0
176
     1
290
     1
176
     1
290
     1
176
     1
290
     0
176
     1
290
     0
176
     1
290
     0
176
     1
290
     0
176
     1
290
     0
176
     1
290
     0
176
     1
 90
       50
176
     1
 40
0.0
176
     1
 40
1.0
176
     1
 90
        0
176
     1
 62
    18
420
        0
176
     1
 90
       50
176
     1
 90
        3
176
     1
 62
     5
420
      255
176
     1
290
     0
176
     1
 90
       50
176
     1
 90
       50
176
     1
 90
       50
176
     1
290
     0
176
     1
 90
       50
176
     1
 62
   256
176
     0
 40
1.0
176
     0
 90
        2
176
     1
  1
strokes_ogs.tif
176
     1
290
     0
176
     1
 40
1.0
176
     1
 40
1.0
176
     1
  0
VISUALSTYLE
  5
28F
102
{ACAD_REACTORS
330
22B
102
}
330
22B
100
AcDbVisualStyle
  2
X-Ray
 70
    25
177
     3
291
     0
 70
    58
 90
        2
176
     1
 90
        2
176
     1
 90
        1
176
     1
 90
        1
176
     1
 40
0.5
176
     1
 40
30.0
176
     1
 62
     7
420
 16777215
176
     1
 90
        1
176
     1
 90
        0
176
     1
 62
     7
176
     1
 62
   257
176
     1
 90
        1
176
     1
 90
        1
176
     1
 40
1.0
176
     1
 90
        8
176
     1
 62
     7
176
     1
 40
1.0
176
     1
 90
        1
176
     1
 90
        6
176
     1
 90
        2
176
     1
 62
     7
176
     1
 90
        3
176
     1
 90
        0
176
     1
 90
        0
176
     1
290
     0
176
     1
 90
       13
176
     1
 40
0.0
176
     1
 90
        0
176
     1
290
     0
176
     1
290
     1
176
     1
290
     1
176
     1
290
     0
176
     1
290
     0
176
     1
290
     0
176
     1
290
     0
176
     1
290
     0
176
     1
290
     0
176
     1
 90
       50
176
     1
 40
0.0
176
     1
 40
1.0
176
     1
 90
        0
176
     1
 62
    18
420
        0
176
     1
 90
       50
176
     1
 90
        3
176
     1
 62
     5
420
      255
176
     1
290
     0
176
     1
 90
       50
176
     1
 90
       50
176
     1
 90
       50
176
     1
290
     0
176
     1
 90
       50
176
     1
 62
   256
176
     0
 40
1.0
176
     0
 90
        2
176
     1
  1
strokes_ogs.tif
176
     1
290
     0
176
     1
 40
1.0
176
     1
 40
1.0
176
     1
  0
DICTIONARYVAR
  5
296
102
{ACAD_REACTORS
330
247
102
}
330
247
100
DictionaryVariables
280
     0
  1
1:1
  0
DICTIONARYVAR
  5
298
102
{ACAD_REACTORS
330
247
102
}
330
247
100
DictionaryVariables
280
     0
  1
Standard
  0
DICTIONARYVAR
  5
297
102
{ACAD_REACTORS
330
247
102
}
330
247
100
DictionaryVariables
280
     0
  1
Standard
  0
DICTIONARYVAR
  5
24B
102
{ACAD_REACTORS
330
247
102
}
330
247
100
DictionaryVariables
280
     0
  1
2
  0
DICTIONARYVAR
  5
24C
102
{ACAD_REACTORS
330
247
102
}
330
247
100
DictionaryVariables
280
     0
  1
1
  0
DICTIONARYVAR
  5
24A
102
{ACAD_REACTORS
330
247
102
}
330
247
100
DictionaryVariables
280
     0
  1
0
  0
DICTIONARY
  5
378
330
293
100
AcDbDictionary
280
     1
281
     1
  3
ACAD_ROUNDTRIP_2008_TABLESTYLE_CELLSTYLEMAP
360
379
  0
CELLSTYLEMAP
  5
379
102
{ACAD_REACTORS
330
378
102
}
330
378
100
AcDbCellStyleMap
 90
        3
300
CELLSTYLE
  1
TABLEFORMAT_BEGIN
 90
        5
170
     1
 91
        0
 92
    32768
 62
   257
 93
        1
300
CONTENTFORMAT
  1
CONTENTFORMAT_BEGIN
 90
        0
 91
        0
 92
        4
 93
        0
300

 40
0.0
140
1.0
 94
        5
 62
     0
340
11
144
0.25
309
CONTENTFORMAT_END
171
     1
301
MARGIN
  1
CELLMARGIN_BEGIN
 40
0.06
 40
0.06
 40
0.06
 40
0.06
 40
0.06
 40
0.06
309
CELLMARGIN_END
 94
        6
 95
        1
302
GRIDFORMAT
  1
GRIDFORMAT_BEGIN
 90
        0
 91
        1
 62
     0
 92
       -2
340
14
 93
        0
 40
0.045
309
GRIDFORMAT_END
 95
        2
302
GRIDFORMAT
  1
GRIDFORMAT_BEGIN
 90
        0
 91
        1
 62
     0
 92
       -2
340
14
 93
        0
 40
0.045
309
GRIDFORMAT_END
 95
        4
302
GRIDFORMAT
  1
GRIDFORMAT_BEGIN
 90
        0
 91
        1
 62
     0
 92
       -2
340
14
 93
        0
 40
0.045
309
GRIDFORMAT_END
 95
        8
302
GRIDFORMAT
  1
GRIDFORMAT_BEGIN
 90
        0
 91
        1
 62
     0
 92
       -2
340
14
 93
        0
 40
0.045
309
GRIDFORMAT_END
 95
       16
302
GRIDFORMAT
  1
GRIDFORMAT_BEGIN
 90
        0
 91
        1
 62
     0
 92
       -2
340
14
 93
        0
 40
0.045
309
GRIDFORMAT_END
 95
       32
302
GRIDFORMAT
  1
GRIDFORMAT_BEGIN
 90
        0
 91
        1
 62
     0
 92
       -2
340
14
 93
        0
 40
0.045
309
GRIDFORMAT_END
309
TABLEFORMAT_END
  1
CELLSTYLE_BEGIN
 90
        1
 91
        1
300
_TITLE
309
CELLSTYLE_END
300
CELLSTYLE
  1
TABLEFORMAT_BEGIN
 90
        5
170
     1
 91
        0
 92
        0
 62
   257
 93
        1
300
CONTENTFORMAT
  1
CONTENTFORMAT_BEGIN
 90
        0
 91
        0
 92
        4
 93
        0
300

 40
0.0
140
1.0
 94
        5
 62
     0
340
11
144
0.18
309
CONTENTFORMAT_END
171
     1
301
MARGIN
  1
CELLMARGIN_BEGIN
 40
0.06
 40
0.06
 40
0.06
 40
0.06
 40
0.06
 40
0.06
309
CELLMARGIN_END
 94
        6
 95
        1
302
GRIDFORMAT
  1
GRIDFORMAT_BEGIN
 90
        0
 91
        1
 62
     0
 92
       -2
340
14
 93
        0
 40
0.045
309
GRIDFORMAT_END
 95
        2
302
GRIDFORMAT
  1
GRIDFORMAT_BEGIN
 90
        0
 91
        1
 62
     0
 92
       -2
340
14
 93
        0
 40
0.045
309
GRIDFORMAT_END
 95
        4
302
GRIDFORMAT
  1
GRIDFORMAT_BEGIN
 90
        0
 91
        1
 62
     0
 92
       -2
340
14
 93
        0
 40
0.045
309
GRIDFORMAT_END
 95
        8
302
GRIDFORMAT
  1
GRIDFORMAT_BEGIN
 90
        0
 91
        1
 62
     0
 92
       -2
340
14
 93
        0
 40
0.045
309
GRIDFORMAT_END
 95
       16
302
GRIDFORMAT
  1
GRIDFORMAT_BEGIN
 90
        0
 91
        1
 62
     0
 92
       -2
340
14
 93
        0
 40
0.045
309
GRIDFORMAT_END
 95
       32
302
GRIDFORMAT
  1
GRIDFORMAT_BEGIN
 90
        0
 91
        1
 62
     0
 92
       -2
340
14
 93
        0
 40
0.045
309
GRIDFORMAT_END
309
TABLEFORMAT_END
  1
CELLSTYLE_BEGIN
 90
        2
 91
        1
300
_HEADER
309
CELLSTYLE_END
300
CELLSTYLE
  1
TABLEFORMAT_BEGIN
 90
        5
170
     1
 91
        0
 92
        0
 62
   257
 93
        1
300
CONTENTFORMAT
  1
CONTENTFORMAT_BEGIN
 90
        0
 91
        0
 92
        4
 93
        0
300

 40
0.0
140
1.0
 94
        2
 62
     0
340
11
144
0.18
309
CONTENTFORMAT_END
171
     1
301
MARGIN
  1
CELLMARGIN_BEGIN
 40
0.06
 40
0.06
 40
0.06
 40
0.06
 40
0.06
 40
0.06
309
CELLMARGIN_END
 94
        6
 95
        1
302
GRIDFORMAT
  1
GRIDFORMAT_BEGIN
 90
        0
 91
        1
 62
     0
 92
       -2
340
14
 93
        0
 40
0.045
309
GRIDFORMAT_END
 95
        2
302
GRIDFORMAT
  1
GRIDFORMAT_BEGIN
 90
        0
 91
        1
 62
     0
 92
       -2
340
14
 93
        0
 40
0.045
309
GRIDFORMAT_END
 95
        4
302
GRIDFORMAT
  1
GRIDFORMAT_BEGIN
 90
        0
 91
        1
 62
     0
 92
       -2
340
14
 93
        0
 40
0.045
309
GRIDFORMAT_END
 95
        8
302
GRIDFORMAT
  1
GRIDFORMAT_BEGIN
 90
        0
 91
        1
 62
     0
 92
       -2
340
14
 93
        0
 40
0.045
309
GRIDFORMAT_END
 95
       16
302
GRIDFORMAT
  1
GRIDFORMAT_BEGIN
 90
        0
 91
        1
 62
     0
 92
       -2
340
14
 93
        0
 40
0.045
309
GRIDFORMAT_END
 95
       32
302
GRIDFORMAT
  1
GRIDFORMAT_BEGIN
 90
        0
 91
        1
 62
     0
 92
       -2
340
14
 93
        0
 40
0.045
309
GRIDFORMAT_END
309
TABLEFORMAT_END
  1
CELLSTYLE_BEGIN
 90
        3
 91
        2
300
_DATA
309
CELLSTYLE_END
  0
ENDSEC
  0
EOF
