  0
SECTION
  2
HEADER
  9
$ACADVER
  1
AC1027
  9
$ACADMAINTVER
 70
   105
  9
$DWGCODEPAGE
  3
ANSI_1252
  9
$REQUIREDVERSIONS
160
                 0
  9
$LASTSAVEDBY
  1
matthias.ochs
  9
$INSBASE
 10
0.0
 20
0.0
 30
0.0
  9
$EXTMIN
 10
-35.47226694670256
 20
-76.3476777469622
 30
0.0
  9
$EXTMAX
 10
62.8010990720998
 20
89.03920652858346
 30
0.0
  9
$LIMMIN
 10
-138.841940063
 20
-63.869963599
  9
$LIMMAX
 10
170.223665946
 20
75.866323518
  9
$ORTHOMODE
 70
     0
  9
$REGENMODE
 70
     1
  9
$FILLMODE
 70
     1
  9
$QTEXTMODE
 70
     0
  9
$MIRRTEXT
 70
     1
  9
$LTSCALE
 40
1.0
  9
$ATTMODE
 70
     1
  9
$TEXTSIZE
 40
0.2
  9
$TRACEWID
 40
0.05
  9
$TEXTSTYLE
  7
Standard
  9
$CLAYER
  8
SK2
  9
$CELTYPE
  6
ByLayer
  9
$CECOLOR
 62
   256
  9
$CELTSCALE
 40
1.0
  9
$DISPSILH
 70
     0
  9
$DIMSCALE
 40
1.0
  9
$DIMASZ
 40
0.18
  9
$DIMEXO
 40
0.0625
  9
$DIMDLI
 40
0.38
  9
$DIMRND
 40
0.0
  9
$DIMDLE
 40
0.0
  9
$DIMEXE
 40
0.18
  9
$DIMTP
 40
0.0
  9
$DIMTM
 40
0.0
  9
$DIMTXT
 40
0.18
  9
$DIMCEN
 40
0.09
  9
$DIMTSZ
 40
0.0
  9
$DIMTOL
 70
     0
  9
$DIMLIM
 70
     0
  9
$DIMTIH
 70
     1
  9
$DIMTOH
 70
     1
  9
$DIMSE1
 70
     0
  9
$DIMSE2
 70
     0
  9
$DIMTAD
 70
     0
  9
$DIMZIN
 70
     0
  9
$DIMBLK
  1

  9
$DIMASO
 70
     1
  9
$DIMSHO
 70
     1
  9
$DIMPOST
  1

  9
$DIMAPOST
  1

  9
$DIMALT
 70
     0
  9
$DIMALTD
 70
     2
  9
$DIMALTF
 40
25.4
  9
$DIMLFAC
 40
1.0
  9
$DIMTOFL
 70
     0
  9
$DIMTVP
 40
0.0
  9
$DIMTIX
 70
     0
  9
$DIMSOXD
 70
     0
  9
$DIMSAH
 70
     0
  9
$DIMBLK1
  1

  9
$DIMBLK2
  1

  9
$DIMSTYLE
  2
Standard
  9
$DIMCLRD
 70
     0
  9
$DIMCLRE
 70
     0
  9
$DIMCLRT
 70
     0
  9
$DIMTFAC
 40
1.0
  9
$DIMGAP
 40
0.09
  9
$DIMJUST
 70
     0
  9
$DIMSD1
 70
     0
  9
$DIMSD2
 70
     0
  9
$DIMTOLJ
 70
     1
  9
$DIMTZIN
 70
     0
  9
$DIMALTZ
 70
     0
  9
$DIMALTTZ
 70
     0
  9
$DIMUPT
 70
     0
  9
$DIMDEC
 70
     4
  9
$DIMTDEC
 70
     4
  9
$DIMALTU
 70
     2
  9
$DIMALTTD
 70
     2
  9
$DIMTXSTY
  7
Standard
  9
$DIMAUNIT
 70
     0
  9
$DIMADEC
 70
     0
  9
$DIMALTRND
 40
0.0
  9
$DIMAZIN
 70
     0
  9
$DIMDSEP
 70
    46
  9
$DIMATFIT
 70
     3
  9
$DIMFRAC
 70
     0
  9
$DIMLDRBLK
  1

  9
$DIMLUNIT
 70
     2
  9
$DIMLWD
 70
    -2
  9
$DIMLWE
 70
    -2
  9
$DIMTMOVE
 70
     2
  9
$DIMFXL
 40
1.0
  9
$DIMFXLON
 70
     0
  9
$DIMJOGANG
 40
0.7853981633974483
  9
$DIMTFILL
 70
     0
  9
$DIMTFILLCLR
 70
     0
  9
$DIMARCSYM
 70
     0
  9
$DIMLTYPE
  6

  9
$DIMLTEX1
  6

  9
$DIMLTEX2
  6

  9
$DIMTXTDIRECTION
 70
     0
  9
$LUNITS
 70
     2
  9
$LUPREC
 70
     4
  9
$SKETCHINC
 40
0.1
  9
$FILLETRAD
 40
0.5
  9
$AUNITS
 70
     2
  9
$AUPREC
 70
     0
  9
$MENU
  1
.
  9
$ELEVATION
 40
0.0
  9
$PELEVATION
 40
0.0
  9
$THICKNESS
 40
0.0
  9
$LIMCHECK
 70
     0
  9
$CHAMFERA
 40
0.5
  9
$CHAMFERB
 40
0.5
  9
$CHAMFERC
 40
1.0
  9
$CHAMFERD
 40
0.0
  9
$SKPOLY
 70
     0
  9
$TDCREATE
 40
2458327.54955
  9
$TDUCREATE
 40
2458327.466216667
  9
$TDUPDATE
 40
2458695.443327859
  9
$TDUUPDATE
 40
2458695.359994526
  9
$TDINDWG
 40
0.0074380208
  9
$TDUSRTIMER
 40
0.0081434144
  9
$USRTIMER
 70
     1
  9
$ANGBASE
 50
0.0
  9
$ANGDIR
 70
     0
  9
$PDMODE
 70
     0
  9
$PDSIZE
 40
0.0
  9
$PLINEWID
 40
0.0
  9
$SPLFRAME
 70
     0
  9
$SPLINETYPE
 70
     6
  9
$SPLINESEGS
 70
     8
  9
$HANDSEED
  5
278
  9
$SURFTAB1
 70
     6
  9
$SURFTAB2
 70
     6
  9
$SURFTYPE
 70
     6
  9
$SURFU
 70
     6
  9
$SURFV
 70
     6
  9
$UCSBASE
  2

  9
$UCSNAME
  2

  9
$UCSORG
 10
0.0
 20
0.0
 30
0.0
  9
$UCSXDIR
 10
1.0
 20
0.0
 30
0.0
  9
$UCSYDIR
 10
0.0
 20
1.0
 30
0.0
  9
$UCSORTHOREF
  2

  9
$UCSORTHOVIEW
 70
     0
  9
$UCSORGTOP
 10
0.0
 20
0.0
 30
0.0
  9
$UCSORGBOTTOM
 10
0.0
 20
0.0
 30
0.0
  9
$UCSORGLEFT
 10
0.0
 20
0.0
 30
0.0
  9
$UCSORGRIGHT
 10
0.0
 20
0.0
 30
0.0
  9
$UCSORGFRONT
 10
0.0
 20
0.0
 30
0.0
  9
$UCSORGBACK
 10
0.0
 20
0.0
 30
0.0
  9
$PUCSBASE
  2

  9
$PUCSNAME
  2

  9
$PUCSORG
 10
0.0
 20
0.0
 30
0.0
  9
$PUCSXDIR
 10
1.0
 20
0.0
 30
0.0
  9
$PUCSYDIR
 10
0.0
 20
1.0
 30
0.0
  9
$PUCSORTHOREF
  2

  9
$PUCSORTHOVIEW
 70
     0
  9
$PUCSORGTOP
 10
0.0
 20
0.0
 30
0.0
  9
$PUCSORGBOTTOM
 10
0.0
 20
0.0
 30
0.0
  9
$PUCSORGLEFT
 10
0.0
 20
0.0
 30
0.0
  9
$PUCSORGRIGHT
 10
0.0
 20
0.0
 30
0.0
  9
$PUCSORGFRONT
 10
0.0
 20
0.0
 30
0.0
  9
$PUCSORGBACK
 10
0.0
 20
0.0
 30
0.0
  9
$USERI1
 70
     0
  9
$USERI2
 70
     0
  9
$USERI3
 70
     0
  9
$USERI4
 70
     0
  9
$USERI5
 70
     0
  9
$USERR1
 40
0.0
  9
$USERR2
 40
0.0
  9
$USERR3
 40
0.0
  9
$USERR4
 40
0.0
  9
$USERR5
 40
0.0
  9
$WORLDVIEW
 70
     1
  9
$SHADEDGE
 70
     3
  9
$SHADEDIF
 70
    70
  9
$TILEMODE
 70
     1
  9
$MAXACTVP
 70
    64
  9
$PINSBASE
 10
0.0
 20
0.0
 30
0.0
  9
$PLIMCHECK
 70
     0
  9
$PEXTMIN
 10
1.000000000000000E+20
 20
1.000000000000000E+20
 30
1.000000000000000E+20
  9
$PEXTMAX
 10
-1.000000000000000E+20
 20
-1.000000000000000E+20
 30
-1.000000000000000E+20
  9
$PLIMMIN
 10
0.0
 20
0.0
  9
$PLIMMAX
 10
0.0
 20
0.0
  9
$UNITMODE
 70
     0
  9
$VISRETAIN
 70
     1
  9
$PLINEGEN
 70
     0
  9
$PSLTSCALE
 70
     1
  9
$TREEDEPTH
 70
  3020
  9
$CMLSTYLE
  2
Standard
  9
$CMLJUST
 70
     0
  9
$CMLSCALE
 40
1.0
  9
$PROXYGRAPHICS
 70
     1
  9
$MEASUREMENT
 70
     0
  9
$CELWEIGHT
370
    -1
  9
$ENDCAPS
280
     0
  9
$JOINSTYLE
280
     0
  9
$LWDISPLAY
290
     0
  9
$INSUNITS
 70
     0
  9
$HYPERLINKBASE
  1

  9
$STYLESHEET
  1

  9
$XEDIT
290
     1
  9
$CEPSNTYPE
380
     0
  9
$PSTYLEMODE
290
     1
  9
$FINGERPRINTGUID
  2
{9E6772ED-1088-4D0D-9508-4BF0F12F5D58}
  9
$VERSIONGUID
  2
{FAEB1C32-E019-11D5-929B-00C0DF256EC4}
  9
$EXTNAMES
290
     1
  9
$PSVPSCALE
 40
0.0
  9
$OLESTARTUP
290
     0
  9
$SORTENTS
280
   127
  9
$INDEXCTL
280
     0
  9
$HIDETEXT
280
     1
  9
$XCLIPFRAME
280
     2
  9
$HALOGAP
280
     0
  9
$OBSCOLOR
 70
   257
  9
$OBSLTYPE
280
     0
  9
$INTERSECTIONDISPLAY
280
     0
  9
$INTERSECTIONCOLOR
 70
   257
  9
$DIMASSOC
280
     2
  9
$PROJECTNAME
  1

  9
$CAMERADISPLAY
290
     0
  9
$LENSLENGTH
 40
50.0
  9
$CAMERAHEIGHT
 40
0.0
  9
$STEPSPERSEC
 40
2.0
  9
$STEPSIZE
 40
6.0
  9
$3DDWFPREC
 40
2.0
  9
$PSOLWIDTH
 40
0.25
  9
$PSOLHEIGHT
 40
4.0
  9
$LOFTANG1
 40
1.570796326794897
  9
$LOFTANG2
 40
1.570796326794897
  9
$LOFTMAG1
 40
0.0
  9
$LOFTMAG2
 40
0.0
  9
$LOFTPARAM
 70
     7
  9
$LOFTNORMALS
280
     1
  9
$LATITUDE
 40
37.795
  9
$LONGITUDE
 40
-122.394
  9
$NORTHDIRECTION
 40
0.0
  9
$TIMEZONE
 70
 -8000
  9
$LIGHTGLYPHDISPLAY
280
     1
  9
$TILEMODELIGHTSYNCH
280
     1
  9
$SOLIDHIST
280
     0
  9
$SHOWHIST
280
     1
  9
$DWFFRAME
280
     2
  9
$DGNFRAME
280
     2
  9
$REALWORLDSCALE
290
     1
  9
$INTERFERECOLOR
 62
   256
  9
$CSHADOW
280
     0
  9
$SHADOWPLANELOCATION
 40
0.0
  0
ENDSEC
  0
SECTION
  2
CLASSES
  0
CLASS
  1
ACDBDICTIONARYWDFLT
  2
AcDbDictionaryWithDefault
  3
ObjectDBX Classes
 90
        0
 91
       11
280
     0
281
     0
  0
CLASS
  1
SCALE
  2
AcDbScale
  3
ObjectDBX Classes
 90
     1153
 91
       11
280
     0
281
     0
  0
CLASS
  1
VISUALSTYLE
  2
AcDbVisualStyle
  3
ObjectDBX Classes
 90
     4095
 91
       11
280
     0
281
     0
  0
CLASS
  1
MATERIAL
  2
AcDbMaterial
  3
ObjectDBX Classes
 90
     1153
 91
       11
280
     0
281
     0
  0
CLASS
  1
DICTIONARYVAR
  2
AcDbDictionaryVar
  3
ObjectDBX Classes
 90
        0
 91
       11
280
     0
281
     0
  0
CLASS
  1
ACDBPLACEHOLDER
  2
AcDbPlaceHolder
  3
ObjectDBX Classes
 90
        0
 91
        1
280
     0
281
     0
  0
CLASS
  1
LAYOUT
  2
AcDbLayout
  3
ObjectDBX Classes
 90
        0
 91
        1
280
     0
281
     0
  0
CLASS
  1
TABLESTYLE
  2
AcDbTableStyle
  3
ObjectDBX Classes
 90
     4095
 91
       11
280
     0
281
     0
  0
CLASS
  1
MLEADERSTYLE
  2
AcDbMLeaderStyle
  3
ACDB_MLEADERSTYLE_CLASS
 90
     4095
 91
       11
280
     0
281
     0
  0
CLASS
  1
SUN
  2
AcDbSun
  3
SCENEOE
 90
     1153
 91
       10
280
     0
281
     0
  0
CLASS
  1
SORTENTSTABLE
  2
AcDbSortentsTable
  3
ObjectDBX Classes
 90
        0
 91
        9
280
     0
281
     0
  0
CLASS
  1
CELLSTYLEMAP
  2
AcDbCellStyleMap
  3
ObjectDBX Classes
 90
     1152
 91
        7
280
     0
281
     0
  0
ENDSEC
  0
SECTION
  2
TABLES
  0
TABLE
  2
VPORT
  5
8
330
0
100
AcDbSymbolTable
 70
     1
  0
VPORT
  5
159
330
8
100
AcDbSymbolTableRecord
100
AcDbViewportTableRecord
  2
*Active
 70
     0
 10
0.0
 20
0.0
 11
1.0
 21
1.0
 12
-22.97645747714218
 22
-29.87174329794604
 13
0.0
 23
0.0
 14
0.5
 24
0.5
 15
0.5
 25
0.5
 16
0.0
 26
0.0
 36
1.0
 17
0.0
 27
0.0
 37
0.0
 40
396.3006775713321
 41
1.831002331002331
 42
50.0
 43
0.0
 44
0.0
 50
0.0
 51
0.0
 71
    16
 72
   100
 73
     1
 74
     3
 75
     1
 76
     0
 77
     0
 78
     0
281
     0
 65
     1
110
0.0
120
0.0
130
0.0
111
1.0
121
0.0
131
0.0
112
0.0
122
1.0
132
0.0
 79
     0
146
0.0
348
18A
 60
     3
 61
     5
292
     1
282
     1
141
0.0
142
0.0
 63
   256
361
208
  0
ENDTAB
  0
TABLE
  2
LTYPE
  5
5
330
0
100
AcDbSymbolTable
 70
     8
  0
LTYPE
  5
14
330
5
100
AcDbSymbolTableRecord
100
AcDbLinetypeTableRecord
  2
ByBlock
 70
     0
  3

 72
    65
 73
     0
 40
0.0
  0
LTYPE
  5
15
330
5
100
AcDbSymbolTableRecord
100
AcDbLinetypeTableRecord
  2
ByLayer
 70
     0
  3

 72
    65
 73
     0
 40
0.0
  0
LTYPE
  5
16
330
5
100
AcDbSymbolTableRecord
100
AcDbLinetypeTableRecord
  2
Continuous
 70
     0
  3
Solid line
 72
    65
 73
     0
 40
0.0
  0
LTYPE
  5
20
330
5
100
AcDbSymbolTableRecord
100
AcDbLinetypeTableRecord
  2
PUNKT
 70
     0
  3
..............
 72
    65
 73
     2
 40
1.5
 49
0.7
 74
     0
 49
-0.8
 74
     0
  0
LTYPE
  5
21
330
5
100
AcDbSymbolTableRecord
100
AcDbLinetypeTableRecord
  2
GESTRICHELT
 70
     0
  3
-- -- -- -- --
 72
    65
 73
     7
 40
2.8
 49
0.9
 74
     0
 49
0.0
 74
     0
 49
0.9
 74
     0
 49
0.0
 74
     0
 49
0.2
 74
     0
 49
0.0
 74
     0
 49
-0.8
 74
     0
  0
LTYPE
  5
22
330
5
100
AcDbSymbolTableRecord
100
AcDbLinetypeTableRecord
  2
STRICHPUNKT
 70
     0
  3
--.--.--.--.--
 72
    65
 73
     4
 40
8.8
 49
5.5
 74
     0
 49
-1.3
 74
     0
 49
0.7
 74
     0
 49
-1.3
 74
     0
  0
LTYPE
  5
25
330
5
100
AcDbSymbolTableRecord
100
AcDbLinetypeTableRecord
  2
PHANTOM
 70
     0
  3
--..--..--..--
 72
    65
 73
     6
 40
14.2
 49
7.0
 74
     0
 49
-1.8
 74
     0
 49
0.9
 74
     0
 49
-1.8
 74
     0
 49
0.9
 74
     0
 49
-1.8
 74
     0
  0
LTYPE
  5
1D1
330
5
100
AcDbSymbolTableRecord
100
AcDbLinetypeTableRecord
  2
DASH
 70
     0
  3
DASH _ _ _ _ _
 72
    65
 73
     2
 40
0.75
 49
0.4
 74
     0
 49
-0.35
 74
     0
  0
LTYPE
  5
1D2
330
5
100
AcDbSymbolTableRecord
100
AcDbLinetypeTableRecord
  2
LONGDASH_DASH
 70
     0
  3
LONGDASH_DASH __ . __ . __
 72
    65
 73
     4
 40
0.85
 49
0.4
 74
     0
 49
-0.2
 74
     0
 49
0.05
 74
     0
 49
-0.2
 74
     0
  0
LTYPE
  5
1D3
330
5
100
AcDbSymbolTableRecord
100
AcDbLinetypeTableRecord
  2
LONGDASH_DASH_DASH
 70
     0
  3
LONGDASH_DASH_DASH __ . . __ . . __
 72
    65
 73
     6
 40
1.1
 49
0.4
 74
     0
 49
-0.2
 74
     0
 49
0.05
 74
     0
 49
-0.2
 74
     0
 49
0.05
 74
     0
 49
-0.2
 74
     0
  0
ENDTAB
  0
TABLE
  2
LAYER
  5
2
102
{ACAD_XDICTIONARY
360
1F0
102
}
330
0
100
AcDbSymbolTable
 70
    16
  0
LAYER
  5
19B
330
2
100
AcDbSymbolTableRecord
100
AcDbLayerTableRecord
  2
200
 70
     0
 62
     2
  6
Continuous
370
    50
390
F
347
199
348
0
  0
LAYER
  5
1D4
330
2
100
AcDbSymbolTableRecord
100
AcDbLayerTableRecord
  2
0
 70
     0
 62
     1
  6
Continuous
370
    -3
390
F
347
199
348
0
  0
LAYER
  5
1D5
330
2
100
AcDbSymbolTableRecord
100
AcDbLayerTableRecord
  2
1
 70
     0
 62
     4
  6
Continuous
370
    50
390
F
347
199
348
0
  0
LAYER
  5
1D6
330
2
100
AcDbSymbolTableRecord
100
AcDbLayerTableRecord
  2
2
 70
     0
 62
     7
  6
Continuous
370
    25
390
F
347
199
348
0
  0
LAYER
  5
1D7
330
2
100
AcDbSymbolTableRecord
100
AcDbLayerTableRecord
  2
3
 70
     0
 62
     1
  6
DASH
370
    35
390
F
347
199
348
0
  0
LAYER
  5
1D8
330
2
100
AcDbSymbolTableRecord
100
AcDbLayerTableRecord
  2
4
 70
     0
 62
     2
  6
LONGDASH_DASH
370
    25
390
F
347
199
348
0
  0
LAYER
  5
1D9
330
2
100
AcDbSymbolTableRecord
100
AcDbLayerTableRecord
  2
6
 70
     0
 62
     5
  6
Continuous
370
    -3
390
F
347
199
348
0
  0
LAYER
  5
1DA
330
2
100
AcDbSymbolTableRecord
100
AcDbLayerTableRecord
  2
CUT
 70
     0
 62
     1
  6
Continuous
370
    25
390
F
347
199
348
0
  0
LAYER
  5
1DB
330
2
100
AcDbSymbolTableRecord
100
AcDbLayerTableRecord
  2
NOCUT
 70
     0
 62
     7
  6
Continuous
370
    25
390
F
347
199
348
0
  0
LAYER
  5
1DC
330
2
100
AcDbSymbolTableRecord
100
AcDbLayerTableRecord
  2
SK1
 70
     0
 62
     4
  6
Continuous
370
    50
390
F
347
199
348
0
  0
LAYER
  5
1DD
330
2
100
AcDbSymbolTableRecord
100
AcDbLayerTableRecord
  2
SK2
 70
     0
 62
     7
  6
Continuous
370
    25
390
F
347
199
348
0
  0
LAYER
  5
1DE
330
2
100
AcDbSymbolTableRecord
100
AcDbLayerTableRecord
  2
SK3
 70
     0
 62
     1
  6
DASH
370
    35
390
F
347
199
348
0
  0
LAYER
  5
1DF
330
2
100
AcDbSymbolTableRecord
100
AcDbLayerTableRecord
  2
SK4
 70
     0
 62
     2
  6
LONGDASH_DASH
370
    25
390
F
347
199
348
0
  0
LAYER
  5
1E0
330
2
100
AcDbSymbolTableRecord
100
AcDbLayerTableRecord
  2
SK6
 70
     0
 62
     5
  6
Continuous
370
    -3
390
F
347
199
348
0
  0
LAYER
  5
1E1
330
2
100
AcDbSymbolTableRecord
100
AcDbLayerTableRecord
  2
INFTOTAL
 70
     0
 62
     9
  6
Continuous
370
    18
390
F
347
199
348
0
  0
LAYER
  5
20C
330
2
100
AcDbSymbolTableRecord
100
AcDbLayerTableRecord
  2
7
 70
     0
 62
     5
  6
Continuous
370
    18
390
F
347
199
348
0
1001
AcAecLayerStandard
1000

1000

  0
ENDTAB
  0
TABLE
  2
STYLE
  5
3
330
0
100
AcDbSymbolTable
 70
     3
  0
STYLE
  5
11
330
3
100
AcDbSymbolTableRecord
100
AcDbTextStyleTableRecord
  2
Standard
 70
     0
 40
0.0
 41
1.0
 50
0.0
 71
     0
 42
0.2
  3
txt
  4

  0
STYLE
  5
19A
330
3
100
AcDbSymbolTableRecord
100
AcDbTextStyleTableRecord
  2
BMG_Text
 70
     0
 40
3.5
 41
1.0
 50
0.0
 71
     0
 42
0.2
  3
monos.ttf
  4

1001
ACAD
1000
Monospac821 BT
1071
       49
  0
STYLE
  5
212
330
3
100
AcDbSymbolTableRecord
100
AcDbTextStyleTableRecord
  2
SLDTEXTSTYLE0
 70
     0
 40
0.0
 41
0.605
 50
0.0
 71
     0
 42
0.2
  3
TXT
  4

  0
ENDTAB
  0
TABLE
  2
VIEW
  5
6
330
0
100
AcDbSymbolTable
 70
     0
  0
ENDTAB
  0
TABLE
  2
UCS
  5
7
330
0
100
AcDbSymbolTable
 70
     0
  0
ENDTAB
  0
TABLE
  2
APPID
  5
9
330
0
100
AcDbSymbolTable
 70
     3
  0
APPID
  5
12
330
9
100
AcDbSymbolTableRecord
100
AcDbRegAppTableRecord
  2
ACAD
 70
     0
  0
APPID
  5
20D
330
9
100
AcDbSymbolTableRecord
100
AcDbRegAppTableRecord
  2
AcAecLayerStandard
 70
     0
  0
APPID
  5
215
330
9
100
AcDbSymbolTableRecord
100
AcDbRegAppTableRecord
  2
PE_URL
 70
     0
  0
ENDTAB
  0
TABLE
  2
DIMSTYLE
  5
A
330
0
100
AcDbSymbolTable
 70
     6
100
AcDbDimStyleTable
  0
DIMSTYLE
105
28
330
A
100
AcDbSymbolTableRecord
100
AcDbDimStyleTableRecord
  2
Standard
 70
     0
178
     0
340
11
  0
DIMSTYLE
105
20E
330
A
100
AcDbSymbolTableRecord
100
AcDbDimStyleTableRecord
  2
Matthias
 70
     0
 41
3.0
 44
2.0
 73
     0
 77
     1
140
3.0
147
2.0
178
     0
340
11
  0
DIMSTYLE
105
210
102
{ACAD_REACTORS
102
}
330
A
100
AcDbSymbolTableRecord
100
AcDbDimStyleTableRecord
  2
ISO-25
 70
     0
 41
2.5
 42
0.625
 43
3.75
 44
1.25
 73
     0
 74
     0
 77
     1
 78
     8
140
2.5
141
2.5
143
0.0393700787
147
0.625
171
     3
172
     1
178
     0
271
     2
272
     2
274
     3
278
    44
283
     0
284
     8
340
11
  0
DIMSTYLE
105
211
330
A
100
AcDbSymbolTableRecord
100
AcDbDimStyleTableRecord
  2
SLDDIMSTYLE0
 70
     0
 41
3.5
 44
0.0
 45
0.000000001
 73
     0
 74
     0
 77
     1
 78
    12
 79
     3
140
3.5
144
0.5
147
0.875
173
     1
178
     0
271
     2
272
     1
276
     2
284
    12
340
212
  0
DIMSTYLE
105
213
330
A
100
AcDbSymbolTableRecord
100
AcDbDimStyleTableRecord
  2
SLDDIMSTYLE1
 70
     0
 41
3.5
 44
0.0
 45
0.000000001
 73
     0
 74
     0
 77
     1
 78
    12
 79
     3
140
3.5
144
0.5
147
0.875
173
     1
178
     0
271
     2
272
     3
276
     2
284
    12
340
212
  0
DIMSTYLE
105
214
330
A
100
AcDbSymbolTableRecord
100
AcDbDimStyleTableRecord
  2
SLDDIMSTYLE2
 70
     0
 41
3.5
 44
0.0
 45
0.000000001
 73
     0
 74
     0
 77
     1
 78
    12
 79
     3
140
3.5
147
0.875
173
     1
178
     0
271
     2
272
     0
276
     2
284
    12
340
212
  0
ENDTAB
  0
TABLE
  2
BLOCK_RECORD
  5
1
330
0
100
AcDbSymbolTable
 70
     1
  0
BLOCK_RECORD
  5
1D
102
{ACAD_XDICTIONARY
360
259
102
}
330
1
100
AcDbSymbolTableRecord
100
AcDbBlockTableRecord
  2
*Model_Space
340
1E
 70
     0
280
     1
281
     0
  0
BLOCK_RECORD
  5
1B
330
1
100
AcDbSymbolTableRecord
100
AcDbBlockTableRecord
  2
*Paper_Space
340
1C
 70
     0
280
     1
281
     0
  0
ENDTAB
  0
ENDSEC
  0
SECTION
  2
BLOCKS
  0
BLOCK
  5
183
330
1D
100
AcDbEntity
  8
0
100
AcDbBlockBegin
  2
*Model_Space
 70
     0
 10
0.0
 20
0.0
 30
0.0
  3
*Model_Space
  1

  0
ENDBLK
  5
184
330
1D
100
AcDbEntity
  8
0
100
AcDbBlockEnd
  0
BLOCK
  5
181
330
1B
100
AcDbEntity
 67
     1
  8
0
100
AcDbBlockBegin
  2
*Paper_Space
 70
     0
 10
0.0
 20
0.0
 30
0.0
  3
*Paper_Space
  1

  0
ENDBLK
  5
182
330
1B
100
AcDbEntity
 67
     1
  8
0
100
AcDbBlockEnd
  0
ENDSEC
  0
SECTION
  2
ENTITIES
  0
LINE
  5
29
330
1D
100
AcDbEntity
  8
SK2
100
AcDbLine
 10
45.68379023200515
 20
-62.49999999900001
 30
0.0
 11
33.40206434900515
 21
-62.49999999900001
 31
0.0
  0
LINE
  5
2A
330
1D
100
AcDbEntity
  8
SK2
100
AcDbLine
 10
43.68379023200515
 20
-62.49999999900001
 30
0.0
 11
43.23379023200515
 21
-58.99999999900001
 31
0.0
  0
LINE
  5
2B
330
1D
100
AcDbEntity
  8
SK2
100
AcDbLine
 10
43.23379023200515
 20
-58.99999999900001
 30
0.0
 11
44.13379023200515
 21
-58.99999999900001
 31
0.0
  0
LINE
  5
2C
330
1D
100
AcDbEntity
  8
SK2
100
AcDbLine
 10
44.13379023200515
 20
-58.99999999900001
 30
0.0
 11
43.68379023200515
 21
-62.49999999900001
 31
0.0
  0
LINE
  5
2D
330
1D
100
AcDbEntity
  8
SK2
100
AcDbLine
 10
45.68379023200515
 20
62.499999999
 30
0.0
 11
33.40206434900515
 21
62.499999999
 31
0.0
  0
LINE
  5
2E
330
1D
100
AcDbEntity
  8
SK2
100
AcDbLine
 10
43.68379023200515
 20
62.499999999
 30
0.0
 11
44.13379023200515
 21
58.999999999
 31
0.0
  0
LINE
  5
2F
330
1D
100
AcDbEntity
  8
SK2
100
AcDbLine
 10
44.13379023200515
 20
58.999999999
 30
0.0
 11
43.23379023200515
 21
58.999999999
 31
0.0
  0
LINE
  5
30
330
1D
100
AcDbEntity
  8
SK2
100
AcDbLine
 10
43.23379023200515
 20
58.999999999
 30
0.0
 11
43.68379023200515
 21
62.499999999
 31
0.0
  0
LINE
  5
31
330
1D
100
AcDbEntity
  8
SK2
100
AcDbLine
 10
43.68379023200515
 20
-58.99999999900001
 30
0.0
 11
43.68379023200515
 21
58.999999999
 31
0.0
  0
TEXT
  5
32
330
1D
100
AcDbEntity
  8
SK2
100
AcDbText
 10
42.18379023200515
 20
-4.407501397000007
 30
0.0
 40
3.5
  1
125
 50
90.0
  7
BMG_Text
100
AcDbText
  0
CIRCLE
  5
33
330
1D
100
AcDbEntity
  8
SK2
100
AcDbCircle
 10
40.93379023200515
 20
-6.657501397000007
 30
0.0
 40
1.25
  0
LINE
  5
34
330
1D
100
AcDbEntity
  8
SK2
100
AcDbLine
 10
42.18379023200515
 20
-7.907501397000007
 30
0.0
 11
39.68379023200515
 21
-5.407501397000007
 31
0.0
  0
TEXT
  5
35
330
1D
100
AcDbEntity
  8
SK2
100
AcDbText
 10
42.18379023200515
 20
4.569106828903234
 30
0.0
 40
3.5
  1
-153
 50
90.0
  7
BMG_Text
100
AcDbText
  0
LINE
  5
36
330
1D
100
AcDbEntity
  8
2
100
AcDbLine
 10
33.80206434900515
 20
71.49635992
 30
0.0
 11
33.80206434900515
 21
62.09999999899999
 31
0.0
  0
LINE
  5
37
330
1D
100
AcDbEntity
  8
2
100
AcDbLine
 10
33.80206434900515
 20
69.49635992
 30
0.0
 11
30.30206434900515
 21
69.04635991999999
 31
0.0
  0
LINE
  5
38
330
1D
100
AcDbEntity
  8
2
100
AcDbLine
 10
30.30206434900515
 20
69.04635991999999
 30
0.0
 11
30.30206434900515
 21
69.94635991999999
 31
0.0
  0
LINE
  5
39
330
1D
100
AcDbEntity
  8
2
100
AcDbLine
 10
30.30206434900515
 20
69.94635991999999
 30
0.0
 11
33.80206434900515
 21
69.49635992
 31
0.0
  0
LINE
  5
3A
330
1D
100
AcDbEntity
  8
2
100
AcDbLine
 10
-12.69793565099485
 20
69.496359915
 30
0.0
 11
30.30206434900515
 21
69.49635992
 31
0.0
  0
TEXT
  5
3B
330
1D
100
AcDbEntity
  8
2
100
AcDbText
 10
-10.64870399801265
 20
70.99635991599999
 30
0.0
 40
3.5
  1
71 / 87 / 117
 50
0.000000007
  7
BMG_Text
100
AcDbText
  0
LINE
  5
3C
330
1D
100
AcDbEntity
  8
SK4
100
AcDbLine
 10
-5.656597605994849
 20
-0.0000000000000071
 30
0.0
 11
35.79621698200515
 21
-0.0000000000000071
 31
0.0
  0
LINE
  5
3E
330
1D
100
AcDbEntity
  8
1
100
AcDbLine
 10
28.79458671600515
 20
0.0000004279999929
 30
0.0
 11
33.50206433400515
 21
8.153591304999994
 31
0.0
  0
LINE
  5
3F
330
1D
100
AcDbEntity
  8
1
100
AcDbLine
 10
33.39729432800515
 20
49.96525403099999
 30
0.0
 11
33.50206433400515
 21
49.97635912099999
 31
0.0
  0
LINE
  5
40
330
1D
100
AcDbEntity
  8
1
100
AcDbLine
 10
33.50206433400515
 20
49.97635912099999
 30
0.0
 11
33.50206433400515
 21
8.153591304999994
 31
0.0
  0
LINE
  5
41
330
1D
100
AcDbEntity
  8
3
100
AcDbLine
 10
28.79458671600515
 20
0.0000004279999929
 30
0.0
 11
18.44181031100515
 21
-17.93153533000001
 31
0.0
  0
ARC
  5
42
330
1D
100
AcDbEntity
  8
3
100
AcDbCircle
 10
27.10206434900515
 20
-22.93153533000001
 30
0.0
 40
10.0
100
AcDbArc
 50
150.0
 51
180.000018291
  0
LINE
  5
43
330
1D
100
AcDbEntity
  8
3
100
AcDbLine
 10
17.10206477800515
 20
-22.93153852300001
 30
0.0
 11
17.10206477800515
 21
-44.99955541700001
 31
0.0
  0
LINE
  5
44
330
1D
100
AcDbEntity
  8
1
100
AcDbLine
 10
0.6136424200051517
 20
44.50000077499999
 30
0.0
 11
9.262522895005151
 21
59.48040168699999
 31
0.0
  0
LINE
  5
45
330
1D
100
AcDbEntity
  8
1
100
AcDbLine
 10
9.262522895005151
 20
59.48040168699999
 30
0.0
 11
9.317212020005151
 21
59.48613421
 31
0.0
  0
LINE
  5
46
330
1D
100
AcDbEntity
  8
1
100
AcDbLine
 10
9.317212020005151
 20
59.48613421
 30
0.0
 11
15.87477906500515
 21
60.17349962999999
 31
0.0
  0
LINE
  5
47
330
1D
100
AcDbEntity
  8
1
100
AcDbLine
 10
15.87477906500515
 20
60.17349962999999
 30
0.0
 11
20.00539574341798
 21
60.60649343536061
 31
0.0
  0
LINE
  5
48
330
1D
100
AcDbEntity
  8
3
100
AcDbLine
 10
17.10206477800515
 20
-44.99955541700001
 30
0.0
 11
0.7020628350051517
 21
-44.99955475300001
 31
0.0
  0
LINE
  5
49
330
1D
100
AcDbEntity
  8
1
100
AcDbLine
 10
20.86653022900515
 20
52.27811355099999
 30
0.0
 11
20.37037865200515
 21
51.66541725799999
 31
0.0
  0
ARC
  5
4A
330
1D
100
AcDbEntity
  8
1
100
AcDbCircle
 10
22.39095815100515
 20
50.02918424199999
 30
0.0
 40
2.6
100
AcDbArc
 50
141.0
 51
321.0000079239999
  0
LINE
  5
4B
330
1D
100
AcDbEntity
  8
1
100
AcDbLine
 10
24.41153789700515
 20
48.39295148799999
 30
0.0
 11
24.90768882300515
 21
49.00564718899999
 31
0.0
  0
ARC
  5
4D
330
1D
100
AcDbEntity
  8
1
100
AcDbCircle
 10
33.00206434900515
 20
50.66080696099999
 30
0.0
 40
0.8
100
AcDbArc
 50
275.9999999999998
 51
6.000030598999876
  0
LINE
  5
4E
330
1D
100
AcDbEntity
  8
1
100
AcDbLine
 10
33.79768186500515
 20
50.74443016199999
 30
0.0
 11
32.63741592300515
 21
61.78362277099999
 31
0.0
  0
ARC
  5
4F
330
1D
100
AcDbEntity
  8
1
100
AcDbCircle
 10
31.84179840700515
 20
61.7
 30
0.0
 40
0.8
100
AcDbArc
 50
5.999999999999834
 51
95.99999707299989
  0
LINE
  5
50
330
1D
100
AcDbEntity
  8
1
100
AcDbLine
 10
31.75817567700515
 20
62.495617516
 30
0.0
 11
20.71898259800515
 21
61.33535157399999
 31
0.0
  0
ARC
  5
51
330
1D
100
AcDbEntity
  8
1
100
AcDbCircle
 10
20.80260536800515
 20
60.53973405799999
 30
0.0
 40
0.8
100
AcDbArc
 50
96.00000000000006
 51
185.9999942810001
  0
ARC
  5
53
330
1D
100
AcDbEntity
  8
1
100
AcDbCircle
 10
21.96287131000515
 20
49.500541019
 30
0.0
 40
0.8
100
AcDbArc
 50
185.9999999999998
 51
276.0
  0
ARC
  5
54
330
1D
100
AcDbEntity
  8
1
100
AcDbCircle
 10
25.24336400400516
 20
56.17259747399999
 30
0.0
 40
0.3
100
AcDbArc
 50
63.38416179500024
 51
150.0000000000001
  0
ARC
  5
55
330
1D
100
AcDbEntity
  8
1
100
AcDbCircle
 10
25.69137024500515
 20
57.06662790299999
 30
0.0
 40
0.7
100
AcDbArc
 50
243.3841618059997
 51
356.6158381970002
  0
ARC
  5
56
330
1D
100
AcDbEntity
  8
1
100
AcDbCircle
 10
26.68962642800515
 20
57.00759747399999
 30
0.0
 40
0.3
100
AcDbArc
 50
90.0
 51
176.6158381939996
  0
ARC
  5
57
330
1D
100
AcDbEntity
  8
1
100
AcDbCircle
 10
26.68962642800515
 20
57.00759747399999
 30
0.0
 40
0.3
100
AcDbArc
 50
3.384161796999805
 51
90.0
  0
ARC
  5
58
330
1D
100
AcDbEntity
  8
1
100
AcDbCircle
 10
27.68788261200515
 20
57.06662790299999
 30
0.0
 40
0.7
100
AcDbArc
 50
183.3841618060002
 51
296.6158381910001
  0
ARC
  5
59
330
1D
100
AcDbEntity
  8
1
100
AcDbCircle
 10
28.13588885300515
 20
56.17259747399999
 30
0.0
 40
0.3
100
AcDbArc
 50
29.9999999999999
 51
116.6158381939999
  0
ARC
  5
5A
330
1D
100
AcDbEntity
  8
1
100
AcDbCircle
 10
28.13588885300515
 20
56.17259747399999
 30
0.0
 40
0.3
100
AcDbArc
 50
303.3841618209998
 51
29.9999999999999
  0
ARC
  5
5B
330
1D
100
AcDbEntity
  8
1
100
AcDbCircle
 10
28.68613879600515
 20
55.33759747399999
 30
0.0
 40
0.7
100
AcDbArc
 50
123.3841618059999
 51
236.6158381870001
  0
ARC
  5
5C
330
1D
100
AcDbEntity
  8
1
100
AcDbCircle
 10
28.13588885300515
 20
54.50259747399999
 30
0.0
 40
0.3
100
AcDbArc
 50
330.0000000000001
 51
56.61583819399988
  0
ARC
  5
5D
330
1D
100
AcDbEntity
  8
1
100
AcDbCircle
 10
28.13588885300515
 20
54.50259747399999
 30
0.0
 40
0.3
100
AcDbArc
 50
243.3841618199997
 51
330.0000000000001
  0
ARC
  5
5E
330
1D
100
AcDbEntity
  8
1
100
AcDbCircle
 10
27.68788261200515
 20
53.60856704499999
 30
0.0
 40
0.7
100
AcDbArc
 50
63.38416180599978
 51
176.6158381900002
  0
ARC
  5
5F
330
1D
100
AcDbEntity
  8
1
100
AcDbCircle
 10
26.68962642800515
 20
53.66759747399999
 30
0.0
 40
0.3
100
AcDbArc
 50
270.0
 51
356.6158381939996
  0
ARC
  5
60
330
1D
100
AcDbEntity
  8
1
100
AcDbCircle
 10
26.68962642800515
 20
53.66759747399999
 30
0.0
 40
0.3
100
AcDbArc
 50
183.3841618169994
 51
270.0
  0
ARC
  5
61
330
1D
100
AcDbEntity
  8
1
100
AcDbCircle
 10
25.69137024500515
 20
53.60856704499999
 30
0.0
 40
0.7
100
AcDbArc
 50
3.384161806000227
 51
116.615838195
  0
ARC
  5
62
330
1D
100
AcDbEntity
  8
1
100
AcDbCircle
 10
25.24336400400516
 20
54.50259747399999
 30
0.0
 40
0.3
100
AcDbArc
 50
209.9999999999999
 51
296.6158381939999
  0
ARC
  5
63
330
1D
100
AcDbEntity
  8
1
100
AcDbCircle
 10
25.24336400400516
 20
54.50259747399999
 30
0.0
 40
0.3
100
AcDbArc
 50
123.3841618050003
 51
209.9999999999999
  0
ARC
  5
64
330
1D
100
AcDbEntity
  8
1
100
AcDbCircle
 10
24.69311406100515
 20
55.33759747399999
 30
0.0
 40
0.7
100
AcDbArc
 50
303.3841618059999
 51
56.61583819400012
  0
ARC
  5
65
330
1D
100
AcDbEntity
  8
1
100
AcDbCircle
 10
25.24336400400516
 20
56.17259747399999
 30
0.0
 40
0.3
100
AcDbArc
 50
150.0000000000001
 51
236.6158381939999
  0
LINE
  5
66
330
1D
100
AcDbEntity
  8
1
100
AcDbLine
 10
33.50206433400515
 20
49.97635912099999
 30
0.0
 11
33.46878491900515
 21
50.01105926899999
 31
0.0
  0
ARC
  5
68
330
1D
100
AcDbEntity
  8
1
100
AcDbCircle
 10
-45.84109684399485
 20
-41.80287210300001
 30
0.0
 40
88.811418726
100
AcDbArc
 50
59.117482259
 51
61.52494563999999
  0
ARC
  5
69
330
1D
100
AcDbEntity
  8
1
100
AcDbCircle
 10
-0.5263509039948484
 20
33.97923333899999
 30
0.0
 40
0.526514374
100
AcDbArc
 50
359.4579877899997
 51
58.32277266100007
  0
LINE
  5
6A
330
1D
100
AcDbEntity
  8
1
100
AcDbLine
 10
0.0001399110051517
 20
33.974252642
 30
0.0
 11
-0.0001111899948483
 21
-26.99999883600001
 31
0.0
  0
ARC
  5
6B
330
1D
100
AcDbEntity
  8
1
100
AcDbCircle
 10
-0.7159418169948484
 20
-27.02374877000001
 30
0.0
 40
0.716475472
100
AcDbArc
 50
310.580791124
 51
1.89960476100011
  0
ARC
  5
6C
330
1D
100
AcDbEntity
  8
1
100
AcDbCircle
 10
-27.54808344299485
 20
10.31040407899999
 30
0.0
 40
46.690035034
100
AcDbArc
 50
305.4947965810001
 51
305.779621786
  0
ARC
  5
6D
330
1D
100
AcDbEntity
  8
1
100
AcDbCircle
 10
-47.29678699599485
 20
38.00261100399999
 30
0.0
 40
80.706605093
100
AcDbArc
 50
302.849675702
 51
305.494703262
  0
ARC
  5
6E
330
1D
100
AcDbEntity
  8
1
100
AcDbCircle
 10
37.90476327100515
 20
38.00261100399999
 30
0.0
 40
80.748506479
100
AcDbArc
 50
239.1537271819999
 51
241.797709412
  0
ARC
  5
6F
330
1D
100
AcDbEntity
  8
1
100
AcDbCircle
 10
-0.4349989519948483
 20
-33.53598807000001
 30
0.0
 40
0.429326635
100
AcDbArc
 50
295.5458031709999
 51
64.45438053400002
  0
ARC
  5
70
330
1D
100
AcDbEntity
  8
1
100
AcDbCircle
 10
-36.90448215099485
 20
38.00261100399999
 30
0.0
 40
80.727345779
100
AcDbArc
 50
294.450154722
 51
297.004122026
  0
ARC
  5
71
330
1D
100
AcDbEntity
  8
1
100
AcDbCircle
 10
27.51245842500515
 20
38.00261100399999
 30
0.0
 40
80.706610068
100
AcDbArc
 50
247.403674643
 51
247.461812867
  0
ARC
  5
72
330
1D
100
AcDbEntity
  8
1
100
AcDbCircle
 10
34.88157448100515
 20
55.75974731399999
 30
0.0
 40
99.932102782
100
AcDbArc
 50
247.461812867
 51
249.416811494
  0
LINE
  5
73
330
1D
100
AcDbEntity
  8
1
100
AcDbLine
 10
-0.2498605949948483
 20
-37.78925538000001
 30
0.0
 11
-0.1409256559948483
 21
-37.844030186
 31
0.0
  0
LINE
  5
74
330
1D
100
AcDbEntity
  8
1
100
AcDbLine
 10
-0.1409256559948483
 20
-37.844030186
 30
0.0
 11
-0.0316591669948483
 21
-37.95453719700001
 31
0.0
  0
LINE
  5
75
330
1D
100
AcDbEntity
  8
1
100
AcDbLine
 10
-0.0316591669948483
 20
-37.95453719700001
 30
0.0
 11
-0.0000985069948483
 21
-38.07544894500001
 31
0.0
  0
LINE
  5
76
330
1D
100
AcDbEntity
  8
1
100
AcDbLine
 10
-0.0000985069948483
 20
-38.07544894500001
 30
0.0
 11
-0.0360438329948483
 21
-38.18283602500001
 31
0.0
  0
LINE
  5
77
330
1D
100
AcDbEntity
  8
1
100
AcDbLine
 10
-0.0360438329948483
 20
-38.18283602500001
 30
0.0
 11
-0.1192221149948483
 21
-38.26822713000001
 31
0.0
  0
LINE
  5
78
330
1D
100
AcDbEntity
  8
1
100
AcDbLine
 10
-0.1192221149948483
 20
-38.26822713000001
 30
0.0
 11
-0.2498594399948483
 21
-38.335324568
 31
0.0
  0
ARC
  5
79
330
1D
100
AcDbEntity
  8
1
100
AcDbCircle
 10
-33.88129336099485
 20
55.75974731399999
 30
0.0
 40
99.924751188
100
AcDbArc
 50
287.702985425
 51
289.667891257
  0
ARC
  5
7A
330
1D
100
AcDbEntity
  8
1
100
AcDbCircle
 10
24.48926963500515
 20
55.75974731399999
 30
0.0
 40
99.916360361
100
AcDbArc
 50
253.733448918
 51
255.665407341
  0
LINE
  5
7B
330
1D
100
AcDbEntity
  8
1
100
AcDbLine
 10
-0.2498605949948483
 20
-41.05148091900001
 30
0.0
 11
-0.1178884609948483
 21
-41.10086150400001
 31
0.0
  0
LINE
  5
7C
330
1D
100
AcDbEntity
  8
1
100
AcDbLine
 10
-0.1178884609948483
 20
-41.10086150400001
 30
0.0
 11
-0.0265033649948483
 21
-41.17252305100001
 31
0.0
  0
LINE
  5
7D
330
1D
100
AcDbEntity
  8
1
100
AcDbLine
 10
-0.0265033649948483
 20
-41.17252305100001
 30
0.0
 11
-0.0001655619948483
 21
-41.25080816400001
 31
0.0
  0
LINE
  5
7E
330
1D
100
AcDbEntity
  8
1
100
AcDbLine
 10
-0.0001655619948483
 20
-41.25080816400001
 30
0.0
 11
-0.0352391709948483
 21
-41.32331721400001
 31
0.0
  0
LINE
  5
7F
330
1D
100
AcDbEntity
  8
1
100
AcDbLine
 10
-0.0352391709948483
 20
-41.32331721400001
 30
0.0
 11
-0.1199485469948483
 21
-41.38353280700001
 31
0.0
  0
LINE
  5
80
330
1D
100
AcDbEntity
  8
1
100
AcDbLine
 10
-0.1199485469948483
 20
-41.38353280700001
 30
0.0
 11
-0.2498594399948483
 21
-41.42946967200001
 31
0.0
  0
ARC
  5
81
330
1D
100
AcDbEntity
  8
1
100
AcDbCircle
 10
-23.48898851599485
 20
55.75974731399999
 30
0.0
 40
99.928979873
100
AcDbArc
 50
283.135797857
 51
283.447627668
  0
ARC
  5
82
330
1D
100
AcDbEntity
  8
1
100
AcDbCircle
 10
-30.67677397599485
 20
86.557548812
 30
0.0
 40
131.557548813
100
AcDbArc
 50
281.921533558
 51
283.136063108
  0
LINE
  5
83
330
1D
100
AcDbEntity
  8
1
100
AcDbLine
 10
-0.2498605949948483
 20
-43.24835538800001
 30
0.0
 11
-0.1060196859948483
 21
-43.28408464700001
 31
0.0
  0
LINE
  5
84
330
1D
100
AcDbEntity
  8
1
100
AcDbLine
 10
-0.1060196859948483
 20
-43.28408464700001
 30
0.0
 11
-0.0239552659948483
 21
-43.327774852
 31
0.0
  0
LINE
  5
85
330
1D
100
AcDbEntity
  8
1
100
AcDbLine
 10
-0.0239552659948483
 20
-43.327774852
 30
0.0
 11
-0.0001804639948483
 21
-43.37545856800001
 31
0.0
  0
LINE
  5
86
330
1D
100
AcDbEntity
  8
1
100
AcDbLine
 10
-0.0001804639948483
 20
-43.37545856800001
 30
0.0
 11
-0.0346580249948483
 21
-43.42078790000001
 31
0.0
  0
LINE
  5
87
330
1D
100
AcDbEntity
  8
1
100
AcDbLine
 10
-0.0346580249948483
 20
-43.42078790000001
 30
0.0
 11
-0.1203769549948483
 21
-43.45926269800001
 31
0.0
  0
LINE
  5
88
330
1D
100
AcDbEntity
  8
1
100
AcDbLine
 10
-0.1203769549948483
 20
-43.45926269800001
 30
0.0
 11
-0.2498594399948483
 21
-43.487984604
 31
0.0
  0
ARC
  5
89
330
1D
100
AcDbEntity
  8
1
100
AcDbCircle
 10
-20.28446913099485
 20
86.557548812
 30
0.0
 40
131.5797338
100
AcDbArc
 50
277.329761402
 51
278.758042759
  0
ARC
  5
8A
330
1D
100
AcDbEntity
  8
1
100
AcDbCircle
 10
10.89244540500515
 20
86.557548812
 30
0.0
 40
131.573241916
100
AcDbArc
 50
263.720905437
 51
265.141883953
  0
LINE
  5
8B
330
1D
100
AcDbEntity
  8
1
100
AcDbLine
 10
-0.2498605949948483
 20
-44.53780874600001
 30
0.0
 11
-0.2235563199948483
 21
-44.54015754100001
 31
0.0
  0
LINE
  5
8C
330
1D
100
AcDbEntity
  8
1
100
AcDbLine
 10
-0.2235563199948483
 20
-44.54015754100001
 30
0.0
 11
-0.1002529369948483
 21
-44.55674253400001
 31
0.0
  0
LINE
  5
8D
330
1D
100
AcDbEntity
  8
1
100
AcDbLine
 10
-0.1002529369948483
 20
-44.55674253400001
 30
0.0
 11
-0.0227817999948483
 21
-44.57781650100001
 31
0.0
  0
LINE
  5
8E
330
1D
100
AcDbEntity
  8
1
100
AcDbLine
 10
-0.0227817999948483
 20
-44.57781650100001
 30
0.0
 11
-0.0001767379948483
 21
-44.600602239
 31
0.0
  0
LINE
  5
8F
330
1D
100
AcDbEntity
  8
1
100
AcDbLine
 10
-0.0001767379948483
 20
-44.600602239
 30
0.0
 11
-0.0342929469948483
 21
-44.62235793400001
 31
0.0
  0
LINE
  5
90
330
1D
100
AcDbEntity
  8
1
100
AcDbLine
 10
-0.0342929469948483
 20
-44.62235793400001
 30
0.0
 11
-0.1205892969948483
 21
-44.64082792400001
 31
0.0
  0
LINE
  5
91
330
1D
100
AcDbEntity
  8
1
100
AcDbLine
 10
-0.1205892969948483
 20
-44.64082792400001
 30
0.0
 11
-0.2498594399948483
 21
-44.65432400600001
 31
0.0
  0
ARC
  5
92
330
1D
100
AcDbEntity
  8
1
100
AcDbCircle
 10
-9.892164284994848
 20
86.557548812
 30
0.0
 40
131.565685539
100
AcDbArc
 50
272.785822901
 51
274.202913096
  0
ARC
  5
93
330
1D
100
AcDbEntity
  8
1
100
AcDbCircle
 10
0.5001405600051516
 20
86.557548812
 30
0.0
 40
131.559072287
100
AcDbArc
 50
268.258514872
 51
269.673358801
  0
ARC
  5
94
330
1D
100
AcDbEntity
  8
1
100
AcDbCircle
 10
-0.5015356669948483
 20
-90.256730167
 30
0.0
 40
45.259512431
100
AcDbArc
 50
89.417741994
 51
89.681393083
  0
LINE
  5
95
330
1D
100
AcDbEntity
  8
1
100
AcDbLine
 10
-0.0416019659948483
 20
-44.99955475300001
 30
0.0
 11
0.7020628350051517
 21
-44.99955475300001
 31
0.0
  0
LINE
  5
96
330
1D
100
AcDbEntity
  8
1
100
AcDbLine
 10
0.7020628350051517
 20
-44.99955475300001
 30
0.0
 11
0.7020628350051517
 21
-26.99999883700001
 31
0.0
  0
LINE
  5
97
330
1D
100
AcDbEntity
  8
1
100
AcDbLine
 10
0.7020628350051517
 20
-26.99999883700001
 30
0.0
 11
0.0001399110051517
 21
-26.99999883700001
 31
0.0
  0
ARC
  5
98
330
1D
100
AcDbEntity
  8
1
100
AcDbCircle
 10
36.44907311900515
 20
-41.80287210300001
 30
0.0
 40
88.797960459
100
AcDbArc
 50
114.415992013
 51
116.734960897
  0
LINE
  5
99
330
1D
100
AcDbEntity
  8
1
100
AcDbLine
 10
-0.2498605949948483
 20
39.039492608
 30
0.0
 11
-0.1178661089948483
 21
39.125300944
 31
0.0
  0
LINE
  5
9A
330
1D
100
AcDbEntity
  8
1
100
AcDbLine
 10
-0.1178661089948483
 20
39.125300944
 30
0.0
 11
-0.0357607109948483
 21
39.23076391299999
 31
0.0
  0
LINE
  5
9B
330
1D
100
AcDbEntity
  8
1
100
AcDbLine
 10
-0.0357607109948483
 20
39.23076391299999
 30
0.0
 11
0.0000914830051517
 21
39.36782479299999
 31
0.0
  0
LINE
  5
9C
330
1D
100
AcDbEntity
  8
1
100
AcDbLine
 10
0.0000914830051517
 20
39.36782479299999
 30
0.0
 11
-0.0403577189948483
 21
39.52263295699999
 31
0.0
  0
LINE
  5
9D
330
1D
100
AcDbEntity
  8
1
100
AcDbLine
 10
-0.0403577189948483
 20
39.52263295699999
 30
0.0
 11
-0.1404748959948483
 21
39.63567316599999
 31
0.0
  0
LINE
  5
9E
330
1D
100
AcDbEntity
  8
1
100
AcDbLine
 10
-0.1404748959948483
 20
39.63567316599999
 30
0.0
 11
-0.2498594399948483
 21
39.69941135799999
 31
0.0
  0
ARC
  5
9F
330
1D
100
AcDbEntity
  8
1
100
AcDbCircle
 10
-35.44879199899485
 20
-41.80287210300001
 30
0.0
 40
88.778302883
100
AcDbArc
 50
66.641612058
 51
67.461812867
  0
ARC
  5
A0
330
1D
100
AcDbEntity
  8
1
100
AcDbCircle
 10
-43.55481965999485
 20
-61.335722045
 30
0.0
 40
109.92531306
100
AcDbArc
 50
67.461812867
 51
68.62892659
  0
ARC
  5
A1
330
1D
100
AcDbEntity
  8
1
100
AcDbCircle
 10
10.41428968400515
 20
-0.2821099170000071
 30
0.0
 40
44.408724893
100
AcDbArc
 50
103.8938015
 51
108.256819949
  0
LINE
  5
A2
330
1D
100
AcDbEntity
  8
1
100
AcDbLine
 10
-0.2498605949948483
 20
42.82972216699999
 30
0.0
 11
-0.1194419069948483
 21
42.876720429
 31
0.0
  0
LINE
  5
A3
330
1D
100
AcDbEntity
  8
1
100
AcDbLine
 10
-0.1194419069948483
 20
42.876720429
 30
0.0
 11
-0.0345388159948483
 21
42.93685406499999
 31
0.0
  0
LINE
  5
A4
330
1D
100
AcDbEntity
  8
1
100
AcDbLine
 10
-0.0345388159948483
 20
42.93685406499999
 30
0.0
 11
-0.0000463529948483
 21
43.00712049099999
 31
0.0
  0
LINE
  5
A5
330
1D
100
AcDbEntity
  8
1
100
AcDbLine
 10
-0.0000463529948483
 20
43.00712049099999
 30
0.0
 11
-0.0279599529948483
 21
43.07941347399999
 31
0.0
  0
LINE
  5
A6
330
1D
100
AcDbEntity
  8
1
100
AcDbLine
 10
-0.0279599529948483
 20
43.07941347399999
 30
0.0
 11
-0.1193115219948483
 21
43.14200580199999
 31
0.0
  0
LINE
  5
A7
330
1D
100
AcDbEntity
  8
1
100
AcDbLine
 10
-0.1193115219948483
 20
43.14200580199999
 30
0.0
 11
-0.2498594399948483
 21
43.18387922899999
 31
0.0
  0
ARC
  5
A8
330
1D
100
AcDbEntity
  8
1
100
AcDbCircle
 10
-12.60857987999485
 20
-13.97002169400001
 30
0.0
 40
58.474835285
100
AcDbArc
 50
77.798458411
 51
81.037335089
  0
ARC
  5
A9
330
1D
100
AcDbEntity
  8
1
100
AcDbCircle
 10
3.216556155005152
 20
-13.97002169400001
 30
0.0
 40
58.477485767
100
AcDbArc
 50
93.39865167
 51
96.593348465
  0
LINE
  5
AA
330
1D
100
AcDbEntity
  8
1
100
AcDbLine
 10
-0.2498605949948483
 20
44.39961165199999
 30
0.0
 11
-0.1205147909948483
 21
44.41010951999999
 31
0.0
  0
LINE
  5
AB
330
1D
100
AcDbEntity
  8
1
100
AcDbLine
 10
-0.1205147909948483
 20
44.41010951999999
 30
0.0
 11
-0.0340992319948483
 21
44.42327469599999
 31
0.0
  0
LINE
  5
AC
330
1D
100
AcDbEntity
  8
1
100
AcDbLine
 10
-0.0340992319948483
 20
44.42327469599999
 30
0.0
 11
-0.0001506609948483
 21
44.437065721
 31
0.0
  0
LINE
  5
AD
330
1D
100
AcDbEntity
  8
1
100
AcDbLine
 10
-0.0001506609948483
 20
44.437065721
 30
0.0
 11
-0.0228712069948483
 21
44.44964230099999
 31
0.0
  0
LINE
  5
AE
330
1D
100
AcDbEntity
  8
1
100
AcDbLine
 10
-0.0228712069948483
 20
44.44964230099999
 30
0.0
 11
-0.0997202199948483
 21
44.45973038699999
 31
0.0
  0
LINE
  5
AF
330
1D
100
AcDbEntity
  8
1
100
AcDbLine
 10
-0.0997202199948483
 20
44.45973038699999
 30
0.0
 11
-0.2217309279948483
 21
44.46674883399999
 31
0.0
  0
LINE
  5
B0
330
1D
100
AcDbEntity
  8
1
100
AcDbLine
 10
-0.2217309279948483
 20
44.46674883399999
 30
0.0
 11
-0.2498594399948483
 21
44.46775074799999
 31
0.0
  0
ARC
  5
B1
330
1D
100
AcDbEntity
  8
1
100
AcDbCircle
 10
-2.216275034994848
 20
-13.97002169400001
 30
0.0
 40
58.470847764
100
AcDbArc
 50
88.072739361
 51
90.0
  0
ARC
  5
B2
330
1D
100
AcDbEntity
  8
1
100
AcDbCircle
 10
-2.216275034994848
 20
-13.97002169400001
 30
0.0
 40
58.470021695
100
AcDbArc
 50
90.0
 51
91.25601603200002
  0
LINE
  5
B3
330
1D
100
AcDbEntity
  8
1
100
AcDbLine
 10
-3.497937480994848
 20
44.48630660799999
 30
0.0
 11
-3.547934601994848
 21
44.43518072399999
 31
0.0
  0
ARC
  5
B4
330
1D
100
AcDbEntity
  8
1
100
AcDbCircle
 10
-2.000673691994848
 20
42.76155002099999
 30
0.0
 40
2.27926656
100
AcDbArc
 50
132.7531860939999
 51
142.047995809
  0
LINE
  5
B5
330
1D
100
AcDbEntity
  8
1
100
AcDbLine
 10
-3.797935108994849
 20
44.163301588
 30
0.0
 11
-3.797935108994849
 21
43.71633380699999
 31
0.0
  0
LINE
  5
B6
330
1D
100
AcDbEntity
  8
1
100
AcDbLine
 10
-3.797935108994849
 20
43.71633380699999
 30
0.0
 11
-3.797935108994849
 21
43.60674321699999
 31
0.0
  0
LINE
  5
B7
330
1D
100
AcDbEntity
  8
1
100
AcDbLine
 10
-3.797935108994849
 20
43.60674321699999
 30
0.0
 11
-3.792254040994849
 21
43.59357804099999
 31
0.0
  0
LINE
  5
B8
330
1D
100
AcDbEntity
  8
1
100
AcDbLine
 10
-3.792254040994849
 20
43.59357804099999
 30
0.0
 11
-3.759404430994848
 21
43.59720647399999
 31
0.0
  0
LINE
  5
B9
330
1D
100
AcDbEntity
  8
1
100
AcDbLine
 10
-3.759404430994848
 20
43.59720647399999
 30
0.0
 11
-3.704434047994849
 21
43.62803697599999
 31
0.0
  0
LINE
  5
BA
330
1D
100
AcDbEntity
  8
1
100
AcDbLine
 10
-3.704434047994849
 20
43.62803697599999
 30
0.0
 11
-3.606023053994849
 21
43.70238632
 31
0.0
  0
LINE
  5
BB
330
1D
100
AcDbEntity
  8
1
100
AcDbLine
 10
-3.606023053994849
 20
43.70238632
 30
0.0
 11
-3.547934601994848
 21
43.75194758199999
 31
0.0
  0
LINE
  5
BC
330
1D
100
AcDbEntity
  8
1
100
AcDbLine
 10
-3.547934601994848
 20
43.75194758199999
 30
0.0
 11
-3.497937480994848
 21
43.795906008
 31
0.0
  0
LINE
  5
BD
330
1D
100
AcDbEntity
  8
1
100
AcDbLine
 10
-2.216273705994849
 20
44.50000077499999
 30
0.0
 11
17.10206477800515
 21
44.50000077499999
 31
0.0
  0
LINE
  5
BE
330
1D
100
AcDbEntity
  8
1
100
AcDbLine
 10
17.10206477800515
 20
44.50000077499999
 30
0.0
 11
17.10206477800515
 21
41.11017286799999
 31
0.0
  0
LINE
  5
BF
330
1D
100
AcDbEntity
  8
1
100
AcDbLine
 10
17.10206477800515
 20
41.11017286799999
 30
0.0
 11
17.10206477800515
 21
33.974252642
 31
0.0
  0
LINE
  5
C0
330
1D
100
AcDbEntity
  8
1
100
AcDbLine
 10
17.10206477800515
 20
33.974252642
 30
0.0
 11
17.10206434900515
 21
22.93153532999999
 31
0.0
  0
ARC
  5
C1
330
1D
100
AcDbEntity
  8
1
100
AcDbCircle
 10
27.10206434900515
 20
22.93153532999999
 30
0.0
 40
10.0
100
AcDbArc
 50
180.0
 51
209.99999797
  0
LINE
  5
C2
330
1D
100
AcDbEntity
  8
1
100
AcDbLine
 10
18.44181048600515
 20
17.93153583999999
 30
0.0
 11
31.50206429800515
 21
-4.689488559000007
 31
0.0
  0
LINE
  5
C3
330
1D
100
AcDbEntity
  8
1
100
AcDbLine
 10
31.50206429800515
 20
-4.689488559000007
 30
0.0
 11
31.50206429800515
 21
-15.94966277400001
 31
0.0
  0
LINE
  5
C4
330
1D
100
AcDbEntity
  8
1
100
AcDbLine
 10
31.50206429800515
 20
-15.94966277400001
 30
0.0
 11
27.94558529600515
 21
-49.78729877600001
 31
0.0
  0
LINE
  5
C5
330
1D
100
AcDbEntity
  8
1
100
AcDbLine
 10
27.94558529600515
 20
-49.78729877600001
 30
0.0
 11
25.64045249400515
 21
-49.48878008800001
 31
0.0
  0
LINE
  5
C6
330
1D
100
AcDbEntity
  8
1
100
AcDbLine
 10
25.64045249400515
 20
-49.48878008800001
 30
0.0
 11
22.87502049300515
 21
-49.12983532900001
 31
0.0
  0
LINE
  5
C7
330
1D
100
AcDbEntity
  8
1
100
AcDbLine
 10
22.87502049300515
 20
-49.12983532900001
 30
0.0
 11
20.10970490900515
 21
-48.76999650100001
 31
0.0
  0
LINE
  5
C8
330
1D
100
AcDbEntity
  8
1
100
AcDbLine
 10
20.10970490900515
 20
-48.76999650100001
 30
0.0
 11
17.34450853300515
 21
-48.40924311400001
 31
0.0
  0
LINE
  5
C9
330
1D
100
AcDbEntity
  8
1
100
AcDbLine
 10
17.34450853300515
 20
-48.40924311400001
 30
0.0
 11
14.57943416100515
 21
-48.04755561000001
 31
0.0
  0
LINE
  5
CA
330
1D
100
AcDbEntity
  8
1
100
AcDbLine
 10
14.57943416100515
 20
-48.04755561000001
 30
0.0
 11
9.049639319005152
 21
-47.32128698300001
 31
0.0
  0
LINE
  5
CB
330
1D
100
AcDbEntity
  8
1
100
AcDbLine
 10
9.049639319005152
 20
-47.32128698300001
 30
0.0
 11
9.049639319005152
 21
-59.45808789600001
 31
0.0
  0
LINE
  5
CC
330
1D
100
AcDbEntity
  8
1
100
AcDbLine
 10
9.049639319005152
 20
-59.45808789600001
 30
0.0
 11
9.112484966005152
 21
-59.46467514100001
 31
0.0
  0
LINE
  5
CD
330
1D
100
AcDbEntity
  8
1
100
AcDbLine
 10
9.112484966005152
 20
-59.46467514100001
 30
0.0
 11
15.66768831400515
 21
-60.151791665
 31
0.0
  0
LINE
  5
CE
330
1D
100
AcDbEntity
  8
1
100
AcDbLine
 10
15.66768831400515
 20
-60.151791665
 30
0.0
 11
20.05282438200515
 21
-60.61146524700001
 31
0.0
  0
LINE
  5
CF
330
1D
100
AcDbEntity
  8
1
100
AcDbLine
 10
20.05282438200515
 20
-60.61146524700001
 30
0.0
 11
20.21996791400515
 21
-60.60547824
 31
0.0
  0
LINE
  5
D0
330
1D
100
AcDbEntity
  8
1
100
AcDbLine
 10
20.21996791400515
 20
-60.60547824
 30
0.0
 11
20.23410911500515
 21
-60.47093309400001
 31
0.0
  0
LINE
  5
D1
330
1D
100
AcDbEntity
  8
1
100
AcDbLine
 10
20.23410911500515
 20
-60.47093309400001
 30
0.0
 11
31.03971316400515
 21
-61.60664785400001
 31
0.0
  0
LINE
  5
D2
330
1D
100
AcDbEntity
  8
1
100
AcDbLine
 10
31.03971316400515
 20
-61.60664785400001
 30
0.0
 11
30.73709269900515
 21
-61.25488854000001
 31
0.0
  0
LINE
  5
D3
330
1D
100
AcDbEntity
  8
1
100
AcDbLine
 10
30.73709269900515
 20
-61.25488854000001
 30
0.0
 11
30.45376458100515
 21
-60.73170492800001
 31
0.0
  0
LINE
  5
D4
330
1D
100
AcDbEntity
  8
1
100
AcDbLine
 10
30.45376458100515
 20
-60.73170492800001
 30
0.0
 11
30.19084872500515
 21
-60.039704898
 31
0.0
  0
LINE
  5
D5
330
1D
100
AcDbEntity
  8
1
100
AcDbLine
 10
30.19084872500515
 20
-60.039704898
 30
0.0
 11
29.94946574700515
 21
-59.18149603500001
 31
0.0
  0
LINE
  5
D6
330
1D
100
AcDbEntity
  8
1
100
AcDbLine
 10
29.94946574700515
 20
-59.18149603500001
 30
0.0
 11
29.73073556000515
 21
-58.15968662500001
 31
0.0
  0
LINE
  5
D7
330
1D
100
AcDbEntity
  8
1
100
AcDbLine
 10
29.73073556000515
 20
-58.15968662500001
 30
0.0
 11
29.60671412600515
 21
-57.44470143600001
 31
0.0
  0
LINE
  5
D8
330
1D
100
AcDbEntity
  8
1
100
AcDbLine
 10
29.60671412600515
 20
-57.44470143600001
 30
0.0
 11
29.38486098200515
 21
-55.82600738800001
 31
0.0
  0
LINE
  5
D9
330
1D
100
AcDbEntity
  8
1
100
AcDbLine
 10
29.38486098200515
 20
-55.82600738800001
 30
0.0
 11
29.19961347100515
 21
-53.96670103000001
 31
0.0
  0
LINE
  5
DA
330
1D
100
AcDbEntity
  8
1
100
AcDbLine
 10
29.19961347100515
 20
-53.96670103000001
 30
0.0
 11
29.08468454000515
 21
-52.40961443600001
 31
0.0
  0
LINE
  5
DB
330
1D
100
AcDbEntity
  8
1
100
AcDbLine
 10
29.08468454000515
 20
-52.40961443600001
 30
0.0
 11
28.99137114100515
 21
-50.72371847900001
 31
0.0
  0
LINE
  5
DC
330
1D
100
AcDbEntity
  8
1
100
AcDbLine
 10
28.99137114100515
 20
-50.72371847900001
 30
0.0
 11
27.94558529600515
 21
-49.78729877600001
 31
0.0
  0
LINE
  5
DD
330
1D
100
AcDbEntity
  8
1
100
AcDbLine
 10
31.50206429800515
 20
-15.94966277400001
 30
0.0
 11
33.50206433400515
 21
-16.05447754200001
 31
0.0
  0
LINE
  5
DE
330
1D
100
AcDbEntity
  8
1
100
AcDbLine
 10
33.50206433400515
 20
-16.05447754200001
 30
0.0
 11
29.88275161800515
 21
-50.48993788600001
 31
0.0
  0
LINE
  5
DF
330
1D
100
AcDbEntity
  8
1
100
AcDbLine
 10
29.88275161800515
 20
-50.48993788600001
 30
0.0
 11
30.01026830500515
 21
-52.547877654
 31
0.0
  0
LINE
  5
E0
330
1D
100
AcDbEntity
  8
1
100
AcDbLine
 10
30.01026830500515
 20
-52.547877654
 30
0.0
 11
30.17233426600516
 21
-54.39851991800001
 31
0.0
  0
LINE
  5
E1
330
1D
100
AcDbEntity
  8
1
100
AcDbLine
 10
30.17233426600516
 20
-54.39851991800001
 30
0.0
 11
30.37181005700515
 21
-56.05919053700001
 31
0.0
  0
LINE
  5
E2
330
1D
100
AcDbEntity
  8
1
100
AcDbLine
 10
30.37181005700515
 20
-56.05919053700001
 30
0.0
 11
30.60540648100515
 21
-57.49196885100001
 31
0.0
  0
LINE
  5
E3
330
1D
100
AcDbEntity
  8
1
100
AcDbLine
 10
30.60540648100515
 20
-57.49196885100001
 30
0.0
 11
30.88050031000515
 21
-58.72246436700001
 31
0.0
  0
LINE
  5
E4
330
1D
100
AcDbEntity
  8
1
100
AcDbLine
 10
30.88050031000515
 20
-58.72246436700001
 30
0.0
 11
31.18943770300515
 21
-59.70089044400001
 31
0.0
  0
LINE
  5
E5
330
1D
100
AcDbEntity
  8
1
100
AcDbLine
 10
31.18943770300515
 20
-59.70089044400001
 30
0.0
 11
31.41760987100515
 21
-60.218801023
 31
0.0
  0
LINE
  5
E6
330
1D
100
AcDbEntity
  8
1
100
AcDbLine
 10
31.41760987100515
 20
-60.218801023
 30
0.0
 11
31.66037563100515
 21
-60.61830196900001
 31
0.0
  0
LINE
  5
E7
330
1D
100
AcDbEntity
  8
1
100
AcDbLine
 10
31.66037563100515
 20
-60.61830196900001
 30
0.0
 11
31.91700168300515
 21
-60.89838768800001
 31
0.0
  0
ARC
  5
E8
330
1D
100
AcDbEntity
  8
1
100
AcDbCircle
 10
31.12479361900515
 20
-60.81457493300001
 30
0.0
 40
0.796629271
100
AcDbArc
 50
263.8690853360001
 51
353.960778511
  0
LINE
  5
E9
330
1D
100
AcDbEntity
  8
1
100
AcDbLine
 10
28.99137114100515
 20
-50.72371847900001
 30
0.0
 11
29.18534747200515
 21
-50.86427833800001
 31
0.0
  0
LINE
  5
EA
330
1D
100
AcDbEntity
  8
1
100
AcDbLine
 10
29.18534747200515
 20
-50.86427833800001
 30
0.0
 11
29.39695560200515
 21
-50.94635766
 31
0.0
  0
LINE
  5
EB
330
1D
100
AcDbEntity
  8
1
100
AcDbLine
 10
29.39695560200515
 20
-50.94635766
 30
0.0
 11
29.53742838300515
 21
-50.95243360800001
 31
0.0
  0
LINE
  5
EC
330
1D
100
AcDbEntity
  8
1
100
AcDbLine
 10
29.53742838300515
 20
-50.95243360800001
 30
0.0
 11
29.67738381500515
 21
-50.90188421300001
 31
0.0
  0
LINE
  5
ED
330
1D
100
AcDbEntity
  8
1
100
AcDbLine
 10
29.67738381500515
 20
-50.90188421300001
 30
0.0
 11
29.76669858100515
 21
-50.818999297
 31
0.0
  0
LINE
  5
EE
330
1D
100
AcDbEntity
  8
1
100
AcDbLine
 10
29.76669858100515
 20
-50.818999297
 30
0.0
 11
29.83324763200515
 21
-50.700633786
 31
0.0
  0
LINE
  5
EF
330
1D
100
AcDbEntity
  8
1
100
AcDbLine
 10
29.83324763200515
 20
-50.700633786
 30
0.0
 11
29.87788173200515
 21
-50.528891384
 31
0.0
  0
LINE
  5
F0
330
1D
100
AcDbEntity
  8
1
100
AcDbLine
 10
29.87788173200515
 20
-50.528891384
 30
0.0
 11
29.88275161800515
 21
-50.48993788600001
 31
0.0
  0
LINE
  5
F1
330
1D
100
AcDbEntity
  8
1
100
AcDbLine
 10
-3.497937480994848
 20
37.502326072
 30
0.0
 11
-3.547934601994848
 21
37.41136938399999
 31
0.0
  0
ARC
  5
F2
330
1D
100
AcDbEntity
  8
1
100
AcDbCircle
 10
-2.230172143994849
 20
36.54903256099999
 30
0.0
 40
1.574840529
100
AcDbArc
 50
146.7994753840001
 51
174.565945035
  0
LINE
  5
F3
330
1D
100
AcDbEntity
  8
1
100
AcDbLine
 10
-3.797935108994849
 20
36.69817000699999
 30
0.0
 11
-3.797935108994849
 21
36.28247976299999
 31
0.0
  0
LINE
  5
F4
330
1D
100
AcDbEntity
  8
1
100
AcDbLine
 10
-3.797935108994849
 20
36.28247976299999
 30
0.0
 11
-3.790417472994848
 21
36.21339798
 31
0.0
  0
LINE
  5
F5
330
1D
100
AcDbEntity
  8
1
100
AcDbLine
 10
-3.790417472994848
 20
36.21339798
 30
0.0
 11
-3.762891302994849
 21
36.16093099199999
 31
0.0
  0
LINE
  5
F6
330
1D
100
AcDbEntity
  8
1
100
AcDbLine
 10
-3.762891302994849
 20
36.16093099199999
 30
0.0
 11
-3.721961538994849
 21
36.141678691
 31
0.0
  0
LINE
  5
F7
330
1D
100
AcDbEntity
  8
1
100
AcDbLine
 10
-3.721961538994849
 20
36.141678691
 30
0.0
 11
-3.665735731994848
 21
36.14995628599999
 31
0.0
  0
LINE
  5
F8
330
1D
100
AcDbEntity
  8
1
100
AcDbLine
 10
-3.665735731994848
 20
36.14995628599999
 30
0.0
 11
-3.604506860994849
 21
36.181248725
 31
0.0
  0
LINE
  5
F9
330
1D
100
AcDbEntity
  8
1
100
AcDbLine
 10
-3.604506860994849
 20
36.181248725
 30
0.0
 11
-3.547934601994848
 21
36.22313588899999
 31
0.0
  0
LINE
  5
FA
330
1D
100
AcDbEntity
  8
1
100
AcDbLine
 10
-3.547934601994848
 20
36.22313588899999
 30
0.0
 11
-3.497937480994848
 21
36.26456856799999
 31
0.0
  0
LINE
  5
FB
330
1D
100
AcDbEntity
  8
1
100
AcDbLine
 10
-3.497937480994848
 20
-29.83066812100001
 30
0.0
 11
-3.547934601994848
 21
-29.78784218400001
 31
0.0
  0
LINE
  5
FC
330
1D
100
AcDbEntity
  8
1
100
AcDbLine
 10
-3.547934601994848
 20
-29.78784218400001
 30
0.0
 11
-3.596091429994849
 21
-29.75092828200001
 31
0.0
  0
LINE
  5
FD
330
1D
100
AcDbEntity
  8
1
100
AcDbLine
 10
-3.596091429994849
 20
-29.75092828200001
 30
0.0
 11
-3.669755319994848
 21
-29.71557900300001
 31
0.0
  0
LINE
  5
FE
330
1D
100
AcDbEntity
  8
1
100
AcDbLine
 10
-3.669755319994848
 20
-29.71557900300001
 30
0.0
 11
-3.718403885994849
 21
-29.71413731500001
 31
0.0
  0
LINE
  5
FF
330
1D
100
AcDbEntity
  8
1
100
AcDbLine
 10
-3.718403885994849
 20
-29.71413731500001
 30
0.0
 11
-3.755016038994849
 21
-29.73543852500001
 31
0.0
  0
LINE
  5
100
330
1D
100
AcDbEntity
  8
1
100
AcDbLine
 10
-3.755016038994849
 20
-29.73543852500001
 30
0.0
 11
-3.786703358994848
 21
-29.79693561700001
 31
0.0
  0
LINE
  5
101
330
1D
100
AcDbEntity
  8
1
100
AcDbLine
 10
-3.786703358994848
 20
-29.79693561700001
 30
0.0
 11
-3.797935108994849
 21
-29.89763394000001
 31
0.0
  0
LINE
  5
102
330
1D
100
AcDbEntity
  8
1
100
AcDbLine
 10
-3.797935108994849
 20
-29.89763394000001
 30
0.0
 11
-3.797935108994849
 21
-30.40075674600001
 31
0.0
  0
ARC
  5
103
330
1D
100
AcDbEntity
  8
1
100
AcDbCircle
 10
-1.684634529994848
 20
-30.20605590900001
 30
0.0
 40
2.122250634
100
AcDbArc
 50
185.2638667929999
 51
208.59999176
  0
LINE
  5
104
330
1D
100
AcDbEntity
  8
1
100
AcDbLine
 10
-3.547934601994848
 20
-31.22195973900001
 30
0.0
 11
-3.497937480994848
 21
-31.32370300500001
 31
0.0
  0
LINE
  5
105
330
1D
100
AcDbEntity
  8
1
100
AcDbLine
 10
-3.497937480994848
 20
-35.47068126500001
 30
0.0
 11
-3.547934601994848
 21
-35.429785028
 31
0.0
  0
LINE
  5
106
330
1D
100
AcDbEntity
  8
1
100
AcDbLine
 10
-3.547934601994848
 20
-35.429785028
 30
0.0
 11
-3.613242666994848
 21
-35.38203798200001
 31
0.0
  0
LINE
  5
107
330
1D
100
AcDbEntity
  8
1
100
AcDbLine
 10
-3.613242666994848
 20
-35.38203798200001
 30
0.0
 11
-3.686168948994848
 21
-35.34646332200001
 31
0.0
  0
LINE
  5
108
330
1D
100
AcDbEntity
  8
1
100
AcDbLine
 10
-3.686168948994848
 20
-35.34646332200001
 30
0.0
 11
-3.745572428994849
 21
-35.34302487900001
 31
0.0
  0
LINE
  5
109
330
1D
100
AcDbEntity
  8
1
100
AcDbLine
 10
-3.745572428994849
 20
-35.34302487900001
 30
0.0
 11
-3.778802017994848
 21
-35.36746650900001
 31
0.0
  0
LINE
  5
10A
330
1D
100
AcDbEntity
  8
1
100
AcDbLine
 10
-3.778802017994848
 20
-35.36746650900001
 30
0.0
 11
-3.797562579994848
 21
-35.43455898700001
 31
0.0
  0
LINE
  5
10B
330
1D
100
AcDbEntity
  8
1
100
AcDbLine
 10
-3.797562579994848
 20
-35.43455898700001
 30
0.0
 11
-3.797935108994849
 21
-35.448927432
 31
0.0
  0
LINE
  5
10C
330
1D
100
AcDbEntity
  8
1
100
AcDbLine
 10
-3.797935108994849
 20
-35.448927432
 30
0.0
 11
-3.797935108994849
 21
-35.79731844300001
 31
0.0
  0
ARC
  5
10D
330
1D
100
AcDbEntity
  8
1
100
AcDbCircle
 10
-2.308355208994848
 20
-35.56908145200001
 30
0.0
 40
1.506963968
100
AcDbArc
 50
188.711246242
 51
214.6573703400001
  0
LINE
  5
10E
330
1D
100
AcDbEntity
  8
1
100
AcDbLine
 10
-3.547934601994848
 20
-36.42604313700001
 30
0.0
 11
-3.497937480994848
 21
-36.50854527900001
 31
0.0
  0
LINE
  5
10F
330
1D
100
AcDbEntity
  8
1
100
AcDbLine
 10
-3.497937480994848
 20
-43.943950906
 30
0.0
 11
-3.547934601994848
 21
-43.89911144900001
 31
0.0
  0
LINE
  5
110
330
1D
100
AcDbEntity
  8
1
100
AcDbLine
 10
-3.547934601994848
 20
-43.89911144900001
 30
0.0
 11
-3.653930286994848
 21
-43.80857013100001
 31
0.0
  0
LINE
  5
111
330
1D
100
AcDbEntity
  8
1
100
AcDbLine
 10
-3.653930286994848
 20
-43.80857013100001
 30
0.0
 11
-3.733621696994848
 21
-43.75003464500001
 31
0.0
  0
LINE
  5
112
330
1D
100
AcDbEntity
  8
1
100
AcDbLine
 10
-3.733621696994848
 20
-43.75003464500001
 30
0.0
 11
-3.779647658994848
 21
-43.72692666900001
 31
0.0
  0
LINE
  5
113
330
1D
100
AcDbEntity
  8
1
100
AcDbLine
 10
-3.779647658994848
 20
-43.72692666900001
 30
0.0
 11
-3.797935108994849
 21
-43.736714869
 31
0.0
  0
LINE
  5
114
330
1D
100
AcDbEntity
  8
1
100
AcDbLine
 10
-3.797935108994849
 20
-43.736714869
 30
0.0
 11
-3.797935108994849
 21
-42.189240455
 31
0.0
  0
LINE
  5
115
330
1D
100
AcDbEntity
  8
1
100
AcDbLine
 10
-3.797935108994849
 20
-42.189240455
 30
0.0
 11
-3.797935108994849
 21
-42.02549532
 31
0.0
  0
LINE
  5
116
330
1D
100
AcDbEntity
  8
1
100
AcDbLine
 10
-3.797935108994849
 20
-42.02549532
 30
0.0
 11
-3.796769092994849
 21
-42.01434925200001
 31
0.0
  0
LINE
  5
117
330
1D
100
AcDbEntity
  8
1
100
AcDbLine
 10
-3.796769092994849
 20
-42.01434925200001
 30
0.0
 11
-3.776186863994849
 21
-41.99551045800001
 31
0.0
  0
LINE
  5
118
330
1D
100
AcDbEntity
  8
1
100
AcDbLine
 10
-3.776186863994849
 20
-41.99551045800001
 30
0.0
 11
-3.720441619994848
 21
-42.01024398200001
 31
0.0
  0
LINE
  5
119
330
1D
100
AcDbEntity
  8
1
100
AcDbLine
 10
-3.720441619994848
 20
-42.01024398200001
 30
0.0
 11
-3.641398410994849
 21
-42.05902107000001
 31
0.0
  0
LINE
  5
11A
330
1D
100
AcDbEntity
  8
1
100
AcDbLine
 10
-3.641398410994849
 20
-42.05902107000001
 30
0.0
 11
-3.547934601994848
 21
-42.13286004900001
 31
0.0
  0
LINE
  5
11B
330
1D
100
AcDbEntity
  8
1
100
AcDbLine
 10
-3.547934601994848
 20
-42.13286004900001
 30
0.0
 11
-3.497937480994848
 21
-42.17546992
 31
0.0
  0
LINE
  5
11C
330
1D
100
AcDbEntity
  8
1
100
AcDbLine
 10
-3.497937480994848
 20
-39.42676447300001
 30
0.0
 11
-3.547934601994848
 21
-39.38557766300001
 31
0.0
  0
LINE
  5
11D
330
1D
100
AcDbEntity
  8
1
100
AcDbLine
 10
-3.547934601994848
 20
-39.38557766300001
 30
0.0
 11
-3.628028343994849
 21
-39.32576999
 31
0.0
  0
LINE
  5
11E
330
1D
100
AcDbEntity
  8
1
100
AcDbLine
 10
-3.628028343994849
 20
-39.32576999
 30
0.0
 11
-3.704963038994848
 21
-39.28473405500001
 31
0.0
  0
LINE
  5
11F
330
1D
100
AcDbEntity
  8
1
100
AcDbLine
 10
-3.704963038994848
 20
-39.28473405500001
 30
0.0
 11
-3.763330886994849
 21
-39.27703015500001
 31
0.0
  0
LINE
  5
120
330
1D
100
AcDbEntity
  8
1
100
AcDbLine
 10
-3.763330886994849
 20
-39.27703015500001
 30
0.0
 11
-3.791043321994848
 21
-39.29988108500001
 31
0.0
  0
LINE
  5
121
330
1D
100
AcDbEntity
  8
1
100
AcDbLine
 10
-3.791043321994848
 20
-39.29988108500001
 30
0.0
 11
-3.797935108994849
 21
-39.33680616300001
 31
0.0
  0
LINE
  5
122
330
1D
100
AcDbEntity
  8
1
100
AcDbLine
 10
-3.797935108994849
 20
-39.33680616300001
 30
0.0
 11
-3.797935108994849
 21
-39.58143480100001
 31
0.0
  0
ARC
  5
123
330
1D
100
AcDbEntity
  8
1
100
AcDbCircle
 10
-2.734337449994849
 20
-39.36893290900001
 30
0.0
 40
1.084618382
100
AcDbArc
 50
191.2986587270001
 51
221.3989697069999
  0
LINE
  5
124
330
1D
100
AcDbEntity
  8
1
100
AcDbLine
 10
-3.547934601994848
 20
-40.08618928400001
 30
0.0
 11
-3.497937480994848
 21
-40.15685990400001
 31
0.0
  0
LINE
  5
125
330
1D
100
AcDbEntity
  8
1
100
AcDbLine
 10
-3.497937480994848
 20
-44.848313555
 30
0.0
 11
-3.547934601994848
 21
-44.800514355
 31
0.0
  0
ARC
  5
126
330
1D
100
AcDbEntity
  8
1
100
AcDbCircle
 10
-4.366132601994848
 20
-45.489153511
 30
0.0
 40
1.069425946
100
AcDbArc
 50
40.08575741799994
 51
57.90594073700008
  0
LINE
  5
127
330
1D
100
AcDbEntity
  8
1
100
AcDbLine
 10
-3.797935108994849
 20
-44.58316043000001
 30
0.0
 11
-3.797935108994849
 21
-44.614080339
 31
0.0
  0
ARC
  5
128
330
1D
100
AcDbEntity
  8
1
100
AcDbCircle
 10
-2.032599563994848
 20
-43.26106364500001
 30
0.0
 40
2.224199578
100
AcDbArc
 50
217.4678545079999
 51
227.055113666
  0
LINE
  5
129
330
1D
100
AcDbEntity
  8
1
100
AcDbLine
 10
-3.547934601994848
 20
-44.88919861600001
 30
0.0
 11
-3.497937480994848
 21
-44.94075849600001
 31
0.0
  0
ARC
  5
12A
330
1D
100
AcDbEntity
  8
1
100
AcDbCircle
 10
223.7113975290052
 20
52.732598518
 30
0.0
 40
236.834225655
100
AcDbArc
 50
199.673509989
 51
204.9902351029999
  0
LINE
  5
12B
330
1D
100
AcDbEntity
  8
1
100
AcDbLine
 10
31.50206429800515
 20
-4.689488559000007
 30
0.0
 11
33.50206433400515
 21
-8.153591305000008
 31
0.0
  0
LINE
  5
12C
330
1D
100
AcDbEntity
  8
1
100
AcDbLine
 10
33.50206433400515
 20
-8.153591305000008
 30
0.0
 11
33.50206433400515
 21
-16.05447754200001
 31
0.0
  0
LINE
  5
12D
330
1D
100
AcDbEntity
  8
1
100
AcDbLine
 10
33.50206433400515
 20
-16.05447754200001
 30
0.0
 11
33.50206434900515
 21
-23.96094993100001
 31
0.0
  0
LINE
  5
12E
330
1D
100
AcDbEntity
  8
1
100
AcDbLine
 10
33.50206433400515
 20
-29.61218357000001
 30
0.0
 11
33.50206433400515
 21
-49.98275265100001
 31
0.0
  0
LINE
  5
12F
330
1D
100
AcDbEntity
  8
1
100
AcDbLine
 10
33.50206433400515
 20
-49.98275265100001
 30
0.0
 11
33.33465968400515
 21
-50.12514535300001
 31
0.0
  0
LINE
  5
130
330
1D
100
AcDbEntity
  8
1
100
AcDbLine
 10
33.33465968400515
 20
-50.12514535300001
 30
0.0
 11
33.05245869900515
 21
-50.09523592800001
 31
0.0
  0
LINE
  5
131
330
1D
100
AcDbEntity
  8
1
100
AcDbLine
 10
33.05245869900515
 20
-50.09523592800001
 30
0.0
 11
31.91700168300515
 21
-60.89838768800001
 31
0.0
  0
LINE
  5
132
330
1D
100
AcDbEntity
  8
1
100
AcDbLine
 10
-3.791318992994849
 20
40.93147069299999
 30
0.0
 11
-3.757269839994848
 21
40.894791484
 31
0.0
  0
ARC
  5
133
330
1D
100
AcDbEntity
  8
1
100
AcDbCircle
 10
-3.750766609994848
 20
41.160652343
 30
0.0
 40
0.265940384
100
AcDbArc
 50
268.598765671
 51
319.7025645610005
  0
LINE
  5
134
330
1D
100
AcDbEntity
  8
1
100
AcDbLine
 10
-3.547934601994848
 20
40.98865389899999
 30
0.0
 11
-3.497937480994848
 21
41.02949053099999
 31
0.0
  0
LINE
  5
135
330
1D
100
AcDbEntity
  8
1
100
AcDbLine
 10
-3.497937480994848
 20
41.89116507799999
 30
0.0
 11
-3.547934601994848
 21
41.81715846099999
 31
0.0
  0
ARC
  5
136
330
1D
100
AcDbEntity
  8
1
100
AcDbCircle
 10
-2.681915329994848
 20
41.09104206899999
 30
0.0
 40
1.130147953
100
AcDbArc
 50
140.021750821
 51
170.9308524700001
  0
LINE
  5
137
330
1D
100
AcDbEntity
  8
1
100
AcDbLine
 10
-3.797935108994849
 20
41.26918315899999
 30
0.0
 11
-3.797935108994849
 21
40.97694903699999
 31
0.0
  0
LINE
  5
138
330
1D
100
AcDbEntity
  8
1
100
AcDbLine
 10
-3.797935108994849
 20
40.97694903699999
 30
0.0
 11
-3.797935108994849
 21
36.69817000699999
 31
0.0
  0
LINE
  5
139
330
1D
100
AcDbEntity
  8
1
100
AcDbLine
 10
-3.497937480994848
 20
44.12069916799999
 30
0.0
 11
-3.547934601994848
 21
44.06399279899999
 31
0.0
  0
ARC
  5
13A
330
1D
100
AcDbEntity
  8
1
100
AcDbCircle
 10
-2.876437824994849
 20
43.31740474899999
 30
0.0
 40
1.00414224
100
AcDbArc
 50
131.9688707379999
 51
156.5915389259999
  0
ARC
  5
13B
330
1D
100
AcDbEntity
  8
1
100
AcDbCircle
 10
-2.693735204994848
 20
-41.80294684100001
 30
0.0
 40
1.169820578
100
AcDbArc
 50
199.2818937099998
 51
223.09709387
  0
LINE
  5
13C
330
1D
100
AcDbEntity
  8
1
100
AcDbLine
 10
-3.547934601994848
 20
-42.60221123600001
 30
0.0
 11
-3.497937480994848
 21
-42.66465455200001
 31
0.0
  0
LINE
  5
13D
330
1D
100
AcDbEntity
  8
1
100
AcDbLine
 10
-3.797935108994849
 20
-43.736714869
 30
0.0
 11
-3.797935108994849
 21
-43.83119940700001
 31
0.0
  0
ARC
  5
13E
330
1D
100
AcDbEntity
  8
1
100
AcDbCircle
 10
-2.761263049994848
 20
-43.32803020400001
 30
0.0
 40
1.152331639
100
AcDbArc
 50
205.8905311040001
 51
226.9467260849999
  0
LINE
  5
13F
330
1D
100
AcDbEntity
  8
1
100
AcDbLine
 10
-3.547934601994848
 20
-44.17006112600001
 30
0.0
 11
-3.497937480994848
 21
-44.22637633900001
 31
0.0
  0
ARC
  5
140
330
1D
100
AcDbEntity
  8
CUT
100
AcDbCircle
 10
20.80260536800515
 20
-60.53973405800001
 30
0.0
 40
0.8
100
AcDbArc
 50
184.9699508169999
 51
264.000003992
  0
LINE
  5
141
330
1D
100
AcDbEntity
  8
CUT
100
AcDbLine
 10
20.71898265600515
 20
-61.33535155000001
 30
0.0
 11
31.75817563600515
 21
-62.49561751600001
 31
0.0
  0
ARC
  5
142
330
1D
100
AcDbEntity
  8
CUT
100
AcDbCircle
 10
31.84179840700515
 20
-61.70000000000001
 30
0.0
 40
0.8
100
AcDbArc
 50
264.0
 51
353.9999994899999
  0
LINE
  5
143
330
1D
100
AcDbEntity
  8
CUT
100
AcDbLine
 10
32.63741590000515
 20
-61.783622775
 30
0.0
 11
33.79768186500515
 21
-50.74442973200001
 31
0.0
  0
ARC
  5
144
330
1D
100
AcDbEntity
  8
CUT
100
AcDbCircle
 10
33.00206434900515
 20
-50.66080696100001
 30
0.0
 40
0.8
100
AcDbArc
 50
354.0000000000002
 51
54.30991225499987
  0
ARC
  5
145
330
1D
100
AcDbEntity
  8
CUT
100
AcDbCircle
 10
20.80260536800515
 20
-60.53973405800001
 30
0.0
 40
0.21554549
100
AcDbArc
 50
174.0000000000009
 51
263.9999731759999
  0
LINE
  5
146
330
1D
100
AcDbEntity
  8
CUT
100
AcDbLine
 10
20.78007462300515
 20
-60.75409881300001
 30
0.0
 11
31.81926776800515
 21
-61.914364709
 31
0.0
  0
ARC
  5
147
330
1D
100
AcDbEntity
  8
CUT
100
AcDbCircle
 10
31.84179840700515
 20
-61.70000000000001
 30
0.0
 40
0.21554549
100
AcDbArc
 50
264.0000000000008
 51
354.0000026260008
  0
LINE
  5
148
330
1D
100
AcDbEntity
  8
CUT
100
AcDbLine
 10
32.05616316200515
 20
-61.72253063400001
 30
0.0
 11
33.21642905800515
 21
-50.68333760000001
 31
0.0
  0
ARC
  5
149
330
1D
100
AcDbEntity
  8
CUT
100
AcDbCircle
 10
33.00206434900515
 20
-50.66080696100001
 30
0.0
 40
0.21554549
100
AcDbArc
 50
354.0000000000008
 51
84.00000000000082
  0
LINE
  5
14A
330
1D
100
AcDbEntity
  8
1
100
AcDbLine
 10
9.049639319005152
 20
-59.45808789600001
 30
0.0
 11
2.573369284005151
 21
-48.240778967
 31
0.0
  0
LINE
  5
14B
330
1D
100
AcDbEntity
  8
1
100
AcDbLine
 10
2.573369284005151
 20
-48.240778967
 30
0.0
 11
0.7020628350051517
 21
-44.99955475300001
 31
0.0
  0
LINE
  5
14C
330
1D
100
AcDbEntity
  8
1
100
AcDbLine
 10
17.10206477800515
 20
33.974252642
 30
0.0
 11
0.0001399110051517
 21
33.974252642
 31
0.0
  0
LINE
  5
14D
330
1D
100
AcDbEntity
  8
1
100
AcDbLine
 10
-3.797935108994849
 20
36.28247976299999
 30
0.0
 11
-3.797935108994849
 21
-29.89763394000001
 31
0.0
  0
LINE
  5
14E
330
1D
100
AcDbEntity
  8
1
100
AcDbLine
 10
-3.797935108994849
 20
-30.40075674600001
 30
0.0
 11
-3.797935108994849
 21
-35.448927432
 31
0.0
  0
LINE
  5
14F
330
1D
100
AcDbEntity
  8
1
100
AcDbLine
 10
33.50206433400515
 20
-29.61218357000001
 30
0.0
 11
33.50206433400515
 21
-23.96095171500001
 31
0.0
  0
LINE
  5
150
330
1D
100
AcDbEntity
  8
1
100
AcDbLine
 10
-3.797935108994849
 20
43.60674321699999
 30
0.0
 11
-3.797935108994849
 21
41.26918315899999
 31
0.0
  0
LINE
  5
151
330
1D
100
AcDbEntity
  8
1
100
AcDbLine
 10
-3.797935108994849
 20
-35.79731844300001
 30
0.0
 11
-3.797935108994849
 21
-39.33680616300001
 31
0.0
  0
LINE
  5
152
330
1D
100
AcDbEntity
  8
1
100
AcDbLine
 10
-3.797935108994849
 20
-39.58143480100001
 30
0.0
 11
-3.797935108994849
 21
-42.02549532
 31
0.0
  0
LINE
  5
153
330
1D
100
AcDbEntity
  8
1
100
AcDbLine
 10
-3.797935108994849
 20
-43.83119940700001
 30
0.0
 11
-3.797935108994849
 21
-44.58316043000001
 31
0.0
  0
LINE
  5
154
330
1D
100
AcDbEntity
  8
CUT
100
AcDbLine
 10
32.05616316200515
 20
-61.72253063400001
 30
0.0
 11
32.63741590000515
 21
-61.783622775
 31
0.0
  0
LINE
  5
155
330
1D
100
AcDbEntity
  8
CUT
100
AcDbLine
 10
31.81926787700516
 20
-61.91436469000001
 30
0.0
 11
31.75817567700515
 21
-62.49561751600001
 31
0.0
  0
LINE
  5
156
330
1D
100
AcDbEntity
  8
CUT
100
AcDbLine
 10
33.21642904000515
 20
-50.68333726300001
 30
0.0
 11
33.79768186500515
 21
-50.74443016200001
 31
0.0
  0
LINE
  5
157
330
1D
100
AcDbEntity
  8
CUT
100
AcDbLine
 10
20.78007462300515
 20
-60.75409881300001
 30
0.0
 11
20.71898265600515
 21
-61.33535155000001
 31
0.0
  0
LINE
  5
158
330
1D
100
AcDbEntity
  8
1
100
AcDbLine
 10
-3.497935650994848
 20
-42.66465547200001
 30
0.0
 11
-0.2498605949948483
 21
-43.24835538800001
 31
0.0
  0
LINE
  5
1F4
330
1D
100
AcDbEntity
  8
1
100
AcDbLine
 10
24.90768882300515
 20
49.00564718899999
 30
0.0
 11
33.08568711961927
 21
49.86518944470537
 31
0.0
  0
LINE
  5
1F5
330
1D
100
AcDbEntity
  8
1
100
AcDbLine
 10
33.08568711961927
 20
49.86518944470537
 30
0.0
 11
33.50206433400515
 21
49.86518944470537
 31
0.0
  0
LINE
  5
1F6
330
1D
100
AcDbEntity
  8
1
100
AcDbLine
 10
20.86653022900515
 20
52.27811355099999
 30
0.0
 11
20.0069878433637
 21
60.45611136680073
 31
0.0
  0
LINE
  5
1F7
330
1D
100
AcDbEntity
  8
1
100
AcDbLine
 10
20.0069878433637
 20
60.45611136680073
 30
0.0
 11
19.99137800561275
 21
60.60502401950643
 31
0.0
  0
LINE
  5
1F9
330
1D
100
AcDbEntity
  8
1
100
AcDbLine
 10
20.0069878433637
 20
60.45611136680073
 30
0.0
 11
21.16725379371053
 21
49.41691824838588
 31
0.0
  0
LINE
  5
1FA
330
1D
100
AcDbEntity
  8
1
100
AcDbLine
 10
22.04649408061928
 20
48.70492350270538
 30
0.0
 11
33.08568711961927
 21
49.86518944470537
 31
0.0
  0
LINE
  5
1FD
330
1D
100
AcDbEntity
  8
3
100
AcDbLine
 10
33.39729432800515
 20
49.96525403099999
 30
0.0
 11
32.10444145165347
 21
61.55247298257821
 31
0.0
  0
LINE
  5
1FE
330
1D
100
AcDbEntity
  8
3
100
AcDbLine
 10
32.10444145165347
 20
61.55247298257821
 30
0.0
 11
31.51410470201951
 21
61.98257547159724
 31
0.0
  0
LINE
  5
1FF
330
1D
100
AcDbEntity
  8
3
100
AcDbLine
 10
31.51410470201951
 20
61.98257547159724
 30
0.0
 11
20.2425435746403
 21
60.75356804800646
 31
0.0
  0
LINE
  5
200
330
1D
100
AcDbEntity
  8
3
100
AcDbLine
 10
20.2425435746403
 20
60.75356804800646
 30
0.0
 11
20.00539574341798
 21
60.60649343536061
 31
0.0
  0
LWPOLYLINE
  5
202
330
1D
100
AcDbEntity
  8
INFTOTAL
100
AcDbPolyline
 90
        4
 70
     1
 43
0.0
 10
-35.47226694670256
 20
89.03920652858346
 10
-35.47226694670256
 20
-76.3476777469622
 10
62.80109907209982
 20
-76.3476777469622
 10
62.80109907209982
 20
89.03920652858346
  0
LINE
  5
231
330
1D
100
AcDbEntity
  8
NOCUT
100
AcDbLine
 10
0.0
 20
0.0
 30
0.0
 11
0.0000000000000001
 21
44.50000077499999
 31
0.0
  0
LINE
  5
232
330
1D
100
AcDbEntity
  8
NOCUT
100
AcDbLine
 10
0.0000000000000001
 20
44.50000077499999
 30
0.0
 11
0.6136424200051517
 21
44.50000077499999
 31
0.0
  0
LINE
  5
233
330
1D
100
AcDbEntity
  8
NOCUT
100
AcDbLine
 10
0.6136424200051517
 20
44.50000077499999
 30
0.0
 11
9.262522895005151
 21
59.48040168699999
 31
0.0
  0
ARC
  5
24B
330
1D
100
AcDbEntity
  8
CUT
100
AcDbCircle
 10
33.00206434900515
 20
50.66080696099999
 30
0.0
 40
0.8
100
AcDbArc
 50
276.0000000000003
 51
6.000030598999876
  0
LINE
  5
24C
330
1D
100
AcDbEntity
  8
CUT
100
AcDbLine
 10
33.79768186500516
 20
50.74443016199999
 30
0.0
 11
32.63741592300515
 21
61.78362277099999
 31
0.0
  0
ARC
  5
24D
330
1D
100
AcDbEntity
  8
CUT
100
AcDbCircle
 10
31.84179840700515
 20
61.7
 30
0.0
 40
0.8
100
AcDbArc
 50
5.999999999999834
 51
95.99999707299914
  0
LINE
  5
24E
330
1D
100
AcDbEntity
  8
CUT
100
AcDbLine
 10
31.75817567700514
 20
62.495617516
 30
0.0
 11
20.71898259800514
 21
61.33535157399999
 31
0.0
  0
ARC
  5
24F
330
1D
100
AcDbEntity
  8
CUT
100
AcDbCircle
 10
20.80260536800515
 20
60.53973405799999
 30
0.0
 40
0.8
100
AcDbArc
 50
95.9999999999993
 51
185.9999942810001
  0
ARC
  5
250
330
1D
100
AcDbEntity
  8
CUT
100
AcDbCircle
 10
21.96287131000514
 20
49.500541019
 30
0.0
 40
0.8
100
AcDbArc
 50
185.9999999999998
 51
276.0000000000003
  0
LINE
  5
251
330
1D
100
AcDbEntity
  8
CUT
100
AcDbLine
 10
20.00698784336371
 20
60.45611136680073
 30
0.0
 11
21.16725379371053
 21
49.41691824838588
 31
0.0
  0
LINE
  5
252
330
1D
100
AcDbEntity
  8
CUT
100
AcDbLine
 10
22.04649408061927
 20
48.70492350270538
 30
0.0
 11
33.08568711961928
 21
49.86518944470537
 31
0.0
  0
CIRCLE
  5
253
330
1D
100
AcDbEntity
  8
1
100
AcDbCircle
 10
26.68962642800514
 20
55.33759747399999
 30
0.0
 40
3.797167000999998
  0
HATCH
  5
25B
330
1D
100
AcDbEntity
  8
7
100
AcDbHatch
 10
0.0
 20
0.0
 30
0.0
210
0.0
220
0.0
230
1.0
  2
ANSI37
 70
     0
 71
     0
 91
        2
 92
        7
 72
     1
 73
     1
 93
        8
 10
33.79768183173178
 20
50.74443015788719
 42
0.0
 10
32.6374159232261
 20
61.78362277071059
 42
0.4142135484776165
 10
31.75817567702812
 20
62.49561751942491
 42
0.0
 10
20.71898259754457
 20
61.33535157422096
 42
0.414213552754519
 10
20.00698784892669
 20
60.45611131387241
 42
0.0
 10
21.16725379370897
 20
49.41691824840081
 42
0.4142135623730896
 10
22.04649408060434
 20
48.7049235027038
 42
0.0
 10
33.08568711961928
 20
49.86518944470537
 42
0.4142137089921643
 97
        0
 92
       22
 72
     1
 73
     1
 93
        2
 10
22.89245942700515
 20
55.33759747399999
 42
-0.9999999999999999
 10
30.48679342900514
 20
55.33759747399999
 42
-0.9999999999999999
 97
        0
 75
     0
 76
     1
 52
90.0
 41
5.0
 77
     0
 78
     2
 53
135.0
 43
-73.54396490884798
 44
-0.0000000000000071
 45
-0.4419417382415922
 46
-0.4419417382415922
 79
     0
 53
225.0
 43
-73.54396490884798
 44
-0.0000000000000071
 45
0.4419417382415922
 46
-0.4419417382415923
 79
     0
 47
0.0
 98
        2
 10
21.17997100740746
 20
51.35394423171223
 10
21.17997100740746
 20
51.35394423171223
1001
ACAD
1010
0.0
1020
0.0
1030
0.0
1001
PE_URL
1000

  0
LINE
  5
25D
330
1D
100
AcDbEntity
  8
NOCUT
100
AcDbLine
 10
0.0
 20
0.0
 30
0.0
 11
28.79458646889925
 21
-0.0000000000000075
 31
0.0
  0
LINE
  5
25E
330
1D
100
AcDbEntity
  8
NOCUT
100
AcDbLine
 10
28.79458646889925
 20
-0.0000000000000075
 30
0.0
 11
33.50206433400515
 21
8.153591304999994
 31
0.0
  0
LINE
  5
25F
330
1D
100
AcDbEntity
  8
NOCUT
100
AcDbLine
 10
33.50206433400515
 20
8.153591304999994
 30
0.0
 11
33.50206433400515
 21
49.97635912099999
 31
0.0
  0
LINE
  5
260
330
1D
100
AcDbEntity
  8
NOCUT
100
AcDbLine
 10
33.50206433400515
 20
49.97635912099999
 30
0.0
 11
33.46878491900515
 21
50.01105926899999
 31
0.0
  0
ARC
  5
261
330
1D
100
AcDbEntity
  8
NOCUT
100
AcDbCircle
 10
33.00206434900515
 20
50.66080696099999
 30
0.0
 40
0.8000003842073593
100
AcDbArc
 50
299.6062846404594
 51
305.6900829105116
  0
LINE
  5
262
330
1D
100
AcDbEntity
  8
NOCUT
100
AcDbLine
 10
33.39729432800515
 20
49.96525403099999
 30
0.0
 11
32.10444145165347
 21
61.55247298257821
 31
0.0
  0
LINE
  5
263
330
1D
100
AcDbEntity
  8
NOCUT
100
AcDbLine
 10
32.10444145165347
 20
61.55247298257821
 30
0.0
 11
31.51410470201951
 21
61.98257547159724
 31
0.0
  0
LINE
  5
264
330
1D
100
AcDbEntity
  8
NOCUT
100
AcDbLine
 10
31.51410470201951
 20
61.98257547159724
 30
0.0
 11
20.2425435746403
 21
60.75356804800646
 31
0.0
  0
LINE
  5
265
330
1D
100
AcDbEntity
  8
NOCUT
100
AcDbLine
 10
20.2425435746403
 20
60.75356804800646
 30
0.0
 11
20.00539574341798
 21
60.60649343536061
 31
0.0
  0
LINE
  5
266
330
1D
100
AcDbEntity
  8
NOCUT
100
AcDbLine
 10
9.262522895005151
 20
59.48040168699999
 30
0.0
 11
9.317212020005151
 21
59.48613421
 31
0.0
  0
LINE
  5
267
330
1D
100
AcDbEntity
  8
NOCUT
100
AcDbLine
 10
9.317212020005151
 20
59.48613421
 30
0.0
 11
19.99137800561275
 21
60.60502401950643
 31
0.0
  0
LINE
  5
268
330
1D
100
AcDbEntity
  8
NOCUT
100
AcDbLine
 10
19.99137800561275
 20
60.60502401950643
 30
0.0
 11
20.00539574341798
 21
60.60649343536061
 31
0.0
  0
LINE
  5
26A
330
1D
100
AcDbEntity
  8
4
100
AcDbLine
 10
0.0
 20
0.0
 30
0.0
 11
35.79621698200515
 21
-0.0000000000000071
 31
0.0
  0
ENDSEC
  0
SECTION
  2
OBJECTS
  0
DICTIONARY
  5
C
330
0
100
AcDbDictionary
281
     1
  3
ACAD_COLOR
350
217
  3
ACAD_DETAILVIEWSTYLE
350
206
  3
ACAD_GROUP
350
D
  3
ACAD_LAYOUT
350
1A
  3
ACAD_MATERIAL
350
196
  3
ACAD_MLEADERSTYLE
350
1A3
  3
ACAD_MLINESTYLE
350
17
  3
ACAD_PLOTSETTINGS
350
19
  3
ACAD_PLOTSTYLENAME
350
E
  3
ACAD_SCALELIST
350
15F
  3
ACAD_SECTIONVIEWSTYLE
350
207
  3
ACAD_TABLESTYLE
350
1EC
  3
ACAD_VISUALSTYLE
350
185
  3
ACDB_RECOMPOSE_DATA
350
277
  3
AcDbVariableDictionary
350
1A1
  3
APPDATA
350
1EF
  0
SUN
  5
208
330
159
100
AcDbSun
 90
        1
290
     0
 63
     7
421
 16777215
 40
1.0
291
     1
 91
  2455826
 92
 54000000
292
     0
 70
     2
 71
   256
280
     1
  0
DICTIONARY
  5
1F0
330
2
100
AcDbDictionary
280
     1
281
     1
  3
ACAD_LAYERSTATES
360
1F1
  0
DICTIONARY
  5
259
330
1D
100
AcDbDictionary
280
     1
281
     1
  3
ACAD_SORTENTS
360
25A
  0
DICTIONARY
  5
217
102
{ACAD_REACTORS
330
C
102
}
330
C
100
AcDbDictionary
281
     1
  0
DICTIONARY
  5
206
102
{ACAD_REACTORS
330
C
102
}
330
C
100
AcDbDictionary
281
     1
  0
DICTIONARY
  5
D
102
{ACAD_REACTORS
330
C
102
}
330
C
100
AcDbDictionary
281
     1
  0
DICTIONARY
  5
1A
102
{ACAD_REACTORS
330
C
102
}
330
C
100
AcDbDictionary
281
     1
  3
Layout1
350
1C
  3
Model
350
1E
  0
DICTIONARY
  5
196
102
{ACAD_REACTORS
330
C
102
}
330
C
100
AcDbDictionary
281
     1
  3
ByBlock
350
198
  3
ByLayer
350
197
  3
Global
350
199
  0
DICTIONARY
  5
1A3
102
{ACAD_REACTORS
330
C
102
}
330
C
100
AcDbDictionary
281
     1
  3
Standard
350
1EE
  0
DICTIONARY
  5
17
102
{ACAD_REACTORS
330
C
102
}
330
C
100
AcDbDictionary
281
     1
  3
Standard
350
18
  0
DICTIONARY
  5
19
102
{ACAD_REACTORS
330
C
102
}
330
C
100
AcDbDictionary
281
     1
  0
ACDBDICTIONARYWDFLT
  5
E
102
{ACAD_REACTORS
330
C
102
}
330
C
100
AcDbDictionary
281
     1
  3
Normal
350
F
100
AcDbDictionaryWithDefault
340
F
  0
DICTIONARY
  5
15F
102
{ACAD_REACTORS
330
C
102
}
330
C
100
AcDbDictionary
281
     1
  3
A0
350
160
  3
A1
350
161
  3
A2
350
162
  3
A3
350
163
  3
A4
350
164
  3
A5
350
165
  3
A6
350
166
  3
A7
350
167
  3
A8
350
168
  3
A9
350
169
  3
B0
350
16A
  3
B1
350
16B
  3
B2
350
16C
  3
B3
350
16D
  3
B4
350
16E
  3
B5
350
16F
  3
B6
350
170
  3
B7
350
171
  3
B8
350
172
  3
B9
350
173
  3
C0
350
174
  3
C1
350
175
  3
C2
350
176
  3
C3
350
177
  3
C4
350
178
  3
C5
350
179
  3
C6
350
17A
  3
C7
350
17B
  3
C8
350
17C
  3
C9
350
17D
  3
D0
350
17E
  3
D1
350
17F
  3
D2
350
180
  0
DICTIONARY
  5
207
102
{ACAD_REACTORS
330
C
102
}
330
C
100
AcDbDictionary
281
     1
  0
DICTIONARY
  5
1EC
102
{ACAD_REACTORS
330
C
102
}
330
C
100
AcDbDictionary
281
     1
  3
Standard
350
1ED
  0
DICTIONARY
  5
185
102
{ACAD_REACTORS
330
C
102
}
330
C
100
AcDbDictionary
281
     1
  3
2dWireframe
350
18A
  3
3D Hidden
350
18C
  3
3dWireframe
350
18B
  3
Basic
350
18D
  3
Brighten
350
191
  3
ColorChange
350
195
  3
Conceptual
350
18F
  3
Dim
350
190
  3
EdgeColorOff
350
1E6
  3
Facepattern
350
194
  3
Flat
350
186
  3
FlatWithEdges
350
187
  3
Gouraud
350
188
  3
GouraudWithEdges
350
189
  3
Hidden
350
1E3
  3
JitterOff
350
1E4
  3
Linepattern
350
193
  3
OverhangOff
350
1E5
  3
Realistic
350
18E
  3
Shaded
350
1EB
  3
Shaded with edges
350
1EA
  3
Shades of Gray
350
1E7
  3
Sketchy
350
1E8
  3
Thicken
350
192
  3
Wireframe
350
1E2
  3
X-Ray
350
1E9
  0
XRECORD
  5
277
102
{ACAD_REACTORS
330
C
102
}
330
C
100
AcDbXrecord
280
     1
 90
        1
330
1ED
  0
DICTIONARY
  5
1A1
102
{ACAD_REACTORS
330
C
102
}
330
C
100
AcDbDictionary
281
     1
  3
CANNOSCALE
350
203
  3
CMLEADERSTYLE
350
205
  3
CTABLESTYLE
350
204
  3
DIMASSOC
350
1A5
  3
HIDETEXT
350
1A6
  3
MSLTSCALE
350
1A4
  0
DICTIONARY
  5
1EF
102
{ACAD_REACTORS
330
C
102
}
330
C
100
AcDbDictionary
281
     1
  0
DICTIONARY
  5
1F1
102
{ACAD_REACTORS
330
1F0
102
}
330
1F0
100
AcDbDictionary
281
     1
  0
SORTENTSTABLE
  5
25A
102
{ACAD_REACTORS
330
259
102
}
330
259
100
AcDbSortentsTable
330
1D
331
24B
  5
24D
331
24C
  5
24E
331
24D
  5
24F
331
24E
  5
250
331
24F
  5
251
331
250
  5
252
331
251
  5
253
331
252
  5
258
331
253
  5
25B
331
0
  5
24B
331
25B
  5
24C
  0
LAYOUT
  5
1C
102
{ACAD_REACTORS
330
1A
102
}
330
1A
100
AcDbPlotSettings
  1

  2
none_device
  4

  6

 40
0.0
 41
0.0
 42
0.0
 43
0.0
 44
0.0
 45
0.0
 46
0.0
 47
0.0
 48
0.0
 49
0.0
140
0.0
141
0.0
142
1.0
143
1.0
 70
   688
 72
     0
 73
     0
 74
     5
  7

 75
    16
 76
     0
 77
     2
 78
   300
147
1.0
148
0.0
149
0.0
100
AcDbLayout
  1
Layout1
 70
     1
 71
     1
 10
0.0
 20
0.0
 11
12.0
 21
9.0
 12
0.0
 22
0.0
 32
0.0
 14
1.000000000000000E+20
 24
1.000000000000000E+20
 34
1.000000000000000E+20
 15
-1.000000000000000E+20
 25
-1.000000000000000E+20
 35
-1.000000000000000E+20
146
0.0
 13
0.0
 23
0.0
 33
0.0
 16
1.0
 26
0.0
 36
0.0
 17
0.0
 27
1.0
 37
0.0
 76
     0
330
1B
  0
LAYOUT
  5
1E
102
{ACAD_REACTORS
330
1A
102
}
330
1A
100
AcDbPlotSettings
  1

  2
none_device
  4

  6

 40
0.0
 41
0.0
 42
0.0
 43
0.0
 44
0.0
 45
0.0
 46
0.0
 47
0.0
 48
0.0
 49
0.0
140
0.0
141
0.0
142
1.0
143
1.0
 70
  1712
 72
     0
 73
     0
 74
     0
  7

 75
     0
 76
     0
 77
     2
 78
   300
147
1.0
148
0.0
149
0.0
100
AcDbLayout
  1
Model
 70
     1
 71
     0
 10
0.0
 20
0.0
 11
12.0
 21
9.0
 12
0.0
 22
0.0
 32
0.0
 14
-35.47226694670256
 24
-76.3476777469622
 34
0.0
 15
62.8010990720998
 25
89.03920652858346
 35
0.0
146
0.0
 13
0.0
 23
0.0
 33
0.0
 16
1.0
 26
0.0
 36
0.0
 17
0.0
 27
1.0
 37
0.0
 76
     0
330
1D
331
159
  0
MATERIAL
  5
198
102
{ACAD_REACTORS
330
196
102
}
330
196
100
AcDbMaterial
  1
ByBlock
 72
     1
 94
      127
  0
MATERIAL
  5
197
102
{ACAD_REACTORS
330
196
102
}
330
196
100
AcDbMaterial
  1
ByLayer
 72
     1
 94
      127
  0
MATERIAL
  5
199
102
{ACAD_REACTORS
330
196
102
}
330
196
100
AcDbMaterial
  1
Global
 72
     1
 94
      127
  0
MLEADERSTYLE
  5
1EE
102
{ACAD_REACTORS
330
1A3
102
}
330
1A3
100
AcDbMLeaderStyle
179
     2
170
     2
171
     1
172
     0
 90
        2
 40
0.0
 41
0.0
173
     1
 91
-1056964608
340
14
 92
       -2
290
     1
 42
0.09
291
     1
 43
0.36
  3
Standard
341
0
 44
0.18
300

342
11
174
     1
178
     1
175
     1
176
     0
 93
-1056964608
 45
0.18
292
     0
297
     0
 46
0.18
343
0
 94
-1056964608
 47
1.0
 49
1.0
140
1.0
293
     1
141
0.0
294
     1
177
     0
142
1.0
295
     0
296
     0
143
0.125
271
     0
272
     9
273
     9
298
     0
  0
MLINESTYLE
  5
18
102
{ACAD_REACTORS
330
17
102
}
330
17
100
AcDbMlineStyle
  2
Standard
 70
     0
  3

 62
   256
 51
90.0
 52
90.0
 71
     2
 49
0.5
 62
   256
  6
BYLAYER
 49
-0.5
 62
   256
  6
BYLAYER
  0
ACDBPLACEHOLDER
  5
F
102
{ACAD_REACTORS
330
E
102
}
330
E
  0
SCALE
  5
160
102
{ACAD_REACTORS
330
15F
102
}
330
15F
100
AcDbScale
 70
     0
300
1:1
140
1.0
141
1.0
290
     1
  0
SCALE
  5
161
102
{ACAD_REACTORS
330
15F
102
}
330
15F
100
AcDbScale
 70
     0
300
1:2
140
1.0
141
2.0
290
     0
  0
SCALE
  5
162
102
{ACAD_REACTORS
330
15F
102
}
330
15F
100
AcDbScale
 70
     0
300
1:4
140
1.0
141
4.0
290
     0
  0
SCALE
  5
163
102
{ACAD_REACTORS
330
15F
102
}
330
15F
100
AcDbScale
 70
     0
300
1:5
140
1.0
141
5.0
290
     0
  0
SCALE
  5
164
102
{ACAD_REACTORS
330
15F
102
}
330
15F
100
AcDbScale
 70
     0
300
1:8
140
1.0
141
8.0
290
     0
  0
SCALE
  5
165
102
{ACAD_REACTORS
330
15F
102
}
330
15F
100
AcDbScale
 70
     0
300
1:10
140
1.0
141
10.0
290
     0
  0
SCALE
  5
166
102
{ACAD_REACTORS
330
15F
102
}
330
15F
100
AcDbScale
 70
     0
300
1:16
140
1.0
141
16.0
290
     0
  0
SCALE
  5
167
102
{ACAD_REACTORS
330
15F
102
}
330
15F
100
AcDbScale
 70
     0
300
1:20
140
1.0
141
20.0
290
     0
  0
SCALE
  5
168
102
{ACAD_REACTORS
330
15F
102
}
330
15F
100
AcDbScale
 70
     0
300
1:30
140
1.0
141
30.0
290
     0
  0
SCALE
  5
169
102
{ACAD_REACTORS
330
15F
102
}
330
15F
100
AcDbScale
 70
     0
300
1:40
140
1.0
141
40.0
290
     0
  0
SCALE
  5
16A
102
{ACAD_REACTORS
330
15F
102
}
330
15F
100
AcDbScale
 70
     0
300
1:50
140
1.0
141
50.0
290
     0
  0
SCALE
  5
16B
102
{ACAD_REACTORS
330
15F
102
}
330
15F
100
AcDbScale
 70
     0
300
1:100
140
1.0
141
100.0
290
     0
  0
SCALE
  5
16C
102
{ACAD_REACTORS
330
15F
102
}
330
15F
100
AcDbScale
 70
     0
300
2:1
140
2.0
141
1.0
290
     0
  0
SCALE
  5
16D
102
{ACAD_REACTORS
330
15F
102
}
330
15F
100
AcDbScale
 70
     0
300
4:1
140
4.0
141
1.0
290
     0
  0
SCALE
  5
16E
102
{ACAD_REACTORS
330
15F
102
}
330
15F
100
AcDbScale
 70
     0
300
8:1
140
8.0
141
1.0
290
     0
  0
SCALE
  5
16F
102
{ACAD_REACTORS
330
15F
102
}
330
15F
100
AcDbScale
 70
     0
300
10:1
140
10.0
141
1.0
290
     0
  0
SCALE
  5
170
102
{ACAD_REACTORS
330
15F
102
}
330
15F
100
AcDbScale
 70
     0
300
100:1
140
100.0
141
1.0
290
     0
  0
SCALE
  5
171
102
{ACAD_REACTORS
330
15F
102
}
330
15F
100
AcDbScale
 70
     0
300
1/128" = 1'-0"
140
0.0078125
141
12.0
290
     0
  0
SCALE
  5
172
102
{ACAD_REACTORS
330
15F
102
}
330
15F
100
AcDbScale
 70
     0
300
1/64" = 1'-0"
140
0.015625
141
12.0
290
     0
  0
SCALE
  5
173
102
{ACAD_REACTORS
330
15F
102
}
330
15F
100
AcDbScale
 70
     0
300
1/32" = 1'-0"
140
0.03125
141
12.0
290
     0
  0
SCALE
  5
174
102
{ACAD_REACTORS
330
15F
102
}
330
15F
100
AcDbScale
 70
     0
300
1/16" = 1'-0"
140
0.0625
141
12.0
290
     0
  0
SCALE
  5
175
102
{ACAD_REACTORS
330
15F
102
}
330
15F
100
AcDbScale
 70
     0
300
3/32" = 1'-0"
140
0.09375
141
12.0
290
     0
  0
SCALE
  5
176
102
{ACAD_REACTORS
330
15F
102
}
330
15F
100
AcDbScale
 70
     0
300
1/8" = 1'-0"
140
0.125
141
12.0
290
     0
  0
SCALE
  5
177
102
{ACAD_REACTORS
330
15F
102
}
330
15F
100
AcDbScale
 70
     0
300
3/16" = 1'-0"
140
0.1875
141
12.0
290
     0
  0
SCALE
  5
178
102
{ACAD_REACTORS
330
15F
102
}
330
15F
100
AcDbScale
 70
     0
300
1/4" = 1'-0"
140
0.25
141
12.0
290
     0
  0
SCALE
  5
179
102
{ACAD_REACTORS
330
15F
102
}
330
15F
100
AcDbScale
 70
     0
300
3/8" = 1'-0"
140
0.375
141
12.0
290
     0
  0
SCALE
  5
17A
102
{ACAD_REACTORS
330
15F
102
}
330
15F
100
AcDbScale
 70
     0
300
1/2" = 1'-0"
140
0.5
141
12.0
290
     0
  0
SCALE
  5
17B
102
{ACAD_REACTORS
330
15F
102
}
330
15F
100
AcDbScale
 70
     0
300
3/4" = 1'-0"
140
0.75
141
12.0
290
     0
  0
SCALE
  5
17C
102
{ACAD_REACTORS
330
15F
102
}
330
15F
100
AcDbScale
 70
     0
300
1" = 1'-0"
140
1.0
141
12.0
290
     0
  0
SCALE
  5
17D
102
{ACAD_REACTORS
330
15F
102
}
330
15F
100
AcDbScale
 70
     0
300
1-1/2" = 1'-0"
140
1.5
141
12.0
290
     0
  0
SCALE
  5
17E
102
{ACAD_REACTORS
330
15F
102
}
330
15F
100
AcDbScale
 70
     0
300
3" = 1'-0"
140
3.0
141
12.0
290
     0
  0
SCALE
  5
17F
102
{ACAD_REACTORS
330
15F
102
}
330
15F
100
AcDbScale
 70
     0
300
6" = 1'-0"
140
6.0
141
12.0
290
     0
  0
SCALE
  5
180
102
{ACAD_REACTORS
330
15F
102
}
330
15F
100
AcDbScale
 70
     0
300
1'-0" = 1'-0"
140
12.0
141
12.0
290
     0
  0
TABLESTYLE
  5
1ED
102
{ACAD_REACTORS
330
1EC
102
}
102
{ACAD_XDICTIONARY
360
275
102
}
330
1EC
100
AcDbTableStyle
  3
Standard
 70
     0
 71
     0
 40
0.06
 41
0.06
280
     0
281
     0
  7
Standard
140
0.18
170
     2
 62
     0
 63
   257
283
     0
 90
        4
 91
        0
  1

274
    -2
284
     1
 64
     0
275
    -2
285
     1
 65
     0
276
    -2
286
     1
 66
     0
277
    -2
287
     1
 67
     0
278
    -2
288
     1
 68
     0
279
    -2
289
     1
 69
     0
  7
Standard
140
0.25
170
     5
 62
     0
 63
   257
283
     0
 90
        4
 91
        0
  1

274
    -2
284
     1
 64
     0
275
    -2
285
     1
 65
     0
276
    -2
286
     1
 66
     0
277
    -2
287
     1
 67
     0
278
    -2
288
     1
 68
     0
279
    -2
289
     1
 69
     0
  7
Standard
140
0.18
170
     5
 62
     0
 63
   257
283
     0
 90
        4
 91
        0
  1

274
    -2
284
     1
 64
     0
275
    -2
285
     1
 65
     0
276
    -2
286
     1
 66
     0
277
    -2
287
     1
 67
     0
278
    -2
288
     1
 68
     0
279
    -2
289
     1
 69
     0
  0
VISUALSTYLE
  5
18A
102
{ACAD_REACTORS
330
185
102
}
330
185
100
AcDbVisualStyle
  2
2dWireframe
 70
     4
177
     3
291
     0
 70
    58
 90
        0
176
     1
 90
        2
176
     1
 90
        0
176
     1
 90
        0
176
     1
 40
-0.6
176
     1
 40
-30.0
176
     1
 62
     7
176
     1
 90
        1
176
     1
 90
        4
176
     1
 62
     7
176
     1
 62
   257
176
     1
 90
        1
176
     1
 90
        1
176
     1
 40
1.0
176
     1
 90
        0
176
     1
 62
   257
176
     1
 40
1.0
176
     1
 90
        1
176
     1
 90
        6
176
     1
 90
        2
176
     1
 62
     7
176
     1
 90
        5
176
     1
 90
        0
176
     1
 90
        0
176
     1
290
     0
176
     1
 90
        1
176
     1
 40
0.0
176
     1
 90
        0
176
     1
290
     1
176
     1
290
     1
176
     1
290
     0
176
     1
290
     0
176
     1
290
     0
176
     1
290
     0
176
     1
290
     0
176
     1
290
     0
176
     1
290
     0
176
     1
 90
       50
176
     1
 40
0.0
176
     1
 40
1.0
176
     1
 90
        0
176
     1
 62
    18
420
        0
176
     1
 90
       50
176
     1
 90
        3
176
     1
 62
     5
420
      255
176
     1
290
     0
176
     1
 90
       50
176
     1
 90
       50
176
     1
 90
       50
176
     1
290
     0
176
     1
 90
       50
176
     1
 62
   256
176
     0
 40
1.0
176
     0
 90
        2
176
     1
  1
strokes_ogs.tif
176
     1
290
     0
176
     1
 40
1.0
176
     1
 40
1.0
176
     1
  0
VISUALSTYLE
  5
18C
102
{ACAD_REACTORS
330
185
102
}
330
185
100
AcDbVisualStyle
  2
3D Hidden
 70
     6
177
     3
291
     0
 70
    58
 90
        1
176
     1
 90
        2
176
     1
 90
        2
176
     1
 90
        0
176
     1
 40
-0.6
176
     1
 40
-30.0
176
     1
 62
     7
176
     1
 90
        2
176
     1
 90
        2
176
     1
 62
     7
176
     1
 62
   257
176
     1
 90
        2
176
     1
 90
        1
176
     1
 40
40.0
176
     1
 90
        0
176
     1
 62
   257
176
     1
 40
1.0
176
     1
 90
        1
176
     1
 90
        6
176
     1
 90
        2
176
     1
 62
     7
176
     1
 90
        3
176
     1
 90
        0
176
     1
 90
        0
176
     1
290
     0
176
     1
 90
        1
176
     1
 40
0.0
176
     1
 90
        0
176
     1
290
     0
176
     1
290
     1
176
     1
290
     1
176
     1
290
     0
176
     1
290
     0
176
     1
290
     0
176
     1
290
     0
176
     1
290
     0
176
     1
290
     0
176
     1
 90
       50
176
     1
 40
0.0
176
     1
 40
1.0
176
     1
 90
        0
176
     1
 62
    18
420
        0
176
     1
 90
       50
176
     1
 90
        3
176
     1
 62
     5
420
      255
176
     1
290
     0
176
     1
 90
       50
176
     1
 90
       50
176
     1
 90
       50
176
     1
290
     0
176
     1
 90
       50
176
     1
 62
   256
176
     0
 40
1.0
176
     0
 90
        2
176
     1
  1
strokes_ogs.tif
176
     1
290
     0
176
     1
 40
1.0
176
     1
 40
1.0
176
     1
  0
VISUALSTYLE
  5
18B
102
{ACAD_REACTORS
330
185
102
}
330
185
100
AcDbVisualStyle
  2
3dWireframe
 70
     5
177
     3
291
     0
 70
    58
 90
        0
176
     1
 90
        2
176
     1
 90
        0
176
     1
 90
        0
176
     1
 40
-0.6
176
     1
 40
-30.0
176
     1
 62
     7
176
     1
 90
        1
176
     1
 90
        4
176
     1
 62
     7
176
     1
 62
   257
176
     1
 90
        1
176
     1
 90
        1
176
     1
 40
1.0
176
     1
 90
        0
176
     1
 62
   257
176
     1
 40
1.0
176
     1
 90
        1
176
     1
 90
        6
176
     1
 90
        2
176
     1
 62
     7
176
     1
 90
        5
176
     1
 90
        0
176
     1
 90
        0
176
     1
290
     0
176
     1
 90
        1
176
     1
 40
0.0
176
     1
 90
        0
176
     1
290
     0
176
     1
290
     1
176
     1
290
     1
176
     1
290
     0
176
     1
290
     0
176
     1
290
     0
176
     1
290
     0
176
     1
290
     0
176
     1
290
     0
176
     1
 90
       50
176
     1
 40
0.0
176
     1
 40
1.0
176
     1
 90
        0
176
     1
 62
    18
420
        0
176
     1
 90
       50
176
     1
 90
        3
176
     1
 62
     5
420
      255
176
     1
290
     0
176
     1
 90
       50
176
     1
 90
       50
176
     1
 90
       50
176
     1
290
     0
176
     1
 90
       50
176
     1
 62
   256
176
     0
 40
1.0
176
     0
 90
        2
176
     1
  1
strokes_ogs.tif
176
     1
290
     0
176
     1
 40
1.0
176
     1
 40
1.0
176
     1
  0
VISUALSTYLE
  5
18D
102
{ACAD_REACTORS
330
185
102
}
330
185
100
AcDbVisualStyle
  2
Basic
 70
     7
177
     3
291
     1
 70
    58
 90
        1
176
     1
 90
        0
176
     1
 90
        1
176
     1
 90
        0
176
     1
 40
-0.6
176
     1
 40
-30.0
176
     1
 62
     7
176
     1
 90
        0
176
     1
 90
        4
176
     1
 62
     7
176
     1
 62
   257
176
     1
 90
        1
176
     1
 90
        1
176
     1
 40
1.0
176
     1
 90
        8
176
     1
 62
     7
176
     1
 40
1.0
176
     1
 90
        1
176
     1
 90
        6
176
     1
 90
        2
176
     1
 62
     7
176
     1
 90
        5
176
     1
 90
        0
176
     1
 90
        0
176
     1
290
     0
176
     1
 90
        1
176
     1
 40
0.0
176
     1
 90
        0
176
     1
290
     0
176
     1
290
     1
176
     1
290
     1
176
     1
290
     0
176
     1
290
     0
176
     1
290
     0
176
     1
290
     0
176
     1
290
     0
176
     1
290
     0
176
     1
 90
       50
176
     1
 40
0.0
176
     1
 40
1.0
176
     1
 90
        0
176
     1
 62
    18
420
        0
176
     1
 90
       50
176
     1
 90
        3
176
     1
 62
     5
420
      255
176
     1
290
     0
176
     1
 90
       50
176
     1
 90
       50
176
     1
 90
       50
176
     1
290
     0
176
     1
 90
       50
176
     1
 62
   256
176
     0
 40
1.0
176
     0
 90
        2
176
     1
  1
strokes_ogs.tif
176
     1
290
     0
176
     1
 40
1.0
176
     1
 40
1.0
176
     1
  0
VISUALSTYLE
  5
191
102
{ACAD_REACTORS
330
185
102
}
330
185
100
AcDbVisualStyle
  2
Brighten
 70
    12
177
     3
291
     1
 70
    58
 90
        2
176
     1
 90
        2
176
     1
 90
        0
176
     1
 90
        0
176
     1
 40
-0.6
176
     1
 40
-30.0
176
     1
 62
     7
176
     1
 90
        1
176
     1
 90
        4
176
     1
 62
     7
176
     1
 62
   257
176
     1
 90
        1
176
     1
 90
        1
176
     1
 40
1.0
176
     1
 90
        8
176
     1
 62
     7
176
     1
 40
1.0
176
     1
 90
        1
176
     1
 90
        6
176
     1
 90
        2
176
     1
 62
     7
176
     1
 90
        5
176
     1
 90
        0
176
     1
 90
        0
176
     1
290
     0
176
     1
 90
        1
176
     1
 40
50.0
176
     1
 90
        0
176
     1
290
     0
176
     1
290
     1
176
     1
290
     1
176
     1
290
     0
176
     1
290
     0
176
     1
290
     0
176
     1
290
     0
176
     1
290
     0
176
     1
290
     0
176
     1
 90
       50
176
     1
 40
0.0
176
     1
 40
1.0
176
     1
 90
        0
176
     1
 62
    18
420
        0
176
     1
 90
       50
176
     1
 90
        3
176
     1
 62
     5
420
      255
176
     1
290
     0
176
     1
 90
       50
176
     1
 90
       50
176
     1
 90
       50
176
     1
290
     0
176
     1
 90
       50
176
     1
 62
   256
176
     0
 40
1.0
176
     0
 90
        2
176
     1
  1
strokes_ogs.tif
176
     1
290
     0
176
     1
 40
1.0
176
     1
 40
1.0
176
     1
  0
VISUALSTYLE
  5
195
102
{ACAD_REACTORS
330
185
102
}
330
185
100
AcDbVisualStyle
  2
ColorChange
 70
    16
177
     3
291
     1
 70
    58
 90
        2
176
     1
 90
        2
176
     1
 90
        3
176
     1
 90
        0
176
     1
 40
-0.6
176
     1
 40
-30.0
176
     1
 62
     8
176
     1
 90
        1
176
     1
 90
        4
176
     1
 62
     7
176
     1
 62
   257
176
     1
 90
        1
176
     1
 90
        1
176
     1
 40
1.0
176
     1
 90
        8
176
     1
 62
     8
176
     1
 40
1.0
176
     1
 90
        1
176
     1
 90
        6
176
     1
 90
        2
176
     1
 62
     7
176
     1
 90
        5
176
     1
 90
        0
176
     1
 90
        0
176
     1
290
     0
176
     1
 90
        1
176
     1
 40
0.0
176
     1
 90
        0
176
     1
290
     0
176
     1
290
     1
176
     1
290
     1
176
     1
290
     0
176
     1
290
     0
176
     1
290
     0
176
     1
290
     0
176
     1
290
     0
176
     1
290
     0
176
     1
 90
       50
176
     1
 40
0.0
176
     1
 40
1.0
176
     1
 90
        0
176
     1
 62
    18
420
        0
176
     1
 90
       50
176
     1
 90
        3
176
     1
 62
     5
420
      255
176
     1
290
     0
176
     1
 90
       50
176
     1
 90
       50
176
     1
 90
       50
176
     1
290
     0
176
     1
 90
       50
176
     1
 62
   256
176
     0
 40
1.0
176
     0
 90
        2
176
     1
  1
strokes_ogs.tif
176
     1
290
     0
176
     1
 40
1.0
176
     1
 40
1.0
176
     1
  0
VISUALSTYLE
  5
18F
102
{ACAD_REACTORS
330
185
102
}
330
185
100
AcDbVisualStyle
  2
Conceptual
 70
     9
177
     3
291
     0
 70
    58
 90
        3
176
     1
 90
        2
176
     1
 90
        0
176
     1
 90
        0
176
     1
 40
-0.6
176
     1
 40
-30.0
176
     1
 62
     7
176
     1
 90
        2
176
     1
 90
        2
176
     1
 62
     7
176
     1
 62
   257
176
     1
 90
        1
176
     1
 90
        1
176
     1
 40
40.0
176
     1
 90
        8
176
     1
 62
     7
176
     1
 40
1.0
176
     1
 90
        1
176
     1
 90
        6
176
     1
 90
        2
176
     1
 62
     7
176
     1
 90
        3
176
     1
 90
        0
176
     1
 90
        0
176
     1
290
     0
176
     1
 90
        1
176
     1
 40
0.0
176
     1
 90
        0
176
     1
290
     0
176
     1
290
     1
176
     1
290
     1
176
     1
290
     0
176
     1
290
     0
176
     1
290
     0
176
     1
290
     0
176
     1
290
     0
176
     1
290
     0
176
     1
 90
       50
176
     1
 40
0.0
176
     1
 40
1.0
176
     1
 90
        0
176
     1
 62
    18
420
        0
176
     1
 90
       50
176
     1
 90
        3
176
     1
 62
     5
420
      255
176
     1
290
     0
176
     1
 90
       50
176
     1
 90
       50
176
     1
 90
       50
176
     1
290
     0
176
     1
 90
       50
176
     1
 62
   256
176
     0
 40
1.0
176
     0
 90
        2
176
     1
  1
strokes_ogs.tif
176
     1
290
     0
176
     1
 40
1.0
176
     1
 40
1.0
176
     1
  0
VISUALSTYLE
  5
190
102
{ACAD_REACTORS
330
185
102
}
330
185
100
AcDbVisualStyle
  2
Dim
 70
    11
177
     3
291
     1
 70
    58
 90
        2
176
     1
 90
        2
176
     1
 90
        0
176
     1
 90
        0
176
     1
 40
-0.6
176
     1
 40
-30.0
176
     1
 62
     7
176
     1
 90
        1
176
     1
 90
        4
176
     1
 62
     7
176
     1
 62
   257
176
     1
 90
        1
176
     1
 90
        1
176
     1
 40
1.0
176
     1
 90
        8
176
     1
 62
     7
176
     1
 40
1.0
176
     1
 90
        1
176
     1
 90
        6
176
     1
 90
        2
176
     1
 62
     7
176
     1
 90
        5
176
     1
 90
        0
176
     1
 90
        0
176
     1
290
     0
176
     1
 90
        1
176
     1
 40
-50.0
176
     1
 90
        0
176
     1
290
     0
176
     1
290
     1
176
     1
290
     1
176
     1
290
     0
176
     1
290
     0
176
     1
290
     0
176
     1
290
     0
176
     1
290
     0
176
     1
290
     0
176
     1
 90
       50
176
     1
 40
0.0
176
     1
 40
1.0
176
     1
 90
        0
176
     1
 62
    18
420
        0
176
     1
 90
       50
176
     1
 90
        3
176
     1
 62
     5
420
      255
176
     1
290
     0
176
     1
 90
       50
176
     1
 90
       50
176
     1
 90
       50
176
     1
290
     0
176
     1
 90
       50
176
     1
 62
   256
176
     0
 40
1.0
176
     0
 90
        2
176
     1
  1
strokes_ogs.tif
176
     1
290
     0
176
     1
 40
1.0
176
     1
 40
1.0
176
     1
  0
VISUALSTYLE
  5
1E6
102
{ACAD_REACTORS
330
185
102
}
330
185
100
AcDbVisualStyle
  2
EdgeColorOff
 70
    22
177
     3
291
     1
 70
    58
 90
        2
176
     0
 90
        2
176
     0
 90
        0
176
     0
 90
        0
176
     0
 40
0.6
176
     0
 40
30.0
176
     0
 62
     7
420
 16777215
176
     0
 90
        1
176
     0
 90
        4
176
     0
 62
     7
176
     0
 62
   257
176
     0
 90
        1
176
     0
 90
        1
176
     0
 40
1.0
176
     0
 90
        8
176
     2
 62
     7
176
     0
 40
1.0
176
     0
 90
        1
176
     0
 90
        6
176
     0
 90
        2
176
     0
 62
     7
176
     0
 90
        5
176
     0
 90
        0
176
     0
 90
        0
176
     0
290
     0
176
     0
 90
        1
176
     0
 40
0.0
176
     0
 90
        0
176
     0
290
     0
176
     0
290
     1
176
     0
290
     1
176
     0
290
     0
176
     0
290
     0
176
     0
290
     0
176
     0
290
     0
176
     0
290
     0
176
     0
290
     0
176
     0
 90
       50
176
     0
 40
0.0
176
     0
 40
1.0
176
     0
 90
        0
176
     0
 62
    18
420
        0
176
     0
 90
       50
176
     0
 90
        3
176
     0
 62
     5
420
      255
176
     0
290
     0
176
     0
 90
       50
176
     0
 90
       50
176
     0
 90
       50
176
     0
290
     0
176
     0
 90
       50
176
     0
 62
   256
176
     0
 40
1.0
176
     0
 90
        2
176
     0
  1
strokes_ogs.tif
176
     0
290
     0
176
     0
 40
1.0
176
     0
 40
1.0
176
     0
  0
VISUALSTYLE
  5
194
102
{ACAD_REACTORS
330
185
102
}
330
185
100
AcDbVisualStyle
  2
Facepattern
 70
    15
177
     3
291
     1
 70
    58
 90
        2
176
     1
 90
        2
176
     1
 90
        0
176
     1
 90
        0
176
     1
 40
-0.6
176
     1
 40
-30.0
176
     1
 62
     7
176
     1
 90
        1
176
     1
 90
        4
176
     1
 62
     7
176
     1
 62
   257
176
     1
 90
        1
176
     1
 90
        1
176
     1
 40
1.0
176
     1
 90
        8
176
     1
 62
     7
176
     1
 40
1.0
176
     1
 90
        1
176
     1
 90
        6
176
     1
 90
        2
176
     1
 62
     7
176
     1
 90
        5
176
     1
 90
        0
176
     1
 90
        0
176
     1
290
     0
176
     1
 90
        1
176
     1
 40
0.0
176
     1
 90
        0
176
     1
290
     0
176
     1
290
     1
176
     1
290
     1
176
     1
290
     0
176
     1
290
     0
176
     1
290
     0
176
     1
290
     0
176
     1
290
     0
176
     1
290
     0
176
     1
 90
       50
176
     1
 40
0.0
176
     1
 40
1.0
176
     1
 90
        0
176
     1
 62
    18
420
        0
176
     1
 90
       50
176
     1
 90
        3
176
     1
 62
     5
420
      255
176
     1
290
     0
176
     1
 90
       50
176
     1
 90
       50
176
     1
 90
       50
176
     1
290
     0
176
     1
 90
       50
176
     1
 62
   256
176
     0
 40
1.0
176
     0
 90
        2
176
     1
  1
strokes_ogs.tif
176
     1
290
     0
176
     1
 40
1.0
176
     1
 40
1.0
176
     1
  0
VISUALSTYLE
  5
186
102
{ACAD_REACTORS
330
185
102
}
330
185
100
AcDbVisualStyle
  2
Flat
 70
     0
177
     3
291
     1
 70
    58
 90
        2
176
     1
 90
        1
176
     1
 90
        1
176
     1
 90
        2
176
     1
 40
-0.6
176
     1
 40
30.0
176
     1
 62
     7
176
     1
 90
        0
176
     1
 90
        4
176
     1
 62
     7
176
     1
 62
   257
176
     1
 90
        1
176
     1
 90
        1
176
     1
 40
1.0
176
     1
 90
        8
176
     1
 62
     7
176
     1
 40
1.0
176
     1
 90
        1
176
     1
 90
        6
176
     1
 90
        2
176
     1
 62
     7
176
     1
 90
        5
176
     1
 90
        0
176
     1
 90
        0
176
     1
290
     0
176
     1
 90
       13
176
     1
 40
0.0
176
     1
 90
        0
176
     1
290
     0
176
     1
290
     1
176
     1
290
     1
176
     1
290
     0
176
     1
290
     0
176
     1
290
     0
176
     1
290
     0
176
     1
290
     0
176
     1
290
     0
176
     1
 90
       50
176
     1
 40
0.0
176
     1
 40
1.0
176
     1
 90
        0
176
     1
 62
    18
420
        0
176
     1
 90
       50
176
     1
 90
        3
176
     1
 62
     5
420
      255
176
     1
290
     0
176
     1
 90
       50
176
     1
 90
       50
176
     1
 90
       50
176
     1
290
     0
176
     1
 90
       50
176
     1
 62
   256
176
     0
 40
1.0
176
     0
 90
        2
176
     1
  1
strokes_ogs.tif
176
     1
290
     0
176
     1
 40
1.0
176
     1
 40
1.0
176
     1
  0
VISUALSTYLE
  5
187
102
{ACAD_REACTORS
330
185
102
}
330
185
100
AcDbVisualStyle
  2
FlatWithEdges
 70
     1
177
     3
291
     1
 70
    58
 90
        2
176
     1
 90
        1
176
     1
 90
        1
176
     1
 90
        2
176
     1
 40
-0.6
176
     1
 40
30.0
176
     1
 62
     7
176
     1
 90
        1
176
     1
 90
        4
176
     1
 62
     7
176
     1
 62
   257
176
     1
 90
        1
176
     1
 90
        1
176
     1
 40
1.0
176
     1
 90
        0
176
     1
 62
   257
176
     1
 40
1.0
176
     1
 90
        1
176
     1
 90
        6
176
     1
 90
        2
176
     1
 62
     7
176
     1
 90
        5
176
     1
 90
        0
176
     1
 90
        0
176
     1
290
     0
176
     1
 90
       13
176
     1
 40
0.0
176
     1
 90
        0
176
     1
290
     0
176
     1
290
     1
176
     1
290
     1
176
     1
290
     0
176
     1
290
     0
176
     1
290
     0
176
     1
290
     0
176
     1
290
     0
176
     1
290
     0
176
     1
 90
       50
176
     1
 40
0.0
176
     1
 40
1.0
176
     1
 90
        0
176
     1
 62
    18
420
        0
176
     1
 90
       50
176
     1
 90
        3
176
     1
 62
     5
420
      255
176
     1
290
     0
176
     1
 90
       50
176
     1
 90
       50
176
     1
 90
       50
176
     1
290
     0
176
     1
 90
       50
176
     1
 62
   256
176
     0
 40
1.0
176
     0
 90
        2
176
     1
  1
strokes_ogs.tif
176
     1
290
     0
176
     1
 40
1.0
176
     1
 40
1.0
176
     1
  0
VISUALSTYLE
  5
188
102
{ACAD_REACTORS
330
185
102
}
330
185
100
AcDbVisualStyle
  2
Gouraud
 70
     2
177
     3
291
     1
 70
    58
 90
        2
176
     1
 90
        2
176
     1
 90
        1
176
     1
 90
        2
176
     1
 40
-0.6
176
     1
 40
30.0
176
     1
 62
     7
176
     1
 90
        0
176
     1
 90
        4
176
     1
 62
     7
176
     1
 62
   257
176
     1
 90
        1
176
     1
 90
        1
176
     1
 40
1.0
176
     1
 90
        0
176
     1
 62
     7
176
     1
 40
1.0
176
     1
 90
        1
176
     1
 90
        6
176
     1
 90
        2
176
     1
 62
     7
176
     1
 90
        5
176
     1
 90
        0
176
     1
 90
        0
176
     1
290
     0
176
     1
 90
       13
176
     1
 40
0.0
176
     1
 90
        0
176
     1
290
     0
176
     1
290
     1
176
     1
290
     1
176
     1
290
     0
176
     1
290
     0
176
     1
290
     0
176
     1
290
     0
176
     1
290
     0
176
     1
290
     0
176
     1
 90
       50
176
     1
 40
0.0
176
     1
 40
1.0
176
     1
 90
        0
176
     1
 62
    18
420
        0
176
     1
 90
       50
176
     1
 90
        3
176
     1
 62
     5
420
      255
176
     1
290
     0
176
     1
 90
       50
176
     1
 90
       50
176
     1
 90
       50
176
     1
290
     0
176
     1
 90
       50
176
     1
 62
   256
176
     0
 40
1.0
176
     0
 90
        2
176
     1
  1
strokes_ogs.tif
176
     1
290
     0
176
     1
 40
1.0
176
     1
 40
1.0
176
     1
  0
VISUALSTYLE
  5
189
102
{ACAD_REACTORS
330
185
102
}
330
185
100
AcDbVisualStyle
  2
GouraudWithEdges
 70
     3
177
     3
291
     1
 70
    58
 90
        2
176
     1
 90
        2
176
     1
 90
        1
176
     1
 90
        2
176
     1
 40
-0.6
176
     1
 40
30.0
176
     1
 62
     7
176
     1
 90
        1
176
     1
 90
        4
176
     1
 62
     7
176
     1
 62
   257
176
     1
 90
        1
176
     1
 90
        1
176
     1
 40
1.0
176
     1
 90
        0
176
     1
 62
   257
176
     1
 40
1.0
176
     1
 90
        1
176
     1
 90
        6
176
     1
 90
        2
176
     1
 62
     7
176
     1
 90
        5
176
     1
 90
        0
176
     1
 90
        0
176
     1
290
     0
176
     1
 90
       13
176
     1
 40
0.0
176
     1
 90
        0
176
     1
290
     0
176
     1
290
     1
176
     1
290
     1
176
     1
290
     0
176
     1
290
     0
176
     1
290
     0
176
     1
290
     0
176
     1
290
     0
176
     1
290
     0
176
     1
 90
       50
176
     1
 40
0.0
176
     1
 40
1.0
176
     1
 90
        0
176
     1
 62
    18
420
        0
176
     1
 90
       50
176
     1
 90
        3
176
     1
 62
     5
420
      255
176
     1
290
     0
176
     1
 90
       50
176
     1
 90
       50
176
     1
 90
       50
176
     1
290
     0
176
     1
 90
       50
176
     1
 62
   256
176
     0
 40
1.0
176
     0
 90
        2
176
     1
  1
strokes_ogs.tif
176
     1
290
     0
176
     1
 40
1.0
176
     1
 40
1.0
176
     1
  0
VISUALSTYLE
  5
1E3
102
{ACAD_REACTORS
330
185
102
}
330
185
100
AcDbVisualStyle
  2
Hidden
 70
     6
177
     3
291
     0
 70
    58
 90
        1
176
     1
 90
        2
176
     1
 90
        2
176
     1
 90
        0
176
     1
 40
0.6
176
     1
 40
30.0
176
     1
 62
     7
420
 16777215
176
     1
 90
        2
176
     1
 90
        2
176
     1
 62
     7
176
     1
 62
   257
176
     1
 90
        2
176
     1
 90
        1
176
     1
 40
40.0
176
     1
 90
        0
176
     1
 62
   257
176
     1
 40
1.0
176
     1
 90
        1
176
     1
 90
        6
176
     1
 90
        2
176
     1
 62
     7
176
     1
 90
        3
176
     1
 90
        0
176
     1
 90
        0
176
     1
290
     0
176
     1
 90
        1
176
     1
 40
0.0
176
     1
 90
        0
176
     1
290
     0
176
     1
290
     1
176
     1
290
     1
176
     1
290
     0
176
     1
290
     0
176
     1
290
     0
176
     1
290
     0
176
     1
290
     0
176
     1
290
     0
176
     1
 90
       50
176
     1
 40
0.0
176
     1
 40
1.0
176
     1
 90
        0
176
     1
 62
    18
420
        0
176
     1
 90
       50
176
     1
 90
        3
176
     1
 62
     5
420
      255
176
     1
290
     0
176
     1
 90
       50
176
     1
 90
       50
176
     1
 90
       50
176
     1
290
     0
176
     1
 90
       50
176
     1
 62
   256
176
     0
 40
1.0
176
     0
 90
        2
176
     1
  1
strokes_ogs.tif
176
     1
290
     0
176
     1
 40
1.0
176
     1
 40
1.0
176
     1
  0
VISUALSTYLE
  5
1E4
102
{ACAD_REACTORS
330
185
102
}
330
185
100
AcDbVisualStyle
  2
JitterOff
 70
    20
177
     3
291
     1
 70
    58
 90
        2
176
     0
 90
        2
176
     0
 90
        0
176
     0
 90
        0
176
     0
 40
0.6
176
     0
 40
30.0
176
     0
 62
     7
420
 16777215
176
     0
 90
        1
176
     0
 90
        4
176
     0
 62
     7
176
     0
 62
   257
176
     0
 90
        1
176
     0
 90
        1
176
     0
 40
1.0
176
     0
 90
       10
176
     2
 62
     7
176
     0
 40
1.0
176
     0
 90
        1
176
     0
 90
        6
176
     0
 90
        2
176
     0
 62
     7
176
     0
 90
        5
176
     0
 90
        0
176
     0
 90
        0
176
     0
290
     0
176
     0
 90
        1
176
     0
 40
0.0
176
     0
 90
        0
176
     0
290
     0
176
     0
290
     1
176
     0
290
     1
176
     0
290
     0
176
     0
290
     0
176
     0
290
     0
176
     0
290
     0
176
     0
290
     0
176
     0
290
     0
176
     0
 90
       50
176
     0
 40
0.0
176
     0
 40
1.0
176
     0
 90
        0
176
     0
 62
    18
420
        0
176
     0
 90
       50
176
     0
 90
        3
176
     0
 62
     5
420
      255
176
     0
290
     0
176
     0
 90
       50
176
     0
 90
       50
176
     0
 90
       50
176
     0
290
     0
176
     0
 90
       50
176
     0
 62
   256
176
     0
 40
1.0
176
     0
 90
        2
176
     0
  1
strokes_ogs.tif
176
     0
290
     0
176
     0
 40
1.0
176
     0
 40
1.0
176
     0
  0
VISUALSTYLE
  5
193
102
{ACAD_REACTORS
330
185
102
}
330
185
100
AcDbVisualStyle
  2
Linepattern
 70
    14
177
     3
291
     1
 70
    58
 90
        2
176
     1
 90
        2
176
     1
 90
        0
176
     1
 90
        0
176
     1
 40
-0.6
176
     1
 40
-30.0
176
     1
 62
     7
176
     1
 90
        1
176
     1
 90
        4
176
     1
 62
     7
176
     1
 62
   257
176
     1
 90
        7
176
     1
 90
        7
176
     1
 40
1.0
176
     1
 90
        8
176
     1
 62
     7
176
     1
 40
1.0
176
     1
 90
        1
176
     1
 90
        6
176
     1
 90
        2
176
     1
 62
     7
176
     1
 90
        5
176
     1
 90
        0
176
     1
 90
        0
176
     1
290
     0
176
     1
 90
        1
176
     1
 40
0.0
176
     1
 90
        0
176
     1
290
     0
176
     1
290
     1
176
     1
290
     1
176
     1
290
     0
176
     1
290
     0
176
     1
290
     0
176
     1
290
     0
176
     1
290
     0
176
     1
290
     0
176
     1
 90
       50
176
     1
 40
0.0
176
     1
 40
1.0
176
     1
 90
        0
176
     1
 62
    18
420
        0
176
     1
 90
       50
176
     1
 90
        3
176
     1
 62
     5
420
      255
176
     1
290
     0
176
     1
 90
       50
176
     1
 90
       50
176
     1
 90
       50
176
     1
290
     0
176
     1
 90
       50
176
     1
 62
   256
176
     0
 40
1.0
176
     0
 90
        2
176
     1
  1
strokes_ogs.tif
176
     1
290
     0
176
     1
 40
1.0
176
     1
 40
1.0
176
     1
  0
VISUALSTYLE
  5
1E5
102
{ACAD_REACTORS
330
185
102
}
330
185
100
AcDbVisualStyle
  2
OverhangOff
 70
    21
177
     3
291
     1
 70
    58
 90
        2
176
     0
 90
        2
176
     0
 90
        0
176
     0
 90
        0
176
     0
 40
0.6
176
     0
 40
30.0
176
     0
 62
     7
420
 16777215
176
     0
 90
        1
176
     0
 90
        4
176
     0
 62
     7
176
     0
 62
   257
176
     0
 90
        1
176
     0
 90
        1
176
     0
 40
1.0
176
     0
 90
        9
176
     2
 62
     7
176
     0
 40
1.0
176
     0
 90
        1
176
     0
 90
        6
176
     0
 90
        2
176
     0
 62
     7
176
     0
 90
        5
176
     0
 90
        0
176
     0
 90
        0
176
     0
290
     0
176
     0
 90
        1
176
     0
 40
0.0
176
     0
 90
        0
176
     0
290
     0
176
     0
290
     1
176
     0
290
     1
176
     0
290
     0
176
     0
290
     0
176
     0
290
     0
176
     0
290
     0
176
     0
290
     0
176
     0
290
     0
176
     0
 90
       50
176
     0
 40
0.0
176
     0
 40
1.0
176
     0
 90
        0
176
     0
 62
    18
420
        0
176
     0
 90
       50
176
     0
 90
        3
176
     0
 62
     5
420
      255
176
     0
290
     0
176
     0
 90
       50
176
     0
 90
       50
176
     0
 90
       50
176
     0
290
     0
176
     0
 90
       50
176
     0
 62
   256
176
     0
 40
1.0
176
     0
 90
        2
176
     0
  1
strokes_ogs.tif
176
     0
290
     0
176
     0
 40
1.0
176
     0
 40
1.0
176
     0
  0
VISUALSTYLE
  5
18E
102
{ACAD_REACTORS
330
185
102
}
330
185
100
AcDbVisualStyle
  2
Realistic
 70
     8
177
     3
291
     0
 70
    58
 90
        2
176
     1
 90
        2
176
     1
 90
        0
176
     1
 90
        0
176
     1
 40
-0.6
176
     1
 40
-30.0
176
     1
 62
     7
176
     1
 90
        1
176
     1
 90
        0
176
     1
 62
     7
176
     1
 62
   257
176
     1
 90
        1
176
     1
 90
        1
176
     1
 40
1.0
176
     1
 90
        8
176
     1
 62
     8
176
     1
 40
1.0
176
     1
 90
        1
176
     1
 90
        6
176
     1
 90
        2
176
     1
 62
     7
176
     1
 90
        5
176
     1
 90
        0
176
     1
 90
        0
176
     1
290
     0
176
     1
 90
       13
176
     1
 40
0.0
176
     1
 90
        0
176
     1
290
     0
176
     1
290
     1
176
     1
290
     1
176
     1
290
     0
176
     1
290
     0
176
     1
290
     0
176
     1
290
     0
176
     1
290
     0
176
     1
290
     0
176
     1
 90
       50
176
     1
 40
0.0
176
     1
 40
1.0
176
     1
 90
        0
176
     1
 62
    18
420
        0
176
     1
 90
       50
176
     1
 90
        3
176
     1
 62
     5
420
      255
176
     1
290
     0
176
     1
 90
       50
176
     1
 90
       50
176
     1
 90
       50
176
     1
290
     0
176
     1
 90
       50
176
     1
 62
   256
176
     0
 40
1.0
176
     0
 90
        2
176
     1
  1
strokes_ogs.tif
176
     1
290
     0
176
     1
 40
1.0
176
     1
 40
1.0
176
     1
  0
VISUALSTYLE
  5
1EB
102
{ACAD_REACTORS
330
185
102
}
330
185
100
AcDbVisualStyle
  2
Shaded
 70
    27
177
     3
291
     0
 70
    58
 90
        2
176
     1
 90
        2
176
     1
 90
        1
176
     1
 90
        2
176
     1
 40
0.6
176
     1
 40
30.0
176
     1
 62
     7
420
 16777215
176
     1
 90
        0
176
     1
 90
        4
176
     1
 62
     7
176
     1
 62
   257
176
     1
 90
        1
176
     1
 90
        1
176
     1
 40
1.0
176
     1
 90
        8
176
     1
 62
   257
176
     1
 40
1.0
176
     1
 90
        1
176
     1
 90
        6
176
     1
 90
        2
176
     1
 62
     8
420
  7895160
176
     1
 90
        3
176
     1
 90
        0
176
     1
 90
        0
176
     1
290
     0
176
     1
 90
        5
176
     1
 40
0.0
176
     1
 90
        0
176
     1
290
     0
176
     1
290
     1
176
     1
290
     1
176
     1
290
     0
176
     1
290
     0
176
     1
290
     0
176
     1
290
     0
176
     1
290
     0
176
     1
290
     0
176
     1
 90
       50
176
     1
 40
0.0
176
     1
 40
1.0
176
     1
 90
        0
176
     1
 62
    18
420
        0
176
     1
 90
       50
176
     1
 90
        3
176
     1
 62
     5
420
      255
176
     1
290
     0
176
     1
 90
       50
176
     1
 90
       50
176
     1
 90
       50
176
     1
290
     0
176
     1
 90
       50
176
     1
 62
   256
176
     0
 40
1.0
176
     0
 90
        2
176
     1
  1
strokes_ogs.tif
176
     1
290
     0
176
     1
 40
1.0
176
     1
 40
1.0
176
     1
  0
VISUALSTYLE
  5
1EA
102
{ACAD_REACTORS
330
185
102
}
330
185
100
AcDbVisualStyle
  2
Shaded with edges
 70
    26
177
     3
291
     0
 70
    58
 90
        2
176
     1
 90
        2
176
     1
 90
        1
176
     1
 90
        2
176
     1
 40
0.6
176
     1
 40
30.0
176
     1
 62
     7
420
 16777215
176
     1
 90
        1
176
     1
 90
       10
176
     1
 62
     7
176
     1
 62
   257
176
     1
 90
        2
176
     1
 90
        1
176
     1
 40
1.0
176
     1
 90
        8
176
     1
 62
   257
176
     1
 40
1.0
176
     1
 90
        1
176
     1
 90
        6
176
     1
 90
        2
176
     1
 62
     7
176
     1
 90
        3
176
     1
 90
        0
176
     1
 90
        0
176
     1
290
     0
176
     1
 90
        5
176
     1
 40
0.0
176
     1
 90
        0
176
     1
290
     0
176
     1
290
     1
176
     1
290
     1
176
     1
290
     0
176
     1
290
     0
176
     1
290
     0
176
     1
290
     0
176
     1
290
     0
176
     1
290
     0
176
     1
 90
       50
176
     1
 40
0.0
176
     1
 40
1.0
176
     1
 90
        0
176
     1
 62
    18
420
        0
176
     1
 90
       50
176
     1
 90
        3
176
     1
 62
     5
420
      255
176
     1
290
     0
176
     1
 90
       50
176
     1
 90
       50
176
     1
 90
       50
176
     1
290
     0
176
     1
 90
       50
176
     1
 62
   256
176
     0
 40
1.0
176
     0
 90
        2
176
     1
  1
strokes_ogs.tif
176
     1
290
     0
176
     1
 40
1.0
176
     1
 40
1.0
176
     1
  0
VISUALSTYLE
  5
1E7
102
{ACAD_REACTORS
330
185
102
}
330
185
100
AcDbVisualStyle
  2
Shades of Gray
 70
    23
177
     3
291
     0
 70
    58
 90
        2
176
     1
 90
        2
176
     1
 90
        3
176
     1
 90
        0
176
     1
 40
0.6
176
     1
 40
30.0
176
     1
 62
     7
420
 16777215
176
     1
 90
        2
176
     1
 90
        2
176
     1
 62
     7
176
     1
 62
     7
176
     1
 90
        1
176
     1
 90
        1
176
     1
 40
40.0
176
     1
 90
        8
176
     1
 62
     7
176
     1
 40
1.0
176
     1
 90
        1
176
     1
 90
        6
176
     1
 90
        2
176
     1
 62
     7
176
     1
 90
        3
176
     1
 90
        0
176
     1
 90
        0
176
     1
290
     0
176
     1
 90
        1
176
     1
 40
0.0
176
     1
 90
        0
176
     1
290
     0
176
     1
290
     1
176
     1
290
     1
176
     1
290
     0
176
     1
290
     0
176
     1
290
     0
176
     1
290
     0
176
     1
290
     0
176
     1
290
     0
176
     1
 90
       50
176
     1
 40
0.0
176
     1
 40
1.0
176
     1
 90
        0
176
     1
 62
    18
420
        0
176
     1
 90
       50
176
     1
 90
        3
176
     1
 62
     5
420
      255
176
     1
290
     0
176
     1
 90
       50
176
     1
 90
       50
176
     1
 90
       50
176
     1
290
     0
176
     1
 90
       50
176
     1
 62
   256
176
     0
 40
1.0
176
     0
 90
        2
176
     1
  1
strokes_ogs.tif
176
     1
290
     0
176
     1
 40
1.0
176
     1
 40
1.0
176
     1
  0
VISUALSTYLE
  5
1E8
102
{ACAD_REACTORS
330
185
102
}
330
185
100
AcDbVisualStyle
  2
Sketchy
 70
    24
177
     3
291
     0
 70
    58
 90
        1
176
     1
 90
        2
176
     1
 90
        2
176
     1
 90
        0
176
     1
 40
0.6
176
     1
 40
30.0
176
     1
 62
     7
420
 16777215
176
     1
 90
        2
176
     1
 90
        2
176
     1
 62
     7
176
     1
 62
     7
176
     1
 90
        1
176
     1
 90
        1
176
     1
 40
40.0
176
     1
 90
       11
176
     1
 62
     7
176
     1
 40
1.0
176
     1
 90
        1
176
     1
 90
        6
176
     1
 90
        2
176
     1
 62
     7
176
     1
 90
        6
176
     1
 90
        0
176
     1
 90
        0
176
     1
290
     0
176
     1
 90
        1
176
     1
 40
0.0
176
     1
 90
        0
176
     1
290
     0
176
     1
290
     1
176
     1
290
     1
176
     1
290
     0
176
     1
290
     0
176
     1
290
     0
176
     1
290
     0
176
     1
290
     0
176
     1
290
     0
176
     1
 90
       50
176
     1
 40
0.0
176
     1
 40
1.0
176
     1
 90
        0
176
     1
 62
    18
420
        0
176
     1
 90
       50
176
     1
 90
        3
176
     1
 62
     5
420
      255
176
     1
290
     0
176
     1
 90
       50
176
     1
 90
       50
176
     1
 90
       50
176
     1
290
     0
176
     1
 90
       50
176
     1
 62
   256
176
     0
 40
1.0
176
     0
 90
        2
176
     1
  1
strokes_ogs.tif
176
     1
290
     0
176
     1
 40
1.0
176
     1
 40
1.0
176
     1
  0
VISUALSTYLE
  5
192
102
{ACAD_REACTORS
330
185
102
}
330
185
100
AcDbVisualStyle
  2
Thicken
 70
    13
177
     3
291
     1
 70
    58
 90
        2
176
     1
 90
        2
176
     1
 90
        0
176
     1
 90
        0
176
     1
 40
-0.6
176
     1
 40
-30.0
176
     1
 62
     7
176
     1
 90
        1
176
     1
 90
        4
176
     1
 62
     7
176
     1
 62
   257
176
     1
 90
        1
176
     1
 90
        1
176
     1
 40
1.0
176
     1
 90
       12
176
     1
 62
     7
176
     1
 40
1.0
176
     1
 90
        1
176
     1
 90
        6
176
     1
 90
        2
176
     1
 62
     7
176
     1
 90
        5
176
     1
 90
        0
176
     1
 90
        0
176
     1
290
     0
176
     1
 90
        1
176
     1
 40
0.0
176
     1
 90
        0
176
     1
290
     0
176
     1
290
     1
176
     1
290
     1
176
     1
290
     0
176
     1
290
     0
176
     1
290
     0
176
     1
290
     0
176
     1
290
     0
176
     1
290
     0
176
     1
 90
       50
176
     1
 40
0.0
176
     1
 40
1.0
176
     1
 90
        0
176
     1
 62
    18
420
        0
176
     1
 90
       50
176
     1
 90
        3
176
     1
 62
     5
420
      255
176
     1
290
     0
176
     1
 90
       50
176
     1
 90
       50
176
     1
 90
       50
176
     1
290
     0
176
     1
 90
       50
176
     1
 62
   256
176
     0
 40
1.0
176
     0
 90
        2
176
     1
  1
strokes_ogs.tif
176
     1
290
     0
176
     1
 40
1.0
176
     1
 40
1.0
176
     1
  0
VISUALSTYLE
  5
1E2
102
{ACAD_REACTORS
330
185
102
}
330
185
100
AcDbVisualStyle
  2
Wireframe
 70
     5
177
     3
291
     0
 70
    58
 90
        0
176
     1
 90
        2
176
     1
 90
        0
176
     1
 90
        0
176
     1
 40
0.6
176
     1
 40
30.0
176
     1
 62
     7
420
 16777215
176
     1
 90
        1
176
     1
 90
        4
176
     1
 62
     7
176
     1
 62
   257
176
     1
 90
        1
176
     1
 90
        1
176
     1
 40
1.0
176
     1
 90
        0
176
     1
 62
   257
176
     1
 40
1.0
176
     1
 90
        1
176
     1
 90
        6
176
     1
 90
        2
176
     1
 62
     7
176
     1
 90
        3
176
     1
 90
        0
176
     1
 90
        0
176
     1
290
     0
176
     1
 90
        1
176
     1
 40
0.0
176
     1
 90
        0
176
     1
290
     0
176
     1
290
     1
176
     1
290
     1
176
     1
290
     0
176
     1
290
     0
176
     1
290
     0
176
     1
290
     0
176
     1
290
     0
176
     1
290
     0
176
     1
 90
       50
176
     1
 40
0.0
176
     1
 40
1.0
176
     1
 90
        0
176
     1
 62
    18
420
        0
176
     1
 90
       50
176
     1
 90
        3
176
     1
 62
     5
420
      255
176
     1
290
     0
176
     1
 90
       50
176
     1
 90
       50
176
     1
 90
       50
176
     1
290
     0
176
     1
 90
       50
176
     1
 62
   256
176
     0
 40
1.0
176
     0
 90
        2
176
     1
  1
strokes_ogs.tif
176
     1
290
     0
176
     1
 40
1.0
176
     1
 40
1.0
176
     1
  0
VISUALSTYLE
  5
1E9
102
{ACAD_REACTORS
330
185
102
}
330
185
100
AcDbVisualStyle
  2
X-Ray
 70
    25
177
     3
291
     0
 70
    58
 90
        2
176
     1
 90
        2
176
     1
 90
        1
176
     1
 90
        1
176
     1
 40
0.5
176
     1
 40
30.0
176
     1
 62
     7
420
 16777215
176
     1
 90
        1
176
     1
 90
        0
176
     1
 62
     7
176
     1
 62
   257
176
     1
 90
        1
176
     1
 90
        1
176
     1
 40
1.0
176
     1
 90
        8
176
     1
 62
     7
176
     1
 40
1.0
176
     1
 90
        1
176
     1
 90
        6
176
     1
 90
        2
176
     1
 62
     7
176
     1
 90
        3
176
     1
 90
        0
176
     1
 90
        0
176
     1
290
     0
176
     1
 90
       13
176
     1
 40
0.0
176
     1
 90
        0
176
     1
290
     0
176
     1
290
     1
176
     1
290
     1
176
     1
290
     0
176
     1
290
     0
176
     1
290
     0
176
     1
290
     0
176
     1
290
     0
176
     1
290
     0
176
     1
 90
       50
176
     1
 40
0.0
176
     1
 40
1.0
176
     1
 90
        0
176
     1
 62
    18
420
        0
176
     1
 90
       50
176
     1
 90
        3
176
     1
 62
     5
420
      255
176
     1
290
     0
176
     1
 90
       50
176
     1
 90
       50
176
     1
 90
       50
176
     1
290
     0
176
     1
 90
       50
176
     1
 62
   256
176
     0
 40
1.0
176
     0
 90
        2
176
     1
  1
strokes_ogs.tif
176
     1
290
     0
176
     1
 40
1.0
176
     1
 40
1.0
176
     1
  0
DICTIONARYVAR
  5
203
102
{ACAD_REACTORS
330
1A1
102
}
330
1A1
100
DictionaryVariables
280
     0
  1
1:1
  0
DICTIONARYVAR
  5
205
102
{ACAD_REACTORS
330
1A1
102
}
330
1A1
100
DictionaryVariables
280
     0
  1
Standard
  0
DICTIONARYVAR
  5
204
102
{ACAD_REACTORS
330
1A1
102
}
330
1A1
100
DictionaryVariables
280
     0
  1
Standard
  0
DICTIONARYVAR
  5
1A5
102
{ACAD_REACTORS
330
1A1
102
}
330
1A1
100
DictionaryVariables
280
     0
  1
2
  0
DICTIONARYVAR
  5
1A6
102
{ACAD_REACTORS
330
1A1
102
}
330
1A1
100
DictionaryVariables
280
     0
  1
1
  0
DICTIONARYVAR
  5
1A4
102
{ACAD_REACTORS
330
1A1
102
}
330
1A1
100
DictionaryVariables
280
     0
  1
0
  0
DICTIONARY
  5
275
330
1ED
100
AcDbDictionary
280
     1
281
     1
  3
ACAD_ROUNDTRIP_2008_TABLESTYLE_CELLSTYLEMAP
360
276
  0
CELLSTYLEMAP
  5
276
102
{ACAD_REACTORS
330
275
102
}
330
275
100
AcDbCellStyleMap
 90
        3
300
CELLSTYLE
  1
TABLEFORMAT_BEGIN
 90
        5
170
     1
 91
        0
 92
    32768
 62
   257
 93
        1
300
CONTENTFORMAT
  1
CONTENTFORMAT_BEGIN
 90
        0
 91
        0
 92
        4
 93
        0
300

 40
0.0
140
1.0
 94
        5
 62
     0
340
11
144
0.25
309
CONTENTFORMAT_END
171
     1
301
MARGIN
  1
CELLMARGIN_BEGIN
 40
0.06
 40
0.06
 40
0.06
 40
0.06
 40
0.06
 40
0.06
309
CELLMARGIN_END
 94
        6
 95
        1
302
GRIDFORMAT
  1
GRIDFORMAT_BEGIN
 90
        0
 91
        1
 62
     0
 92
       -2
340
14
 93
        0
 40
0.045
309
GRIDFORMAT_END
 95
        2
302
GRIDFORMAT
  1
GRIDFORMAT_BEGIN
 90
        0
 91
        1
 62
     0
 92
       -2
340
14
 93
        0
 40
0.045
309
GRIDFORMAT_END
 95
        4
302
GRIDFORMAT
  1
GRIDFORMAT_BEGIN
 90
        0
 91
        1
 62
     0
 92
       -2
340
14
 93
        0
 40
0.045
309
GRIDFORMAT_END
 95
        8
302
GRIDFORMAT
  1
GRIDFORMAT_BEGIN
 90
        0
 91
        1
 62
     0
 92
       -2
340
14
 93
        0
 40
0.045
309
GRIDFORMAT_END
 95
       16
302
GRIDFORMAT
  1
GRIDFORMAT_BEGIN
 90
        0
 91
        1
 62
     0
 92
       -2
340
14
 93
        0
 40
0.045
309
GRIDFORMAT_END
 95
       32
302
GRIDFORMAT
  1
GRIDFORMAT_BEGIN
 90
        0
 91
        1
 62
     0
 92
       -2
340
14
 93
        0
 40
0.045
309
GRIDFORMAT_END
309
TABLEFORMAT_END
  1
CELLSTYLE_BEGIN
 90
        1
 91
        1
300
_TITLE
309
CELLSTYLE_END
300
CELLSTYLE
  1
TABLEFORMAT_BEGIN
 90
        5
170
     1
 91
        0
 92
        0
 62
   257
 93
        1
300
CONTENTFORMAT
  1
CONTENTFORMAT_BEGIN
 90
        0
 91
        0
 92
        4
 93
        0
300

 40
0.0
140
1.0
 94
        5
 62
     0
340
11
144
0.18
309
CONTENTFORMAT_END
171
     1
301
MARGIN
  1
CELLMARGIN_BEGIN
 40
0.06
 40
0.06
 40
0.06
 40
0.06
 40
0.06
 40
0.06
309
CELLMARGIN_END
 94
        6
 95
        1
302
GRIDFORMAT
  1
GRIDFORMAT_BEGIN
 90
        0
 91
        1
 62
     0
 92
       -2
340
14
 93
        0
 40
0.045
309
GRIDFORMAT_END
 95
        2
302
GRIDFORMAT
  1
GRIDFORMAT_BEGIN
 90
        0
 91
        1
 62
     0
 92
       -2
340
14
 93
        0
 40
0.045
309
GRIDFORMAT_END
 95
        4
302
GRIDFORMAT
  1
GRIDFORMAT_BEGIN
 90
        0
 91
        1
 62
     0
 92
       -2
340
14
 93
        0
 40
0.045
309
GRIDFORMAT_END
 95
        8
302
GRIDFORMAT
  1
GRIDFORMAT_BEGIN
 90
        0
 91
        1
 62
     0
 92
       -2
340
14
 93
        0
 40
0.045
309
GRIDFORMAT_END
 95
       16
302
GRIDFORMAT
  1
GRIDFORMAT_BEGIN
 90
        0
 91
        1
 62
     0
 92
       -2
340
14
 93
        0
 40
0.045
309
GRIDFORMAT_END
 95
       32
302
GRIDFORMAT
  1
GRIDFORMAT_BEGIN
 90
        0
 91
        1
 62
     0
 92
       -2
340
14
 93
        0
 40
0.045
309
GRIDFORMAT_END
309
TABLEFORMAT_END
  1
CELLSTYLE_BEGIN
 90
        2
 91
        1
300
_HEADER
309
CELLSTYLE_END
300
CELLSTYLE
  1
TABLEFORMAT_BEGIN
 90
        5
170
     1
 91
        0
 92
        0
 62
   257
 93
        1
300
CONTENTFORMAT
  1
CONTENTFORMAT_BEGIN
 90
        0
 91
        0
 92
        4
 93
        0
300

 40
0.0
140
1.0
 94
        2
 62
     0
340
11
144
0.18
309
CONTENTFORMAT_END
171
     1
301
MARGIN
  1
CELLMARGIN_BEGIN
 40
0.06
 40
0.06
 40
0.06
 40
0.06
 40
0.06
 40
0.06
309
CELLMARGIN_END
 94
        6
 95
        1
302
GRIDFORMAT
  1
GRIDFORMAT_BEGIN
 90
        0
 91
        1
 62
     0
 92
       -2
340
14
 93
        0
 40
0.045
309
GRIDFORMAT_END
 95
        2
302
GRIDFORMAT
  1
GRIDFORMAT_BEGIN
 90
        0
 91
        1
 62
     0
 92
       -2
340
14
 93
        0
 40
0.045
309
GRIDFORMAT_END
 95
        4
302
GRIDFORMAT
  1
GRIDFORMAT_BEGIN
 90
        0
 91
        1
 62
     0
 92
       -2
340
14
 93
        0
 40
0.045
309
GRIDFORMAT_END
 95
        8
302
GRIDFORMAT
  1
GRIDFORMAT_BEGIN
 90
        0
 91
        1
 62
     0
 92
       -2
340
14
 93
        0
 40
0.045
309
GRIDFORMAT_END
 95
       16
302
GRIDFORMAT
  1
GRIDFORMAT_BEGIN
 90
        0
 91
        1
 62
     0
 92
       -2
340
14
 93
        0
 40
0.045
309
GRIDFORMAT_END
 95
       32
302
GRIDFORMAT
  1
GRIDFORMAT_BEGIN
 90
        0
 91
        1
 62
     0
 92
       -2
340
14
 93
        0
 40
0.045
309
GRIDFORMAT_END
309
TABLEFORMAT_END
  1
CELLSTYLE_BEGIN
 90
        3
 91
        2
300
_DATA
309
CELLSTYLE_END
  0
ENDSEC
  0
EOF
