  0
SECTION
  2
HEADER
  9
$ACADVER
  1
AC1027
  9
$ACADMAINTVER
 70
   105
  9
$DWGCODEPAGE
  3
ANSI_1252
  9
$REQUIREDVERSIONS
160
                 0
  9
$LASTSAVEDBY
  1
matthias.ochs
  9
$INSBASE
 10
0.0
 20
0.0
 30
0.0
  9
$EXTMIN
 10
-51.24202677667127
 20
-87.03042084221487
 30
0.0
  9
$EXTMAX
 10
68.60354153894117
 20
82.43870310408103
 30
0.0
  9
$LIMMIN
 10
-108.385760909
 20
-50.099963599
  9
$LIMMAX
 10
139.767486792
 20
62.096323518
  9
$ORTHOMODE
 70
     0
  9
$REGENMODE
 70
     1
  9
$FILLMODE
 70
     1
  9
$QTEXTMODE
 70
     0
  9
$MIRRTEXT
 70
     1
  9
$LTSCALE
 40
1.0
  9
$ATTMODE
 70
     1
  9
$TEXTSIZE
 40
0.2
  9
$TRACEWID
 40
0.05
  9
$TEXTSTYLE
  7
Standard
  9
$CLAYER
  8
SK2
  9
$CELTYPE
  6
ByLayer
  9
$CECOLOR
 62
   256
  9
$CELTSCALE
 40
1.0
  9
$DISPSILH
 70
     0
  9
$DIMSCALE
 40
1.0
  9
$DIMASZ
 40
0.18
  9
$DIMEXO
 40
0.0625
  9
$DIMDLI
 40
0.38
  9
$DIMRND
 40
0.0
  9
$DIMDLE
 40
0.0
  9
$DIMEXE
 40
0.18
  9
$DIMTP
 40
0.0
  9
$DIMTM
 40
0.0
  9
$DIMTXT
 40
0.18
  9
$DIMCEN
 40
0.09
  9
$DIMTSZ
 40
0.0
  9
$DIMTOL
 70
     0
  9
$DIMLIM
 70
     0
  9
$DIMTIH
 70
     1
  9
$DIMTOH
 70
     1
  9
$DIMSE1
 70
     0
  9
$DIMSE2
 70
     0
  9
$DIMTAD
 70
     0
  9
$DIMZIN
 70
     0
  9
$DIMBLK
  1

  9
$DIMASO
 70
     1
  9
$DIMSHO
 70
     1
  9
$DIMPOST
  1

  9
$DIMAPOST
  1

  9
$DIMALT
 70
     0
  9
$DIMALTD
 70
     2
  9
$DIMALTF
 40
25.4
  9
$DIMLFAC
 40
1.0
  9
$DIMTOFL
 70
     0
  9
$DIMTVP
 40
0.0
  9
$DIMTIX
 70
     0
  9
$DIMSOXD
 70
     0
  9
$DIMSAH
 70
     0
  9
$DIMBLK1
  1

  9
$DIMBLK2
  1

  9
$DIMSTYLE
  2
Standard
  9
$DIMCLRD
 70
     0
  9
$DIMCLRE
 70
     0
  9
$DIMCLRT
 70
     0
  9
$DIMTFAC
 40
1.0
  9
$DIMGAP
 40
0.09
  9
$DIMJUST
 70
     0
  9
$DIMSD1
 70
     0
  9
$DIMSD2
 70
     0
  9
$DIMTOLJ
 70
     1
  9
$DIMTZIN
 70
     0
  9
$DIMALTZ
 70
     0
  9
$DIMALTTZ
 70
     0
  9
$DIMUPT
 70
     0
  9
$DIMDEC
 70
     4
  9
$DIMTDEC
 70
     4
  9
$DIMALTU
 70
     2
  9
$DIMALTTD
 70
     2
  9
$DIMTXSTY
  7
Standard
  9
$DIMAUNIT
 70
     0
  9
$DIMADEC
 70
     0
  9
$DIMALTRND
 40
0.0
  9
$DIMAZIN
 70
     0
  9
$DIMDSEP
 70
    46
  9
$DIMATFIT
 70
     3
  9
$DIMFRAC
 70
     0
  9
$DIMLDRBLK
  1

  9
$DIMLUNIT
 70
     2
  9
$DIMLWD
 70
    -2
  9
$DIMLWE
 70
    -2
  9
$DIMTMOVE
 70
     2
  9
$DIMFXL
 40
1.0
  9
$DIMFXLON
 70
     0
  9
$DIMJOGANG
 40
0.7853981633974483
  9
$DIMTFILL
 70
     0
  9
$DIMTFILLCLR
 70
     0
  9
$DIMARCSYM
 70
     0
  9
$DIMLTYPE
  6

  9
$DIMLTEX1
  6

  9
$DIMLTEX2
  6

  9
$DIMTXTDIRECTION
 70
     0
  9
$LUNITS
 70
     2
  9
$LUPREC
 70
     4
  9
$SKETCHINC
 40
0.1
  9
$FILLETRAD
 40
0.5
  9
$AUNITS
 70
     2
  9
$AUPREC
 70
     0
  9
$MENU
  1
.
  9
$ELEVATION
 40
0.0
  9
$PELEVATION
 40
0.0
  9
$THICKNESS
 40
0.0
  9
$LIMCHECK
 70
     0
  9
$CHAMFERA
 40
0.5
  9
$CHAMFERB
 40
0.5
  9
$CHAMFERC
 40
1.0
  9
$CHAMFERD
 40
0.0
  9
$SKPOLY
 70
     0
  9
$TDCREATE
 40
2458327.549549502
  9
$TDUCREATE
 40
2458327.466216169
  9
$TDUPDATE
 40
2458695.455966053
  9
$TDUUPDATE
 40
2458695.37263272
  9
$TDINDWG
 40
0.0057418519
  9
$TDUSRTIMER
 40
0.0120637963
  9
$USRTIMER
 70
     1
  9
$ANGBASE
 50
0.0
  9
$ANGDIR
 70
     0
  9
$PDMODE
 70
     0
  9
$PDSIZE
 40
0.0
  9
$PLINEWID
 40
0.0
  9
$SPLFRAME
 70
     0
  9
$SPLINETYPE
 70
     6
  9
$SPLINESEGS
 70
     8
  9
$HANDSEED
  5
287
  9
$SURFTAB1
 70
     6
  9
$SURFTAB2
 70
     6
  9
$SURFTYPE
 70
     6
  9
$SURFU
 70
     6
  9
$SURFV
 70
     6
  9
$UCSBASE
  2

  9
$UCSNAME
  2

  9
$UCSORG
 10
0.0
 20
0.0
 30
0.0
  9
$UCSXDIR
 10
1.0
 20
0.0
 30
0.0
  9
$UCSYDIR
 10
0.0
 20
1.0
 30
0.0
  9
$UCSORTHOREF
  2

  9
$UCSORTHOVIEW
 70
     0
  9
$UCSORGTOP
 10
0.0
 20
0.0
 30
0.0
  9
$UCSORGBOTTOM
 10
0.0
 20
0.0
 30
0.0
  9
$UCSORGLEFT
 10
0.0
 20
0.0
 30
0.0
  9
$UCSORGRIGHT
 10
0.0
 20
0.0
 30
0.0
  9
$UCSORGFRONT
 10
0.0
 20
0.0
 30
0.0
  9
$UCSORGBACK
 10
0.0
 20
0.0
 30
0.0
  9
$PUCSBASE
  2

  9
$PUCSNAME
  2

  9
$PUCSORG
 10
0.0
 20
0.0
 30
0.0
  9
$PUCSXDIR
 10
1.0
 20
0.0
 30
0.0
  9
$PUCSYDIR
 10
0.0
 20
1.0
 30
0.0
  9
$PUCSORTHOREF
  2

  9
$PUCSORTHOVIEW
 70
     0
  9
$PUCSORGTOP
 10
0.0
 20
0.0
 30
0.0
  9
$PUCSORGBOTTOM
 10
0.0
 20
0.0
 30
0.0
  9
$PUCSORGLEFT
 10
0.0
 20
0.0
 30
0.0
  9
$PUCSORGRIGHT
 10
0.0
 20
0.0
 30
0.0
  9
$PUCSORGFRONT
 10
0.0
 20
0.0
 30
0.0
  9
$PUCSORGBACK
 10
0.0
 20
0.0
 30
0.0
  9
$USERI1
 70
     0
  9
$USERI2
 70
     0
  9
$USERI3
 70
     0
  9
$USERI4
 70
     0
  9
$USERI5
 70
     0
  9
$USERR1
 40
0.0
  9
$USERR2
 40
0.0
  9
$USERR3
 40
0.0
  9
$USERR4
 40
0.0
  9
$USERR5
 40
0.0
  9
$WORLDVIEW
 70
     1
  9
$SHADEDGE
 70
     3
  9
$SHADEDIF
 70
    70
  9
$TILEMODE
 70
     1
  9
$MAXACTVP
 70
    64
  9
$PINSBASE
 10
0.0
 20
0.0
 30
0.0
  9
$PLIMCHECK
 70
     0
  9
$PEXTMIN
 10
1.000000000000000E+20
 20
1.000000000000000E+20
 30
1.000000000000000E+20
  9
$PEXTMAX
 10
-1.000000000000000E+20
 20
-1.000000000000000E+20
 30
-1.000000000000000E+20
  9
$PLIMMIN
 10
0.0
 20
0.0
  9
$PLIMMAX
 10
0.0
 20
0.0
  9
$UNITMODE
 70
     0
  9
$VISRETAIN
 70
     1
  9
$PLINEGEN
 70
     0
  9
$PSLTSCALE
 70
     1
  9
$TREEDEPTH
 70
  3020
  9
$CMLSTYLE
  2
Standard
  9
$CMLJUST
 70
     0
  9
$CMLSCALE
 40
1.0
  9
$PROXYGRAPHICS
 70
     1
  9
$MEASUREMENT
 70
     0
  9
$CELWEIGHT
370
    -1
  9
$ENDCAPS
280
     0
  9
$JOINSTYLE
280
     0
  9
$LWDISPLAY
290
     0
  9
$INSUNITS
 70
     0
  9
$HYPERLINKBASE
  1

  9
$STYLESHEET
  1

  9
$XEDIT
290
     1
  9
$CEPSNTYPE
380
     0
  9
$PSTYLEMODE
290
     1
  9
$FINGERPRINTGUID
  2
{1887F903-F493-4546-A9CB-59A69A5C97D0}
  9
$VERSIONGUID
  2
{FAEB1C32-E019-11D5-929B-00C0DF256EC4}
  9
$EXTNAMES
290
     1
  9
$PSVPSCALE
 40
0.0
  9
$OLESTARTUP
290
     0
  9
$SORTENTS
280
   127
  9
$INDEXCTL
280
     0
  9
$HIDETEXT
280
     1
  9
$XCLIPFRAME
280
     2
  9
$HALOGAP
280
     0
  9
$OBSCOLOR
 70
   257
  9
$OBSLTYPE
280
     0
  9
$INTERSECTIONDISPLAY
280
     0
  9
$INTERSECTIONCOLOR
 70
   257
  9
$DIMASSOC
280
     2
  9
$PROJECTNAME
  1

  9
$CAMERADISPLAY
290
     0
  9
$LENSLENGTH
 40
50.0
  9
$CAMERAHEIGHT
 40
0.0
  9
$STEPSPERSEC
 40
2.0
  9
$STEPSIZE
 40
6.0
  9
$3DDWFPREC
 40
2.0
  9
$PSOLWIDTH
 40
0.25
  9
$PSOLHEIGHT
 40
4.0
  9
$LOFTANG1
 40
1.570796326794897
  9
$LOFTANG2
 40
1.570796326794897
  9
$LOFTMAG1
 40
0.0
  9
$LOFTMAG2
 40
0.0
  9
$LOFTPARAM
 70
     7
  9
$LOFTNORMALS
280
     1
  9
$LATITUDE
 40
37.795
  9
$LONGITUDE
 40
-122.394
  9
$NORTHDIRECTION
 40
0.0
  9
$TIMEZONE
 70
 -8000
  9
$LIGHTGLYPHDISPLAY
280
     1
  9
$TILEMODELIGHTSYNCH
280
     1
  9
$SOLIDHIST
280
     0
  9
$SHOWHIST
280
     1
  9
$DWFFRAME
280
     2
  9
$DGNFRAME
280
     2
  9
$REALWORLDSCALE
290
     1
  9
$INTERFERECOLOR
 62
   256
  9
$CSHADOW
280
     0
  9
$SHADOWPLANELOCATION
 40
0.0
  0
ENDSEC
  0
SECTION
  2
CLASSES
  0
CLASS
  1
ACDBDICTIONARYWDFLT
  2
AcDbDictionaryWithDefault
  3
ObjectDBX Classes
 90
        0
 91
       10
280
     0
281
     0
  0
CLASS
  1
SCALE
  2
AcDbScale
  3
ObjectDBX Classes
 90
     1153
 91
       10
280
     0
281
     0
  0
CLASS
  1
VISUALSTYLE
  2
AcDbVisualStyle
  3
ObjectDBX Classes
 90
     4095
 91
       10
280
     0
281
     0
  0
CLASS
  1
MATERIAL
  2
AcDbMaterial
  3
ObjectDBX Classes
 90
     1153
 91
       10
280
     0
281
     0
  0
CLASS
  1
DICTIONARYVAR
  2
AcDbDictionaryVar
  3
ObjectDBX Classes
 90
        0
 91
       10
280
     0
281
     0
  0
CLASS
  1
ACDBPLACEHOLDER
  2
AcDbPlaceHolder
  3
ObjectDBX Classes
 90
        0
 91
        1
280
     0
281
     0
  0
CLASS
  1
LAYOUT
  2
AcDbLayout
  3
ObjectDBX Classes
 90
        0
 91
        1
280
     0
281
     0
  0
CLASS
  1
TABLESTYLE
  2
AcDbTableStyle
  3
ObjectDBX Classes
 90
     4095
 91
       10
280
     0
281
     0
  0
CLASS
  1
MLEADERSTYLE
  2
AcDbMLeaderStyle
  3
ACDB_MLEADERSTYLE_CLASS
 90
     4095
 91
       10
280
     0
281
     0
  0
CLASS
  1
SUN
  2
AcDbSun
  3
SCENEOE
 90
     1153
 91
        9
280
     0
281
     0
  0
CLASS
  1
SORTENTSTABLE
  2
AcDbSortentsTable
  3
ObjectDBX Classes
 90
        0
 91
        8
280
     0
281
     0
  0
CLASS
  1
CELLSTYLEMAP
  2
AcDbCellStyleMap
  3
ObjectDBX Classes
 90
     1152
 91
        7
280
     0
281
     0
  0
ENDSEC
  0
SECTION
  2
TABLES
  0
TABLE
  2
VPORT
  5
8
330
0
100
AcDbSymbolTable
 70
     1
  0
VPORT
  5
169
330
8
100
AcDbSymbolTableRecord
100
AcDbViewportTableRecord
  2
*Active
 70
     0
 10
0.0
 20
0.0
 11
1.0
 21
1.0
 12
-14.70338256896838
 22
44.3785389689908
 13
0.0
 23
0.0
 14
0.5
 24
0.5
 15
0.5
 25
0.5
 16
0.0
 26
0.0
 36
1.0
 17
0.0
 27
0.0
 37
0.0
 40
396.3006775713309
 41
1.831002331002331
 42
50.0
 43
0.0
 44
0.0
 50
0.0
 51
0.0
 71
    16
 72
   100
 73
     1
 74
     3
 75
     1
 76
     0
 77
     0
 78
     0
281
     0
 65
     1
110
0.0
120
0.0
130
0.0
111
1.0
121
0.0
131
0.0
112
0.0
122
1.0
132
0.0
 79
     0
146
0.0
348
19A
 60
     3
 61
     5
292
     1
282
     1
141
0.0
142
0.0
 63
   256
361
223
  0
ENDTAB
  0
TABLE
  2
LTYPE
  5
5
330
0
100
AcDbSymbolTable
 70
     8
  0
LTYPE
  5
14
330
5
100
AcDbSymbolTableRecord
100
AcDbLinetypeTableRecord
  2
ByBlock
 70
     0
  3

 72
    65
 73
     0
 40
0.0
  0
LTYPE
  5
15
330
5
100
AcDbSymbolTableRecord
100
AcDbLinetypeTableRecord
  2
ByLayer
 70
     0
  3

 72
    65
 73
     0
 40
0.0
  0
LTYPE
  5
16
330
5
100
AcDbSymbolTableRecord
100
AcDbLinetypeTableRecord
  2
Continuous
 70
     0
  3
Solid line
 72
    65
 73
     0
 40
0.0
  0
LTYPE
  5
20
330
5
100
AcDbSymbolTableRecord
100
AcDbLinetypeTableRecord
  2
PUNKT
 70
     0
  3
..............
 72
    65
 73
     2
 40
1.5
 49
0.7
 74
     0
 49
-0.8
 74
     0
  0
LTYPE
  5
21
330
5
100
AcDbSymbolTableRecord
100
AcDbLinetypeTableRecord
  2
GESTRICHELT
 70
     0
  3
-- -- -- -- --
 72
    65
 73
     7
 40
2.8
 49
0.9
 74
     0
 49
0.0
 74
     0
 49
0.9
 74
     0
 49
0.0
 74
     0
 49
0.2
 74
     0
 49
0.0
 74
     0
 49
-0.8
 74
     0
  0
LTYPE
  5
22
330
5
100
AcDbSymbolTableRecord
100
AcDbLinetypeTableRecord
  2
STRICHPUNKT
 70
     0
  3
--.--.--.--.--
 72
    65
 73
     4
 40
8.8
 49
5.5
 74
     0
 49
-1.3
 74
     0
 49
0.7
 74
     0
 49
-1.3
 74
     0
  0
LTYPE
  5
25
330
5
100
AcDbSymbolTableRecord
100
AcDbLinetypeTableRecord
  2
PHANTOM
 70
     0
  3
--..--..--..--
 72
    65
 73
     6
 40
14.2
 49
7.0
 74
     0
 49
-1.8
 74
     0
 49
0.9
 74
     0
 49
-1.8
 74
     0
 49
0.9
 74
     0
 49
-1.8
 74
     0
  0
LTYPE
  5
1E1
330
5
100
AcDbSymbolTableRecord
100
AcDbLinetypeTableRecord
  2
DASH
 70
     0
  3
DASH _ _ _ _ _
 72
    65
 73
     2
 40
0.75
 49
0.4
 74
     0
 49
-0.35
 74
     0
  0
LTYPE
  5
1E2
330
5
100
AcDbSymbolTableRecord
100
AcDbLinetypeTableRecord
  2
LONGDASH_DASH
 70
     0
  3
LONGDASH_DASH __ . __ . __
 72
    65
 73
     4
 40
0.85
 49
0.4
 74
     0
 49
-0.2
 74
     0
 49
0.05
 74
     0
 49
-0.2
 74
     0
  0
LTYPE
  5
1E3
330
5
100
AcDbSymbolTableRecord
100
AcDbLinetypeTableRecord
  2
LONGDASH_DASH_DASH
 70
     0
  3
LONGDASH_DASH_DASH __ . . __ . . __
 72
    65
 73
     6
 40
1.1
 49
0.4
 74
     0
 49
-0.2
 74
     0
 49
0.05
 74
     0
 49
-0.2
 74
     0
 49
0.05
 74
     0
 49
-0.2
 74
     0
  0
ENDTAB
  0
TABLE
  2
LAYER
  5
2
102
{ACAD_XDICTIONARY
360
200
102
}
330
0
100
AcDbSymbolTable
 70
    16
  0
LAYER
  5
1AB
330
2
100
AcDbSymbolTableRecord
100
AcDbLayerTableRecord
  2
200
 70
     0
 62
     2
  6
Continuous
370
    50
390
F
347
1A9
348
0
  0
LAYER
  5
1E4
330
2
100
AcDbSymbolTableRecord
100
AcDbLayerTableRecord
  2
0
 70
     0
 62
     1
  6
Continuous
370
    -3
390
F
347
1A9
348
0
  0
LAYER
  5
1E5
330
2
100
AcDbSymbolTableRecord
100
AcDbLayerTableRecord
  2
1
 70
     0
 62
     4
  6
Continuous
370
    50
390
F
347
1A9
348
0
  0
LAYER
  5
1E6
330
2
100
AcDbSymbolTableRecord
100
AcDbLayerTableRecord
  2
2
 70
     0
 62
     7
  6
Continuous
370
    25
390
F
347
1A9
348
0
  0
LAYER
  5
1E7
330
2
100
AcDbSymbolTableRecord
100
AcDbLayerTableRecord
  2
3
 70
     0
 62
     1
  6
DASH
370
    35
390
F
347
1A9
348
0
  0
LAYER
  5
1E8
330
2
100
AcDbSymbolTableRecord
100
AcDbLayerTableRecord
  2
4
 70
     0
 62
     2
  6
LONGDASH_DASH
370
    25
390
F
347
1A9
348
0
  0
LAYER
  5
1E9
330
2
100
AcDbSymbolTableRecord
100
AcDbLayerTableRecord
  2
6
 70
     0
 62
     5
  6
Continuous
370
    -3
390
F
347
1A9
348
0
  0
LAYER
  5
1EA
330
2
100
AcDbSymbolTableRecord
100
AcDbLayerTableRecord
  2
CUT
 70
     0
 62
     1
  6
Continuous
370
    25
390
F
347
1A9
348
0
  0
LAYER
  5
1EB
330
2
100
AcDbSymbolTableRecord
100
AcDbLayerTableRecord
  2
NOCUT
 70
     0
 62
     7
  6
Continuous
370
    25
390
F
347
1A9
348
0
  0
LAYER
  5
1EC
330
2
100
AcDbSymbolTableRecord
100
AcDbLayerTableRecord
  2
SK1
 70
     0
 62
     4
  6
Continuous
370
    50
390
F
347
1A9
348
0
  0
LAYER
  5
1ED
330
2
100
AcDbSymbolTableRecord
100
AcDbLayerTableRecord
  2
SK2
 70
     0
 62
     7
  6
Continuous
370
    25
390
F
347
1A9
348
0
  0
LAYER
  5
1EE
330
2
100
AcDbSymbolTableRecord
100
AcDbLayerTableRecord
  2
SK3
 70
     0
 62
     1
  6
DASH
370
    35
390
F
347
1A9
348
0
  0
LAYER
  5
1EF
330
2
100
AcDbSymbolTableRecord
100
AcDbLayerTableRecord
  2
SK4
 70
     0
 62
     2
  6
LONGDASH_DASH
370
    25
390
F
347
1A9
348
0
  0
LAYER
  5
1F0
330
2
100
AcDbSymbolTableRecord
100
AcDbLayerTableRecord
  2
SK6
 70
     0
 62
     5
  6
Continuous
370
    -3
390
F
347
1A9
348
0
  0
LAYER
  5
1F1
330
2
100
AcDbSymbolTableRecord
100
AcDbLayerTableRecord
  2
INFTOTAL
 70
     0
 62
     9
  6
Continuous
370
    18
390
F
347
1A9
348
0
  0
LAYER
  5
227
330
2
100
AcDbSymbolTableRecord
100
AcDbLayerTableRecord
  2
7
 70
     0
 62
     5
  6
Continuous
370
    18
390
F
347
1A9
348
0
1001
AcAecLayerStandard
1000

1000

  0
ENDTAB
  0
TABLE
  2
STYLE
  5
3
330
0
100
AcDbSymbolTable
 70
     3
  0
STYLE
  5
11
330
3
100
AcDbSymbolTableRecord
100
AcDbTextStyleTableRecord
  2
Standard
 70
     0
 40
0.0
 41
1.0
 50
0.0
 71
     0
 42
0.2
  3
txt
  4

  0
STYLE
  5
1AA
330
3
100
AcDbSymbolTableRecord
100
AcDbTextStyleTableRecord
  2
BMG_Text
 70
     0
 40
3.5
 41
1.0
 50
0.0
 71
     0
 42
0.2
  3
monos.ttf
  4

1001
ACAD
1000
Monospac821 BT
1071
       49
  0
STYLE
  5
22D
330
3
100
AcDbSymbolTableRecord
100
AcDbTextStyleTableRecord
  2
SLDTEXTSTYLE0
 70
     0
 40
0.0
 41
0.605
 50
0.0
 71
     0
 42
0.2
  3
TXT
  4

  0
ENDTAB
  0
TABLE
  2
VIEW
  5
6
330
0
100
AcDbSymbolTable
 70
     0
  0
ENDTAB
  0
TABLE
  2
UCS
  5
7
330
0
100
AcDbSymbolTable
 70
     0
  0
ENDTAB
  0
TABLE
  2
APPID
  5
9
330
0
100
AcDbSymbolTable
 70
     3
  0
APPID
  5
12
330
9
100
AcDbSymbolTableRecord
100
AcDbRegAppTableRecord
  2
ACAD
 70
     0
  0
APPID
  5
228
330
9
100
AcDbSymbolTableRecord
100
AcDbRegAppTableRecord
  2
AcAecLayerStandard
 70
     0
  0
APPID
  5
230
330
9
100
AcDbSymbolTableRecord
100
AcDbRegAppTableRecord
  2
PE_URL
 70
     0
  0
ENDTAB
  0
TABLE
  2
DIMSTYLE
  5
A
330
0
100
AcDbSymbolTable
 70
     6
100
AcDbDimStyleTable
  0
DIMSTYLE
105
28
330
A
100
AcDbSymbolTableRecord
100
AcDbDimStyleTableRecord
  2
Standard
 70
     0
178
     0
340
11
  0
DIMSTYLE
105
229
330
A
100
AcDbSymbolTableRecord
100
AcDbDimStyleTableRecord
  2
Matthias
 70
     0
 41
3.0
 44
2.0
 73
     0
 77
     1
140
3.0
147
2.0
178
     0
340
11
  0
DIMSTYLE
105
22B
102
{ACAD_REACTORS
102
}
330
A
100
AcDbSymbolTableRecord
100
AcDbDimStyleTableRecord
  2
ISO-25
 70
     0
 41
2.5
 42
0.625
 43
3.75
 44
1.25
 73
     0
 74
     0
 77
     1
 78
     8
140
2.5
141
2.5
143
0.0393700787
147
0.625
171
     3
172
     1
178
     0
271
     2
272
     2
274
     3
278
    44
283
     0
284
     8
340
11
  0
DIMSTYLE
105
22C
330
A
100
AcDbSymbolTableRecord
100
AcDbDimStyleTableRecord
  2
SLDDIMSTYLE0
 70
     0
 41
3.5
 44
0.0
 45
0.000000001
 73
     0
 74
     0
 77
     1
 78
    12
 79
     3
140
3.5
144
0.5
147
0.875
173
     1
178
     0
271
     2
272
     1
276
     2
284
    12
340
22D
  0
DIMSTYLE
105
22E
330
A
100
AcDbSymbolTableRecord
100
AcDbDimStyleTableRecord
  2
SLDDIMSTYLE1
 70
     0
 41
3.5
 44
0.0
 45
0.000000001
 73
     0
 74
     0
 77
     1
 78
    12
 79
     3
140
3.5
144
0.5
147
0.875
173
     1
178
     0
271
     2
272
     3
276
     2
284
    12
340
22D
  0
DIMSTYLE
105
22F
330
A
100
AcDbSymbolTableRecord
100
AcDbDimStyleTableRecord
  2
SLDDIMSTYLE2
 70
     0
 41
3.5
 44
0.0
 45
0.000000001
 73
     0
 74
     0
 77
     1
 78
    12
 79
     3
140
3.5
147
0.875
173
     1
178
     0
271
     2
272
     0
276
     2
284
    12
340
22D
  0
ENDTAB
  0
TABLE
  2
BLOCK_RECORD
  5
1
330
0
100
AcDbSymbolTable
 70
     1
  0
BLOCK_RECORD
  5
1D
102
{ACAD_XDICTIONARY
360
261
102
}
330
1
100
AcDbSymbolTableRecord
100
AcDbBlockTableRecord
  2
*Model_Space
340
1E
 70
     0
280
     1
281
     0
  0
BLOCK_RECORD
  5
1B
330
1
100
AcDbSymbolTableRecord
100
AcDbBlockTableRecord
  2
*Paper_Space
340
1C
 70
     0
280
     1
281
     0
  0
ENDTAB
  0
ENDSEC
  0
SECTION
  2
BLOCKS
  0
BLOCK
  5
193
330
1D
100
AcDbEntity
  8
0
100
AcDbBlockBegin
  2
*Model_Space
 70
     0
 10
0.0
 20
0.0
 30
0.0
  3
*Model_Space
  1

  0
ENDBLK
  5
194
330
1D
100
AcDbEntity
  8
0
100
AcDbBlockEnd
  0
BLOCK
  5
191
330
1B
100
AcDbEntity
 67
     1
  8
0
100
AcDbBlockBegin
  2
*Paper_Space
 70
     0
 10
0.0
 20
0.0
 30
0.0
  3
*Paper_Space
  1

  0
ENDBLK
  5
192
330
1B
100
AcDbEntity
 67
     1
  8
0
100
AcDbBlockEnd
  0
ENDSEC
  0
SECTION
  2
ENTITIES
  0
LINE
  5
29
330
1D
100
AcDbEntity
  8
SK2
100
AcDbLine
 10
45.6838018935
 20
-48.999999999
 30
0.0
 11
33.4020760105
 21
-48.999999999
 31
0.0
  0
LINE
  5
2A
330
1D
100
AcDbEntity
  8
SK2
100
AcDbLine
 10
43.6838018935
 20
-48.999999999
 30
0.0
 11
43.23380189349999
 21
-45.499999999
 31
0.0
  0
LINE
  5
2B
330
1D
100
AcDbEntity
  8
SK2
100
AcDbLine
 10
43.23380189349999
 20
-45.499999999
 30
0.0
 11
44.13380189349999
 21
-45.499999999
 31
0.0
  0
LINE
  5
2C
330
1D
100
AcDbEntity
  8
SK2
100
AcDbLine
 10
44.13380189349999
 20
-45.499999999
 30
0.0
 11
43.6838018935
 21
-48.999999999
 31
0.0
  0
LINE
  5
2D
330
1D
100
AcDbEntity
  8
SK2
100
AcDbLine
 10
45.6838018935
 20
48.999999999
 30
0.0
 11
33.4020760105
 21
48.999999999
 31
0.0
  0
LINE
  5
2E
330
1D
100
AcDbEntity
  8
SK2
100
AcDbLine
 10
43.6838018935
 20
48.999999999
 30
0.0
 11
44.13380189349999
 21
45.499999999
 31
0.0
  0
LINE
  5
2F
330
1D
100
AcDbEntity
  8
SK2
100
AcDbLine
 10
44.13380189349999
 20
45.499999999
 30
0.0
 11
43.23380189349999
 21
45.499999999
 31
0.0
  0
LINE
  5
30
330
1D
100
AcDbEntity
  8
SK2
100
AcDbLine
 10
43.23380189349999
 20
45.499999999
 30
0.0
 11
43.6838018935
 21
48.999999999
 31
0.0
  0
LINE
  5
31
330
1D
100
AcDbEntity
  8
SK2
100
AcDbLine
 10
43.6838018935
 20
-45.499999999
 30
0.0
 11
43.6838018935
 21
45.499999999
 31
0.0
  0
TEXT
  5
32
330
1D
100
AcDbEntity
  8
SK2
100
AcDbText
 10
42.1838018935
 20
-3.970001095
 30
0.0
 40
3.5
  1
98
 50
90.0
  7
BMG_Text
100
AcDbText
  0
CIRCLE
  5
33
330
1D
100
AcDbEntity
  8
SK2
100
AcDbCircle
 10
40.9338018935
 20
-6.220001095
 30
0.0
 40
1.25
  0
LINE
  5
34
330
1D
100
AcDbEntity
  8
SK2
100
AcDbLine
 10
42.1838018935
 20
-7.470001095
 30
0.0
 11
39.6838018935
 21
-4.970001095
 31
0.0
  0
TEXT
  5
35
330
1D
100
AcDbEntity
  8
SK2
100
AcDbText
 10
42.1838018935
 20
1.961867856209491
 30
0.0
 40
3.5
  1
-126
 50
90.0
  7
BMG_Text
100
AcDbText
  0
LINE
  5
36
330
1D
100
AcDbEntity
  8
2
100
AcDbLine
 10
33.8020760105
 20
57.99635992
 30
0.0
 11
33.8020760105
 21
48.599999999
 31
0.0
  0
LINE
  5
37
330
1D
100
AcDbEntity
  8
2
100
AcDbLine
 10
33.8020760105
 20
55.99635992
 30
0.0
 11
30.3020760105
 21
55.54635992
 31
0.0
  0
LINE
  5
38
330
1D
100
AcDbEntity
  8
2
100
AcDbLine
 10
30.3020760105
 20
55.54635992
 30
0.0
 11
30.3020760105
 21
56.44635992
 31
0.0
  0
LINE
  5
39
330
1D
100
AcDbEntity
  8
2
100
AcDbLine
 10
30.3020760105
 20
56.44635992
 30
0.0
 11
33.8020760105
 21
55.99635992
 31
0.0
  0
LINE
  5
3A
330
1D
100
AcDbEntity
  8
2
100
AcDbLine
 10
-12.6979239895
 20
55.996359915
 30
0.0
 11
30.3020760105
 21
55.99635992
 31
0.0
  0
TEXT
  5
3B
330
1D
100
AcDbEntity
  8
2
100
AcDbText
 10
-12.07384250069181
 20
57.496359916
 30
0.0
 40
3.5
  1
71 / 87 / 117
 50
0.000000007
  7
BMG_Text
100
AcDbText
  0
LINE
  5
3C
330
1D
100
AcDbEntity
  8
SK4
100
AcDbLine
 10
-5.656585944500001
 20
0.0
 30
0.0
 11
35.79622864349999
 21
0.0
 31
0.0
  0
TEXT
  5
3D
330
1D
100
AcDbEntity
  8
SK6
100
AcDbText
 10
1.904288398600106
 20
-62.86691701624919
 30
0.0
 40
3.5
  1
639.173
  7
BMG_Text
100
AcDbText
  0
LINE
  5
3E
330
1D
100
AcDbEntity
  8
1
100
AcDbLine
 10
33.3973059895
 20
36.465254031
 30
0.0
 11
33.50207599549999
 21
36.476359121
 31
0.0
  0
LINE
  5
3F
330
1D
100
AcDbEntity
  8
1
100
AcDbLine
 10
33.50207599549999
 20
36.476359121
 30
0.0
 11
33.50207599549999
 21
9.653588175
 31
0.0
  0
LINE
  5
40
330
1D
100
AcDbEntity
  8
3
100
AcDbLine
 10
27.9285739145
 20
0.0
 30
0.0
 11
18.4418219725
 21
-16.43153533
 31
0.0
  0
ARC
  5
41
330
1D
100
AcDbEntity
  8
3
100
AcDbCircle
 10
27.1020760105
 20
-21.43153533
 30
0.0
 40
10.0
100
AcDbArc
 50
150.0
 51
180.000014875
  0
LINE
  5
42
330
1D
100
AcDbEntity
  8
3
100
AcDbLine
 10
17.1020764395
 20
-21.431537927
 30
0.0
 11
17.1020764395
 21
-36.500001908
 31
0.0
  0
LINE
  5
43
330
1D
100
AcDbEntity
  8
3
100
AcDbLine
 10
17.1020764395
 20
-36.500001908
 30
0.0
 11
16.1020762755
 21
-37.499996484
 31
0.0
  0
LINE
  5
44
330
1D
100
AcDbEntity
  8
3
100
AcDbLine
 10
16.1020762755
 20
-37.499996484
 30
0.0
 11
-3.7979234475
 21
-37.499996484
 31
0.0
  0
LINE
  5
45
330
1D
100
AcDbEntity
  8
1
100
AcDbLine
 10
0.1584093555
 20
45.075708884
 30
0.0
 11
4.5094292145
 21
45.530861826
 31
0.0
  0
LINE
  5
46
330
1D
100
AcDbEntity
  8
1
100
AcDbLine
 10
4.5094292145
 20
45.530861826
 30
0.0
 11
9.5884695185
 21
46.062225826
 31
0.0
  0
LINE
  5
47
330
1D
100
AcDbEntity
  8
1
100
AcDbLine
 10
9.5884695185
 20
46.062225826
 30
0.0
 11
14.6675023715
 21
46.593645704
 31
0.0
  0
LINE
  5
48
330
1D
100
AcDbEntity
  8
1
100
AcDbLine
 10
14.6675023715
 20
46.593645704
 30
0.0
 11
19.7465305685
 21
47.125119251
 31
0.0
  0
LINE
  5
49
330
1D
100
AcDbEntity
  8
1
100
AcDbLine
 10
19.7465305685
 20
47.125119251
 30
0.0
 11
20.01064120810972
 21
47.1527574995207
 31
0.0
  0
ARC
  5
4A
330
1D
100
AcDbEntity
  8
1
100
AcDbCircle
 10
25.2433756655
 20
41.002597474
 30
0.0
 40
0.3
100
AcDbArc
 50
123.3841618050003
 51
209.9999999999999
  0
ARC
  5
4B
330
1D
100
AcDbEntity
  8
1
100
AcDbCircle
 10
24.6931257225
 20
41.837597474
 30
0.0
 40
0.7
100
AcDbArc
 50
303.3841618059999
 51
56.61583819400012
  0
ARC
  5
4C
330
1D
100
AcDbEntity
  8
1
100
AcDbCircle
 10
25.2433756655
 20
42.672597474
 30
0.0
 40
0.3
100
AcDbArc
 50
150.0000000000001
 51
236.6158381939999
  0
ARC
  5
4D
330
1D
100
AcDbEntity
  8
1
100
AcDbCircle
 10
25.2433756655
 20
42.672597474
 30
0.0
 40
0.3
100
AcDbArc
 50
63.38416179500024
 51
150.0000000000001
  0
ARC
  5
4E
330
1D
100
AcDbEntity
  8
1
100
AcDbCircle
 10
25.6913819065
 20
43.566627903
 30
0.0
 40
0.7
100
AcDbArc
 50
243.3841618059997
 51
356.6158381970002
  0
ARC
  5
4F
330
1D
100
AcDbEntity
  8
1
100
AcDbCircle
 10
26.6896380895
 20
43.507597474
 30
0.0
 40
0.3
100
AcDbArc
 50
90.0
 51
176.6158381939996
  0
ARC
  5
50
330
1D
100
AcDbEntity
  8
1
100
AcDbCircle
 10
26.6896380895
 20
43.507597474
 30
0.0
 40
0.3
100
AcDbArc
 50
3.384161796999805
 51
90.0
  0
ARC
  5
51
330
1D
100
AcDbEntity
  8
1
100
AcDbCircle
 10
27.6878942735
 20
43.566627903
 30
0.0
 40
0.7
100
AcDbArc
 50
183.3841618060002
 51
296.615838199
  0
ARC
  5
52
330
1D
100
AcDbEntity
  8
1
100
AcDbCircle
 10
28.1359005145
 20
42.672597474
 30
0.0
 40
0.3
100
AcDbArc
 50
29.9999999999999
 51
116.6158381939999
  0
ARC
  5
53
330
1D
100
AcDbEntity
  8
1
100
AcDbCircle
 10
28.1359005145
 20
42.672597474
 30
0.0
 40
0.3
100
AcDbArc
 50
303.3841618050003
 51
29.9999999999999
  0
ARC
  5
54
330
1D
100
AcDbEntity
  8
1
100
AcDbCircle
 10
28.6861504575
 20
41.837597474
 30
0.0
 40
0.7
100
AcDbArc
 50
123.3841618059999
 51
236.6158381940001
  0
ARC
  5
55
330
1D
100
AcDbEntity
  8
1
100
AcDbCircle
 10
28.1359005145
 20
41.002597474
 30
0.0
 40
0.3
100
AcDbArc
 50
329.9999999919994
 51
56.61583819399988
  0
ARC
  5
56
330
1D
100
AcDbEntity
  8
1
100
AcDbCircle
 10
26.6896380895
 20
40.167597474
 30
0.0
 40
0.3
100
AcDbArc
 50
270.0
 51
356.6158381839998
  0
ARC
  5
57
330
1D
100
AcDbEntity
  8
1
100
AcDbCircle
 10
27.6878942735
 20
40.108567045
 30
0.0
 40
0.7
100
AcDbArc
 50
63.38416180499998
 51
176.6158381939998
  0
ARC
  5
58
330
1D
100
AcDbEntity
  8
1
100
AcDbCircle
 10
28.1359005145
 20
41.002597474
 30
0.0
 40
0.3
100
AcDbArc
 50
243.3841618060001
 51
329.9999999919994
  0
ARC
  5
59
330
1D
100
AcDbEntity
  8
1
100
AcDbCircle
 10
26.6896380895
 20
40.167597474
 30
0.0
 40
0.3
100
AcDbArc
 50
183.3841618169994
 51
270.0
  0
ARC
  5
5A
330
1D
100
AcDbEntity
  8
1
100
AcDbCircle
 10
25.6913819065
 20
40.108567045
 30
0.0
 40
0.7
100
AcDbArc
 50
3.384161806000227
 51
116.615838195
  0
ARC
  5
5B
330
1D
100
AcDbEntity
  8
1
100
AcDbCircle
 10
25.2433756655
 20
41.002597474
 30
0.0
 40
0.3
100
AcDbArc
 50
209.9999999999999
 51
296.6158381939999
  0
LINE
  5
5C
330
1D
100
AcDbEntity
  8
1
100
AcDbLine
 10
0.1584093555
 20
45.075708884
 30
0.0
 11
0.0793735965
 21
45.066707186
 31
0.0
  0
LINE
  5
5D
330
1D
100
AcDbEntity
  8
1
100
AcDbLine
 10
0.0793735965
 20
45.066707186
 30
0.0
 11
-0.0498492735
 21
45.052287519
 31
0.0
  0
LINE
  5
5E
330
1D
100
AcDbEntity
  8
1
100
AcDbLine
 10
-0.0498492735
 20
45.052287519
 30
0.0
 11
-0.5696160084999999
 21
44.994028081
 31
0.0
  0
ARC
  5
5F
330
1D
100
AcDbEntity
  8
1
100
AcDbCircle
 10
0.7001522215
 20
-86.557548812
 30
0.0
 40
131.557704808
100
AcDbArc
 50
90.55301580599999
 51
91.74148444900001
  0
LINE
  5
60
330
1D
100
AcDbEntity
  8
1
100
AcDbLine
 10
-3.2979224345
 20
44.940758846
 30
0.0
 11
-3.3479232805
 21
44.889198966
 31
0.0
  0
ARC
  5
61
330
1D
100
AcDbEntity
  8
1
100
AcDbCircle
 10
-1.8327169195
 20
43.261183214
 30
0.0
 40
2.224024641
100
AcDbArc
 50
132.944552209
 51
142.53257615
  0
LINE
  5
62
330
1D
100
AcDbEntity
  8
1
100
AcDbLine
 10
-3.5979237875
 20
44.614080224
 30
0.0
 11
-3.5979237875
 21
37.399996675
 31
0.0
  0
LINE
  5
63
330
1D
100
AcDbEntity
  8
1
100
AcDbLine
 10
20.8665418905
 20
38.778113551
 30
0.0
 11
20.3703903135
 21
38.165417258
 31
0.0
  0
ARC
  5
64
330
1D
100
AcDbEntity
  8
1
100
AcDbCircle
 10
22.3909698125
 20
36.529184242
 30
0.0
 40
2.6
100
AcDbArc
 50
141.0
 51
321.000007922
  0
LINE
  5
65
330
1D
100
AcDbEntity
  8
1
100
AcDbLine
 10
24.4115495585
 20
34.892951488
 30
0.0
 11
24.9077004845
 21
35.505647189
 31
0.0
  0
LINE
  5
66
330
1D
100
AcDbEntity
  8
1
100
AcDbLine
 10
33.7976935265
 20
37.244430162
 30
0.0
 11
32.6374275845
 21
48.283622771
 31
0.0
  0
ARC
  5
67
330
1D
100
AcDbEntity
  8
1
100
AcDbCircle
 10
31.8418100685
 20
48.2
 30
0.0
 40
0.8
100
AcDbArc
 50
5.99999999999986
 51
95.99999707299989
  0
LINE
  5
68
330
1D
100
AcDbEntity
  8
1
100
AcDbLine
 10
31.7581873385
 20
48.995617516
 30
0.0
 11
20.7189942595
 21
47.835351574
 31
0.0
  0
ARC
  5
69
330
1D
100
AcDbEntity
  8
1
100
AcDbCircle
 10
20.8026170295
 20
47.039734058
 30
0.0
 40
0.8
100
AcDbArc
 50
96.00000000000006
 51
185.9999942740002
  0
ARC
  5
6B
330
1D
100
AcDbEntity
  8
1
100
AcDbCircle
 10
21.9628829725
 20
36.000541019
 30
0.0
 40
0.8
100
AcDbArc
 50
185.9999999999998
 51
276.0000278009999
  0
ARC
  5
6D
330
1D
100
AcDbEntity
  8
1
100
AcDbCircle
 10
33.0020760105
 20
37.160806961
 30
0.0
 40
0.8
100
AcDbArc
 50
275.9999999999998
 51
5.999999999999807
  0
LINE
  5
6E
330
1D
100
AcDbEntity
  8
1
100
AcDbLine
 10
33.50207599549999
 20
36.476359121
 30
0.0
 11
33.4687965805
 21
36.511059269
 31
0.0
  0
LINE
  5
70
330
1D
100
AcDbEntity
  8
1
100
AcDbLine
 10
27.9285739145
 20
0.0
 30
0.0
 11
33.50207599549999
 21
9.653588175
 31
0.0
  0
ARC
  5
71
330
1D
100
AcDbEntity
  8
1
100
AcDbCircle
 10
-0.7159301555
 20
27.023747489
 30
0.0
 40
0.716475472
100
AcDbArc
 50
358.1003952389999
 51
49.41927554600003
  0
ARC
  5
72
330
1D
100
AcDbEntity
  8
1
100
AcDbCircle
 10
-27.5480717815
 20
-10.310404078
 30
0.0
 40
46.690035034
100
AcDbArc
 50
54.220378214
 51
54.50520341899999
  0
ARC
  5
73
330
1D
100
AcDbEntity
  8
1
100
AcDbCircle
 10
-47.2967753345
 20
-38.002611003
 30
0.0
 40
80.706605093
100
AcDbArc
 50
54.505296738
 51
57.15032380499999
  0
ARC
  5
74
330
1D
100
AcDbEntity
  8
1
100
AcDbCircle
 10
37.9047749325
 20
-38.002611003
 30
0.0
 40
80.748506479
100
AcDbArc
 50
118.202289768
 51
120.846272818
  0
ARC
  5
75
330
1D
100
AcDbEntity
  8
1
100
AcDbCircle
 10
-0.4349862895
 20
33.535989583
 30
0.0
 40
0.429325363
100
AcDbArc
 50
295.5455525209998
 51
64.4542303310001
  0
ARC
  5
76
330
1D
100
AcDbEntity
  8
1
100
AcDbCircle
 10
-36.90447048950001
 20
-38.002611003
 30
0.0
 40
80.727345779
100
AcDbArc
 50
62.995877974
 51
65.549845448
  0
ARC
  5
77
330
1D
100
AcDbEntity
  8
1
100
AcDbCircle
 10
27.5124700865
 20
-38.002611003
 30
0.0
 40
80.706610068
100
AcDbArc
 50
112.538187133
 51
112.596325357
  0
ARC
  5
78
330
1D
100
AcDbEntity
  8
1
100
AcDbCircle
 10
34.8815861425
 20
-55.759747313
 30
0.0
 40
99.932102782
100
AcDbArc
 50
111.052121737
 51
112.538187133
  0
LINE
  5
79
330
1D
100
AcDbEntity
  8
1
100
AcDbLine
 10
-1.0148484725
 20
37.499996484
 30
0.0
 11
16.1020762755
 21
37.499996484
 31
0.0
  0
LINE
  5
7A
330
1D
100
AcDbEntity
  8
1
100
AcDbLine
 10
16.1020762755
 20
37.499996484
 30
0.0
 11
16.5950178635
 21
37.007058621
 31
0.0
  0
LINE
  5
7B
330
1D
100
AcDbEntity
  8
1
100
AcDbLine
 10
16.5950178635
 20
37.007058621
 30
0.0
 11
17.1020764395
 21
36.500001908
 31
0.0
  0
LINE
  5
7C
330
1D
100
AcDbEntity
  8
1
100
AcDbLine
 10
17.1020764395
 20
36.500001908
 30
0.0
 11
17.1020764395
 21
26.999997557
 31
0.0
  0
LINE
  5
7D
330
1D
100
AcDbEntity
  8
1
100
AcDbLine
 10
0.0001515725
 20
26.999997557
 30
0.0
 11
-0.0001515725
 21
-27.099213911
 31
0.0
  0
ARC
  5
7E
330
1D
100
AcDbEntity
  8
1
100
AcDbCircle
 10
-0.5738350305
 20
-27.146325979
 30
0.0
 40
0.575916806
100
AcDbArc
 50
304.232824366
 51
4.692244121999956
  0
LINE
  5
7F
330
1D
100
AcDbEntity
  8
1
100
AcDbLine
 10
-0.2498489335
 20
-27.622470051
 30
0.0
 11
-0.5696166775
 21
-27.804459795
 31
0.0
  0
LINE
  5
80
330
1D
100
AcDbEntity
  8
1
100
AcDbLine
 10
-0.5696166775
 20
-32.97818394
 30
0.0
 11
-0.2498489335
 21
-33.194023534
 31
0.0
  0
LINE
  5
81
330
1D
100
AcDbEntity
  8
1
100
AcDbLine
 10
-0.2498489335
 20
-33.194023534
 30
0.0
 11
-0.0956479925
 21
-33.342448413
 31
0.0
  0
LINE
  5
82
330
1D
100
AcDbEntity
  8
1
100
AcDbLine
 10
-0.0956479925
 20
-33.342448413
 30
0.0
 11
-0.0091281255
 21
-33.533823095
 31
0.0
  0
LINE
  5
83
330
1D
100
AcDbEntity
  8
1
100
AcDbLine
 10
-0.0091281255
 20
-33.533823095
 30
0.0
 11
-0.0150587875
 21
-33.727622941
 31
0.0
  0
LINE
  5
84
330
1D
100
AcDbEntity
  8
1
100
AcDbLine
 10
-0.0150587875
 20
-33.727622941
 30
0.0
 11
-0.0916358545
 21
-33.863585792
 31
0.0
  0
LINE
  5
85
330
1D
100
AcDbEntity
  8
1
100
AcDbLine
 10
-0.0916358545
 20
-33.863585792
 30
0.0
 11
-0.1973744945
 21
-33.944591298
 31
0.0
  0
LINE
  5
86
330
1D
100
AcDbEntity
  8
1
100
AcDbLine
 10
-0.1973744945
 20
-33.944591298
 30
0.0
 11
-0.2498489335
 21
-33.967701137
 31
0.0
  0
LINE
  5
87
330
1D
100
AcDbEntity
  8
1
100
AcDbLine
 10
-0.2498489335
 20
-33.967701137
 30
0.0
 11
-0.5696166775
 21
-34.083374194
 31
0.0
  0
LINE
  5
88
330
1D
100
AcDbEntity
  8
1
100
AcDbLine
 10
-0.5696166775
 20
-37.669248297
 30
0.0
 11
-0.2498489335
 21
-37.829080946
 31
0.0
  0
LINE
  5
89
330
1D
100
AcDbEntity
  8
1
100
AcDbLine
 10
-0.2498489335
 20
-37.829080946
 30
0.0
 11
-0.1122031825
 21
-37.921630196
 31
0.0
  0
LINE
  5
8A
330
1D
100
AcDbEntity
  8
1
100
AcDbLine
 10
-0.1122031825
 20
-37.921630196
 30
0.0
 11
-0.0281010285
 21
-38.027890376
 31
0.0
  0
LINE
  5
8B
330
1D
100
AcDbEntity
  8
1
100
AcDbLine
 10
-0.0281010285
 20
-38.027890376
 30
0.0
 11
-0.0004146715
 21
-38.151068963
 31
0.0
  0
LINE
  5
8C
330
1D
100
AcDbEntity
  8
1
100
AcDbLine
 10
-0.0004146715
 20
-38.151068963
 30
0.0
 11
-0.0519577875
 21
-38.268717356
 31
0.0
  0
LINE
  5
8D
330
1D
100
AcDbEntity
  8
1
100
AcDbLine
 10
-0.0519577875
 20
-38.268717356
 30
0.0
 11
-0.1483049705
 21
-38.339383319
 31
0.0
  0
LINE
  5
8E
330
1D
100
AcDbEntity
  8
1
100
AcDbLine
 10
-0.1483049705
 20
-38.339383319
 30
0.0
 11
-0.2498489335
 21
-38.374581724
 31
0.0
  0
LINE
  5
8F
330
1D
100
AcDbEntity
  8
1
100
AcDbLine
 10
-0.2498489335
 20
-38.374581724
 30
0.0
 11
-0.5696166775
 21
-38.448209293
 31
0.0
  0
LINE
  5
90
330
1D
100
AcDbEntity
  8
1
100
AcDbLine
 10
-0.5696166775
 20
-40.968083195
 30
0.0
 11
-0.2498489335
 21
-41.088142782
 31
0.0
  0
LINE
  5
91
330
1D
100
AcDbEntity
  8
1
100
AcDbLine
 10
-0.2498489335
 20
-41.088142782
 30
0.0
 11
-0.1149785235
 21
-41.154465056
 31
0.0
  0
LINE
  5
92
330
1D
100
AcDbEntity
  8
1
100
AcDbLine
 10
-0.1149785235
 20
-41.154465056
 30
0.0
 11
-0.0295538925
 21
-41.230411618
 31
0.0
  0
LINE
  5
93
330
1D
100
AcDbEntity
  8
1
100
AcDbLine
 10
-0.0295538925
 20
-41.230411618
 30
0.0
 11
0.0000658915
 21
-41.312196176
 31
0.0
  0
LINE
  5
94
330
1D
100
AcDbEntity
  8
1
100
AcDbLine
 10
0.0000658915
 20
-41.312196176
 30
0.0
 11
-0.0382896975
 21
-41.387067992
 31
0.0
  0
LINE
  5
95
330
1D
100
AcDbEntity
  8
1
100
AcDbLine
 10
-0.0382896975
 20
-41.387067992
 30
0.0
 11
-0.1386527435
 21
-41.441361304
 31
0.0
  0
LINE
  5
96
330
1D
100
AcDbEntity
  8
1
100
AcDbLine
 10
-0.1386527435
 20
-41.441361304
 30
0.0
 11
-0.2498489335
 21
-41.465797811
 31
0.0
  0
LINE
  5
97
330
1D
100
AcDbEntity
  8
1
100
AcDbLine
 10
-0.2498489335
 20
-41.465797811
 30
0.0
 11
-0.5696166775
 21
-41.507267277
 31
0.0
  0
LINE
  5
98
330
1D
100
AcDbEntity
  8
1
100
AcDbLine
 10
-0.5696166775
 20
-43.194853585
 30
0.0
 11
-0.2498489335
 21
-43.283156469
 31
0.0
  0
LINE
  5
99
330
1D
100
AcDbEntity
  8
1
100
AcDbLine
 10
-0.2498489335
 20
-43.283156469
 30
0.0
 11
-0.1171727195
 21
-43.329374283
 31
0.0
  0
LINE
  5
9A
330
1D
100
AcDbEntity
  8
1
100
AcDbLine
 10
-0.1171727195
 20
-43.329374283
 30
0.0
 11
-0.0309285245
 21
-43.380634278
 31
0.0
  0
LINE
  5
9B
330
1D
100
AcDbEntity
  8
1
100
AcDbLine
 10
-0.0309285245
 20
-43.380634278
 30
0.0
 11
0.0001515725
 21
-43.432008359
 31
0.0
  0
LINE
  5
9C
330
1D
100
AcDbEntity
  8
1
100
AcDbLine
 10
0.0001515725
 20
-43.432008359
 30
0.0
 11
-0.0305559955
 21
-43.476302061
 31
0.0
  0
LINE
  5
9D
330
1D
100
AcDbEntity
  8
1
100
AcDbLine
 10
-0.0305559955
 20
-43.476302061
 30
0.0
 11
-0.1178134695
 21
-43.507391471
 31
0.0
  0
LINE
  5
9E
330
1D
100
AcDbEntity
  8
1
100
AcDbLine
 10
-0.1178134695
 20
-43.507391471
 30
0.0
 11
-0.2498489335
 21
-43.522594846
 31
0.0
  0
LINE
  5
9F
330
1D
100
AcDbEntity
  8
1
100
AcDbLine
 10
-0.2498489335
 20
-43.522594846
 30
0.0
 11
-0.5696166775
 21
-43.53667039
 31
0.0
  0
LINE
  5
A0
330
1D
100
AcDbEntity
  8
1
100
AcDbLine
 10
-0.5696166775
 20
-44.510750915
 30
0.0
 11
-0.2498489335
 21
-44.571603067
 31
0.0
  0
LINE
  5
A1
330
1D
100
AcDbEntity
  8
1
100
AcDbLine
 10
-0.2498489335
 20
-44.571603067
 30
0.0
 11
-0.1190167385
 21
-44.601024013
 31
0.0
  0
LINE
  5
A2
330
1D
100
AcDbEntity
  8
1
100
AcDbLine
 10
-0.1190167385
 20
-44.601024013
 30
0.0
 11
-0.0323888375
 21
-44.630706194
 31
0.0
  0
LINE
  5
A3
330
1D
100
AcDbEntity
  8
1
100
AcDbLine
 10
-0.0323888375
 20
-44.630706194
 30
0.0
 11
0.0000584405
 21
-44.657030493
 31
0.0
  0
LINE
  5
A4
330
1D
100
AcDbEntity
  8
1
100
AcDbLine
 10
0.0000584405
 20
-44.657030493
 30
0.0
 11
-0.0256348865
 21
-44.676629245
 31
0.0
  0
LINE
  5
A5
330
1D
100
AcDbEntity
  8
1
100
AcDbLine
 10
-0.0256348865
 20
-44.676629245
 30
0.0
 11
-0.1051139555
 21
-44.687400922
 31
0.0
  0
LINE
  5
A6
330
1D
100
AcDbEntity
  8
1
100
AcDbLine
 10
-0.1051139555
 20
-44.687400922
 30
0.0
 11
-0.2277505115
 21
-44.688672177
 31
0.0
  0
LINE
  5
A7
330
1D
100
AcDbEntity
  8
1
100
AcDbLine
 10
-0.2277505115
 20
-44.688672177
 30
0.0
 11
-0.2498489335
 21
-44.688030961
 31
0.0
  0
LINE
  5
A8
330
1D
100
AcDbEntity
  8
1
100
AcDbLine
 10
-0.2498489335
 20
-44.688030961
 30
0.0
 11
-0.5696166775
 21
-44.676952879
 31
0.0
  0
LINE
  5
A9
330
1D
100
AcDbEntity
  8
1
100
AcDbLine
 10
-0.5696166775
 20
-44.99576136
 30
0.0
 11
-0.2498489335
 21
-45.031366288
 31
0.0
  0
LINE
  5
AA
330
1D
100
AcDbEntity
  8
1
100
AcDbLine
 10
-0.2498489335
 20
-45.031366288
 30
0.0
 11
-0.1206260635
 21
-45.045786421
 31
0.0
  0
LINE
  5
AB
330
1D
100
AcDbEntity
  8
1
100
AcDbLine
 10
-0.1206260635
 20
-45.045786421
 30
0.0
 11
-0.0415903055
 21
-45.05478812
 31
0.0
  0
LINE
  5
AC
330
1D
100
AcDbEntity
  8
1
100
AcDbLine
 10
-0.0415903055
 20
-45.05478812
 30
0.0
 11
4.5094292145
 21
-45.530861826
 31
0.0
  0
LINE
  5
AD
330
1D
100
AcDbEntity
  8
1
100
AcDbLine
 10
4.5094292145
 20
-45.530861826
 30
0.0
 11
9.5884695185
 21
-46.062225826
 31
0.0
  0
LINE
  5
AE
330
1D
100
AcDbEntity
  8
1
100
AcDbLine
 10
9.5884695185
 20
-46.062225826
 30
0.0
 11
14.6675023715
 21
-46.593645704
 31
0.0
  0
LINE
  5
AF
330
1D
100
AcDbEntity
  8
1
100
AcDbLine
 10
14.6675023715
 20
-46.593645704
 30
0.0
 11
19.7465305685
 21
-47.125119251
 31
0.0
  0
LINE
  5
B0
330
1D
100
AcDbEntity
  8
1
100
AcDbLine
 10
19.7465305685
 20
-47.125119251
 30
0.0
 11
20.0480844365
 21
-47.156675836
 31
0.0
  0
LINE
  5
B1
330
1D
100
AcDbEntity
  8
1
100
AcDbLine
 10
20.0480844365
 20
-47.156675836
 30
0.0
 11
20.2159283215
 21
-47.144023236
 31
0.0
  0
LINE
  5
B2
330
1D
100
AcDbEntity
  8
1
100
AcDbLine
 10
20.2159283215
 20
-47.144023236
 30
0.0
 11
20.2341207765
 21
-46.970933094
 31
0.0
  0
LINE
  5
B3
330
1D
100
AcDbEntity
  8
1
100
AcDbLine
 10
20.2341207765
 20
-46.970933094
 30
0.0
 11
31.0413753615
 21
-48.106821371
 31
0.0
  0
ARC
  5
B4
330
1D
100
AcDbEntity
  8
CUT
100
AcDbCircle
 10
31.1260021285
 20
-47.31605232
 30
0.0
 40
0.795284466
100
AcDbArc
 50
263.891551586
 51
354.0298754110001
  0
LINE
  5
B5
330
1D
100
AcDbEntity
  8
1
100
AcDbLine
 10
31.9169731815
 20
-47.398769763
 30
0.0
 11
33.0524703605
 21
-36.595235928
 31
0.0
  0
LINE
  5
B6
330
1D
100
AcDbEntity
  8
1
100
AcDbLine
 10
33.0524703605
 20
-36.595235928
 30
0.0
 11
33.3346713455
 21
-36.625145353
 31
0.0
  0
LINE
  5
B7
330
1D
100
AcDbEntity
  8
1
100
AcDbLine
 10
33.3346713455
 20
-36.625145353
 30
0.0
 11
33.50207599549999
 21
-36.48275265
 31
0.0
  0
LINE
  5
B8
330
1D
100
AcDbEntity
  8
1
100
AcDbLine
 10
33.50207599549999
 20
-36.48275265
 30
0.0
 11
33.50207600949999
 21
-27.905119604
 31
0.0
  0
ARC
  5
B9
330
1D
100
AcDbEntity
  8
1
100
AcDbCircle
 10
19.2577828295
 20
-24.929859966
 30
0.0
 40
14.551702929
100
AcDbArc
 50
341.375061243
 51
348.202035963
  0
ARC
  5
BA
330
1D
100
AcDbEntity
  8
1
100
AcDbCircle
 10
29.1714656585
 20
-28.270987322
 30
0.0
 40
4.092286185
100
AcDbArc
 50
327.0087052809999
 51
341.375061243
  0
ARC
  5
BB
330
1D
100
AcDbEntity
  8
1
100
AcDbCircle
 10
32.46399552449999
 20
-30.408468019
 30
0.0
 40
0.166782822
100
AcDbArc
 50
263.9334834819996
 51
327.0081161319991
  0
ARC
  5
BC
330
1D
100
AcDbEntity
  8
1
100
AcDbCircle
 10
32.46399552449999
 20
-30.408468019
 30
0.0
 40
0.166782822
100
AcDbArc
 50
200.8588508319997
 51
263.9334834819996
  0
ARC
  5
BD
330
1D
100
AcDbEntity
  8
1
100
AcDbCircle
 10
36.1322381005
 20
-29.010765242
 30
0.0
 40
4.092286185
100
AcDbArc
 50
186.491905721
 51
200.858261683
  0
ARC
  5
BE
330
1D
100
AcDbEntity
  8
1
100
AcDbCircle
 10
46.52671696149999
 20
-27.827951456
 30
0.0
 40
14.553846261
100
AcDbArc
 50
179.252610435
 51
186.491905721
  0
ARC
  5
BF
330
1D
100
AcDbEntity
  8
1
100
AcDbCircle
 10
121.1353069075
 20
-28.800610082
 30
0.0
 40
89.168776124
100
AcDbArc
 50
174.01296458
 51
179.25300976
  0
LINE
  5
C0
330
1D
100
AcDbEntity
  8
1
100
AcDbLine
 10
32.45288599249999
 20
-19.499999821
 30
0.0
 11
33.4899862645
 21
-9.632648319
 31
0.0
  0
LINE
  5
C1
330
1D
100
AcDbEntity
  8
1
100
AcDbLine
 10
33.4899862645
 20
-9.632648319
 30
0.0
 11
32.87084278449999
 21
-8.560260176
 31
0.0
  0
LINE
  5
C2
330
1D
100
AcDbEntity
  8
1
100
AcDbLine
 10
31.0413753615
 20
-48.106821371
 30
0.0
 11
30.8814935855
 21
-47.898179153
 31
0.0
  0
LINE
  5
C3
330
1D
100
AcDbEntity
  8
1
100
AcDbLine
 10
30.8814935855
 20
-47.898179153
 30
0.0
 11
30.7289296765
 21
-47.626783606
 31
0.0
  0
LINE
  5
C4
330
1D
100
AcDbEntity
  8
1
100
AcDbLine
 10
30.7289296765
 20
-47.626783606
 30
0.0
 11
30.5831520815
 21
-47.290955205
 31
0.0
  0
LINE
  5
C5
330
1D
100
AcDbEntity
  8
1
100
AcDbLine
 10
30.5831520815
 20
-47.290955205
 30
0.0
 11
30.4451789705
 21
-46.892373474
 31
0.0
  0
LINE
  5
C6
330
1D
100
AcDbEntity
  8
1
100
AcDbLine
 10
30.4451789705
 20
-46.892373474
 30
0.0
 11
30.2521116105
 21
-46.172486968
 31
0.0
  0
LINE
  5
C7
330
1D
100
AcDbEntity
  8
1
100
AcDbLine
 10
30.2521116105
 20
-46.172486968
 30
0.0
 11
30.0777291415
 21
-45.312056668
 31
0.0
  0
LINE
  5
C8
330
1D
100
AcDbEntity
  8
1
100
AcDbLine
 10
30.0777291415
 20
-45.312056668
 30
0.0
 11
29.9228494985
 21
-44.314794126
 31
0.0
  0
LINE
  5
C9
330
1D
100
AcDbEntity
  8
1
100
AcDbLine
 10
29.9228494985
 20
-44.314794126
 30
0.0
 11
29.7843401785
 21
-43.147778488
 31
0.0
  0
LINE
  5
CA
330
1D
100
AcDbEntity
  8
1
100
AcDbLine
 10
29.7843401785
 20
-43.147778488
 30
0.0
 11
29.6672291585
 21
-41.840830702
 31
0.0
  0
LINE
  5
CB
330
1D
100
AcDbEntity
  8
1
100
AcDbLine
 10
29.6672291585
 20
-41.840830702
 30
0.0
 11
29.5721043365
 21
-40.400137543
 31
0.0
  0
LINE
  5
CC
330
1D
100
AcDbEntity
  8
1
100
AcDbLine
 10
29.5721043365
 20
-40.400137543
 30
0.0
 11
29.4982513875
 21
-38.801614545
 31
0.0
  0
LINE
  5
CD
330
1D
100
AcDbEntity
  8
1
100
AcDbLine
 10
29.4982513875
 20
-38.801614545
 30
0.0
 11
29.4476293495
 21
-37.073695451
 31
0.0
  0
LINE
  5
CE
330
1D
100
AcDbEntity
  8
1
100
AcDbLine
 10
29.4476293495
 20
-37.073695451
 30
0.0
 11
29.4202489315
 21
-35.195608042
 31
0.0
  0
LINE
  5
CF
330
1D
100
AcDbEntity
  8
1
100
AcDbLine
 10
29.4202489315
 20
-35.195608042
 30
0.0
 11
29.4170274865
 21
-33.196880832
 31
0.0
  0
LINE
  5
D0
330
1D
100
AcDbEntity
  8
1
100
AcDbLine
 10
29.4170274865
 20
-33.196880832
 30
0.0
 11
28.4173518885
 21
-31.798852026
 31
0.0
  0
LINE
  5
D1
330
1D
100
AcDbEntity
  8
1
100
AcDbLine
 10
28.4173518885
 20
-31.798852026
 30
0.0
 11
25.8142536045
 21
-31.385808601
 31
0.0
  0
LINE
  5
D2
330
1D
100
AcDbEntity
  8
1
100
AcDbLine
 10
25.8142536045
 20
-31.385808601
 30
0.0
 11
20.3995460175
 21
-30.516588479
 31
0.0
  0
LINE
  5
D3
330
1D
100
AcDbEntity
  8
1
100
AcDbLine
 10
20.3995460175
 20
-30.516588479
 30
0.0
 11
14.9871341415
 21
-29.633184313
 31
0.0
  0
LINE
  5
D4
330
1D
100
AcDbEntity
  8
1
100
AcDbLine
 10
14.9871341415
 20
-29.633184313
 30
0.0
 11
9.5772675705
 21
-28.734312742
 31
0.0
  0
LINE
  5
D5
330
1D
100
AcDbEntity
  8
1
100
AcDbLine
 10
9.5772675705
 20
-28.734312742
 30
0.0
 11
4.5024573335
 21
-27.875311091
 31
0.0
  0
LINE
  5
D6
330
1D
100
AcDbEntity
  8
1
100
AcDbLine
 10
4.5024573335
 20
-27.875311091
 30
0.0
 11
0.0001515725
 21
-27.099213913
 31
0.0
  0
LINE
  5
D7
330
1D
100
AcDbEntity
  8
1
100
AcDbLine
 10
17.1020764395
 20
26.999997557
 30
0.0
 11
17.1020760105
 21
21.43153533
 31
0.0
  0
ARC
  5
D8
330
1D
100
AcDbEntity
  8
1
100
AcDbCircle
 10
27.1020760105
 20
21.43153533
 30
0.0
 40
10.0
100
AcDbArc
 50
180.0
 51
210.0000009279999
  0
LINE
  5
D9
330
1D
100
AcDbEntity
  8
1
100
AcDbLine
 10
18.4418221475
 20
16.431535244
 30
0.0
 11
31.1695411805
 21
-5.613522022
 31
0.0
  0
LINE
  5
DA
330
1D
100
AcDbEntity
  8
1
100
AcDbLine
 10
31.1695411805
 20
-5.613522022
 30
0.0
 11
32.87084278449999
 21
-8.560260176
 31
0.0
  0
LINE
  5
DB
330
1D
100
AcDbEntity
  8
1
100
AcDbLine
 10
32.87084278449999
 20
-8.560260176
 30
0.0
 11
30.2903135305
 21
-33.11235772
 31
0.0
  0
LINE
  5
DC
330
1D
100
AcDbEntity
  8
1
100
AcDbLine
 10
30.2903135305
 20
-33.11235772
 30
0.0
 11
30.2969655025
 21
-34.942840576
 31
0.0
  0
LINE
  5
DD
330
1D
100
AcDbEntity
  8
1
100
AcDbLine
 10
30.2969655025
 20
-34.942840576
 30
0.0
 11
30.3249612915
 21
-36.667746841
 31
0.0
  0
LINE
  5
DE
330
1D
100
AcDbEntity
  8
1
100
AcDbLine
 10
30.3249612915
 20
-36.667746841
 30
0.0
 11
30.3749912415
 21
-38.301066845
 31
0.0
  0
LINE
  5
DF
330
1D
100
AcDbEntity
  8
1
100
AcDbLine
 10
30.3749912415
 20
-38.301066845
 30
0.0
 11
30.4466402155
 21
-39.815764293
 31
0.0
  0
LINE
  5
E0
330
1D
100
AcDbEntity
  8
1
100
AcDbLine
 10
30.4466402155
 20
-39.815764293
 30
0.0
 11
30.5388050615
 21
-41.195003665
 31
0.0
  0
LINE
  5
E1
330
1D
100
AcDbEntity
  8
1
100
AcDbLine
 10
30.5388050615
 20
-41.195003665
 30
0.0
 11
30.6517514405
 21
-42.450058158
 31
0.0
  0
LINE
  5
E2
330
1D
100
AcDbEntity
  8
1
100
AcDbLine
 10
30.6517514405
 20
-42.450058158
 30
0.0
 11
30.7849419765
 21
-43.575314223
 31
0.0
  0
LINE
  5
E3
330
1D
100
AcDbEntity
  8
1
100
AcDbLine
 10
30.7849419765
 20
-43.575314223
 30
0.0
 11
30.9428251345
 21
-44.594483334
 31
0.0
  0
LINE
  5
E4
330
1D
100
AcDbEntity
  8
1
100
AcDbLine
 10
30.9428251345
 20
-44.594483334
 30
0.0
 11
31.1213789975
 21
-45.471443679
 31
0.0
  0
LINE
  5
E5
330
1D
100
AcDbEntity
  8
1
100
AcDbLine
 10
31.1213789975
 20
-45.471443679
 30
0.0
 11
31.3197160135
 21
-46.202195227
 31
0.0
  0
LINE
  5
E6
330
1D
100
AcDbEntity
  8
1
100
AcDbLine
 10
31.3197160135
 20
-46.202195227
 30
0.0
 11
31.4571766645
 21
-46.593130916
 31
0.0
  0
LINE
  5
E7
330
1D
100
AcDbEntity
  8
1
100
AcDbLine
 10
31.4571766645
 20
-46.593130916
 30
0.0
 11
31.6023835915
 21
-46.922805603
 31
0.0
  0
LINE
  5
E8
330
1D
100
AcDbEntity
  8
1
100
AcDbLine
 10
31.6023835915
 20
-46.922805603
 30
0.0
 11
31.7559703255
 21
-47.192067956
 31
0.0
  0
LINE
  5
E9
330
1D
100
AcDbEntity
  8
1
100
AcDbLine
 10
31.7559703255
 20
-47.192067956
 30
0.0
 11
31.9169731815
 21
-47.398769763
 31
0.0
  0
LINE
  5
EA
330
1D
100
AcDbEntity
  8
1
100
AcDbLine
 10
29.4170274865
 20
-33.196880832
 30
0.0
 11
29.7139280015
 21
-33.500890597
 31
0.0
  0
LINE
  5
EB
330
1D
100
AcDbEntity
  8
1
100
AcDbLine
 10
29.7139280015
 20
-33.500890597
 30
0.0
 11
29.8508026175
 21
-33.573757275
 31
0.0
  0
LINE
  5
EC
330
1D
100
AcDbEntity
  8
1
100
AcDbLine
 10
29.8508026175
 20
-33.573757275
 30
0.0
 11
30.0005166795
 21
-33.591466374
 31
0.0
  0
LINE
  5
ED
330
1D
100
AcDbEntity
  8
1
100
AcDbLine
 10
30.0005166795
 20
-33.591466374
 30
0.0
 11
30.0908028145
 21
-33.557921066
 31
0.0
  0
LINE
  5
EE
330
1D
100
AcDbEntity
  8
1
100
AcDbLine
 10
30.0908028145
 20
-33.557921066
 30
0.0
 11
30.1700788555
 21
-33.483423642
 31
0.0
  0
LINE
  5
EF
330
1D
100
AcDbEntity
  8
1
100
AcDbLine
 10
30.1700788555
 20
-33.483423642
 30
0.0
 11
30.2252746185
 21
-33.386109746
 31
0.0
  0
LINE
  5
F0
330
1D
100
AcDbEntity
  8
1
100
AcDbLine
 10
30.2252746185
 20
-33.386109746
 30
0.0
 11
30.2777476605
 21
-33.202409163
 31
0.0
  0
LINE
  5
F1
330
1D
100
AcDbEntity
  8
1
100
AcDbLine
 10
30.2777476605
 20
-33.202409163
 30
0.0
 11
30.2903135305
 21
-33.11235772
 31
0.0
  0
ARC
  5
F2
330
1D
100
AcDbEntity
  8
1
100
AcDbCircle
 10
-47.2967753345
 20
38.002611004
 30
0.0
 40
80.709342291
100
AcDbArc
 50
302.849675926
 51
305.377147872
  0
LINE
  5
F3
330
1D
100
AcDbEntity
  8
1
100
AcDbLine
 10
-3.4979258195
 20
-29.83066754
 30
0.0
 11
-3.5479229405
 21
-29.787841603
 31
0.0
  0
LINE
  5
F4
330
1D
100
AcDbEntity
  8
1
100
AcDbLine
 10
-3.5479229405
 20
-29.787841603
 30
0.0
 11
-3.5960797685
 21
-29.750925838
 31
0.0
  0
LINE
  5
F5
330
1D
100
AcDbEntity
  8
1
100
AcDbLine
 10
-3.5960797685
 20
-29.750925838
 30
0.0
 11
-3.6697436585
 21
-29.715578421
 31
0.0
  0
LINE
  5
F6
330
1D
100
AcDbEntity
  8
1
100
AcDbLine
 10
-3.6697436585
 20
-29.715578421
 30
0.0
 11
-3.7183922245
 21
-29.714136734
 31
0.0
  0
LINE
  5
F7
330
1D
100
AcDbEntity
  8
1
100
AcDbLine
 10
-3.7183922245
 20
-29.714136734
 30
0.0
 11
-3.7550043785
 21
-29.735439807
 31
0.0
  0
LINE
  5
F8
330
1D
100
AcDbEntity
  8
1
100
AcDbLine
 10
-3.7550043785
 20
-29.735439807
 30
0.0
 11
-3.7866916975
 21
-29.796935036
 31
0.0
  0
LINE
  5
F9
330
1D
100
AcDbEntity
  8
1
100
AcDbLine
 10
-3.7866916975
 20
-29.796935036
 30
0.0
 11
-3.7979234475
 21
-29.897633358
 31
0.0
  0
LINE
  5
FA
330
1D
100
AcDbEntity
  8
1
100
AcDbLine
 10
-3.7979234475
 20
-29.897633358
 30
0.0
 11
-3.7979234475
 21
-30.400756165
 31
0.0
  0
ARC
  5
FB
330
1D
100
AcDbEntity
  8
1
100
AcDbCircle
 10
-1.6845911155
 20
-30.206045661
 30
0.0
 40
2.12228314
100
AcDbArc
 50
185.264048023
 51
208.599810528
  0
LINE
  5
FC
330
1D
100
AcDbEntity
  8
1
100
AcDbLine
 10
-3.5479229405
 20
-31.221959158
 30
0.0
 11
-3.4979239895
 21
-31.323703053
 31
0.0
  0
ARC
  5
FD
330
1D
100
AcDbEntity
  8
1
100
AcDbCircle
 10
37.9047749325
 20
38.002611004
 30
0.0
 40
80.748506479
100
AcDbArc
 50
239.1537271819999
 51
241.540560582
  0
LINE
  5
FE
330
1D
100
AcDbEntity
  8
1
100
AcDbLine
 10
-3.4979258195
 20
31.323703588
 30
0.0
 11
-3.5479229405
 21
31.221958459
 31
0.0
  0
LINE
  5
FF
330
1D
100
AcDbEntity
  8
1
100
AcDbLine
 10
-3.5479229405
 20
31.221958459
 30
0.0
 11
-3.7547622345
 21
30.68133688
 31
0.0
  0
LINE
  5
100
330
1D
100
AcDbEntity
  8
1
100
AcDbLine
 10
-3.7547622345
 20
30.68133688
 30
0.0
 11
-3.7979234475
 21
30.400755466
 31
0.0
  0
LINE
  5
101
330
1D
100
AcDbEntity
  8
1
100
AcDbLine
 10
-3.7979234475
 20
30.400755466
 30
0.0
 11
-3.7979234475
 21
29.897632659
 31
0.0
  0
LINE
  5
102
330
1D
100
AcDbEntity
  8
1
100
AcDbLine
 10
-3.7979234475
 20
29.897632659
 30
0.0
 11
-3.7869077645
 21
29.797750176
 31
0.0
  0
LINE
  5
103
330
1D
100
AcDbEntity
  8
1
100
AcDbLine
 10
-3.7869077645
 20
29.797750176
 30
0.0
 11
-3.7605140825
 21
29.741662205
 31
0.0
  0
LINE
  5
104
330
1D
100
AcDbEntity
  8
1
100
AcDbLine
 10
-3.7605140825
 20
29.741662205
 30
0.0
 11
-3.7212718745
 21
29.714899719
 31
0.0
  0
LINE
  5
105
330
1D
100
AcDbEntity
  8
1
100
AcDbLine
 10
-3.7212718745
 20
29.714899719
 30
0.0
 11
-3.6664728545
 21
29.716441989
 31
0.0
  0
LINE
  5
106
330
1D
100
AcDbEntity
  8
1
100
AcDbLine
 10
-3.6664728545
 20
29.716441989
 30
0.0
 11
-3.6111373915
 21
29.741356731
 31
0.0
  0
LINE
  5
107
330
1D
100
AcDbEntity
  8
1
100
AcDbLine
 10
-3.6111373915
 20
29.741356731
 30
0.0
 11
-3.5479229405
 21
29.787840903
 31
0.0
  0
LINE
  5
108
330
1D
100
AcDbEntity
  8
1
100
AcDbLine
 10
-3.5479229405
 20
29.787840903
 30
0.0
 11
-3.4979258195
 21
29.830666841
 31
0.0
  0
ARC
  5
109
330
1D
100
AcDbEntity
  8
1
100
AcDbCircle
 10
-36.90447048950001
 20
38.002611004
 30
0.0
 40
80.725528177
100
AcDbArc
 50
294.450154893
 51
296.750333903
  0
LINE
  5
10A
330
1D
100
AcDbEntity
  8
1
100
AcDbLine
 10
-3.4979258195
 20
-35.470680683
 30
0.0
 11
-3.5479229405
 21
-35.429785378
 31
0.0
  0
LINE
  5
10B
330
1D
100
AcDbEntity
  8
1
100
AcDbLine
 10
-3.5479229405
 20
-35.429785378
 30
0.0
 11
-3.6132310055
 21
-35.382037401
 31
0.0
  0
LINE
  5
10C
330
1D
100
AcDbEntity
  8
1
100
AcDbLine
 10
-3.6132310055
 20
-35.382037401
 30
0.0
 11
-3.6861572885
 21
-35.346462741
 31
0.0
  0
LINE
  5
10D
330
1D
100
AcDbEntity
  8
1
100
AcDbLine
 10
-3.6861572885
 20
-35.346462741
 30
0.0
 11
-3.7455607675
 21
-35.343025229
 31
0.0
  0
LINE
  5
10E
330
1D
100
AcDbEntity
  8
1
100
AcDbLine
 10
-3.7455607675
 20
-35.343025229
 30
0.0
 11
-3.7787903565
 21
-35.367466859
 31
0.0
  0
LINE
  5
10F
330
1D
100
AcDbEntity
  8
1
100
AcDbLine
 10
-3.7787903565
 20
-35.367466859
 30
0.0
 11
-3.7975509185
 21
-35.434558406
 31
0.0
  0
LINE
  5
110
330
1D
100
AcDbEntity
  8
1
100
AcDbLine
 10
-3.7975509185
 20
-35.434558406
 30
0.0
 11
-3.7979234475
 21
-35.448926851
 31
0.0
  0
LINE
  5
111
330
1D
100
AcDbEntity
  8
1
100
AcDbLine
 10
-3.7979234475
 20
-35.448926851
 30
0.0
 11
-3.7979234475
 21
-35.797317862
 31
0.0
  0
ARC
  5
112
330
1D
100
AcDbEntity
  8
1
100
AcDbCircle
 10
-2.3083465725
 20
-35.569083343
 30
0.0
 40
1.506960604
100
AcDbArc
 50
188.7111707510001
 51
214.657387547
  0
LINE
  5
113
330
1D
100
AcDbEntity
  8
1
100
AcDbLine
 10
-3.5479229405
 20
-36.426043488
 30
0.0
 11
-3.4979239895
 21
-36.508544992
 31
0.0
  0
ARC
  5
114
330
1D
100
AcDbEntity
  8
1
100
AcDbCircle
 10
27.5124700865
 20
38.002611004
 30
0.0
 40
80.706610068
100
AcDbArc
 50
247.403674643
 51
247.461812867
  0
ARC
  5
115
330
1D
100
AcDbEntity
  8
1
100
AcDbCircle
 10
34.8815861425
 20
55.759747314
 30
0.0
 40
99.932102782
100
AcDbArc
 50
247.461812867
 51
249.220981011
  0
LINE
  5
116
330
1D
100
AcDbEntity
  8
1
100
AcDbLine
 10
-3.4979258195
 20
36.508547724
 30
0.0
 11
-3.5479229405
 21
36.426039994
 31
0.0
  0
ARC
  5
117
330
1D
100
AcDbEntity
  8
1
100
AcDbCircle
 10
-2.5183291075
 20
35.652575103
 30
0.0
 40
1.287754402
100
AcDbArc
 50
143.0849149019999
 51
173.5464685180001
  0
LINE
  5
118
330
1D
100
AcDbEntity
  8
1
100
AcDbLine
 10
-3.7979234475
 20
35.7973153
 30
0.0
 11
-3.7979234475
 21
35.448926151
 31
0.0
  0
LINE
  5
119
330
1D
100
AcDbEntity
  8
1
100
AcDbLine
 10
-3.7979234475
 20
35.448926151
 30
0.0
 11
-3.7918959275
 21
35.39694345
 31
0.0
  0
LINE
  5
11A
330
1D
100
AcDbEntity
  8
1
100
AcDbLine
 10
-3.7918959275
 20
35.39694345
 30
0.0
 11
-3.7642617245
 21
35.352262319
 31
0.0
  0
LINE
  5
11B
330
1D
100
AcDbEntity
  8
1
100
AcDbLine
 10
-3.7642617245
 20
35.352262319
 30
0.0
 11
-3.7212085445
 21
35.340147675
 31
0.0
  0
LINE
  5
11C
330
1D
100
AcDbEntity
  8
1
100
AcDbLine
 10
-3.7212085445
 20
35.340147675
 30
0.0
 11
-3.6627848165
 21
35.355212749
 31
0.0
  0
LINE
  5
11D
330
1D
100
AcDbEntity
  8
1
100
AcDbLine
 10
-3.6627848165
 20
35.355212749
 30
0.0
 11
-3.5792600825
 21
35.405384958
 31
0.0
  0
LINE
  5
11E
330
1D
100
AcDbEntity
  8
1
100
AcDbLine
 10
-3.5792600825
 20
35.405384958
 30
0.0
 11
-3.5479229405
 21
35.42978561
 31
0.0
  0
LINE
  5
11F
330
1D
100
AcDbEntity
  8
1
100
AcDbLine
 10
-3.5479229405
 20
35.42978561
 30
0.0
 11
-3.4979258195
 21
35.470681847
 31
0.0
  0
ARC
  5
120
330
1D
100
AcDbEntity
  8
1
100
AcDbCircle
 10
-33.88128169950001
 20
55.759747314
 30
0.0
 40
99.924002175
100
AcDbArc
 50
287.702985526
 51
289.473449593
  0
LINE
  5
121
330
1D
100
AcDbEntity
  8
1
100
AcDbLine
 10
-3.4979258195
 20
-39.426763892
 30
0.0
 11
-3.5479229405
 21
-39.385578013
 31
0.0
  0
LINE
  5
122
330
1D
100
AcDbEntity
  8
1
100
AcDbLine
 10
-3.5479229405
 20
-39.385578013
 30
0.0
 11
-3.6280166825
 21
-39.325769409
 31
0.0
  0
LINE
  5
123
330
1D
100
AcDbEntity
  8
1
100
AcDbLine
 10
-3.6280166825
 20
-39.325769409
 30
0.0
 11
-3.7049513775
 21
-39.284734405
 31
0.0
  0
LINE
  5
124
330
1D
100
AcDbEntity
  8
1
100
AcDbLine
 10
-3.7049513775
 20
-39.284734405
 30
0.0
 11
-3.7633192255
 21
-39.277031436
 31
0.0
  0
LINE
  5
125
330
1D
100
AcDbEntity
  8
1
100
AcDbLine
 10
-3.7633192255
 20
-39.277031436
 30
0.0
 11
-3.7910316605
 21
-39.299880504
 31
0.0
  0
LINE
  5
126
330
1D
100
AcDbEntity
  8
1
100
AcDbLine
 10
-3.7910316605
 20
-39.299880504
 30
0.0
 11
-3.7979234475
 21
-39.336806513
 31
0.0
  0
LINE
  5
127
330
1D
100
AcDbEntity
  8
1
100
AcDbLine
 10
-3.7979234475
 20
-39.336806513
 30
0.0
 11
-3.7979234475
 21
-39.581435151
 31
0.0
  0
ARC
  5
128
330
1D
100
AcDbEntity
  8
1
100
AcDbCircle
 10
-2.7343216655
 20
-39.368929894
 30
0.0
 40
1.084623084
100
AcDbArc
 50
191.2987903890001
 51
221.3989221320001
  0
LINE
  5
129
330
1D
100
AcDbEntity
  8
1
100
AcDbLine
 10
-3.5479229405
 20
-40.086188703
 30
0.0
 11
-3.4979239895
 21
-40.156859215
 31
0.0
  0
ARC
  5
12A
330
1D
100
AcDbEntity
  8
1
100
AcDbCircle
 10
24.4892812965
 20
55.759747314
 30
0.0
 40
99.916360361
100
AcDbArc
 50
253.733448918
 51
255.475918041
  0
LINE
  5
12B
330
1D
100
AcDbEntity
  8
1
100
AcDbLine
 10
-3.7979234475
 20
35.7973153
 30
0.0
 11
-3.7979234475
 21
37.199998856
 31
0.0
  0
LINE
  5
12C
330
1D
100
AcDbEntity
  8
1
100
AcDbLine
 10
-3.7979234475
 20
37.199998856
 30
0.0
 11
-3.7869971715
 21
37.210928858
 31
0.0
  0
LINE
  5
12D
330
1D
100
AcDbEntity
  8
1
100
AcDbLine
 10
-3.7869971715
 20
37.210928858
 30
0.0
 11
-3.7546951785
 21
37.243227125
 31
0.0
  0
LINE
  5
12E
330
1D
100
AcDbEntity
  8
1
100
AcDbLine
 10
-3.7546951785
 20
37.243227125
 30
0.0
 11
-3.7024330815
 21
37.295492948
 31
0.0
  0
LINE
  5
12F
330
1D
100
AcDbEntity
  8
1
100
AcDbLine
 10
-3.7024330815
 20
37.295492948
 30
0.0
 11
-3.6324907555
 21
37.365431548
 31
0.0
  0
LINE
  5
130
330
1D
100
AcDbEntity
  8
1
100
AcDbLine
 10
-3.6324907555
 20
37.365431548
 30
0.0
 11
-3.5479229405
 21
37.450003088
 31
0.0
  0
LINE
  5
131
330
1D
100
AcDbEntity
  8
1
100
AcDbLine
 10
-3.5479229405
 20
37.450003088
 30
0.0
 11
-3.4979258195
 21
37.499996484
 31
0.0
  0
LINE
  5
132
330
1D
100
AcDbEntity
  8
1
100
AcDbLine
 10
-3.4979258195
 20
37.499996484
 30
0.0
 11
-1.0148484725
 21
37.499996484
 31
0.0
  0
ARC
  5
133
330
1D
100
AcDbEntity
  8
1
100
AcDbCircle
 10
-23.4889768545
 20
55.759747314
 30
0.0
 40
99.930822338
100
AcDbArc
 50
283.135797857
 51
283.258940125
  0
ARC
  5
134
330
1D
100
AcDbEntity
  8
1
100
AcDbCircle
 10
-30.6767623145
 20
86.557548813
 30
0.0
 40
131.557548813
100
AcDbArc
 50
281.9215335679999
 51
283.136063108
  0
LINE
  5
135
330
1D
100
AcDbEntity
  8
1
100
AcDbLine
 10
-3.4979258195
 20
-42.175469804
 30
0.0
 11
-3.5479229405
 21
-42.132859934
 31
0.0
  0
LINE
  5
136
330
1D
100
AcDbEntity
  8
1
100
AcDbLine
 10
-3.5479229405
 20
-42.132859934
 30
0.0
 11
-3.6413867495
 21
-42.059020023
 31
0.0
  0
LINE
  5
137
330
1D
100
AcDbEntity
  8
1
100
AcDbLine
 10
-3.6413867495
 20
-42.059020023
 30
0.0
 11
-3.7204299585
 21
-42.010244797
 31
0.0
  0
LINE
  5
138
330
1D
100
AcDbEntity
  8
1
100
AcDbLine
 10
-3.7204299585
 20
-42.010244797
 30
0.0
 11
-3.7761752025
 21
-41.995510809
 31
0.0
  0
LINE
  5
139
330
1D
100
AcDbEntity
  8
1
100
AcDbLine
 10
-3.7761752025
 20
-41.995510809
 30
0.0
 11
-3.7967574315
 21
-42.014350067
 31
0.0
  0
LINE
  5
13A
330
1D
100
AcDbEntity
  8
1
100
AcDbLine
 10
-3.7967574315
 20
-42.014350067
 30
0.0
 11
-3.7979234475
 21
-42.02549567
 31
0.0
  0
LINE
  5
13B
330
1D
100
AcDbEntity
  8
1
100
AcDbLine
 10
-3.7979234475
 20
-42.02549567
 30
0.0
 11
-3.7979234475
 21
-42.189241271
 31
0.0
  0
ARC
  5
13C
330
1D
100
AcDbEntity
  8
1
100
AcDbCircle
 10
-2.6936986835
 20
-41.802930805
 30
0.0
 40
1.169849608
100
AcDbArc
 50
199.282270716
 51
223.0968313489998
  0
LINE
  5
13D
330
1D
100
AcDbEntity
  8
1
100
AcDbLine
 10
-3.5479229405
 20
-42.602211121
 30
0.0
 11
-3.4979239895
 21
-42.664655472
 31
0.0
  0
ARC
  5
13E
330
1D
100
AcDbEntity
  8
1
100
AcDbCircle
 10
21.2847619125
 20
86.557548813
 30
0.0
 40
131.577200155
100
AcDbArc
 50
259.143438958
 51
260.439327396
  0
ARC
  5
13F
330
1D
100
AcDbEntity
  8
1
100
AcDbCircle
 10
-20.2844574695
 20
86.557548813
 30
0.0
 40
131.579560966
100
AcDbArc
 50
277.329761434
 51
278.6171964270001
  0
LINE
  5
140
330
1D
100
AcDbEntity
  8
1
100
AcDbLine
 10
-3.4979258195
 20
-43.943950325
 30
0.0
 11
-3.5479229405
 21
-43.899111334
 31
0.0
  0
LINE
  5
141
330
1D
100
AcDbEntity
  8
1
100
AcDbLine
 10
-3.5479229405
 20
-43.899111334
 30
0.0
 11
-3.6539186255
 21
-43.80856955
 31
0.0
  0
LINE
  5
142
330
1D
100
AcDbEntity
  8
1
100
AcDbLine
 10
-3.6539186255
 20
-43.80856955
 30
0.0
 11
-3.7336100355
 21
-43.750034995
 31
0.0
  0
LINE
  5
143
330
1D
100
AcDbEntity
  8
1
100
AcDbLine
 10
-3.7336100355
 20
-43.750034995
 30
0.0
 11
-3.7796359975
 21
-43.726927019
 31
0.0
  0
LINE
  5
144
330
1D
100
AcDbEntity
  8
1
100
AcDbLine
 10
-3.7796359975
 20
-43.726927019
 30
0.0
 11
-3.7979234475
 21
-43.736715219
 31
0.0
  0
LINE
  5
145
330
1D
100
AcDbEntity
  8
1
100
AcDbLine
 10
-3.7979234475
 20
-43.736715219
 30
0.0
 11
-3.7979234475
 21
-42.189241271
 31
0.0
  0
ARC
  5
146
330
1D
100
AcDbEntity
  8
1
100
AcDbCircle
 10
10.8924570665
 20
86.557548813
 30
0.0
 40
131.573241916
100
AcDbArc
 50
263.720905437
 51
265.002133254
  0
LINE
  5
147
330
1D
100
AcDbEntity
  8
1
100
AcDbLine
 10
-3.7979234475
 20
-43.736715219
 30
0.0
 11
-3.7979234475
 21
-43.831200223
 31
0.0
  0
ARC
  5
148
330
1D
100
AcDbEntity
  8
1
100
AcDbCircle
 10
-2.7612422635
 20
-43.328021973
 30
0.0
 40
1.152343798
100
AcDbArc
 50
205.890737639
 51
226.946670009
  0
LINE
  5
149
330
1D
100
AcDbEntity
  8
1
100
AcDbLine
 10
-3.5479229405
 20
-44.17006101
 30
0.0
 11
-3.4979258195
 21
-44.226375758
 31
0.0
  0
ARC
  5
14A
330
1D
100
AcDbEntity
  8
1
100
AcDbCircle
 10
0.5001522214999999
 20
86.557548813
 30
0.0
 40
131.557659591
100
AcDbArc
 50
268.258514077
 51
269.534091133
  0
LINE
  5
14B
330
1D
100
AcDbEntity
  8
1
100
AcDbLine
 10
-3.4979258195
 20
-44.940758846
 30
0.0
 11
-3.5479229405
 21
-44.889198966
 31
0.0
  0
ARC
  5
14C
330
1D
100
AcDbEntity
  8
1
100
AcDbCircle
 10
-2.0327165795
 20
-43.261183214
 30
0.0
 40
2.224024641
100
AcDbArc
 50
217.467423848
 51
227.0554477909999
  0
LINE
  5
14D
330
1D
100
AcDbEntity
  8
1
100
AcDbLine
 10
-3.7979234475
 20
-44.614080224
 30
0.0
 11
-3.7979234475
 21
-44.583160314
 31
0.0
  0
ARC
  5
14E
330
1D
100
AcDbEntity
  8
1
100
AcDbCircle
 10
-4.366139356500001
 20
-45.489174577
 30
0.0
 40
1.069453675
100
AcDbArc
 50
40.08599032100003
 51
57.90570783500002
  0
LINE
  5
14F
330
1D
100
AcDbEntity
  8
1
100
AcDbLine
 10
-3.5479229405
 20
-44.800514239
 30
0.0
 11
-3.4979239895
 21
-44.848314128
 31
0.0
  0
ARC
  5
150
330
1D
100
AcDbEntity
  8
1
100
AcDbCircle
 10
-9.8921526245
 20
86.557548813
 30
0.0
 40
131.561343011
100
AcDbArc
 50
272.785823685
 51
274.063308265
  0
ARC
  5
151
330
1D
100
AcDbEntity
  8
CUT
100
AcDbCircle
 10
20.8026170295
 20
-47.039734058
 30
0.0
 40
0.8
100
AcDbArc
 50
188.3009047
 51
264.0000039990002
  0
LINE
  5
152
330
1D
100
AcDbEntity
  8
CUT
100
AcDbLine
 10
20.7189943175
 20
-47.83535155
 30
0.0
 11
31.7581872975
 21
-48.995617516
 31
0.0
  0
ARC
  5
153
330
1D
100
AcDbEntity
  8
CUT
100
AcDbCircle
 10
31.8418100685
 20
-48.2
 30
0.0
 40
0.8
100
AcDbArc
 50
264.0
 51
353.9999994969999
  0
LINE
  5
154
330
1D
100
AcDbEntity
  8
CUT
100
AcDbLine
 10
32.6374275615
 20
-48.283622775
 30
0.0
 11
33.7976935265
 21
-37.244429732
 31
0.0
  0
ARC
  5
155
330
1D
100
AcDbEntity
  8
CUT
100
AcDbCircle
 10
33.0020760105
 20
-37.160806961
 30
0.0
 40
0.8
100
AcDbArc
 50
354.0000000000002
 51
54.30991225499987
  0
ARC
  5
156
330
1D
100
AcDbEntity
  8
CUT
100
AcDbCircle
 10
20.8026170295
 20
-47.039734058
 30
0.0
 40
0.21554549
100
AcDbArc
 50
174.0000000000009
 51
263.9999731759999
  0
LINE
  5
157
330
1D
100
AcDbEntity
  8
CUT
100
AcDbLine
 10
20.7800862845
 20
-47.254098813
 30
0.0
 11
31.8192794295
 21
-48.414364709
 31
0.0
  0
ARC
  5
158
330
1D
100
AcDbEntity
  8
CUT
100
AcDbCircle
 10
31.8418100685
 20
-48.2
 30
0.0
 40
0.21554549
100
AcDbArc
 50
264.0000000000008
 51
354.0000026260007
  0
LINE
  5
159
330
1D
100
AcDbEntity
  8
CUT
100
AcDbLine
 10
32.05617482349999
 20
-48.222530634
 30
0.0
 11
33.21644071949999
 21
-37.1833376
 31
0.0
  0
ARC
  5
15A
330
1D
100
AcDbEntity
  8
CUT
100
AcDbCircle
 10
33.0020760105
 20
-37.160806961
 30
0.0
 40
0.21554549
100
AcDbArc
 50
354.0000000000008
 51
84.00000000000082
  0
LINE
  5
15B
330
1D
100
AcDbEntity
  8
1
100
AcDbLine
 10
31.1695411805
 20
-5.613522022
 30
0.0
 11
28.4173518885
 21
-31.798852026
 31
0.0
  0
LINE
  5
15C
330
1D
100
AcDbEntity
  8
1
100
AcDbLine
 10
-3.7979234475
 20
29.897632659
 30
0.0
 11
-3.7979234475
 21
-29.897633358
 31
0.0
  0
LINE
  5
15D
330
1D
100
AcDbEntity
  8
1
100
AcDbLine
 10
-3.7979234475
 20
35.448926151
 30
0.0
 11
-3.7979234475
 21
30.400755466
 31
0.0
  0
LINE
  5
15E
330
1D
100
AcDbEntity
  8
1
100
AcDbLine
 10
-3.7979234475
 20
-30.400756165
 30
0.0
 11
-3.7979234475
 21
-35.448926851
 31
0.0
  0
LINE
  5
15F
330
1D
100
AcDbEntity
  8
1
100
AcDbLine
 10
33.50207599549999
 20
-27.905119001
 30
0.0
 11
33.50207599549999
 21
-19.499999821
 31
0.0
  0
LINE
  5
160
330
1D
100
AcDbEntity
  8
1
100
AcDbLine
 10
33.50207599549999
 20
-19.499999821
 30
0.0
 11
33.50207599549999
 21
-9.653588175
 31
0.0
  0
LINE
  5
161
330
1D
100
AcDbEntity
  8
1
100
AcDbLine
 10
33.50207599549999
 20
-9.653588175
 30
0.0
 11
33.4899862645
 21
-9.632648319
 31
0.0
  0
LINE
  5
162
330
1D
100
AcDbEntity
  8
1
100
AcDbLine
 10
-3.7979234475
 20
-35.797317862
 30
0.0
 11
-3.7979234475
 21
-39.336806513
 31
0.0
  0
LINE
  5
163
330
1D
100
AcDbEntity
  8
1
100
AcDbLine
 10
-3.7979234475
 20
-39.581435151
 30
0.0
 11
-3.7979234475
 21
-42.02549567
 31
0.0
  0
LINE
  5
164
330
1D
100
AcDbEntity
  8
1
100
AcDbLine
 10
-3.7979234475
 20
-43.831200223
 30
0.0
 11
-3.7979234475
 21
-44.583160314
 31
0.0
  0
LINE
  5
165
330
1D
100
AcDbEntity
  8
CUT
100
AcDbLine
 10
33.21644070049999
 20
-37.183337263
 30
0.0
 11
33.7976935265
 21
-37.244430162
 31
0.0
  0
LINE
  5
166
330
1D
100
AcDbEntity
  8
CUT
100
AcDbLine
 10
32.05617482349999
 20
-48.222530634
 30
0.0
 11
32.6374275615
 21
-48.283622775
 31
0.0
  0
LINE
  5
167
330
1D
100
AcDbEntity
  8
CUT
100
AcDbLine
 10
31.81927953850001
 20
-48.41436469
 30
0.0
 11
31.7581873385
 21
-48.995617516
 31
0.0
  0
LINE
  5
168
330
1D
100
AcDbEntity
  8
CUT
100
AcDbLine
 10
20.7800862845
 20
-47.254098813
 30
0.0
 11
20.7189943175
 21
-47.83535155
 31
0.0
  0
LINE
  5
204
330
1D
100
AcDbEntity
  8
1
100
AcDbLine
 10
20.8665418905
 20
38.778113551
 30
0.0
 11
20.00699950484833
 21
46.95611136689794
 31
0.0
  0
LINE
  5
205
330
1D
100
AcDbEntity
  8
1
100
AcDbLine
 10
20.00699950484833
 20
46.95611136689794
 30
0.0
 11
19.98668353715956
 21
47.15025041360899
 31
0.0
  0
LINE
  5
206
330
1D
100
AcDbEntity
  8
1
100
AcDbLine
 10
24.9077004845
 20
35.505647189
 30
0.0
 11
33.08569878111412
 21
36.36518944470538
 31
0.0
  0
LINE
  5
207
330
1D
100
AcDbEntity
  8
1
100
AcDbLine
 10
33.08569878111412
 20
36.36518944470538
 30
0.0
 11
33.50207599549999
 21
36.36518944470538
 31
0.0
  0
LINE
  5
208
330
1D
100
AcDbEntity
  8
3
100
AcDbLine
 10
33.08569878111412
 20
36.36518944470538
 30
0.0
 11
31.79003367907611
 21
47.55922244792167
 31
0.0
  0
LINE
  5
209
330
1D
100
AcDbEntity
  8
3
100
AcDbLine
 10
31.79003367907611
 20
47.55922244792167
 30
0.0
 11
31.15176501143336
 21
48.25925905114275
 31
0.0
  0
LINE
  5
20A
330
1D
100
AcDbEntity
  8
3
100
AcDbLine
 10
31.15176501143336
 20
48.25925905114275
 30
0.0
 11
20.52768009196046
 21
47.154030065
 31
0.0
  0
LINE
  5
20B
330
1D
100
AcDbEntity
  8
3
100
AcDbLine
 10
20.52768009196046
 20
47.154030065
 30
0.0
 11
20.0228018225
 21
47.154030065
 31
0.0
  0
LINE
  5
212
330
1D
100
AcDbEntity
  8
1
100
AcDbLine
 10
19.99684152100394
 20
47.05318089025347
 30
0.0
 11
21.16726545620538
 21
35.91691824838588
 31
0.0
  0
LINE
  5
213
330
1D
100
AcDbEntity
  8
1
100
AcDbLine
 10
22.04650612916284
 20
35.20492354328083
 30
0.0
 11
33.08569878111412
 21
36.36518944470538
 31
0.0
  0
LWPOLYLINE
  5
216
330
1D
100
AcDbEntity
  8
INFTOTAL
100
AcDbPolyline
 90
        4
 70
     1
 43
0.0
 10
-51.24202677667126
 20
82.43870310408104
 10
-51.24202677667126
 20
-87.03042084221485
 10
68.60354153894116
 20
-87.03042084221485
 10
68.60354153894116
 20
82.43870310408104
  0
LINE
  5
241
330
1D
100
AcDbEntity
  8
CUT
100
AcDbLine
 10
33.79769352649999
 20
37.244430162
 30
0.0
 11
32.63742758449997
 21
48.283622771
 31
0.0
  0
ARC
  5
242
330
1D
100
AcDbEntity
  8
CUT
100
AcDbCircle
 10
31.84181006849998
 20
48.2
 30
0.0
 40
0.8
100
AcDbArc
 50
5.99999999999986
 51
95.99999707299914
  0
LINE
  5
243
330
1D
100
AcDbEntity
  8
CUT
100
AcDbLine
 10
31.75818733849998
 20
48.995617516
 30
0.0
 11
20.71899425949998
 21
47.835351574
 31
0.0
  0
ARC
  5
244
330
1D
100
AcDbEntity
  8
CUT
100
AcDbCircle
 10
20.80261702949998
 20
47.039734058
 30
0.0
 40
0.8
100
AcDbArc
 50
95.9999999999993
 51
185.9999942740002
  0
ARC
  5
245
330
1D
100
AcDbEntity
  8
CUT
100
AcDbCircle
 10
21.9628829725
 20
36.000541019
 30
0.0
 40
0.8
100
AcDbArc
 50
185.9999999999998
 51
276.0000278010001
  0
ARC
  5
246
330
1D
100
AcDbEntity
  8
CUT
100
AcDbCircle
 10
33.0020760105
 20
37.160806961
 30
0.0
 40
0.8
100
AcDbArc
 50
275.9999999999993
 51
5.999999999999807
  0
LINE
  5
247
330
1D
100
AcDbEntity
  8
CUT
100
AcDbLine
 10
19.99684152100393
 20
47.05318089025347
 30
0.0
 11
21.16726545620536
 21
35.91691824838588
 31
0.0
  0
LINE
  5
248
330
1D
100
AcDbEntity
  8
CUT
100
AcDbLine
 10
22.04650612916284
 20
35.20492354328083
 30
0.0
 11
33.08569878111411
 21
36.36518944470538
 31
0.0
  0
CIRCLE
  5
249
330
1D
100
AcDbEntity
  8
1
100
AcDbCircle
 10
26.68963808949998
 20
41.837597474
 30
0.0
 40
3.929393888
  0
HATCH
  5
263
330
1D
100
AcDbEntity
  8
7
100
AcDbHatch
 10
0.0
 20
0.0
 30
0.0
210
0.0
220
0.0
230
1.0
  2
ANSI37
 70
     0
 71
     0
 91
        2
 92
        7
 72
     1
 73
     1
 93
        8
 10
33.79769352672094
 20
37.24442983921059
 42
0.0
 10
32.63742758472092
 20
48.28362277071059
 42
0.4142135484776324
 10
31.75818733852294
 20
48.99561751942492
 42
0.0
 10
20.71899425903941
 20
47.83535157422097
 42
0.4111506097501408
 10
20.00616769027725
 20
46.96444494821871
 42
0.0
 10
21.16726523620834
 20
35.9169203415973
 42
0.4142143803273473
 10
22.04650587178709
 20
35.20492351622956
 42
0.0
 10
33.08569878111411
 20
36.36518944470538
 42
0.4142135916767792
 97
        0
 92
       22
 72
     1
 73
     1
 93
        2
 10
22.76024420149999
 20
41.83759747399999
 42
-1.000000000000002
 10
30.61903197749997
 20
41.83759747399999
 42
-0.9999999999999981
 97
        0
 75
     0
 76
     1
 52
90.0
 41
5.0
 77
     0
 78
     2
 53
135.0
 43
-123.9841136256782
 44
0.0
 45
-0.4419417382415922
 46
-0.4419417382415922
 79
     0
 53
225.0
 43
-123.9841136256782
 44
0.0
 45
0.4419417382415922
 46
-0.4419417382415923
 79
     0
 47
0.0
 98
        2
 10
32.21372027800604
 20
37.94319599889018
 10
32.21372027800604
 20
37.94319599889018
1001
ACAD
1010
0.0
1020
0.0
1030
0.0
1001
PE_URL
1000

  0
LINE
  5
265
330
1D
100
AcDbEntity
  8
3
100
AcDbLine
 10
20.0228018225
 20
47.154030065
 30
0.0
 11
20.01064120810972
 21
47.1527574995207
 31
0.0
  0
LINE
  5
26E
330
1D
100
AcDbEntity
  8
4
100
AcDbLine
 10
35.79622864349999
 20
0.0
 30
0.0
 11
0.0
 21
0.0
 31
0.0
  0
LINE
  5
270
330
1D
100
AcDbEntity
  8
NOCUT
100
AcDbLine
 10
0.0
 20
0.0
 30
0.0
 11
-0.0000000000000004
 21
45.05785007866194
 31
0.0
  0
LINE
  5
271
330
1D
100
AcDbEntity
  8
NOCUT
100
AcDbLine
 10
-0.0000000000000004
 20
45.05785007866194
 30
0.0
 11
20.0228018225
 21
47.154030065
 31
0.0
  0
LINE
  5
272
330
1D
100
AcDbEntity
  8
NOCUT
100
AcDbLine
 10
20.0228018225
 20
47.154030065
 30
0.0
 11
20.52768009196046
 21
47.154030065
 31
0.0
  0
LINE
  5
273
330
1D
100
AcDbEntity
  8
NOCUT
100
AcDbLine
 10
20.52768009196046
 20
47.154030065
 30
0.0
 11
31.15176501143336
 21
48.25925905114275
 31
0.0
  0
LINE
  5
274
330
1D
100
AcDbEntity
  8
NOCUT
100
AcDbLine
 10
31.15176501143336
 20
48.25925905114275
 30
0.0
 11
31.79003367907611
 21
47.55922244792167
 31
0.0
  0
LINE
  5
275
330
1D
100
AcDbEntity
  8
NOCUT
100
AcDbLine
 10
31.79003367907611
 20
47.55922244792167
 30
0.0
 11
33.08569878111411
 21
36.36518944470538
 31
0.0
  0
ARC
  5
276
330
1D
100
AcDbEntity
  8
NOCUT
100
AcDbCircle
 10
33.0020760105
 20
37.160806961
 30
0.0
 40
0.7999999999999998
100
AcDbArc
 50
275.9999999999993
 51
305.6900829105118
  0
LINE
  5
277
330
1D
100
AcDbEntity
  8
NOCUT
100
AcDbLine
 10
33.46879652444962
 20
36.51105934703085
 30
0.0
 11
33.50207599549999
 21
36.476359121
 31
0.0
  0
LINE
  5
278
330
1D
100
AcDbEntity
  8
NOCUT
100
AcDbLine
 10
33.50207599549999
 20
36.476359121
 30
0.0
 11
33.50207599549999
 21
9.653588175
 31
0.0
  0
LINE
  5
279
330
1D
100
AcDbEntity
  8
NOCUT
100
AcDbLine
 10
33.50207599549999
 20
9.653588175
 30
0.0
 11
27.9285739145
 21
0.0
 31
0.0
  0
LINE
  5
27A
330
1D
100
AcDbEntity
  8
NOCUT
100
AcDbLine
 10
27.9285739145
 20
0.0
 30
0.0
 11
0.0
 21
0.0
 31
0.0
  0
ENDSEC
  0
SECTION
  2
OBJECTS
  0
DICTIONARY
  5
C
330
0
100
AcDbDictionary
281
     1
  3
ACAD_COLOR
350
232
  3
ACAD_DETAILVIEWSTYLE
350
20F
  3
ACAD_GROUP
350
D
  3
ACAD_LAYOUT
350
1A
  3
ACAD_MATERIAL
350
1A6
  3
ACAD_MLEADERSTYLE
350
1B3
  3
ACAD_MLINESTYLE
350
17
  3
ACAD_PLOTSETTINGS
350
19
  3
ACAD_PLOTSTYLENAME
350
E
  3
ACAD_SCALELIST
350
16F
  3
ACAD_SECTIONVIEWSTYLE
350
210
  3
ACAD_TABLESTYLE
350
1FC
  3
ACAD_VISUALSTYLE
350
195
  3
ACDB_RECOMPOSE_DATA
350
286
  3
AcDbVariableDictionary
350
1B1
  3
APPDATA
350
1FF
  0
SUN
  5
223
330
169
100
AcDbSun
 90
        1
290
     0
 63
     7
421
 16777215
 40
1.0
291
     1
 91
  2455826
 92
 54000000
292
     0
 70
     2
 71
   256
280
     1
  0
DICTIONARY
  5
200
330
2
100
AcDbDictionary
280
     1
281
     1
  3
ACAD_LAYERSTATES
360
201
  0
DICTIONARY
  5
261
330
1D
100
AcDbDictionary
280
     1
281
     1
  3
ACAD_SORTENTS
360
262
  0
DICTIONARY
  5
232
102
{ACAD_REACTORS
330
C
102
}
330
C
100
AcDbDictionary
281
     1
  0
DICTIONARY
  5
20F
102
{ACAD_REACTORS
330
C
102
}
330
C
100
AcDbDictionary
281
     1
  0
DICTIONARY
  5
D
102
{ACAD_REACTORS
330
C
102
}
330
C
100
AcDbDictionary
281
     1
  0
DICTIONARY
  5
1A
102
{ACAD_REACTORS
330
C
102
}
330
C
100
AcDbDictionary
281
     1
  3
Layout1
350
1C
  3
Model
350
1E
  0
DICTIONARY
  5
1A6
102
{ACAD_REACTORS
330
C
102
}
330
C
100
AcDbDictionary
281
     1
  3
ByBlock
350
1A8
  3
ByLayer
350
1A7
  3
Global
350
1A9
  0
DICTIONARY
  5
1B3
102
{ACAD_REACTORS
330
C
102
}
330
C
100
AcDbDictionary
281
     1
  3
Standard
350
1FE
  0
DICTIONARY
  5
17
102
{ACAD_REACTORS
330
C
102
}
330
C
100
AcDbDictionary
281
     1
  3
Standard
350
18
  0
DICTIONARY
  5
19
102
{ACAD_REACTORS
330
C
102
}
330
C
100
AcDbDictionary
281
     1
  0
ACDBDICTIONARYWDFLT
  5
E
102
{ACAD_REACTORS
330
C
102
}
330
C
100
AcDbDictionary
281
     1
  3
Normal
350
F
100
AcDbDictionaryWithDefault
340
F
  0
DICTIONARY
  5
16F
102
{ACAD_REACTORS
330
C
102
}
330
C
100
AcDbDictionary
281
     1
  3
A0
350
170
  3
A1
350
171
  3
A2
350
172
  3
A3
350
173
  3
A4
350
174
  3
A5
350
175
  3
A6
350
176
  3
A7
350
177
  3
A8
350
178
  3
A9
350
179
  3
B0
350
17A
  3
B1
350
17B
  3
B2
350
17C
  3
B3
350
17D
  3
B4
350
17E
  3
B5
350
17F
  3
B6
350
180
  3
B7
350
181
  3
B8
350
182
  3
B9
350
183
  3
C0
350
184
  3
C1
350
185
  3
C2
350
186
  3
C3
350
187
  3
C4
350
188
  3
C5
350
189
  3
C6
350
18A
  3
C7
350
18B
  3
C8
350
18C
  3
C9
350
18D
  3
D0
350
18E
  3
D1
350
18F
  3
D2
350
190
  0
DICTIONARY
  5
210
102
{ACAD_REACTORS
330
C
102
}
330
C
100
AcDbDictionary
281
     1
  0
DICTIONARY
  5
1FC
102
{ACAD_REACTORS
330
C
102
}
330
C
100
AcDbDictionary
281
     1
  3
Standard
350
1FD
  0
DICTIONARY
  5
195
102
{ACAD_REACTORS
330
C
102
}
330
C
100
AcDbDictionary
281
     1
  3
2dWireframe
350
19A
  3
3D Hidden
350
19C
  3
3dWireframe
350
19B
  3
Basic
350
19D
  3
Brighten
350
1A1
  3
ColorChange
350
1A5
  3
Conceptual
350
19F
  3
Dim
350
1A0
  3
EdgeColorOff
350
1F6
  3
Facepattern
350
1A4
  3
Flat
350
196
  3
FlatWithEdges
350
197
  3
Gouraud
350
198
  3
GouraudWithEdges
350
199
  3
Hidden
350
1F3
  3
JitterOff
350
1F4
  3
Linepattern
350
1A3
  3
OverhangOff
350
1F5
  3
Realistic
350
19E
  3
Shaded
350
1FB
  3
Shaded with edges
350
1FA
  3
Shades of Gray
350
1F7
  3
Sketchy
350
1F8
  3
Thicken
350
1A2
  3
Wireframe
350
1F2
  3
X-Ray
350
1F9
  0
XRECORD
  5
286
102
{ACAD_REACTORS
330
C
102
}
330
C
100
AcDbXrecord
280
     1
 90
        1
330
1FD
  0
DICTIONARY
  5
1B1
102
{ACAD_REACTORS
330
C
102
}
330
C
100
AcDbDictionary
281
     1
  3
CANNOSCALE
350
20C
  3
CMLEADERSTYLE
350
20E
  3
CTABLESTYLE
350
20D
  3
DIMASSOC
350
1B5
  3
HIDETEXT
350
1B6
  3
MSLTSCALE
350
1B4
  0
DICTIONARY
  5
1FF
102
{ACAD_REACTORS
330
C
102
}
330
C
100
AcDbDictionary
281
     1
  0
DICTIONARY
  5
201
102
{ACAD_REACTORS
330
200
102
}
330
200
100
AcDbDictionary
281
     1
  0
SORTENTSTABLE
  5
262
102
{ACAD_REACTORS
330
261
102
}
330
261
100
AcDbSortentsTable
330
1D
331
241
  5
243
331
242
  5
244
331
243
  5
245
331
244
  5
246
331
245
  5
247
331
246
  5
248
331
247
  5
249
331
248
  5
260
331
249
  5
263
331
0
  5
241
331
263
  5
242
  0
LAYOUT
  5
1C
102
{ACAD_REACTORS
330
1A
102
}
330
1A
100
AcDbPlotSettings
  1

  2
none_device
  4

  6

 40
0.0
 41
0.0
 42
0.0
 43
0.0
 44
0.0
 45
0.0
 46
0.0
 47
0.0
 48
0.0
 49
0.0
140
0.0
141
0.0
142
1.0
143
1.0
 70
   688
 72
     0
 73
     0
 74
     5
  7

 75
    16
 76
     0
 77
     2
 78
   300
147
1.0
148
0.0
149
0.0
100
AcDbLayout
  1
Layout1
 70
     1
 71
     1
 10
0.0
 20
0.0
 11
12.0
 21
9.0
 12
0.0
 22
0.0
 32
0.0
 14
1.000000000000000E+20
 24
1.000000000000000E+20
 34
1.000000000000000E+20
 15
-1.000000000000000E+20
 25
-1.000000000000000E+20
 35
-1.000000000000000E+20
146
0.0
 13
0.0
 23
0.0
 33
0.0
 16
1.0
 26
0.0
 36
0.0
 17
0.0
 27
1.0
 37
0.0
 76
     0
330
1B
  0
LAYOUT
  5
1E
102
{ACAD_REACTORS
330
1A
102
}
330
1A
100
AcDbPlotSettings
  1

  2
none_device
  4

  6

 40
0.0
 41
0.0
 42
0.0
 43
0.0
 44
0.0
 45
0.0
 46
0.0
 47
0.0
 48
0.0
 49
0.0
140
0.0
141
0.0
142
1.0
143
1.0
 70
  1712
 72
     0
 73
     0
 74
     0
  7

 75
     0
 76
     0
 77
     2
 78
   300
147
1.0
148
0.0
149
0.0
100
AcDbLayout
  1
Model
 70
     1
 71
     0
 10
0.0
 20
0.0
 11
12.0
 21
9.0
 12
0.0
 22
0.0
 32
0.0
 14
-51.24202677667127
 24
-87.03042084221487
 34
0.0
 15
68.60354153894117
 25
82.43870310408103
 35
0.0
146
0.0
 13
0.0
 23
0.0
 33
0.0
 16
1.0
 26
0.0
 36
0.0
 17
0.0
 27
1.0
 37
0.0
 76
     0
330
1D
331
169
  0
MATERIAL
  5
1A8
102
{ACAD_REACTORS
330
1A6
102
}
330
1A6
100
AcDbMaterial
  1
ByBlock
 72
     1
 94
      127
  0
MATERIAL
  5
1A7
102
{ACAD_REACTORS
330
1A6
102
}
330
1A6
100
AcDbMaterial
  1
ByLayer
 72
     1
 94
      127
  0
MATERIAL
  5
1A9
102
{ACAD_REACTORS
330
1A6
102
}
330
1A6
100
AcDbMaterial
  1
Global
 72
     1
 94
      127
  0
MLEADERSTYLE
  5
1FE
102
{ACAD_REACTORS
330
1B3
102
}
330
1B3
100
AcDbMLeaderStyle
179
     2
170
     2
171
     1
172
     0
 90
        2
 40
0.0
 41
0.0
173
     1
 91
-1056964608
340
14
 92
       -2
290
     1
 42
0.09
291
     1
 43
0.36
  3
Standard
341
0
 44
0.18
300

342
11
174
     1
178
     1
175
     1
176
     0
 93
-1056964608
 45
0.18
292
     0
297
     0
 46
0.18
343
0
 94
-1056964608
 47
1.0
 49
1.0
140
1.0
293
     1
141
0.0
294
     1
177
     0
142
1.0
295
     0
296
     0
143
0.125
271
     0
272
     9
273
     9
298
     0
  0
MLINESTYLE
  5
18
102
{ACAD_REACTORS
330
17
102
}
330
17
100
AcDbMlineStyle
  2
Standard
 70
     0
  3

 62
   256
 51
90.0
 52
90.0
 71
     2
 49
0.5
 62
   256
  6
BYLAYER
 49
-0.5
 62
   256
  6
BYLAYER
  0
ACDBPLACEHOLDER
  5
F
102
{ACAD_REACTORS
330
E
102
}
330
E
  0
SCALE
  5
170
102
{ACAD_REACTORS
330
16F
102
}
330
16F
100
AcDbScale
 70
     0
300
1:1
140
1.0
141
1.0
290
     1
  0
SCALE
  5
171
102
{ACAD_REACTORS
330
16F
102
}
330
16F
100
AcDbScale
 70
     0
300
1:2
140
1.0
141
2.0
290
     0
  0
SCALE
  5
172
102
{ACAD_REACTORS
330
16F
102
}
330
16F
100
AcDbScale
 70
     0
300
1:4
140
1.0
141
4.0
290
     0
  0
SCALE
  5
173
102
{ACAD_REACTORS
330
16F
102
}
330
16F
100
AcDbScale
 70
     0
300
1:5
140
1.0
141
5.0
290
     0
  0
SCALE
  5
174
102
{ACAD_REACTORS
330
16F
102
}
330
16F
100
AcDbScale
 70
     0
300
1:8
140
1.0
141
8.0
290
     0
  0
SCALE
  5
175
102
{ACAD_REACTORS
330
16F
102
}
330
16F
100
AcDbScale
 70
     0
300
1:10
140
1.0
141
10.0
290
     0
  0
SCALE
  5
176
102
{ACAD_REACTORS
330
16F
102
}
330
16F
100
AcDbScale
 70
     0
300
1:16
140
1.0
141
16.0
290
     0
  0
SCALE
  5
177
102
{ACAD_REACTORS
330
16F
102
}
330
16F
100
AcDbScale
 70
     0
300
1:20
140
1.0
141
20.0
290
     0
  0
SCALE
  5
178
102
{ACAD_REACTORS
330
16F
102
}
330
16F
100
AcDbScale
 70
     0
300
1:30
140
1.0
141
30.0
290
     0
  0
SCALE
  5
179
102
{ACAD_REACTORS
330
16F
102
}
330
16F
100
AcDbScale
 70
     0
300
1:40
140
1.0
141
40.0
290
     0
  0
SCALE
  5
17A
102
{ACAD_REACTORS
330
16F
102
}
330
16F
100
AcDbScale
 70
     0
300
1:50
140
1.0
141
50.0
290
     0
  0
SCALE
  5
17B
102
{ACAD_REACTORS
330
16F
102
}
330
16F
100
AcDbScale
 70
     0
300
1:100
140
1.0
141
100.0
290
     0
  0
SCALE
  5
17C
102
{ACAD_REACTORS
330
16F
102
}
330
16F
100
AcDbScale
 70
     0
300
2:1
140
2.0
141
1.0
290
     0
  0
SCALE
  5
17D
102
{ACAD_REACTORS
330
16F
102
}
330
16F
100
AcDbScale
 70
     0
300
4:1
140
4.0
141
1.0
290
     0
  0
SCALE
  5
17E
102
{ACAD_REACTORS
330
16F
102
}
330
16F
100
AcDbScale
 70
     0
300
8:1
140
8.0
141
1.0
290
     0
  0
SCALE
  5
17F
102
{ACAD_REACTORS
330
16F
102
}
330
16F
100
AcDbScale
 70
     0
300
10:1
140
10.0
141
1.0
290
     0
  0
SCALE
  5
180
102
{ACAD_REACTORS
330
16F
102
}
330
16F
100
AcDbScale
 70
     0
300
100:1
140
100.0
141
1.0
290
     0
  0
SCALE
  5
181
102
{ACAD_REACTORS
330
16F
102
}
330
16F
100
AcDbScale
 70
     0
300
1/128" = 1'-0"
140
0.0078125
141
12.0
290
     0
  0
SCALE
  5
182
102
{ACAD_REACTORS
330
16F
102
}
330
16F
100
AcDbScale
 70
     0
300
1/64" = 1'-0"
140
0.015625
141
12.0
290
     0
  0
SCALE
  5
183
102
{ACAD_REACTORS
330
16F
102
}
330
16F
100
AcDbScale
 70
     0
300
1/32" = 1'-0"
140
0.03125
141
12.0
290
     0
  0
SCALE
  5
184
102
{ACAD_REACTORS
330
16F
102
}
330
16F
100
AcDbScale
 70
     0
300
1/16" = 1'-0"
140
0.0625
141
12.0
290
     0
  0
SCALE
  5
185
102
{ACAD_REACTORS
330
16F
102
}
330
16F
100
AcDbScale
 70
     0
300
3/32" = 1'-0"
140
0.09375
141
12.0
290
     0
  0
SCALE
  5
186
102
{ACAD_REACTORS
330
16F
102
}
330
16F
100
AcDbScale
 70
     0
300
1/8" = 1'-0"
140
0.125
141
12.0
290
     0
  0
SCALE
  5
187
102
{ACAD_REACTORS
330
16F
102
}
330
16F
100
AcDbScale
 70
     0
300
3/16" = 1'-0"
140
0.1875
141
12.0
290
     0
  0
SCALE
  5
188
102
{ACAD_REACTORS
330
16F
102
}
330
16F
100
AcDbScale
 70
     0
300
1/4" = 1'-0"
140
0.25
141
12.0
290
     0
  0
SCALE
  5
189
102
{ACAD_REACTORS
330
16F
102
}
330
16F
100
AcDbScale
 70
     0
300
3/8" = 1'-0"
140
0.375
141
12.0
290
     0
  0
SCALE
  5
18A
102
{ACAD_REACTORS
330
16F
102
}
330
16F
100
AcDbScale
 70
     0
300
1/2" = 1'-0"
140
0.5
141
12.0
290
     0
  0
SCALE
  5
18B
102
{ACAD_REACTORS
330
16F
102
}
330
16F
100
AcDbScale
 70
     0
300
3/4" = 1'-0"
140
0.75
141
12.0
290
     0
  0
SCALE
  5
18C
102
{ACAD_REACTORS
330
16F
102
}
330
16F
100
AcDbScale
 70
     0
300
1" = 1'-0"
140
1.0
141
12.0
290
     0
  0
SCALE
  5
18D
102
{ACAD_REACTORS
330
16F
102
}
330
16F
100
AcDbScale
 70
     0
300
1-1/2" = 1'-0"
140
1.5
141
12.0
290
     0
  0
SCALE
  5
18E
102
{ACAD_REACTORS
330
16F
102
}
330
16F
100
AcDbScale
 70
     0
300
3" = 1'-0"
140
3.0
141
12.0
290
     0
  0
SCALE
  5
18F
102
{ACAD_REACTORS
330
16F
102
}
330
16F
100
AcDbScale
 70
     0
300
6" = 1'-0"
140
6.0
141
12.0
290
     0
  0
SCALE
  5
190
102
{ACAD_REACTORS
330
16F
102
}
330
16F
100
AcDbScale
 70
     0
300
1'-0" = 1'-0"
140
12.0
141
12.0
290
     0
  0
TABLESTYLE
  5
1FD
102
{ACAD_REACTORS
330
1FC
102
}
102
{ACAD_XDICTIONARY
360
284
102
}
330
1FC
100
AcDbTableStyle
  3
Standard
 70
     0
 71
     0
 40
0.06
 41
0.06
280
     0
281
     0
  7
Standard
140
0.18
170
     2
 62
     0
 63
   257
283
     0
 90
        4
 91
        0
  1

274
    -2
284
     1
 64
     0
275
    -2
285
     1
 65
     0
276
    -2
286
     1
 66
     0
277
    -2
287
     1
 67
     0
278
    -2
288
     1
 68
     0
279
    -2
289
     1
 69
     0
  7
Standard
140
0.25
170
     5
 62
     0
 63
   257
283
     0
 90
        4
 91
        0
  1

274
    -2
284
     1
 64
     0
275
    -2
285
     1
 65
     0
276
    -2
286
     1
 66
     0
277
    -2
287
     1
 67
     0
278
    -2
288
     1
 68
     0
279
    -2
289
     1
 69
     0
  7
Standard
140
0.18
170
     5
 62
     0
 63
   257
283
     0
 90
        4
 91
        0
  1

274
    -2
284
     1
 64
     0
275
    -2
285
     1
 65
     0
276
    -2
286
     1
 66
     0
277
    -2
287
     1
 67
     0
278
    -2
288
     1
 68
     0
279
    -2
289
     1
 69
     0
  0
VISUALSTYLE
  5
19A
102
{ACAD_REACTORS
330
195
102
}
330
195
100
AcDbVisualStyle
  2
2dWireframe
 70
     4
177
     3
291
     0
 70
    58
 90
        0
176
     1
 90
        2
176
     1
 90
        0
176
     1
 90
        0
176
     1
 40
-0.6
176
     1
 40
-30.0
176
     1
 62
     7
176
     1
 90
        1
176
     1
 90
        4
176
     1
 62
     7
176
     1
 62
   257
176
     1
 90
        1
176
     1
 90
        1
176
     1
 40
1.0
176
     1
 90
        0
176
     1
 62
   257
176
     1
 40
1.0
176
     1
 90
        1
176
     1
 90
        6
176
     1
 90
        2
176
     1
 62
     7
176
     1
 90
        5
176
     1
 90
        0
176
     1
 90
        0
176
     1
290
     0
176
     1
 90
        1
176
     1
 40
0.0
176
     1
 90
        0
176
     1
290
     1
176
     1
290
     1
176
     1
290
     0
176
     1
290
     0
176
     1
290
     0
176
     1
290
     0
176
     1
290
     0
176
     1
290
     0
176
     1
290
     0
176
     1
 90
       50
176
     1
 40
0.0
176
     1
 40
1.0
176
     1
 90
        0
176
     1
 62
    18
420
        0
176
     1
 90
       50
176
     1
 90
        3
176
     1
 62
     5
420
      255
176
     1
290
     0
176
     1
 90
       50
176
     1
 90
       50
176
     1
 90
       50
176
     1
290
     0
176
     1
 90
       50
176
     1
 62
   256
176
     0
 40
1.0
176
     0
 90
        2
176
     1
  1
strokes_ogs.tif
176
     1
290
     0
176
     1
 40
1.0
176
     1
 40
1.0
176
     1
  0
VISUALSTYLE
  5
19C
102
{ACAD_REACTORS
330
195
102
}
330
195
100
AcDbVisualStyle
  2
3D Hidden
 70
     6
177
     3
291
     0
 70
    58
 90
        1
176
     1
 90
        2
176
     1
 90
        2
176
     1
 90
        0
176
     1
 40
-0.6
176
     1
 40
-30.0
176
     1
 62
     7
176
     1
 90
        2
176
     1
 90
        2
176
     1
 62
     7
176
     1
 62
   257
176
     1
 90
        2
176
     1
 90
        1
176
     1
 40
40.0
176
     1
 90
        0
176
     1
 62
   257
176
     1
 40
1.0
176
     1
 90
        1
176
     1
 90
        6
176
     1
 90
        2
176
     1
 62
     7
176
     1
 90
        3
176
     1
 90
        0
176
     1
 90
        0
176
     1
290
     0
176
     1
 90
        1
176
     1
 40
0.0
176
     1
 90
        0
176
     1
290
     0
176
     1
290
     1
176
     1
290
     1
176
     1
290
     0
176
     1
290
     0
176
     1
290
     0
176
     1
290
     0
176
     1
290
     0
176
     1
290
     0
176
     1
 90
       50
176
     1
 40
0.0
176
     1
 40
1.0
176
     1
 90
        0
176
     1
 62
    18
420
        0
176
     1
 90
       50
176
     1
 90
        3
176
     1
 62
     5
420
      255
176
     1
290
     0
176
     1
 90
       50
176
     1
 90
       50
176
     1
 90
       50
176
     1
290
     0
176
     1
 90
       50
176
     1
 62
   256
176
     0
 40
1.0
176
     0
 90
        2
176
     1
  1
strokes_ogs.tif
176
     1
290
     0
176
     1
 40
1.0
176
     1
 40
1.0
176
     1
  0
VISUALSTYLE
  5
19B
102
{ACAD_REACTORS
330
195
102
}
330
195
100
AcDbVisualStyle
  2
3dWireframe
 70
     5
177
     3
291
     0
 70
    58
 90
        0
176
     1
 90
        2
176
     1
 90
        0
176
     1
 90
        0
176
     1
 40
-0.6
176
     1
 40
-30.0
176
     1
 62
     7
176
     1
 90
        1
176
     1
 90
        4
176
     1
 62
     7
176
     1
 62
   257
176
     1
 90
        1
176
     1
 90
        1
176
     1
 40
1.0
176
     1
 90
        0
176
     1
 62
   257
176
     1
 40
1.0
176
     1
 90
        1
176
     1
 90
        6
176
     1
 90
        2
176
     1
 62
     7
176
     1
 90
        5
176
     1
 90
        0
176
     1
 90
        0
176
     1
290
     0
176
     1
 90
        1
176
     1
 40
0.0
176
     1
 90
        0
176
     1
290
     0
176
     1
290
     1
176
     1
290
     1
176
     1
290
     0
176
     1
290
     0
176
     1
290
     0
176
     1
290
     0
176
     1
290
     0
176
     1
290
     0
176
     1
 90
       50
176
     1
 40
0.0
176
     1
 40
1.0
176
     1
 90
        0
176
     1
 62
    18
420
        0
176
     1
 90
       50
176
     1
 90
        3
176
     1
 62
     5
420
      255
176
     1
290
     0
176
     1
 90
       50
176
     1
 90
       50
176
     1
 90
       50
176
     1
290
     0
176
     1
 90
       50
176
     1
 62
   256
176
     0
 40
1.0
176
     0
 90
        2
176
     1
  1
strokes_ogs.tif
176
     1
290
     0
176
     1
 40
1.0
176
     1
 40
1.0
176
     1
  0
VISUALSTYLE
  5
19D
102
{ACAD_REACTORS
330
195
102
}
330
195
100
AcDbVisualStyle
  2
Basic
 70
     7
177
     3
291
     1
 70
    58
 90
        1
176
     1
 90
        0
176
     1
 90
        1
176
     1
 90
        0
176
     1
 40
-0.6
176
     1
 40
-30.0
176
     1
 62
     7
176
     1
 90
        0
176
     1
 90
        4
176
     1
 62
     7
176
     1
 62
   257
176
     1
 90
        1
176
     1
 90
        1
176
     1
 40
1.0
176
     1
 90
        8
176
     1
 62
     7
176
     1
 40
1.0
176
     1
 90
        1
176
     1
 90
        6
176
     1
 90
        2
176
     1
 62
     7
176
     1
 90
        5
176
     1
 90
        0
176
     1
 90
        0
176
     1
290
     0
176
     1
 90
        1
176
     1
 40
0.0
176
     1
 90
        0
176
     1
290
     0
176
     1
290
     1
176
     1
290
     1
176
     1
290
     0
176
     1
290
     0
176
     1
290
     0
176
     1
290
     0
176
     1
290
     0
176
     1
290
     0
176
     1
 90
       50
176
     1
 40
0.0
176
     1
 40
1.0
176
     1
 90
        0
176
     1
 62
    18
420
        0
176
     1
 90
       50
176
     1
 90
        3
176
     1
 62
     5
420
      255
176
     1
290
     0
176
     1
 90
       50
176
     1
 90
       50
176
     1
 90
       50
176
     1
290
     0
176
     1
 90
       50
176
     1
 62
   256
176
     0
 40
1.0
176
     0
 90
        2
176
     1
  1
strokes_ogs.tif
176
     1
290
     0
176
     1
 40
1.0
176
     1
 40
1.0
176
     1
  0
VISUALSTYLE
  5
1A1
102
{ACAD_REACTORS
330
195
102
}
330
195
100
AcDbVisualStyle
  2
Brighten
 70
    12
177
     3
291
     1
 70
    58
 90
        2
176
     1
 90
        2
176
     1
 90
        0
176
     1
 90
        0
176
     1
 40
-0.6
176
     1
 40
-30.0
176
     1
 62
     7
176
     1
 90
        1
176
     1
 90
        4
176
     1
 62
     7
176
     1
 62
   257
176
     1
 90
        1
176
     1
 90
        1
176
     1
 40
1.0
176
     1
 90
        8
176
     1
 62
     7
176
     1
 40
1.0
176
     1
 90
        1
176
     1
 90
        6
176
     1
 90
        2
176
     1
 62
     7
176
     1
 90
        5
176
     1
 90
        0
176
     1
 90
        0
176
     1
290
     0
176
     1
 90
        1
176
     1
 40
50.0
176
     1
 90
        0
176
     1
290
     0
176
     1
290
     1
176
     1
290
     1
176
     1
290
     0
176
     1
290
     0
176
     1
290
     0
176
     1
290
     0
176
     1
290
     0
176
     1
290
     0
176
     1
 90
       50
176
     1
 40
0.0
176
     1
 40
1.0
176
     1
 90
        0
176
     1
 62
    18
420
        0
176
     1
 90
       50
176
     1
 90
        3
176
     1
 62
     5
420
      255
176
     1
290
     0
176
     1
 90
       50
176
     1
 90
       50
176
     1
 90
       50
176
     1
290
     0
176
     1
 90
       50
176
     1
 62
   256
176
     0
 40
1.0
176
     0
 90
        2
176
     1
  1
strokes_ogs.tif
176
     1
290
     0
176
     1
 40
1.0
176
     1
 40
1.0
176
     1
  0
VISUALSTYLE
  5
1A5
102
{ACAD_REACTORS
330
195
102
}
330
195
100
AcDbVisualStyle
  2
ColorChange
 70
    16
177
     3
291
     1
 70
    58
 90
        2
176
     1
 90
        2
176
     1
 90
        3
176
     1
 90
        0
176
     1
 40
-0.6
176
     1
 40
-30.0
176
     1
 62
     8
176
     1
 90
        1
176
     1
 90
        4
176
     1
 62
     7
176
     1
 62
   257
176
     1
 90
        1
176
     1
 90
        1
176
     1
 40
1.0
176
     1
 90
        8
176
     1
 62
     8
176
     1
 40
1.0
176
     1
 90
        1
176
     1
 90
        6
176
     1
 90
        2
176
     1
 62
     7
176
     1
 90
        5
176
     1
 90
        0
176
     1
 90
        0
176
     1
290
     0
176
     1
 90
        1
176
     1
 40
0.0
176
     1
 90
        0
176
     1
290
     0
176
     1
290
     1
176
     1
290
     1
176
     1
290
     0
176
     1
290
     0
176
     1
290
     0
176
     1
290
     0
176
     1
290
     0
176
     1
290
     0
176
     1
 90
       50
176
     1
 40
0.0
176
     1
 40
1.0
176
     1
 90
        0
176
     1
 62
    18
420
        0
176
     1
 90
       50
176
     1
 90
        3
176
     1
 62
     5
420
      255
176
     1
290
     0
176
     1
 90
       50
176
     1
 90
       50
176
     1
 90
       50
176
     1
290
     0
176
     1
 90
       50
176
     1
 62
   256
176
     0
 40
1.0
176
     0
 90
        2
176
     1
  1
strokes_ogs.tif
176
     1
290
     0
176
     1
 40
1.0
176
     1
 40
1.0
176
     1
  0
VISUALSTYLE
  5
19F
102
{ACAD_REACTORS
330
195
102
}
330
195
100
AcDbVisualStyle
  2
Conceptual
 70
     9
177
     3
291
     0
 70
    58
 90
        3
176
     1
 90
        2
176
     1
 90
        0
176
     1
 90
        0
176
     1
 40
-0.6
176
     1
 40
-30.0
176
     1
 62
     7
176
     1
 90
        2
176
     1
 90
        2
176
     1
 62
     7
176
     1
 62
   257
176
     1
 90
        1
176
     1
 90
        1
176
     1
 40
40.0
176
     1
 90
        8
176
     1
 62
     7
176
     1
 40
1.0
176
     1
 90
        1
176
     1
 90
        6
176
     1
 90
        2
176
     1
 62
     7
176
     1
 90
        3
176
     1
 90
        0
176
     1
 90
        0
176
     1
290
     0
176
     1
 90
        1
176
     1
 40
0.0
176
     1
 90
        0
176
     1
290
     0
176
     1
290
     1
176
     1
290
     1
176
     1
290
     0
176
     1
290
     0
176
     1
290
     0
176
     1
290
     0
176
     1
290
     0
176
     1
290
     0
176
     1
 90
       50
176
     1
 40
0.0
176
     1
 40
1.0
176
     1
 90
        0
176
     1
 62
    18
420
        0
176
     1
 90
       50
176
     1
 90
        3
176
     1
 62
     5
420
      255
176
     1
290
     0
176
     1
 90
       50
176
     1
 90
       50
176
     1
 90
       50
176
     1
290
     0
176
     1
 90
       50
176
     1
 62
   256
176
     0
 40
1.0
176
     0
 90
        2
176
     1
  1
strokes_ogs.tif
176
     1
290
     0
176
     1
 40
1.0
176
     1
 40
1.0
176
     1
  0
VISUALSTYLE
  5
1A0
102
{ACAD_REACTORS
330
195
102
}
330
195
100
AcDbVisualStyle
  2
Dim
 70
    11
177
     3
291
     1
 70
    58
 90
        2
176
     1
 90
        2
176
     1
 90
        0
176
     1
 90
        0
176
     1
 40
-0.6
176
     1
 40
-30.0
176
     1
 62
     7
176
     1
 90
        1
176
     1
 90
        4
176
     1
 62
     7
176
     1
 62
   257
176
     1
 90
        1
176
     1
 90
        1
176
     1
 40
1.0
176
     1
 90
        8
176
     1
 62
     7
176
     1
 40
1.0
176
     1
 90
        1
176
     1
 90
        6
176
     1
 90
        2
176
     1
 62
     7
176
     1
 90
        5
176
     1
 90
        0
176
     1
 90
        0
176
     1
290
     0
176
     1
 90
        1
176
     1
 40
-50.0
176
     1
 90
        0
176
     1
290
     0
176
     1
290
     1
176
     1
290
     1
176
     1
290
     0
176
     1
290
     0
176
     1
290
     0
176
     1
290
     0
176
     1
290
     0
176
     1
290
     0
176
     1
 90
       50
176
     1
 40
0.0
176
     1
 40
1.0
176
     1
 90
        0
176
     1
 62
    18
420
        0
176
     1
 90
       50
176
     1
 90
        3
176
     1
 62
     5
420
      255
176
     1
290
     0
176
     1
 90
       50
176
     1
 90
       50
176
     1
 90
       50
176
     1
290
     0
176
     1
 90
       50
176
     1
 62
   256
176
     0
 40
1.0
176
     0
 90
        2
176
     1
  1
strokes_ogs.tif
176
     1
290
     0
176
     1
 40
1.0
176
     1
 40
1.0
176
     1
  0
VISUALSTYLE
  5
1F6
102
{ACAD_REACTORS
330
195
102
}
330
195
100
AcDbVisualStyle
  2
EdgeColorOff
 70
    22
177
     3
291
     1
 70
    58
 90
        2
176
     0
 90
        2
176
     0
 90
        0
176
     0
 90
        0
176
     0
 40
0.6
176
     0
 40
30.0
176
     0
 62
     7
420
 16777215
176
     0
 90
        1
176
     0
 90
        4
176
     0
 62
     7
176
     0
 62
   257
176
     0
 90
        1
176
     0
 90
        1
176
     0
 40
1.0
176
     0
 90
        8
176
     2
 62
     7
176
     0
 40
1.0
176
     0
 90
        1
176
     0
 90
        6
176
     0
 90
        2
176
     0
 62
     7
176
     0
 90
        5
176
     0
 90
        0
176
     0
 90
        0
176
     0
290
     0
176
     0
 90
        1
176
     0
 40
0.0
176
     0
 90
        0
176
     0
290
     0
176
     0
290
     1
176
     0
290
     1
176
     0
290
     0
176
     0
290
     0
176
     0
290
     0
176
     0
290
     0
176
     0
290
     0
176
     0
290
     0
176
     0
 90
       50
176
     0
 40
0.0
176
     0
 40
1.0
176
     0
 90
        0
176
     0
 62
    18
420
        0
176
     0
 90
       50
176
     0
 90
        3
176
     0
 62
     5
420
      255
176
     0
290
     0
176
     0
 90
       50
176
     0
 90
       50
176
     0
 90
       50
176
     0
290
     0
176
     0
 90
       50
176
     0
 62
   256
176
     0
 40
1.0
176
     0
 90
        2
176
     0
  1
strokes_ogs.tif
176
     0
290
     0
176
     0
 40
1.0
176
     0
 40
1.0
176
     0
  0
VISUALSTYLE
  5
1A4
102
{ACAD_REACTORS
330
195
102
}
330
195
100
AcDbVisualStyle
  2
Facepattern
 70
    15
177
     3
291
     1
 70
    58
 90
        2
176
     1
 90
        2
176
     1
 90
        0
176
     1
 90
        0
176
     1
 40
-0.6
176
     1
 40
-30.0
176
     1
 62
     7
176
     1
 90
        1
176
     1
 90
        4
176
     1
 62
     7
176
     1
 62
   257
176
     1
 90
        1
176
     1
 90
        1
176
     1
 40
1.0
176
     1
 90
        8
176
     1
 62
     7
176
     1
 40
1.0
176
     1
 90
        1
176
     1
 90
        6
176
     1
 90
        2
176
     1
 62
     7
176
     1
 90
        5
176
     1
 90
        0
176
     1
 90
        0
176
     1
290
     0
176
     1
 90
        1
176
     1
 40
0.0
176
     1
 90
        0
176
     1
290
     0
176
     1
290
     1
176
     1
290
     1
176
     1
290
     0
176
     1
290
     0
176
     1
290
     0
176
     1
290
     0
176
     1
290
     0
176
     1
290
     0
176
     1
 90
       50
176
     1
 40
0.0
176
     1
 40
1.0
176
     1
 90
        0
176
     1
 62
    18
420
        0
176
     1
 90
       50
176
     1
 90
        3
176
     1
 62
     5
420
      255
176
     1
290
     0
176
     1
 90
       50
176
     1
 90
       50
176
     1
 90
       50
176
     1
290
     0
176
     1
 90
       50
176
     1
 62
   256
176
     0
 40
1.0
176
     0
 90
        2
176
     1
  1
strokes_ogs.tif
176
     1
290
     0
176
     1
 40
1.0
176
     1
 40
1.0
176
     1
  0
VISUALSTYLE
  5
196
102
{ACAD_REACTORS
330
195
102
}
330
195
100
AcDbVisualStyle
  2
Flat
 70
     0
177
     3
291
     1
 70
    58
 90
        2
176
     1
 90
        1
176
     1
 90
        1
176
     1
 90
        2
176
     1
 40
-0.6
176
     1
 40
30.0
176
     1
 62
     7
176
     1
 90
        0
176
     1
 90
        4
176
     1
 62
     7
176
     1
 62
   257
176
     1
 90
        1
176
     1
 90
        1
176
     1
 40
1.0
176
     1
 90
        8
176
     1
 62
     7
176
     1
 40
1.0
176
     1
 90
        1
176
     1
 90
        6
176
     1
 90
        2
176
     1
 62
     7
176
     1
 90
        5
176
     1
 90
        0
176
     1
 90
        0
176
     1
290
     0
176
     1
 90
       13
176
     1
 40
0.0
176
     1
 90
        0
176
     1
290
     0
176
     1
290
     1
176
     1
290
     1
176
     1
290
     0
176
     1
290
     0
176
     1
290
     0
176
     1
290
     0
176
     1
290
     0
176
     1
290
     0
176
     1
 90
       50
176
     1
 40
0.0
176
     1
 40
1.0
176
     1
 90
        0
176
     1
 62
    18
420
        0
176
     1
 90
       50
176
     1
 90
        3
176
     1
 62
     5
420
      255
176
     1
290
     0
176
     1
 90
       50
176
     1
 90
       50
176
     1
 90
       50
176
     1
290
     0
176
     1
 90
       50
176
     1
 62
   256
176
     0
 40
1.0
176
     0
 90
        2
176
     1
  1
strokes_ogs.tif
176
     1
290
     0
176
     1
 40
1.0
176
     1
 40
1.0
176
     1
  0
VISUALSTYLE
  5
197
102
{ACAD_REACTORS
330
195
102
}
330
195
100
AcDbVisualStyle
  2
FlatWithEdges
 70
     1
177
     3
291
     1
 70
    58
 90
        2
176
     1
 90
        1
176
     1
 90
        1
176
     1
 90
        2
176
     1
 40
-0.6
176
     1
 40
30.0
176
     1
 62
     7
176
     1
 90
        1
176
     1
 90
        4
176
     1
 62
     7
176
     1
 62
   257
176
     1
 90
        1
176
     1
 90
        1
176
     1
 40
1.0
176
     1
 90
        0
176
     1
 62
   257
176
     1
 40
1.0
176
     1
 90
        1
176
     1
 90
        6
176
     1
 90
        2
176
     1
 62
     7
176
     1
 90
        5
176
     1
 90
        0
176
     1
 90
        0
176
     1
290
     0
176
     1
 90
       13
176
     1
 40
0.0
176
     1
 90
        0
176
     1
290
     0
176
     1
290
     1
176
     1
290
     1
176
     1
290
     0
176
     1
290
     0
176
     1
290
     0
176
     1
290
     0
176
     1
290
     0
176
     1
290
     0
176
     1
 90
       50
176
     1
 40
0.0
176
     1
 40
1.0
176
     1
 90
        0
176
     1
 62
    18
420
        0
176
     1
 90
       50
176
     1
 90
        3
176
     1
 62
     5
420
      255
176
     1
290
     0
176
     1
 90
       50
176
     1
 90
       50
176
     1
 90
       50
176
     1
290
     0
176
     1
 90
       50
176
     1
 62
   256
176
     0
 40
1.0
176
     0
 90
        2
176
     1
  1
strokes_ogs.tif
176
     1
290
     0
176
     1
 40
1.0
176
     1
 40
1.0
176
     1
  0
VISUALSTYLE
  5
198
102
{ACAD_REACTORS
330
195
102
}
330
195
100
AcDbVisualStyle
  2
Gouraud
 70
     2
177
     3
291
     1
 70
    58
 90
        2
176
     1
 90
        2
176
     1
 90
        1
176
     1
 90
        2
176
     1
 40
-0.6
176
     1
 40
30.0
176
     1
 62
     7
176
     1
 90
        0
176
     1
 90
        4
176
     1
 62
     7
176
     1
 62
   257
176
     1
 90
        1
176
     1
 90
        1
176
     1
 40
1.0
176
     1
 90
        0
176
     1
 62
     7
176
     1
 40
1.0
176
     1
 90
        1
176
     1
 90
        6
176
     1
 90
        2
176
     1
 62
     7
176
     1
 90
        5
176
     1
 90
        0
176
     1
 90
        0
176
     1
290
     0
176
     1
 90
       13
176
     1
 40
0.0
176
     1
 90
        0
176
     1
290
     0
176
     1
290
     1
176
     1
290
     1
176
     1
290
     0
176
     1
290
     0
176
     1
290
     0
176
     1
290
     0
176
     1
290
     0
176
     1
290
     0
176
     1
 90
       50
176
     1
 40
0.0
176
     1
 40
1.0
176
     1
 90
        0
176
     1
 62
    18
420
        0
176
     1
 90
       50
176
     1
 90
        3
176
     1
 62
     5
420
      255
176
     1
290
     0
176
     1
 90
       50
176
     1
 90
       50
176
     1
 90
       50
176
     1
290
     0
176
     1
 90
       50
176
     1
 62
   256
176
     0
 40
1.0
176
     0
 90
        2
176
     1
  1
strokes_ogs.tif
176
     1
290
     0
176
     1
 40
1.0
176
     1
 40
1.0
176
     1
  0
VISUALSTYLE
  5
199
102
{ACAD_REACTORS
330
195
102
}
330
195
100
AcDbVisualStyle
  2
GouraudWithEdges
 70
     3
177
     3
291
     1
 70
    58
 90
        2
176
     1
 90
        2
176
     1
 90
        1
176
     1
 90
        2
176
     1
 40
-0.6
176
     1
 40
30.0
176
     1
 62
     7
176
     1
 90
        1
176
     1
 90
        4
176
     1
 62
     7
176
     1
 62
   257
176
     1
 90
        1
176
     1
 90
        1
176
     1
 40
1.0
176
     1
 90
        0
176
     1
 62
   257
176
     1
 40
1.0
176
     1
 90
        1
176
     1
 90
        6
176
     1
 90
        2
176
     1
 62
     7
176
     1
 90
        5
176
     1
 90
        0
176
     1
 90
        0
176
     1
290
     0
176
     1
 90
       13
176
     1
 40
0.0
176
     1
 90
        0
176
     1
290
     0
176
     1
290
     1
176
     1
290
     1
176
     1
290
     0
176
     1
290
     0
176
     1
290
     0
176
     1
290
     0
176
     1
290
     0
176
     1
290
     0
176
     1
 90
       50
176
     1
 40
0.0
176
     1
 40
1.0
176
     1
 90
        0
176
     1
 62
    18
420
        0
176
     1
 90
       50
176
     1
 90
        3
176
     1
 62
     5
420
      255
176
     1
290
     0
176
     1
 90
       50
176
     1
 90
       50
176
     1
 90
       50
176
     1
290
     0
176
     1
 90
       50
176
     1
 62
   256
176
     0
 40
1.0
176
     0
 90
        2
176
     1
  1
strokes_ogs.tif
176
     1
290
     0
176
     1
 40
1.0
176
     1
 40
1.0
176
     1
  0
VISUALSTYLE
  5
1F3
102
{ACAD_REACTORS
330
195
102
}
330
195
100
AcDbVisualStyle
  2
Hidden
 70
     6
177
     3
291
     0
 70
    58
 90
        1
176
     1
 90
        2
176
     1
 90
        2
176
     1
 90
        0
176
     1
 40
0.6
176
     1
 40
30.0
176
     1
 62
     7
420
 16777215
176
     1
 90
        2
176
     1
 90
        2
176
     1
 62
     7
176
     1
 62
   257
176
     1
 90
        2
176
     1
 90
        1
176
     1
 40
40.0
176
     1
 90
        0
176
     1
 62
   257
176
     1
 40
1.0
176
     1
 90
        1
176
     1
 90
        6
176
     1
 90
        2
176
     1
 62
     7
176
     1
 90
        3
176
     1
 90
        0
176
     1
 90
        0
176
     1
290
     0
176
     1
 90
        1
176
     1
 40
0.0
176
     1
 90
        0
176
     1
290
     0
176
     1
290
     1
176
     1
290
     1
176
     1
290
     0
176
     1
290
     0
176
     1
290
     0
176
     1
290
     0
176
     1
290
     0
176
     1
290
     0
176
     1
 90
       50
176
     1
 40
0.0
176
     1
 40
1.0
176
     1
 90
        0
176
     1
 62
    18
420
        0
176
     1
 90
       50
176
     1
 90
        3
176
     1
 62
     5
420
      255
176
     1
290
     0
176
     1
 90
       50
176
     1
 90
       50
176
     1
 90
       50
176
     1
290
     0
176
     1
 90
       50
176
     1
 62
   256
176
     0
 40
1.0
176
     0
 90
        2
176
     1
  1
strokes_ogs.tif
176
     1
290
     0
176
     1
 40
1.0
176
     1
 40
1.0
176
     1
  0
VISUALSTYLE
  5
1F4
102
{ACAD_REACTORS
330
195
102
}
330
195
100
AcDbVisualStyle
  2
JitterOff
 70
    20
177
     3
291
     1
 70
    58
 90
        2
176
     0
 90
        2
176
     0
 90
        0
176
     0
 90
        0
176
     0
 40
0.6
176
     0
 40
30.0
176
     0
 62
     7
420
 16777215
176
     0
 90
        1
176
     0
 90
        4
176
     0
 62
     7
176
     0
 62
   257
176
     0
 90
        1
176
     0
 90
        1
176
     0
 40
1.0
176
     0
 90
       10
176
     2
 62
     7
176
     0
 40
1.0
176
     0
 90
        1
176
     0
 90
        6
176
     0
 90
        2
176
     0
 62
     7
176
     0
 90
        5
176
     0
 90
        0
176
     0
 90
        0
176
     0
290
     0
176
     0
 90
        1
176
     0
 40
0.0
176
     0
 90
        0
176
     0
290
     0
176
     0
290
     1
176
     0
290
     1
176
     0
290
     0
176
     0
290
     0
176
     0
290
     0
176
     0
290
     0
176
     0
290
     0
176
     0
290
     0
176
     0
 90
       50
176
     0
 40
0.0
176
     0
 40
1.0
176
     0
 90
        0
176
     0
 62
    18
420
        0
176
     0
 90
       50
176
     0
 90
        3
176
     0
 62
     5
420
      255
176
     0
290
     0
176
     0
 90
       50
176
     0
 90
       50
176
     0
 90
       50
176
     0
290
     0
176
     0
 90
       50
176
     0
 62
   256
176
     0
 40
1.0
176
     0
 90
        2
176
     0
  1
strokes_ogs.tif
176
     0
290
     0
176
     0
 40
1.0
176
     0
 40
1.0
176
     0
  0
VISUALSTYLE
  5
1A3
102
{ACAD_REACTORS
330
195
102
}
330
195
100
AcDbVisualStyle
  2
Linepattern
 70
    14
177
     3
291
     1
 70
    58
 90
        2
176
     1
 90
        2
176
     1
 90
        0
176
     1
 90
        0
176
     1
 40
-0.6
176
     1
 40
-30.0
176
     1
 62
     7
176
     1
 90
        1
176
     1
 90
        4
176
     1
 62
     7
176
     1
 62
   257
176
     1
 90
        7
176
     1
 90
        7
176
     1
 40
1.0
176
     1
 90
        8
176
     1
 62
     7
176
     1
 40
1.0
176
     1
 90
        1
176
     1
 90
        6
176
     1
 90
        2
176
     1
 62
     7
176
     1
 90
        5
176
     1
 90
        0
176
     1
 90
        0
176
     1
290
     0
176
     1
 90
        1
176
     1
 40
0.0
176
     1
 90
        0
176
     1
290
     0
176
     1
290
     1
176
     1
290
     1
176
     1
290
     0
176
     1
290
     0
176
     1
290
     0
176
     1
290
     0
176
     1
290
     0
176
     1
290
     0
176
     1
 90
       50
176
     1
 40
0.0
176
     1
 40
1.0
176
     1
 90
        0
176
     1
 62
    18
420
        0
176
     1
 90
       50
176
     1
 90
        3
176
     1
 62
     5
420
      255
176
     1
290
     0
176
     1
 90
       50
176
     1
 90
       50
176
     1
 90
       50
176
     1
290
     0
176
     1
 90
       50
176
     1
 62
   256
176
     0
 40
1.0
176
     0
 90
        2
176
     1
  1
strokes_ogs.tif
176
     1
290
     0
176
     1
 40
1.0
176
     1
 40
1.0
176
     1
  0
VISUALSTYLE
  5
1F5
102
{ACAD_REACTORS
330
195
102
}
330
195
100
AcDbVisualStyle
  2
OverhangOff
 70
    21
177
     3
291
     1
 70
    58
 90
        2
176
     0
 90
        2
176
     0
 90
        0
176
     0
 90
        0
176
     0
 40
0.6
176
     0
 40
30.0
176
     0
 62
     7
420
 16777215
176
     0
 90
        1
176
     0
 90
        4
176
     0
 62
     7
176
     0
 62
   257
176
     0
 90
        1
176
     0
 90
        1
176
     0
 40
1.0
176
     0
 90
        9
176
     2
 62
     7
176
     0
 40
1.0
176
     0
 90
        1
176
     0
 90
        6
176
     0
 90
        2
176
     0
 62
     7
176
     0
 90
        5
176
     0
 90
        0
176
     0
 90
        0
176
     0
290
     0
176
     0
 90
        1
176
     0
 40
0.0
176
     0
 90
        0
176
     0
290
     0
176
     0
290
     1
176
     0
290
     1
176
     0
290
     0
176
     0
290
     0
176
     0
290
     0
176
     0
290
     0
176
     0
290
     0
176
     0
290
     0
176
     0
 90
       50
176
     0
 40
0.0
176
     0
 40
1.0
176
     0
 90
        0
176
     0
 62
    18
420
        0
176
     0
 90
       50
176
     0
 90
        3
176
     0
 62
     5
420
      255
176
     0
290
     0
176
     0
 90
       50
176
     0
 90
       50
176
     0
 90
       50
176
     0
290
     0
176
     0
 90
       50
176
     0
 62
   256
176
     0
 40
1.0
176
     0
 90
        2
176
     0
  1
strokes_ogs.tif
176
     0
290
     0
176
     0
 40
1.0
176
     0
 40
1.0
176
     0
  0
VISUALSTYLE
  5
19E
102
{ACAD_REACTORS
330
195
102
}
330
195
100
AcDbVisualStyle
  2
Realistic
 70
     8
177
     3
291
     0
 70
    58
 90
        2
176
     1
 90
        2
176
     1
 90
        0
176
     1
 90
        0
176
     1
 40
-0.6
176
     1
 40
-30.0
176
     1
 62
     7
176
     1
 90
        1
176
     1
 90
        0
176
     1
 62
     7
176
     1
 62
   257
176
     1
 90
        1
176
     1
 90
        1
176
     1
 40
1.0
176
     1
 90
        8
176
     1
 62
     8
176
     1
 40
1.0
176
     1
 90
        1
176
     1
 90
        6
176
     1
 90
        2
176
     1
 62
     7
176
     1
 90
        5
176
     1
 90
        0
176
     1
 90
        0
176
     1
290
     0
176
     1
 90
       13
176
     1
 40
0.0
176
     1
 90
        0
176
     1
290
     0
176
     1
290
     1
176
     1
290
     1
176
     1
290
     0
176
     1
290
     0
176
     1
290
     0
176
     1
290
     0
176
     1
290
     0
176
     1
290
     0
176
     1
 90
       50
176
     1
 40
0.0
176
     1
 40
1.0
176
     1
 90
        0
176
     1
 62
    18
420
        0
176
     1
 90
       50
176
     1
 90
        3
176
     1
 62
     5
420
      255
176
     1
290
     0
176
     1
 90
       50
176
     1
 90
       50
176
     1
 90
       50
176
     1
290
     0
176
     1
 90
       50
176
     1
 62
   256
176
     0
 40
1.0
176
     0
 90
        2
176
     1
  1
strokes_ogs.tif
176
     1
290
     0
176
     1
 40
1.0
176
     1
 40
1.0
176
     1
  0
VISUALSTYLE
  5
1FB
102
{ACAD_REACTORS
330
195
102
}
330
195
100
AcDbVisualStyle
  2
Shaded
 70
    27
177
     3
291
     0
 70
    58
 90
        2
176
     1
 90
        2
176
     1
 90
        1
176
     1
 90
        2
176
     1
 40
0.6
176
     1
 40
30.0
176
     1
 62
     7
420
 16777215
176
     1
 90
        0
176
     1
 90
        4
176
     1
 62
     7
176
     1
 62
   257
176
     1
 90
        1
176
     1
 90
        1
176
     1
 40
1.0
176
     1
 90
        8
176
     1
 62
   257
176
     1
 40
1.0
176
     1
 90
        1
176
     1
 90
        6
176
     1
 90
        2
176
     1
 62
     8
420
  7895160
176
     1
 90
        3
176
     1
 90
        0
176
     1
 90
        0
176
     1
290
     0
176
     1
 90
        5
176
     1
 40
0.0
176
     1
 90
        0
176
     1
290
     0
176
     1
290
     1
176
     1
290
     1
176
     1
290
     0
176
     1
290
     0
176
     1
290
     0
176
     1
290
     0
176
     1
290
     0
176
     1
290
     0
176
     1
 90
       50
176
     1
 40
0.0
176
     1
 40
1.0
176
     1
 90
        0
176
     1
 62
    18
420
        0
176
     1
 90
       50
176
     1
 90
        3
176
     1
 62
     5
420
      255
176
     1
290
     0
176
     1
 90
       50
176
     1
 90
       50
176
     1
 90
       50
176
     1
290
     0
176
     1
 90
       50
176
     1
 62
   256
176
     0
 40
1.0
176
     0
 90
        2
176
     1
  1
strokes_ogs.tif
176
     1
290
     0
176
     1
 40
1.0
176
     1
 40
1.0
176
     1
  0
VISUALSTYLE
  5
1FA
102
{ACAD_REACTORS
330
195
102
}
330
195
100
AcDbVisualStyle
  2
Shaded with edges
 70
    26
177
     3
291
     0
 70
    58
 90
        2
176
     1
 90
        2
176
     1
 90
        1
176
     1
 90
        2
176
     1
 40
0.6
176
     1
 40
30.0
176
     1
 62
     7
420
 16777215
176
     1
 90
        1
176
     1
 90
       10
176
     1
 62
     7
176
     1
 62
   257
176
     1
 90
        2
176
     1
 90
        1
176
     1
 40
1.0
176
     1
 90
        8
176
     1
 62
   257
176
     1
 40
1.0
176
     1
 90
        1
176
     1
 90
        6
176
     1
 90
        2
176
     1
 62
     7
176
     1
 90
        3
176
     1
 90
        0
176
     1
 90
        0
176
     1
290
     0
176
     1
 90
        5
176
     1
 40
0.0
176
     1
 90
        0
176
     1
290
     0
176
     1
290
     1
176
     1
290
     1
176
     1
290
     0
176
     1
290
     0
176
     1
290
     0
176
     1
290
     0
176
     1
290
     0
176
     1
290
     0
176
     1
 90
       50
176
     1
 40
0.0
176
     1
 40
1.0
176
     1
 90
        0
176
     1
 62
    18
420
        0
176
     1
 90
       50
176
     1
 90
        3
176
     1
 62
     5
420
      255
176
     1
290
     0
176
     1
 90
       50
176
     1
 90
       50
176
     1
 90
       50
176
     1
290
     0
176
     1
 90
       50
176
     1
 62
   256
176
     0
 40
1.0
176
     0
 90
        2
176
     1
  1
strokes_ogs.tif
176
     1
290
     0
176
     1
 40
1.0
176
     1
 40
1.0
176
     1
  0
VISUALSTYLE
  5
1F7
102
{ACAD_REACTORS
330
195
102
}
330
195
100
AcDbVisualStyle
  2
Shades of Gray
 70
    23
177
     3
291
     0
 70
    58
 90
        2
176
     1
 90
        2
176
     1
 90
        3
176
     1
 90
        0
176
     1
 40
0.6
176
     1
 40
30.0
176
     1
 62
     7
420
 16777215
176
     1
 90
        2
176
     1
 90
        2
176
     1
 62
     7
176
     1
 62
     7
176
     1
 90
        1
176
     1
 90
        1
176
     1
 40
40.0
176
     1
 90
        8
176
     1
 62
     7
176
     1
 40
1.0
176
     1
 90
        1
176
     1
 90
        6
176
     1
 90
        2
176
     1
 62
     7
176
     1
 90
        3
176
     1
 90
        0
176
     1
 90
        0
176
     1
290
     0
176
     1
 90
        1
176
     1
 40
0.0
176
     1
 90
        0
176
     1
290
     0
176
     1
290
     1
176
     1
290
     1
176
     1
290
     0
176
     1
290
     0
176
     1
290
     0
176
     1
290
     0
176
     1
290
     0
176
     1
290
     0
176
     1
 90
       50
176
     1
 40
0.0
176
     1
 40
1.0
176
     1
 90
        0
176
     1
 62
    18
420
        0
176
     1
 90
       50
176
     1
 90
        3
176
     1
 62
     5
420
      255
176
     1
290
     0
176
     1
 90
       50
176
     1
 90
       50
176
     1
 90
       50
176
     1
290
     0
176
     1
 90
       50
176
     1
 62
   256
176
     0
 40
1.0
176
     0
 90
        2
176
     1
  1
strokes_ogs.tif
176
     1
290
     0
176
     1
 40
1.0
176
     1
 40
1.0
176
     1
  0
VISUALSTYLE
  5
1F8
102
{ACAD_REACTORS
330
195
102
}
330
195
100
AcDbVisualStyle
  2
Sketchy
 70
    24
177
     3
291
     0
 70
    58
 90
        1
176
     1
 90
        2
176
     1
 90
        2
176
     1
 90
        0
176
     1
 40
0.6
176
     1
 40
30.0
176
     1
 62
     7
420
 16777215
176
     1
 90
        2
176
     1
 90
        2
176
     1
 62
     7
176
     1
 62
     7
176
     1
 90
        1
176
     1
 90
        1
176
     1
 40
40.0
176
     1
 90
       11
176
     1
 62
     7
176
     1
 40
1.0
176
     1
 90
        1
176
     1
 90
        6
176
     1
 90
        2
176
     1
 62
     7
176
     1
 90
        6
176
     1
 90
        0
176
     1
 90
        0
176
     1
290
     0
176
     1
 90
        1
176
     1
 40
0.0
176
     1
 90
        0
176
     1
290
     0
176
     1
290
     1
176
     1
290
     1
176
     1
290
     0
176
     1
290
     0
176
     1
290
     0
176
     1
290
     0
176
     1
290
     0
176
     1
290
     0
176
     1
 90
       50
176
     1
 40
0.0
176
     1
 40
1.0
176
     1
 90
        0
176
     1
 62
    18
420
        0
176
     1
 90
       50
176
     1
 90
        3
176
     1
 62
     5
420
      255
176
     1
290
     0
176
     1
 90
       50
176
     1
 90
       50
176
     1
 90
       50
176
     1
290
     0
176
     1
 90
       50
176
     1
 62
   256
176
     0
 40
1.0
176
     0
 90
        2
176
     1
  1
strokes_ogs.tif
176
     1
290
     0
176
     1
 40
1.0
176
     1
 40
1.0
176
     1
  0
VISUALSTYLE
  5
1A2
102
{ACAD_REACTORS
330
195
102
}
330
195
100
AcDbVisualStyle
  2
Thicken
 70
    13
177
     3
291
     1
 70
    58
 90
        2
176
     1
 90
        2
176
     1
 90
        0
176
     1
 90
        0
176
     1
 40
-0.6
176
     1
 40
-30.0
176
     1
 62
     7
176
     1
 90
        1
176
     1
 90
        4
176
     1
 62
     7
176
     1
 62
   257
176
     1
 90
        1
176
     1
 90
        1
176
     1
 40
1.0
176
     1
 90
       12
176
     1
 62
     7
176
     1
 40
1.0
176
     1
 90
        1
176
     1
 90
        6
176
     1
 90
        2
176
     1
 62
     7
176
     1
 90
        5
176
     1
 90
        0
176
     1
 90
        0
176
     1
290
     0
176
     1
 90
        1
176
     1
 40
0.0
176
     1
 90
        0
176
     1
290
     0
176
     1
290
     1
176
     1
290
     1
176
     1
290
     0
176
     1
290
     0
176
     1
290
     0
176
     1
290
     0
176
     1
290
     0
176
     1
290
     0
176
     1
 90
       50
176
     1
 40
0.0
176
     1
 40
1.0
176
     1
 90
        0
176
     1
 62
    18
420
        0
176
     1
 90
       50
176
     1
 90
        3
176
     1
 62
     5
420
      255
176
     1
290
     0
176
     1
 90
       50
176
     1
 90
       50
176
     1
 90
       50
176
     1
290
     0
176
     1
 90
       50
176
     1
 62
   256
176
     0
 40
1.0
176
     0
 90
        2
176
     1
  1
strokes_ogs.tif
176
     1
290
     0
176
     1
 40
1.0
176
     1
 40
1.0
176
     1
  0
VISUALSTYLE
  5
1F2
102
{ACAD_REACTORS
330
195
102
}
330
195
100
AcDbVisualStyle
  2
Wireframe
 70
     5
177
     3
291
     0
 70
    58
 90
        0
176
     1
 90
        2
176
     1
 90
        0
176
     1
 90
        0
176
     1
 40
0.6
176
     1
 40
30.0
176
     1
 62
     7
420
 16777215
176
     1
 90
        1
176
     1
 90
        4
176
     1
 62
     7
176
     1
 62
   257
176
     1
 90
        1
176
     1
 90
        1
176
     1
 40
1.0
176
     1
 90
        0
176
     1
 62
   257
176
     1
 40
1.0
176
     1
 90
        1
176
     1
 90
        6
176
     1
 90
        2
176
     1
 62
     7
176
     1
 90
        3
176
     1
 90
        0
176
     1
 90
        0
176
     1
290
     0
176
     1
 90
        1
176
     1
 40
0.0
176
     1
 90
        0
176
     1
290
     0
176
     1
290
     1
176
     1
290
     1
176
     1
290
     0
176
     1
290
     0
176
     1
290
     0
176
     1
290
     0
176
     1
290
     0
176
     1
290
     0
176
     1
 90
       50
176
     1
 40
0.0
176
     1
 40
1.0
176
     1
 90
        0
176
     1
 62
    18
420
        0
176
     1
 90
       50
176
     1
 90
        3
176
     1
 62
     5
420
      255
176
     1
290
     0
176
     1
 90
       50
176
     1
 90
       50
176
     1
 90
       50
176
     1
290
     0
176
     1
 90
       50
176
     1
 62
   256
176
     0
 40
1.0
176
     0
 90
        2
176
     1
  1
strokes_ogs.tif
176
     1
290
     0
176
     1
 40
1.0
176
     1
 40
1.0
176
     1
  0
VISUALSTYLE
  5
1F9
102
{ACAD_REACTORS
330
195
102
}
330
195
100
AcDbVisualStyle
  2
X-Ray
 70
    25
177
     3
291
     0
 70
    58
 90
        2
176
     1
 90
        2
176
     1
 90
        1
176
     1
 90
        1
176
     1
 40
0.5
176
     1
 40
30.0
176
     1
 62
     7
420
 16777215
176
     1
 90
        1
176
     1
 90
        0
176
     1
 62
     7
176
     1
 62
   257
176
     1
 90
        1
176
     1
 90
        1
176
     1
 40
1.0
176
     1
 90
        8
176
     1
 62
     7
176
     1
 40
1.0
176
     1
 90
        1
176
     1
 90
        6
176
     1
 90
        2
176
     1
 62
     7
176
     1
 90
        3
176
     1
 90
        0
176
     1
 90
        0
176
     1
290
     0
176
     1
 90
       13
176
     1
 40
0.0
176
     1
 90
        0
176
     1
290
     0
176
     1
290
     1
176
     1
290
     1
176
     1
290
     0
176
     1
290
     0
176
     1
290
     0
176
     1
290
     0
176
     1
290
     0
176
     1
290
     0
176
     1
 90
       50
176
     1
 40
0.0
176
     1
 40
1.0
176
     1
 90
        0
176
     1
 62
    18
420
        0
176
     1
 90
       50
176
     1
 90
        3
176
     1
 62
     5
420
      255
176
     1
290
     0
176
     1
 90
       50
176
     1
 90
       50
176
     1
 90
       50
176
     1
290
     0
176
     1
 90
       50
176
     1
 62
   256
176
     0
 40
1.0
176
     0
 90
        2
176
     1
  1
strokes_ogs.tif
176
     1
290
     0
176
     1
 40
1.0
176
     1
 40
1.0
176
     1
  0
DICTIONARYVAR
  5
20C
102
{ACAD_REACTORS
330
1B1
102
}
330
1B1
100
DictionaryVariables
280
     0
  1
1:1
  0
DICTIONARYVAR
  5
20E
102
{ACAD_REACTORS
330
1B1
102
}
330
1B1
100
DictionaryVariables
280
     0
  1
Standard
  0
DICTIONARYVAR
  5
20D
102
{ACAD_REACTORS
330
1B1
102
}
330
1B1
100
DictionaryVariables
280
     0
  1
Standard
  0
DICTIONARYVAR
  5
1B5
102
{ACAD_REACTORS
330
1B1
102
}
330
1B1
100
DictionaryVariables
280
     0
  1
2
  0
DICTIONARYVAR
  5
1B6
102
{ACAD_REACTORS
330
1B1
102
}
330
1B1
100
DictionaryVariables
280
     0
  1
1
  0
DICTIONARYVAR
  5
1B4
102
{ACAD_REACTORS
330
1B1
102
}
330
1B1
100
DictionaryVariables
280
     0
  1
0
  0
DICTIONARY
  5
284
330
1FD
100
AcDbDictionary
280
     1
281
     1
  3
ACAD_ROUNDTRIP_2008_TABLESTYLE_CELLSTYLEMAP
360
285
  0
CELLSTYLEMAP
  5
285
102
{ACAD_REACTORS
330
284
102
}
330
284
100
AcDbCellStyleMap
 90
        3
300
CELLSTYLE
  1
TABLEFORMAT_BEGIN
 90
        5
170
     1
 91
        0
 92
    32768
 62
   257
 93
        1
300
CONTENTFORMAT
  1
CONTENTFORMAT_BEGIN
 90
        0
 91
        0
 92
        4
 93
        0
300

 40
0.0
140
1.0
 94
        5
 62
     0
340
11
144
0.25
309
CONTENTFORMAT_END
171
     1
301
MARGIN
  1
CELLMARGIN_BEGIN
 40
0.06
 40
0.06
 40
0.06
 40
0.06
 40
0.06
 40
0.06
309
CELLMARGIN_END
 94
        6
 95
        1
302
GRIDFORMAT
  1
GRIDFORMAT_BEGIN
 90
        0
 91
        1
 62
     0
 92
       -2
340
14
 93
        0
 40
0.045
309
GRIDFORMAT_END
 95
        2
302
GRIDFORMAT
  1
GRIDFORMAT_BEGIN
 90
        0
 91
        1
 62
     0
 92
       -2
340
14
 93
        0
 40
0.045
309
GRIDFORMAT_END
 95
        4
302
GRIDFORMAT
  1
GRIDFORMAT_BEGIN
 90
        0
 91
        1
 62
     0
 92
       -2
340
14
 93
        0
 40
0.045
309
GRIDFORMAT_END
 95
        8
302
GRIDFORMAT
  1
GRIDFORMAT_BEGIN
 90
        0
 91
        1
 62
     0
 92
       -2
340
14
 93
        0
 40
0.045
309
GRIDFORMAT_END
 95
       16
302
GRIDFORMAT
  1
GRIDFORMAT_BEGIN
 90
        0
 91
        1
 62
     0
 92
       -2
340
14
 93
        0
 40
0.045
309
GRIDFORMAT_END
 95
       32
302
GRIDFORMAT
  1
GRIDFORMAT_BEGIN
 90
        0
 91
        1
 62
     0
 92
       -2
340
14
 93
        0
 40
0.045
309
GRIDFORMAT_END
309
TABLEFORMAT_END
  1
CELLSTYLE_BEGIN
 90
        1
 91
        1
300
_TITLE
309
CELLSTYLE_END
300
CELLSTYLE
  1
TABLEFORMAT_BEGIN
 90
        5
170
     1
 91
        0
 92
        0
 62
   257
 93
        1
300
CONTENTFORMAT
  1
CONTENTFORMAT_BEGIN
 90
        0
 91
        0
 92
        4
 93
        0
300

 40
0.0
140
1.0
 94
        5
 62
     0
340
11
144
0.18
309
CONTENTFORMAT_END
171
     1
301
MARGIN
  1
CELLMARGIN_BEGIN
 40
0.06
 40
0.06
 40
0.06
 40
0.06
 40
0.06
 40
0.06
309
CELLMARGIN_END
 94
        6
 95
        1
302
GRIDFORMAT
  1
GRIDFORMAT_BEGIN
 90
        0
 91
        1
 62
     0
 92
       -2
340
14
 93
        0
 40
0.045
309
GRIDFORMAT_END
 95
        2
302
GRIDFORMAT
  1
GRIDFORMAT_BEGIN
 90
        0
 91
        1
 62
     0
 92
       -2
340
14
 93
        0
 40
0.045
309
GRIDFORMAT_END
 95
        4
302
GRIDFORMAT
  1
GRIDFORMAT_BEGIN
 90
        0
 91
        1
 62
     0
 92
       -2
340
14
 93
        0
 40
0.045
309
GRIDFORMAT_END
 95
        8
302
GRIDFORMAT
  1
GRIDFORMAT_BEGIN
 90
        0
 91
        1
 62
     0
 92
       -2
340
14
 93
        0
 40
0.045
309
GRIDFORMAT_END
 95
       16
302
GRIDFORMAT
  1
GRIDFORMAT_BEGIN
 90
        0
 91
        1
 62
     0
 92
       -2
340
14
 93
        0
 40
0.045
309
GRIDFORMAT_END
 95
       32
302
GRIDFORMAT
  1
GRIDFORMAT_BEGIN
 90
        0
 91
        1
 62
     0
 92
       -2
340
14
 93
        0
 40
0.045
309
GRIDFORMAT_END
309
TABLEFORMAT_END
  1
CELLSTYLE_BEGIN
 90
        2
 91
        1
300
_HEADER
309
CELLSTYLE_END
300
CELLSTYLE
  1
TABLEFORMAT_BEGIN
 90
        5
170
     1
 91
        0
 92
        0
 62
   257
 93
        1
300
CONTENTFORMAT
  1
CONTENTFORMAT_BEGIN
 90
        0
 91
        0
 92
        4
 93
        0
300

 40
0.0
140
1.0
 94
        2
 62
     0
340
11
144
0.18
309
CONTENTFORMAT_END
171
     1
301
MARGIN
  1
CELLMARGIN_BEGIN
 40
0.06
 40
0.06
 40
0.06
 40
0.06
 40
0.06
 40
0.06
309
CELLMARGIN_END
 94
        6
 95
        1
302
GRIDFORMAT
  1
GRIDFORMAT_BEGIN
 90
        0
 91
        1
 62
     0
 92
       -2
340
14
 93
        0
 40
0.045
309
GRIDFORMAT_END
 95
        2
302
GRIDFORMAT
  1
GRIDFORMAT_BEGIN
 90
        0
 91
        1
 62
     0
 92
       -2
340
14
 93
        0
 40
0.045
309
GRIDFORMAT_END
 95
        4
302
GRIDFORMAT
  1
GRIDFORMAT_BEGIN
 90
        0
 91
        1
 62
     0
 92
       -2
340
14
 93
        0
 40
0.045
309
GRIDFORMAT_END
 95
        8
302
GRIDFORMAT
  1
GRIDFORMAT_BEGIN
 90
        0
 91
        1
 62
     0
 92
       -2
340
14
 93
        0
 40
0.045
309
GRIDFORMAT_END
 95
       16
302
GRIDFORMAT
  1
GRIDFORMAT_BEGIN
 90
        0
 91
        1
 62
     0
 92
       -2
340
14
 93
        0
 40
0.045
309
GRIDFORMAT_END
 95
       32
302
GRIDFORMAT
  1
GRIDFORMAT_BEGIN
 90
        0
 91
        1
 62
     0
 92
       -2
340
14
 93
        0
 40
0.045
309
GRIDFORMAT_END
309
TABLEFORMAT_END
  1
CELLSTYLE_BEGIN
 90
        3
 91
        2
300
_DATA
309
CELLSTYLE_END
  0
ENDSEC
  0
EOF
