  0
SECTION
  2
HEADER
  9
$ACADVER
  1
AC1027
  9
$ACADMAINTVER
 70
   105
  9
$DWGCODEPAGE
  3
ANSI_1252
  9
$REQUIREDVERSIONS
160
                 0
  9
$LASTSAVEDBY
  1
matthias.ochs
  9
$INSBASE
 10
0.0
 20
0.0
 30
0.0
  9
$EXTMIN
 10
-42.41272562109633
 20
-67.05750327321522
 30
0.0
  9
$EXTMAX
 10
59.7556213679636
 20
57.58188777502204
 30
0.0
  9
$LIMMIN
 10
-78.673568483
 20
-35.309963599
  9
$LIMMAX
 10
104.055294367
 20
47.306323517
  9
$ORTHOMODE
 70
     0
  9
$REGENMODE
 70
     1
  9
$FILLMODE
 70
     1
  9
$QTEXTMODE
 70
     0
  9
$MIRRTEXT
 70
     1
  9
$LTSCALE
 40
1.0
  9
$ATTMODE
 70
     1
  9
$TEXTSIZE
 40
0.2
  9
$TRACEWID
 40
0.05
  9
$TEXTSTYLE
  7
Standard
  9
$CLAYER
  8
SK2
  9
$CELTYPE
  6
ByLayer
  9
$CECOLOR
 62
   256
  9
$CELTSCALE
 40
1.0
  9
$DISPSILH
 70
     0
  9
$DIMSCALE
 40
1.0
  9
$DIMASZ
 40
0.18
  9
$DIMEXO
 40
0.0625
  9
$DIMDLI
 40
0.38
  9
$DIMRND
 40
0.0
  9
$DIMDLE
 40
0.0
  9
$DIMEXE
 40
0.18
  9
$DIMTP
 40
0.0
  9
$DIMTM
 40
0.0
  9
$DIMTXT
 40
0.18
  9
$DIMCEN
 40
0.09
  9
$DIMTSZ
 40
0.0
  9
$DIMTOL
 70
     0
  9
$DIMLIM
 70
     0
  9
$DIMTIH
 70
     1
  9
$DIMTOH
 70
     1
  9
$DIMSE1
 70
     0
  9
$DIMSE2
 70
     0
  9
$DIMTAD
 70
     0
  9
$DIMZIN
 70
     0
  9
$DIMBLK
  1

  9
$DIMASO
 70
     1
  9
$DIMSHO
 70
     1
  9
$DIMPOST
  1

  9
$DIMAPOST
  1

  9
$DIMALT
 70
     0
  9
$DIMALTD
 70
     2
  9
$DIMALTF
 40
25.4
  9
$DIMLFAC
 40
1.0
  9
$DIMTOFL
 70
     0
  9
$DIMTVP
 40
0.0
  9
$DIMTIX
 70
     0
  9
$DIMSOXD
 70
     0
  9
$DIMSAH
 70
     0
  9
$DIMBLK1
  1

  9
$DIMBLK2
  1

  9
$DIMSTYLE
  2
Standard
  9
$DIMCLRD
 70
     0
  9
$DIMCLRE
 70
     0
  9
$DIMCLRT
 70
     0
  9
$DIMTFAC
 40
1.0
  9
$DIMGAP
 40
0.09
  9
$DIMJUST
 70
     0
  9
$DIMSD1
 70
     0
  9
$DIMSD2
 70
     0
  9
$DIMTOLJ
 70
     1
  9
$DIMTZIN
 70
     0
  9
$DIMALTZ
 70
     0
  9
$DIMALTTZ
 70
     0
  9
$DIMUPT
 70
     0
  9
$DIMDEC
 70
     4
  9
$DIMTDEC
 70
     4
  9
$DIMALTU
 70
     2
  9
$DIMALTTD
 70
     2
  9
$DIMTXSTY
  7
Standard
  9
$DIMAUNIT
 70
     0
  9
$DIMADEC
 70
     0
  9
$DIMALTRND
 40
0.0
  9
$DIMAZIN
 70
     0
  9
$DIMDSEP
 70
    46
  9
$DIMATFIT
 70
     3
  9
$DIMFRAC
 70
     0
  9
$DIMLDRBLK
  1

  9
$DIMLUNIT
 70
     2
  9
$DIMLWD
 70
    -2
  9
$DIMLWE
 70
    -2
  9
$DIMTMOVE
 70
     2
  9
$DIMFXL
 40
1.0
  9
$DIMFXLON
 70
     0
  9
$DIMJOGANG
 40
0.7853981633974483
  9
$DIMTFILL
 70
     0
  9
$DIMTFILLCLR
 70
     0
  9
$DIMARCSYM
 70
     0
  9
$DIMLTYPE
  6

  9
$DIMLTEX1
  6

  9
$DIMLTEX2
  6

  9
$DIMTXTDIRECTION
 70
     0
  9
$LUNITS
 70
     2
  9
$LUPREC
 70
     4
  9
$SKETCHINC
 40
0.1
  9
$FILLETRAD
 40
0.5
  9
$AUNITS
 70
     2
  9
$AUPREC
 70
     0
  9
$MENU
  1
.
  9
$ELEVATION
 40
0.0
  9
$PELEVATION
 40
0.0
  9
$THICKNESS
 40
0.0
  9
$LIMCHECK
 70
     0
  9
$CHAMFERA
 40
0.5
  9
$CHAMFERB
 40
0.5
  9
$CHAMFERC
 40
1.0
  9
$CHAMFERD
 40
0.0
  9
$SKPOLY
 70
     0
  9
$TDCREATE
 40
2458327.549548102
  9
$TDUCREATE
 40
2458327.466214769
  9
$TDUPDATE
 40
2458695.582807338
  9
$TDUUPDATE
 40
2458695.499474005
  9
$TDINDWG
 40
0.0552545718
  9
$TDUSRTIMER
 40
0.0639258912
  9
$USRTIMER
 70
     1
  9
$ANGBASE
 50
0.0
  9
$ANGDIR
 70
     0
  9
$PDMODE
 70
     0
  9
$PDSIZE
 40
0.0
  9
$PLINEWID
 40
0.0
  9
$SPLFRAME
 70
     0
  9
$SPLINETYPE
 70
     6
  9
$SPLINESEGS
 70
     8
  9
$HANDSEED
  5
31F
  9
$SURFTAB1
 70
     6
  9
$SURFTAB2
 70
     6
  9
$SURFTYPE
 70
     6
  9
$SURFU
 70
     6
  9
$SURFV
 70
     6
  9
$UCSBASE
  2

  9
$UCSNAME
  2

  9
$UCSORG
 10
0.0
 20
0.0
 30
0.0
  9
$UCSXDIR
 10
1.0
 20
0.0
 30
0.0
  9
$UCSYDIR
 10
0.0
 20
1.0
 30
0.0
  9
$UCSORTHOREF
  2

  9
$UCSORTHOVIEW
 70
     0
  9
$UCSORGTOP
 10
0.0
 20
0.0
 30
0.0
  9
$UCSORGBOTTOM
 10
0.0
 20
0.0
 30
0.0
  9
$UCSORGLEFT
 10
0.0
 20
0.0
 30
0.0
  9
$UCSORGRIGHT
 10
0.0
 20
0.0
 30
0.0
  9
$UCSORGFRONT
 10
0.0
 20
0.0
 30
0.0
  9
$UCSORGBACK
 10
0.0
 20
0.0
 30
0.0
  9
$PUCSBASE
  2

  9
$PUCSNAME
  2

  9
$PUCSORG
 10
0.0
 20
0.0
 30
0.0
  9
$PUCSXDIR
 10
1.0
 20
0.0
 30
0.0
  9
$PUCSYDIR
 10
0.0
 20
1.0
 30
0.0
  9
$PUCSORTHOREF
  2

  9
$PUCSORTHOVIEW
 70
     0
  9
$PUCSORGTOP
 10
0.0
 20
0.0
 30
0.0
  9
$PUCSORGBOTTOM
 10
0.0
 20
0.0
 30
0.0
  9
$PUCSORGLEFT
 10
0.0
 20
0.0
 30
0.0
  9
$PUCSORGRIGHT
 10
0.0
 20
0.0
 30
0.0
  9
$PUCSORGFRONT
 10
0.0
 20
0.0
 30
0.0
  9
$PUCSORGBACK
 10
0.0
 20
0.0
 30
0.0
  9
$USERI1
 70
     0
  9
$USERI2
 70
     0
  9
$USERI3
 70
     0
  9
$USERI4
 70
     0
  9
$USERI5
 70
     0
  9
$USERR1
 40
0.0
  9
$USERR2
 40
0.0
  9
$USERR3
 40
0.0
  9
$USERR4
 40
0.0
  9
$USERR5
 40
0.0
  9
$WORLDVIEW
 70
     1
  9
$SHADEDGE
 70
     3
  9
$SHADEDIF
 70
    70
  9
$TILEMODE
 70
     1
  9
$MAXACTVP
 70
    64
  9
$PINSBASE
 10
0.0
 20
0.0
 30
0.0
  9
$PLIMCHECK
 70
     0
  9
$PEXTMIN
 10
1.000000000000000E+20
 20
1.000000000000000E+20
 30
1.000000000000000E+20
  9
$PEXTMAX
 10
-1.000000000000000E+20
 20
-1.000000000000000E+20
 30
-1.000000000000000E+20
  9
$PLIMMIN
 10
0.0
 20
0.0
  9
$PLIMMAX
 10
0.0
 20
0.0
  9
$UNITMODE
 70
     0
  9
$VISRETAIN
 70
     1
  9
$PLINEGEN
 70
     0
  9
$PSLTSCALE
 70
     1
  9
$TREEDEPTH
 70
  3020
  9
$CMLSTYLE
  2
Standard
  9
$CMLJUST
 70
     0
  9
$CMLSCALE
 40
1.0
  9
$PROXYGRAPHICS
 70
     1
  9
$MEASUREMENT
 70
     0
  9
$CELWEIGHT
370
    -1
  9
$ENDCAPS
280
     0
  9
$JOINSTYLE
280
     0
  9
$LWDISPLAY
290
     0
  9
$INSUNITS
 70
     0
  9
$HYPERLINKBASE
  1

  9
$STYLESHEET
  1

  9
$XEDIT
290
     1
  9
$CEPSNTYPE
380
     0
  9
$PSTYLEMODE
290
     1
  9
$FINGERPRINTGUID
  2
{5066E9F3-E51B-4116-AC48-5D9D10C21234}
  9
$VERSIONGUID
  2
{FAEB1C32-E019-11D5-929B-00C0DF256EC4}
  9
$EXTNAMES
290
     1
  9
$PSVPSCALE
 40
0.0
  9
$OLESTARTUP
290
     0
  9
$SORTENTS
280
   127
  9
$INDEXCTL
280
     0
  9
$HIDETEXT
280
     1
  9
$XCLIPFRAME
280
     2
  9
$HALOGAP
280
     0
  9
$OBSCOLOR
 70
   257
  9
$OBSLTYPE
280
     0
  9
$INTERSECTIONDISPLAY
280
     0
  9
$INTERSECTIONCOLOR
 70
   257
  9
$DIMASSOC
280
     2
  9
$PROJECTNAME
  1

  9
$CAMERADISPLAY
290
     0
  9
$LENSLENGTH
 40
50.0
  9
$CAMERAHEIGHT
 40
0.0
  9
$STEPSPERSEC
 40
2.0
  9
$STEPSIZE
 40
6.0
  9
$3DDWFPREC
 40
2.0
  9
$PSOLWIDTH
 40
0.25
  9
$PSOLHEIGHT
 40
4.0
  9
$LOFTANG1
 40
1.570796326794897
  9
$LOFTANG2
 40
1.570796326794897
  9
$LOFTMAG1
 40
0.0
  9
$LOFTMAG2
 40
0.0
  9
$LOFTPARAM
 70
     7
  9
$LOFTNORMALS
280
     1
  9
$LATITUDE
 40
37.795
  9
$LONGITUDE
 40
-122.394
  9
$NORTHDIRECTION
 40
0.0
  9
$TIMEZONE
 70
 -8000
  9
$LIGHTGLYPHDISPLAY
280
     1
  9
$TILEMODELIGHTSYNCH
280
     1
  9
$SOLIDHIST
280
     0
  9
$SHOWHIST
280
     1
  9
$DWFFRAME
280
     2
  9
$DGNFRAME
280
     2
  9
$REALWORLDSCALE
290
     1
  9
$INTERFERECOLOR
 62
   256
  9
$CSHADOW
280
     0
  9
$SHADOWPLANELOCATION
 40
0.0
  0
ENDSEC
  0
SECTION
  2
CLASSES
  0
CLASS
  1
ACDBDICTIONARYWDFLT
  2
AcDbDictionaryWithDefault
  3
ObjectDBX Classes
 90
        0
 91
        7
280
     0
281
     0
  0
CLASS
  1
SCALE
  2
AcDbScale
  3
ObjectDBX Classes
 90
     1153
 91
        7
280
     0
281
     0
  0
CLASS
  1
VISUALSTYLE
  2
AcDbVisualStyle
  3
ObjectDBX Classes
 90
     4095
 91
        7
280
     0
281
     0
  0
CLASS
  1
MATERIAL
  2
AcDbMaterial
  3
ObjectDBX Classes
 90
     1153
 91
        7
280
     0
281
     0
  0
CLASS
  1
DICTIONARYVAR
  2
AcDbDictionaryVar
  3
ObjectDBX Classes
 90
        0
 91
        7
280
     0
281
     0
  0
CLASS
  1
ACDBPLACEHOLDER
  2
AcDbPlaceHolder
  3
ObjectDBX Classes
 90
        0
 91
        1
280
     0
281
     0
  0
CLASS
  1
LAYOUT
  2
AcDbLayout
  3
ObjectDBX Classes
 90
        0
 91
        1
280
     0
281
     0
  0
CLASS
  1
TABLESTYLE
  2
AcDbTableStyle
  3
ObjectDBX Classes
 90
     4095
 91
        6
280
     0
281
     0
  0
CLASS
  1
MLEADERSTYLE
  2
AcDbMLeaderStyle
  3
ACDB_MLEADERSTYLE_CLASS
 90
     4095
 91
        6
280
     0
281
     0
  0
CLASS
  1
CELLSTYLEMAP
  2
AcDbCellStyleMap
  3
ObjectDBX Classes
 90
     1152
 91
        6
280
     0
281
     0
  0
CLASS
  1
SUN
  2
AcDbSun
  3
SCENEOE
 90
     1153
 91
        7
280
     0
281
     0
  0
CLASS
  1
SORTENTSTABLE
  2
AcDbSortentsTable
  3
ObjectDBX Classes
 90
        0
 91
        5
280
     0
281
     0
  0
ENDSEC
  0
SECTION
  2
TABLES
  0
TABLE
  2
VPORT
  5
8
330
0
100
AcDbSymbolTable
 70
     1
  0
VPORT
  5
137
330
8
100
AcDbSymbolTableRecord
100
AcDbViewportTableRecord
  2
*Active
 70
     0
 10
0.0
 20
0.0
 11
1.0
 21
1.0
 12
120.2625852627523
 22
-21.34795769445477
 13
0.0
 23
0.0
 14
0.5
 24
0.5
 15
0.5
 25
0.5
 16
0.0
 26
0.0
 36
1.0
 17
0.0
 27
0.0
 37
0.0
 40
774.0247608814756
 41
1.831002331002331
 42
50.0
 43
0.0
 44
0.0
 50
0.0
 51
0.0
 71
    16
 72
   100
 73
     1
 74
     3
 75
     1
 76
     0
 77
     0
 78
     0
281
     0
 65
     1
110
0.0
120
0.0
130
0.0
111
1.0
121
0.0
131
0.0
112
0.0
122
1.0
132
0.0
 79
     0
146
0.0
348
168
 60
     3
 61
     5
292
     1
282
     1
141
0.0
142
0.0
 63
   256
361
1FA
  0
ENDTAB
  0
TABLE
  2
LTYPE
  5
5
330
0
100
AcDbSymbolTable
 70
     8
  0
LTYPE
  5
14
330
5
100
AcDbSymbolTableRecord
100
AcDbLinetypeTableRecord
  2
ByBlock
 70
     0
  3

 72
    65
 73
     0
 40
0.0
  0
LTYPE
  5
15
330
5
100
AcDbSymbolTableRecord
100
AcDbLinetypeTableRecord
  2
ByLayer
 70
     0
  3

 72
    65
 73
     0
 40
0.0
  0
LTYPE
  5
16
330
5
100
AcDbSymbolTableRecord
100
AcDbLinetypeTableRecord
  2
Continuous
 70
     0
  3
Solid line
 72
    65
 73
     0
 40
0.0
  0
LTYPE
  5
20
330
5
100
AcDbSymbolTableRecord
100
AcDbLinetypeTableRecord
  2
PUNKT
 70
     0
  3
..............
 72
    65
 73
     2
 40
1.5
 49
0.7
 74
     0
 49
-0.8
 74
     0
  0
LTYPE
  5
21
330
5
100
AcDbSymbolTableRecord
100
AcDbLinetypeTableRecord
  2
GESTRICHELT
 70
     0
  3
-- -- -- -- --
 72
    65
 73
     7
 40
2.8
 49
0.9
 74
     0
 49
0.0
 74
     0
 49
0.9
 74
     0
 49
0.0
 74
     0
 49
0.2
 74
     0
 49
0.0
 74
     0
 49
-0.8
 74
     0
  0
LTYPE
  5
22
330
5
100
AcDbSymbolTableRecord
100
AcDbLinetypeTableRecord
  2
STRICHPUNKT
 70
     0
  3
--.--.--.--.--
 72
    65
 73
     4
 40
8.8
 49
5.5
 74
     0
 49
-1.3
 74
     0
 49
0.7
 74
     0
 49
-1.3
 74
     0
  0
LTYPE
  5
25
330
5
100
AcDbSymbolTableRecord
100
AcDbLinetypeTableRecord
  2
PHANTOM
 70
     0
  3
--..--..--..--
 72
    65
 73
     6
 40
14.2
 49
7.0
 74
     0
 49
-1.8
 74
     0
 49
0.9
 74
     0
 49
-1.8
 74
     0
 49
0.9
 74
     0
 49
-1.8
 74
     0
  0
LTYPE
  5
1AF
330
5
100
AcDbSymbolTableRecord
100
AcDbLinetypeTableRecord
  2
DASH
 70
     0
  3
DASH _ _ _ _ _
 72
    65
 73
     2
 40
0.75
 49
0.4
 74
     0
 49
-0.35
 74
     0
  0
LTYPE
  5
1B0
330
5
100
AcDbSymbolTableRecord
100
AcDbLinetypeTableRecord
  2
LONGDASH_DASH
 70
     0
  3
LONGDASH_DASH __ . __ . __
 72
    65
 73
     4
 40
0.85
 49
0.4
 74
     0
 49
-0.2
 74
     0
 49
0.05
 74
     0
 49
-0.2
 74
     0
  0
LTYPE
  5
1B1
330
5
100
AcDbSymbolTableRecord
100
AcDbLinetypeTableRecord
  2
LONGDASH_DASH_DASH
 70
     0
  3
LONGDASH_DASH_DASH __ . . __ . . __
 72
    65
 73
     6
 40
1.1
 49
0.4
 74
     0
 49
-0.2
 74
     0
 49
0.05
 74
     0
 49
-0.2
 74
     0
 49
0.05
 74
     0
 49
-0.2
 74
     0
  0
ENDTAB
  0
TABLE
  2
LAYER
  5
2
102
{ACAD_XDICTIONARY
360
1CE
102
}
330
0
100
AcDbSymbolTable
 70
    16
  0
LAYER
  5
179
330
2
100
AcDbSymbolTableRecord
100
AcDbLayerTableRecord
  2
200
 70
     0
 62
     2
  6
Continuous
370
    50
390
F
347
177
348
0
  0
LAYER
  5
1B2
330
2
100
AcDbSymbolTableRecord
100
AcDbLayerTableRecord
  2
0
 70
     0
 62
     1
  6
Continuous
370
    -3
390
F
347
177
348
0
  0
LAYER
  5
1B3
330
2
100
AcDbSymbolTableRecord
100
AcDbLayerTableRecord
  2
1
 70
     0
 62
     4
  6
Continuous
370
    50
390
F
347
177
348
0
  0
LAYER
  5
1B4
330
2
100
AcDbSymbolTableRecord
100
AcDbLayerTableRecord
  2
2
 70
     0
 62
     7
  6
Continuous
370
    25
390
F
347
177
348
0
  0
LAYER
  5
1B5
330
2
100
AcDbSymbolTableRecord
100
AcDbLayerTableRecord
  2
3
 70
     0
 62
     1
  6
DASH
370
    35
390
F
347
177
348
0
  0
LAYER
  5
1B6
330
2
100
AcDbSymbolTableRecord
100
AcDbLayerTableRecord
  2
4
 70
     0
 62
     2
  6
LONGDASH_DASH
370
    25
390
F
347
177
348
0
  0
LAYER
  5
1B7
330
2
100
AcDbSymbolTableRecord
100
AcDbLayerTableRecord
  2
6
 70
     0
 62
     5
  6
Continuous
370
    -3
390
F
347
177
348
0
  0
LAYER
  5
1B8
330
2
100
AcDbSymbolTableRecord
100
AcDbLayerTableRecord
  2
CUT
 70
     0
 62
     1
  6
Continuous
370
    25
390
F
347
177
348
0
  0
LAYER
  5
1B9
330
2
100
AcDbSymbolTableRecord
100
AcDbLayerTableRecord
  2
NOCUT
 70
     0
 62
     7
  6
Continuous
370
    25
390
F
347
177
348
0
  0
LAYER
  5
1BA
330
2
100
AcDbSymbolTableRecord
100
AcDbLayerTableRecord
  2
SK1
 70
     0
 62
     4
  6
Continuous
370
    50
390
F
347
177
348
0
  0
LAYER
  5
1BB
330
2
100
AcDbSymbolTableRecord
100
AcDbLayerTableRecord
  2
SK2
 70
     0
 62
     7
  6
Continuous
370
    25
390
F
347
177
348
0
  0
LAYER
  5
1BC
330
2
100
AcDbSymbolTableRecord
100
AcDbLayerTableRecord
  2
SK3
 70
     0
 62
     1
  6
DASH
370
    35
390
F
347
177
348
0
  0
LAYER
  5
1BD
330
2
100
AcDbSymbolTableRecord
100
AcDbLayerTableRecord
  2
SK4
 70
     0
 62
     2
  6
LONGDASH_DASH
370
    25
390
F
347
177
348
0
  0
LAYER
  5
1BE
330
2
100
AcDbSymbolTableRecord
100
AcDbLayerTableRecord
  2
SK6
 70
     0
 62
     5
  6
Continuous
370
    -3
390
F
347
177
348
0
  0
LAYER
  5
1BF
330
2
100
AcDbSymbolTableRecord
100
AcDbLayerTableRecord
  2
INFTOTAL
 70
     0
 62
     9
  6
Continuous
370
    18
390
F
347
177
348
0
  0
LAYER
  5
248
330
2
100
AcDbSymbolTableRecord
100
AcDbLayerTableRecord
  2
7
 70
     0
 62
     5
  6
Continuous
370
    18
390
F
347
177
348
0
1001
AcAecLayerStandard
1000

1000

  0
ENDTAB
  0
TABLE
  2
STYLE
  5
3
330
0
100
AcDbSymbolTable
 70
     3
  0
STYLE
  5
11
330
3
100
AcDbSymbolTableRecord
100
AcDbTextStyleTableRecord
  2
Standard
 70
     0
 40
0.0
 41
1.0
 50
0.0
 71
     0
 42
0.2
  3
txt
  4

  0
STYLE
  5
178
330
3
100
AcDbSymbolTableRecord
100
AcDbTextStyleTableRecord
  2
BMG_Text
 70
     0
 40
3.5
 41
1.0
 50
0.0
 71
     0
 42
0.2
  3
monos.ttf
  4

1001
ACAD
1000
Monospac821 BT
1071
       49
  0
STYLE
  5
24E
330
3
100
AcDbSymbolTableRecord
100
AcDbTextStyleTableRecord
  2
SLDTEXTSTYLE0
 70
     0
 40
0.0
 41
0.605
 50
0.0
 71
     0
 42
0.2
  3
TXT
  4

  0
ENDTAB
  0
TABLE
  2
VIEW
  5
6
330
0
100
AcDbSymbolTable
 70
     0
  0
ENDTAB
  0
TABLE
  2
UCS
  5
7
330
0
100
AcDbSymbolTable
 70
     0
  0
ENDTAB
  0
TABLE
  2
APPID
  5
9
330
0
100
AcDbSymbolTable
 70
     3
  0
APPID
  5
12
330
9
100
AcDbSymbolTableRecord
100
AcDbRegAppTableRecord
  2
ACAD
 70
     0
  0
APPID
  5
249
330
9
100
AcDbSymbolTableRecord
100
AcDbRegAppTableRecord
  2
AcAecLayerStandard
 70
     0
  0
APPID
  5
251
330
9
100
AcDbSymbolTableRecord
100
AcDbRegAppTableRecord
  2
PE_URL
 70
     0
  0
ENDTAB
  0
TABLE
  2
DIMSTYLE
  5
A
330
0
100
AcDbSymbolTable
 70
     6
100
AcDbDimStyleTable
  0
DIMSTYLE
105
28
330
A
100
AcDbSymbolTableRecord
100
AcDbDimStyleTableRecord
  2
Standard
 70
     0
178
     0
340
11
  0
DIMSTYLE
105
24A
330
A
100
AcDbSymbolTableRecord
100
AcDbDimStyleTableRecord
  2
Matthias
 70
     0
 41
3.0
 44
2.0
 73
     0
 77
     1
140
3.0
147
2.0
178
     0
340
11
  0
DIMSTYLE
105
24C
102
{ACAD_REACTORS
102
}
330
A
100
AcDbSymbolTableRecord
100
AcDbDimStyleTableRecord
  2
ISO-25
 70
     0
 41
2.5
 42
0.625
 43
3.75
 44
1.25
 73
     0
 74
     0
 77
     1
 78
     8
140
2.5
141
2.5
143
0.0393700787
147
0.625
171
     3
172
     1
178
     0
271
     2
272
     2
274
     3
278
    44
283
     0
284
     8
340
11
  0
DIMSTYLE
105
24D
330
A
100
AcDbSymbolTableRecord
100
AcDbDimStyleTableRecord
  2
SLDDIMSTYLE0
 70
     0
 41
3.5
 44
0.0
 45
0.000000001
 73
     0
 74
     0
 77
     1
 78
    12
 79
     3
140
3.5
144
0.5
147
0.875
173
     1
178
     0
271
     2
272
     1
276
     2
284
    12
340
24E
  0
DIMSTYLE
105
24F
330
A
100
AcDbSymbolTableRecord
100
AcDbDimStyleTableRecord
  2
SLDDIMSTYLE1
 70
     0
 41
3.5
 44
0.0
 45
0.000000001
 73
     0
 74
     0
 77
     1
 78
    12
 79
     3
140
3.5
144
0.5
147
0.875
173
     1
178
     0
271
     2
272
     3
276
     2
284
    12
340
24E
  0
DIMSTYLE
105
250
330
A
100
AcDbSymbolTableRecord
100
AcDbDimStyleTableRecord
  2
SLDDIMSTYLE2
 70
     0
 41
3.5
 44
0.0
 45
0.000000001
 73
     0
 74
     0
 77
     1
 78
    12
 79
     3
140
3.5
147
0.875
173
     1
178
     0
271
     2
272
     0
276
     2
284
    12
340
24E
  0
ENDTAB
  0
TABLE
  2
BLOCK_RECORD
  5
1
330
0
100
AcDbSymbolTable
 70
     2
  0
BLOCK_RECORD
  5
1D
102
{ACAD_XDICTIONARY
360
2B7
102
}
330
1
100
AcDbSymbolTableRecord
100
AcDbBlockTableRecord
  2
*Model_Space
340
1E
 70
     0
280
     1
281
     0
  0
BLOCK_RECORD
  5
1B
330
1
100
AcDbSymbolTableRecord
100
AcDbBlockTableRecord
  2
*Paper_Space
340
1C
 70
     0
280
     1
281
     0
  0
ENDTAB
  0
ENDSEC
  0
SECTION
  2
BLOCKS
  0
BLOCK
  5
161
330
1D
100
AcDbEntity
  8
0
100
AcDbBlockBegin
  2
*Model_Space
 70
     0
 10
0.0
 20
0.0
 30
0.0
  3
*Model_Space
  1

  0
ENDBLK
  5
162
330
1D
100
AcDbEntity
  8
0
100
AcDbBlockEnd
  0
BLOCK
  5
15F
330
1B
100
AcDbEntity
 67
     1
  8
0
100
AcDbBlockBegin
  2
*Paper_Space
 70
     0
 10
0.0
 20
0.0
 30
0.0
  3
*Paper_Space
  1

  0
ENDBLK
  5
160
330
1B
100
AcDbEntity
 67
     1
  8
0
100
AcDbBlockEnd
  0
ENDSEC
  0
SECTION
  2
ENTITIES
  0
LINE
  5
29
330
1D
100
AcDbEntity
  8
SK2
100
AcDbLine
 10
36.0496751465
 20
-34.49999970900001
 30
0.0
 11
23.7679492635
 21
-34.49999970900001
 31
0.0
  0
LINE
  5
2A
330
1D
100
AcDbEntity
  8
SK2
100
AcDbLine
 10
34.0496751465
 20
-34.49999970900001
 30
0.0
 11
33.5996751465
 21
-30.999999709
 31
0.0
  0
LINE
  5
2B
330
1D
100
AcDbEntity
  8
SK2
100
AcDbLine
 10
33.5996751465
 20
-30.999999709
 30
0.0
 11
34.4996751465
 21
-30.999999709
 31
0.0
  0
LINE
  5
2C
330
1D
100
AcDbEntity
  8
SK2
100
AcDbLine
 10
34.4996751465
 20
-30.999999709
 30
0.0
 11
34.0496751465
 21
-34.49999970900001
 31
0.0
  0
LINE
  5
2D
330
1D
100
AcDbEntity
  8
SK2
100
AcDbLine
 10
36.0496751465
 20
34.500000289
 30
0.0
 11
23.7679492635
 21
34.500000289
 31
0.0
  0
LINE
  5
2E
330
1D
100
AcDbEntity
  8
SK2
100
AcDbLine
 10
34.0496751465
 20
34.500000289
 30
0.0
 11
34.4996751465
 21
31.000000289
 31
0.0
  0
LINE
  5
2F
330
1D
100
AcDbEntity
  8
SK2
100
AcDbLine
 10
34.4996751465
 20
31.000000289
 30
0.0
 11
33.5996751465
 21
31.000000289
 31
0.0
  0
LINE
  5
30
330
1D
100
AcDbEntity
  8
SK2
100
AcDbLine
 10
33.5996751465
 20
31.000000289
 30
0.0
 11
34.0496751465
 21
34.500000289
 31
0.0
  0
LINE
  5
31
330
1D
100
AcDbEntity
  8
SK2
100
AcDbLine
 10
34.0496751465
 20
-30.999999709
 30
0.0
 11
34.0496751465
 21
31.000000289
 31
0.0
  0
TEXT
  5
32
330
1D
100
AcDbEntity
  8
SK2
100
AcDbText
 10
32.5496751465
 20
-3.177031731000001
 30
0.0
 40
3.5
  1
69
 50
90.0
  7
BMG_Text
100
AcDbText
  0
CIRCLE
  5
33
330
1D
100
AcDbEntity
  8
SK2
100
AcDbCircle
 10
31.2996751465
 20
-5.427031731
 30
0.0
 40
1.25
  0
LINE
  5
34
330
1D
100
AcDbEntity
  8
SK2
100
AcDbLine
 10
32.5496751465
 20
-6.677031731
 30
0.0
 11
30.0496751465
 21
-4.177031731
 31
0.0
  0
TEXT
  5
35
330
1D
100
AcDbEntity
  8
SK2
100
AcDbText
 10
32.5496751465
 20
2.482717508368238
 30
0.0
 40
3.5
  1
-86
 50
90.0
  7
BMG_Text
100
AcDbText
  0
LINE
  5
36
330
1D
100
AcDbEntity
  8
2
100
AcDbLine
 10
24.1679492635
 20
43.49636021
 30
0.0
 11
24.1679492635
 21
34.10000028899999
 31
0.0
  0
LINE
  5
37
330
1D
100
AcDbEntity
  8
2
100
AcDbLine
 10
24.1679492635
 20
41.49636021
 30
0.0
 11
20.6679492635
 21
41.04636020899999
 31
0.0
  0
LINE
  5
38
330
1D
100
AcDbEntity
  8
2
100
AcDbLine
 10
20.6679492635
 20
41.04636020899999
 30
0.0
 11
20.6679492635
 21
41.946360209
 31
0.0
  0
LINE
  5
39
330
1D
100
AcDbEntity
  8
2
100
AcDbLine
 10
20.6679492635
 20
41.946360209
 30
0.0
 11
24.1679492635
 21
41.49636021
 31
0.0
  0
LINE
  5
3A
330
1D
100
AcDbEntity
  8
2
100
AcDbLine
 10
-8.332050736500001
 20
41.49636020499999
 30
0.0
 11
20.6679492635
 21
41.496360209
 31
0.0
  0
TEXT
  5
3B
330
1D
100
AcDbEntity
  8
2
100
AcDbText
 10
6.3626364005
 20
42.996360207
 30
0.0
 40
3.5
  1
57
 50
0.00000001
  7
BMG_Text
100
AcDbText
  0
TEXT
  5
3D
330
1D
100
AcDbEntity
  8
SK6
100
AcDbText
 10
5.003357930064255
 20
-46.06167063531004
 30
0.0
 40
3.5
  1
639.157
  7
BMG_Text
100
AcDbText
  0
ARC
  5
3F
330
1D
100
AcDbEntity
  8
1
100
AcDbCircle
 10
23.3679492635
 20
22.660807251
 30
0.0
 40
0.8
100
AcDbArc
 50
276.0
 51
6.000030599999981
  0
LINE
  5
40
330
1D
100
AcDbEntity
  8
1
100
AcDbLine
 10
24.1635667795
 20
22.744430452
 30
0.0
 11
23.0033008375
 21
33.78362306099999
 31
0.0
  0
ARC
  5
41
330
1D
100
AcDbEntity
  8
1
100
AcDbCircle
 10
22.2076833215
 20
33.70000029
 30
0.0
 40
0.8
100
AcDbArc
 50
5.999999999999807
 51
95.99999707299989
  0
LINE
  5
42
330
1D
100
AcDbEntity
  8
1
100
AcDbLine
 10
22.1240605915
 20
34.495617806
 30
0.0
 11
11.0848675115
 21
33.335351864
 31
0.0
  0
ARC
  5
43
330
1D
100
AcDbEntity
  8
1
100
AcDbCircle
 10
11.1684902825
 20
32.539734348
 30
0.0
 40
0.8
100
AcDbArc
 50
95.99999999999994
 51
185.9999942810001
  0
ARC
  5
45
330
1D
100
AcDbEntity
  8
1
100
AcDbCircle
 10
12.3287562245
 20
21.500541309
 30
0.0
 40
0.8
100
AcDbArc
 50
186.0000000000001
 51
275.9999999999999
  0
LINE
  5
46
330
1D
100
AcDbEntity
  8
1
100
AcDbLine
 10
23.8346698335
 20
22.011059559
 30
0.0
 11
23.8746330015
 21
21.977067216
 31
0.0
  0
LINE
  5
47
330
1D
100
AcDbEntity
  8
1
100
AcDbLine
 10
23.8746330015
 20
21.977067216
 30
0.0
 11
24.1604572665
 21
19.257631107
 31
0.0
  0
ARC
  5
48
330
1D
100
AcDbEntity
  8
1
100
AcDbCircle
 10
33.7679492635
 20
10.50000029
 30
0.0
 40
13.0
100
AcDbArc
 50
137.64951918
 51
180.00000092
  0
LINE
  5
49
330
1D
100
AcDbEntity
  8
1
100
AcDbLine
 10
20.7679492185
 20
10.500000081
 30
0.0
 11
20.7679492635
 21
-10.499999709
 31
0.0
  0
LINE
  5
4A
330
1D
100
AcDbEntity
  8
3
100
AcDbLine
 10
20.7679492185
 20
0.0000011539999991
 30
0.0
 11
11.2324153575
 21
-9.535533616
 31
0.0
  0
ARC
  5
4B
330
1D
100
AcDbEntity
  8
3
100
AcDbCircle
 10
14.7679492635
 20
-13.071067522
 30
0.0
 40
5.0
100
AcDbArc
 50
135.0
 51
179.999988026
  0
LINE
  5
4C
330
1D
100
AcDbEntity
  8
3
100
AcDbLine
 10
9.7679495105
 20
-13.071066477
 30
0.0
 11
9.7679495105
 21
-19.999998399
 31
0.0
  0
LINE
  5
4D
330
1D
100
AcDbEntity
  8
3
100
AcDbLine
 10
9.7679495105
 20
-19.999998399
 30
0.0
 11
8.767949346499998
 21
-21.000000426
 31
0.0
  0
LINE
  5
4E
330
1D
100
AcDbEntity
  8
3
100
AcDbLine
 10
8.767949346499998
 20
-21.000000426
 30
0.0
 11
-3.4320504175
 21
-21.000000426
 31
0.0
  0
LINE
  5
4F
330
1D
100
AcDbEntity
  8
1
100
AcDbLine
 10
0.5559231375
 20
24.999800361
 30
0.0
 11
1.2679490485
 21
24.999800361
 31
0.0
  0
LINE
  5
50
330
1D
100
AcDbEntity
  8
1
100
AcDbLine
 10
1.2679490485
 20
24.999800361
 30
0.0
 11
5.4342522515
 21
32.216093493
 31
0.0
  0
LINE
  5
51
330
1D
100
AcDbEntity
  8
1
100
AcDbLine
 10
5.4342522515
 20
32.216093493
 30
0.0
 11
7.1692466025
 21
32.396827116
 31
0.0
  0
LINE
  5
52
330
1D
100
AcDbEntity
  8
1
100
AcDbLine
 10
7.1692466025
 20
32.396827116
 30
0.0
 11
10.39208568756112
 21
32.73259674702533
 31
0.0
  0
LINE
  5
53
330
1D
100
AcDbEntity
  8
1
100
AcDbLine
 10
-3.2320507575
 20
20.89999745
 30
0.0
 11
-3.2320507575
 21
24.544167555
 31
0.0
  0
ARC
  5
54
330
1D
100
AcDbEntity
  8
1
100
AcDbCircle
 10
-1.9870161975
 20
23.746656667
 30
0.0
 40
1.478558308
100
AcDbArc
 50
132.297160903
 51
147.3582762150001
  0
LINE
  5
55
330
1D
100
AcDbEntity
  8
1
100
AcDbLine
 10
-2.9820502515
 20
24.840293675
 30
0.0
 11
-2.9320507365
 21
24.893208109
 31
0.0
  0
ARC
  5
56
330
1D
100
AcDbEntity
  8
1
100
AcDbCircle
 10
0.8566721084260172
 20
-43.29014285626814
 30
0.0
 40
68.28853322246178
100
AcDbArc
 50
90.45362060385747
 51
93.18046587730524
  0
ARC
  5
57
330
1D
100
AcDbEntity
  8
1
100
AcDbCircle
 10
0.0659592965
 20
50.001027601
 30
0.0
 40
25.006027835
100
AcDbArc
 50
270.572981194
 51
271.1227155710002
  0
LINE
  5
58
330
1D
100
AcDbEntity
  8
1
100
AcDbLine
 10
11.2324151435
 20
24.278113841
 30
0.0
 11
10.7362635655
 21
23.665417548
 31
0.0
  0
ARC
  5
59
330
1D
100
AcDbEntity
  8
1
100
AcDbCircle
 10
12.7568430655
 20
22.029184532
 30
0.0
 40
2.6
100
AcDbArc
 50
141.0
 51
321.000007925
  0
LINE
  5
5A
330
1D
100
AcDbEntity
  8
1
100
AcDbLine
 10
14.7774228115
 20
20.392951778
 30
0.0
 11
15.2735737375
 21
21.005647479
 31
0.0
  0
ARC
  5
5B
330
1D
100
AcDbEntity
  8
1
100
AcDbCircle
 10
18.5017737675
 20
28.172597764
 30
0.0
 40
0.3
100
AcDbArc
 50
29.9999999999999
 51
116.6158381940002
  0
ARC
  5
5C
330
1D
100
AcDbEntity
  8
1
100
AcDbCircle
 10
18.5017737675
 20
28.172597764
 30
0.0
 40
0.3
100
AcDbArc
 50
303.3841618049999
 51
29.9999999999999
  0
ARC
  5
5D
330
1D
100
AcDbEntity
  8
1
100
AcDbCircle
 10
19.0520237105
 20
27.337597764
 30
0.0
 40
0.7
100
AcDbArc
 50
123.3841618059999
 51
236.615838194
  0
ARC
  5
5E
330
1D
100
AcDbEntity
  8
1
100
AcDbCircle
 10
18.5017737675
 20
26.502597764
 30
0.0
 40
0.3
100
AcDbArc
 50
330.0000000000001
 51
56.61583819399988
  0
ARC
  5
5F
330
1D
100
AcDbEntity
  8
1
100
AcDbCircle
 10
18.5017737675
 20
26.502597764
 30
0.0
 40
0.3
100
AcDbArc
 50
243.384161812
 51
330.0000000000001
  0
ARC
  5
60
330
1D
100
AcDbEntity
  8
1
100
AcDbCircle
 10
18.0537675265
 20
25.608567335
 30
0.0
 40
0.7
100
AcDbArc
 50
63.38416180599991
 51
176.6158381979999
  0
ARC
  5
61
330
1D
100
AcDbEntity
  8
1
100
AcDbCircle
 10
17.0555113425
 20
25.667597764
 30
0.0
 40
0.3
100
AcDbArc
 50
270.0
 51
356.6158381940003
  0
ARC
  5
62
330
1D
100
AcDbEntity
  8
1
100
AcDbCircle
 10
17.0555113425
 20
25.667597764
 30
0.0
 40
0.3
100
AcDbArc
 50
183.3841617969998
 51
270.0
  0
ARC
  5
63
330
1D
100
AcDbEntity
  8
1
100
AcDbCircle
 10
16.0572551595
 20
25.608567335
 30
0.0
 40
0.7
100
AcDbArc
 50
3.384161805999937
 51
116.6158381909999
  0
ARC
  5
64
330
1D
100
AcDbEntity
  8
1
100
AcDbCircle
 10
15.6092489185
 20
26.502597764
 30
0.0
 40
0.3
100
AcDbArc
 50
209.9999999999997
 51
296.6158381939999
  0
ARC
  5
65
330
1D
100
AcDbEntity
  8
1
100
AcDbCircle
 10
15.6092489185
 20
26.502597764
 30
0.0
 40
0.3
100
AcDbArc
 50
123.3841618049999
 51
209.9999999999997
  0
ARC
  5
66
330
1D
100
AcDbEntity
  8
1
100
AcDbCircle
 10
15.0589989755
 20
27.337597764
 30
0.0
 40
0.7
100
AcDbArc
 50
303.3841618059999
 51
56.61583819399984
  0
ARC
  5
67
330
1D
100
AcDbEntity
  8
1
100
AcDbCircle
 10
15.6092489185
 20
28.172597764
 30
0.0
 40
0.3
100
AcDbArc
 50
150.0000000000003
 51
236.6158381940002
  0
ARC
  5
68
330
1D
100
AcDbEntity
  8
1
100
AcDbCircle
 10
15.6092489185
 20
28.172597764
 30
0.0
 40
0.3
100
AcDbArc
 50
63.38416182
 51
150.0000000000003
  0
ARC
  5
69
330
1D
100
AcDbEntity
  8
1
100
AcDbCircle
 10
16.0572551595
 20
29.066628193
 30
0.0
 40
0.7
100
AcDbArc
 50
243.3841618060001
 51
356.6158381899999
  0
ARC
  5
6A
330
1D
100
AcDbEntity
  8
1
100
AcDbCircle
 10
17.0555113425
 20
29.007597764
 30
0.0
 40
0.3
100
AcDbArc
 50
90.0
 51
176.6158381940002
  0
ARC
  5
6B
330
1D
100
AcDbEntity
  8
1
100
AcDbCircle
 10
17.0555113425
 20
29.007597764
 30
0.0
 40
0.3
100
AcDbArc
 50
3.384161816000238
 51
90.0
  0
ARC
  5
6C
330
1D
100
AcDbEntity
  8
1
100
AcDbCircle
 10
18.0537675265
 20
29.066628193
 30
0.0
 40
0.7
100
AcDbArc
 50
183.3841618059999
 51
296.6158381939998
  0
LINE
  5
6D
330
1D
100
AcDbEntity
  8
1
100
AcDbLine
 10
23.8746330015
 20
21.977067216
 30
0.0
 11
23.7631792425
 21
21.965254321
 31
0.0
  0
LINE
  5
6F
330
1D
100
AcDbEntity
  8
1
100
AcDbLine
 10
8.867949176499998
 20
8.529360764
 30
0.0
 11
8.867949176499998
 21
-22.556867093
 31
0.0
  0
LINE
  5
70
330
1D
100
AcDbEntity
  8
1
100
AcDbLine
 10
8.867949176499998
 20
-22.556867093
 30
0.0
 11
9.3077560185
 21
-21.80403994
 31
0.0
  0
LINE
  5
71
330
1D
100
AcDbEntity
  8
1
100
AcDbLine
 10
9.3077560185
 20
-21.80403994
 30
0.0
 11
9.733974862499998
 21
-21.022573687
 31
0.0
  0
LINE
  5
72
330
1D
100
AcDbEntity
  8
1
100
AcDbLine
 10
9.733974862499998
 20
-21.022573687
 30
0.0
 11
9.733974667499998
 21
0.0000002909999992
 31
0.0
  0
ARC
  5
73
330
1D
100
AcDbEntity
  8
1
100
AcDbCircle
 10
-32.4631287895
 20
0.0000002909999992
 30
0.0
 40
42.197103456
100
AcDbArc
 50
0.0
 51
11.660257093
  0
LINE
  5
74
330
1D
100
AcDbEntity
  8
1
100
AcDbLine
 10
8.867949176499998
 20
8.529360764
 30
0.0
 11
-0.0000000705
 21
8.529360764
 31
0.0
  0
ARC
  5
75
330
1D
100
AcDbEntity
  8
1
100
AcDbCircle
 10
-17.4693325195
 20
2.372504232999999
 30
0.0
 40
20.591946036
100
AcDbArc
 50
321.212022181
 51
328.033472758
  0
ARC
  5
76
330
1D
100
AcDbEntity
  8
1
100
AcDbCircle
 10
-21.6445244245
 20
5.728002555999999
 30
0.0
 40
25.941010567
100
AcDbArc
 50
315.556059269
 51
321.212022181
  0
ARC
  5
77
330
1D
100
AcDbEntity
  8
1
100
AcDbCircle
 10
12.9842705275
 20
5.728002555999999
 30
0.0
 40
25.925788468
100
AcDbArc
 50
231.564529315
 51
234.505203419
  0
ARC
  5
78
330
1D
100
AcDbEntity
  8
1
100
AcDbCircle
 10
23.9557725015
 20
21.112561959
 30
0.0
 40
44.837002829
100
AcDbArc
 50
234.505296738
 51
237.898185006
  0
ARC
  5
79
330
1D
100
AcDbEntity
  8
1
100
AcDbCircle
 10
-0.1614070735
 20
-17.33811909
 30
0.0
 40
0.528259306
100
AcDbArc
 50
301.680502092
 51
58.31940789100007
  0
ARC
  5
7A
330
1D
100
AcDbEntity
  8
1
100
AcDbCircle
 10
-22.2237215525
 20
21.112561959
 30
0.0
 40
44.858575339
100
AcDbArc
 50
295.1985216570001
 51
299.86802902
  0
ARC
  5
7B
330
1D
100
AcDbEntity
  8
1
100
AcDbCircle
 10
17.6574210205
 20
30.977637687
 30
0.0
 40
55.517624293
100
AcDbArc
 50
248.00867769
 51
251.578963709
  0
LINE
  5
7C
330
1D
100
AcDbEntity
  8
1
100
AcDbLine
 10
0.1160259585
 20
-21.689172477
 30
0.0
 11
0.2376529615
 21
-21.745344266
 31
0.0
  0
LINE
  5
7D
330
1D
100
AcDbEntity
  8
1
100
AcDbLine
 10
0.2376529615
 20
-21.745344266
 30
0.0
 11
0.3374944665
 21
-21.839795277
 31
0.0
  0
LINE
  5
7E
330
1D
100
AcDbEntity
  8
1
100
AcDbLine
 10
0.3374944665
 20
-21.839795277
 30
0.0
 11
0.3657042275
 21
-21.941496633
 31
0.0
  0
LINE
  5
7F
330
1D
100
AcDbEntity
  8
1
100
AcDbLine
 10
0.3657042275
 20
-21.941496633
 30
0.0
 11
0.3299935945
 21
-22.032660075
 31
0.0
  0
LINE
  5
80
330
1D
100
AcDbEntity
  8
1
100
AcDbLine
 10
0.3299935945
 20
-22.032660075
 30
0.0
 11
0.2461317215
 21
-22.106346317
 31
0.0
  0
LINE
  5
81
330
1D
100
AcDbEntity
  8
1
100
AcDbLine
 10
0.2461317215
 20
-22.106346317
 30
0.0
 11
0.1160254745
 21
-22.163140391
 31
0.0
  0
ARC
  5
82
330
1D
100
AcDbEntity
  8
1
100
AcDbCircle
 10
-15.9253700715
 20
30.977637687
 30
0.0
 40
55.509176411
100
AcDbArc
 50
283.323015285
 51
286.797281372
  0
ARC
  5
83
330
1D
100
AcDbEntity
  8
1
100
AcDbCircle
 10
11.2583303195
 20
48.08752740799999
 30
0.0
 40
73.097082754
100
AcDbArc
 50
258.646208638
 51
261.232468461
  0
LINE
  5
84
330
1D
100
AcDbEntity
  8
1
100
AcDbLine
 10
0.1160259585
 20
-24.158152394
 30
0.0
 11
0.1341178305
 21
-24.161069296
 31
0.0
  0
LINE
  5
85
330
1D
100
AcDbEntity
  8
1
100
AcDbLine
 10
0.1341178305
 20
-24.161069296
 30
0.0
 11
0.2619362665
 21
-24.191779658
 31
0.0
  0
LINE
  5
86
330
1D
100
AcDbEntity
  8
1
100
AcDbLine
 10
0.2619362665
 20
-24.191779658
 30
0.0
 11
0.3424993945
 21
-24.23134876
 31
0.0
  0
LINE
  5
87
330
1D
100
AcDbEntity
  8
1
100
AcDbLine
 10
0.3424993945
 20
-24.23134876
 30
0.0
 11
0.3656856005
 21
-24.273877606
 31
0.0
  0
LINE
  5
88
330
1D
100
AcDbEntity
  8
1
100
AcDbLine
 10
0.3656856005
 20
-24.273877606
 30
0.0
 11
0.3312415665
 21
-24.313889086
 31
0.0
  0
LINE
  5
89
330
1D
100
AcDbEntity
  8
1
100
AcDbLine
 10
0.3312415665
 20
-24.313889086
 30
0.0
 11
0.2453717625
 21
-24.347537771
 31
0.0
  0
LINE
  5
8A
330
1D
100
AcDbEntity
  8
1
100
AcDbLine
 10
0.2453717625
 20
-24.347537771
 30
0.0
 11
0.1160254745
 21
-24.37229243
 31
0.0
  0
ARC
  5
8B
330
1D
100
AcDbEntity
  8
1
100
AcDbCircle
 10
-9.526279371500001
 20
48.08752740799999
 30
0.0
 40
73.098560408
100
AcDbArc
 50
275.0186451789999
 51
277.579878044
  0
ARC
  5
8C
330
1D
100
AcDbEntity
  8
1
100
AcDbCircle
 10
0.8660254745
 20
48.08752740799999
 30
0.0
 40
73.090165449
100
AcDbArc
 50
266.864321175
 51
269.412040534
  0
ARC
  5
8D
330
1D
100
AcDbEntity
  8
1
100
AcDbCircle
 10
-0.1340403635
 20
-50.00102702100001
 30
0.0
 40
25.006027835
100
AcDbArc
 50
88.877284429
 51
89.427018806
  0
LINE
  5
8E
330
1D
100
AcDbEntity
  8
1
100
AcDbLine
 10
0.3559234775
 20
-24.999799781
 30
0.0
 11
1.0679493885
 21
-24.999799781
 31
0.0
  0
LINE
  5
8F
330
1D
100
AcDbEntity
  8
1
100
AcDbLine
 10
1.0679493885
 20
-24.999799781
 30
0.0
 11
1.0679493885
 21
-8.529360049000001
 31
0.0
  0
LINE
  5
90
330
1D
100
AcDbEntity
  8
1
100
AcDbLine
 10
1.0679493885
 20
-8.529360049000001
 30
0.0
 11
-0.0000000705
 21
-8.529360049000001
 31
0.0
  0
ARC
  5
91
330
1D
100
AcDbEntity
  8
1
100
AcDbCircle
 10
12.9842705275
 20
-5.728001975000001
 30
0.0
 40
25.925788468
100
AcDbArc
 50
125.494796581
 51
128.435470685
  0
ARC
  5
92
330
1D
100
AcDbEntity
  8
1
100
AcDbCircle
 10
23.9557725015
 20
-21.112561378
 30
0.0
 40
44.837002829
100
AcDbArc
 50
122.101814903
 51
125.494703262
  0
ARC
  5
93
330
1D
100
AcDbEntity
  8
1
100
AcDbCircle
 10
-0.1592695035
 20
17.338120736
 30
0.0
 40
0.527140623
100
AcDbArc
 50
301.4828231930001
 51
58.51715351300012
  0
ARC
  5
94
330
1D
100
AcDbEntity
  8
1
100
AcDbCircle
 10
-22.2237215525
 20
-21.112561378
 30
0.0
 40
44.858575339
100
AcDbArc
 50
60.13197097999999
 51
64.801478922
  0
ARC
  5
95
330
1D
100
AcDbEntity
  8
1
100
AcDbCircle
 10
17.6574210205
 20
-30.977637106
 30
0.0
 40
55.517624293
100
AcDbArc
 50
110.565565325
 51
111.99132231
  0
LINE
  5
97
330
1D
100
AcDbEntity
  8
1
100
AcDbLine
 10
8.767949346499998
 20
21.000001006
 30
0.0
 11
9.090089168499999
 21
20.677860253
 31
0.0
  0
LINE
  5
98
330
1D
100
AcDbEntity
  8
1
100
AcDbLine
 10
9.090089168499999
 20
20.677860253
 30
0.0
 11
9.4234830925
 21
20.344465397
 31
0.0
  0
LINE
  5
99
330
1D
100
AcDbEntity
  8
1
100
AcDbLine
 10
9.4234830925
 20
20.344465397
 30
0.0
 11
9.7679495105
 21
19.999998979
 31
0.0
  0
LINE
  5
9A
330
1D
100
AcDbEntity
  8
1
100
AcDbLine
 10
9.7679495105
 20
19.999998979
 30
0.0
 11
9.7679495105
 21
13.071067057
 31
0.0
  0
ARC
  5
9B
330
1D
100
AcDbEntity
  8
1
100
AcDbCircle
 10
14.7679478705
 20
13.071068362
 30
0.0
 40
4.99999836
100
AcDbArc
 50
180.0000149449999
 51
225.000000315
  0
LINE
  5
9C
330
1D
100
AcDbEntity
  8
1
100
AcDbLine
 10
11.2324151435
 20
9.535535595999999
 30
0.0
 11
12.0518458295
 21
8.716102115999998
 31
0.0
  0
LINE
  5
9D
330
1D
100
AcDbEntity
  8
1
100
AcDbLine
 10
12.0518458295
 20
8.716102115999998
 30
0.0
 11
12.8820798585
 21
7.885869018999999
 31
0.0
  0
LINE
  5
9E
330
1D
100
AcDbEntity
  8
1
100
AcDbLine
 10
12.8820798585
 20
7.885869018999999
 30
0.0
 11
13.7220899795
 21
7.045860759999999
 31
0.0
  0
LINE
  5
9F
330
1D
100
AcDbEntity
  8
1
100
AcDbLine
 10
13.7220899795
 20
7.045860759999999
 30
0.0
 11
14.5708331135
 21
6.197116694999999
 31
0.0
  0
LINE
  5
A0
330
1D
100
AcDbEntity
  8
1
100
AcDbLine
 10
14.5708331135
 20
6.197116694999999
 30
0.0
 11
15.4272577945
 21
5.340691081999999
 31
0.0
  0
LINE
  5
A1
330
1D
100
AcDbEntity
  8
1
100
AcDbLine
 10
15.4272577945
 20
5.340691081999999
 30
0.0
 11
16.2903032485
 21
4.477645627999999
 31
0.0
  0
LINE
  5
A2
330
1D
100
AcDbEntity
  8
1
100
AcDbLine
 10
16.2903032485
 20
4.477645627999999
 30
0.0
 11
17.1588989195
 21
3.609049491999999
 31
0.0
  0
LINE
  5
A3
330
1D
100
AcDbEntity
  8
1
100
AcDbLine
 10
17.1588989195
 20
3.609049491999999
 30
0.0
 11
18.0319677335
 21
2.735983006999999
 31
0.0
  0
LINE
  5
A4
330
1D
100
AcDbEntity
  8
1
100
AcDbLine
 10
18.0319677335
 20
2.735983006999999
 30
0.0
 11
18.9084284235
 21
1.859522781999999
 31
0.0
  0
LINE
  5
A5
330
1D
100
AcDbEntity
  8
1
100
AcDbLine
 10
18.9084284235
 20
1.859522781999999
 30
0.0
 11
19.7871941365
 21
0.9807566029999991
 31
0.0
  0
LINE
  5
A6
330
1D
100
AcDbEntity
  8
1
100
AcDbLine
 10
19.7871941365
 20
0.9807566029999991
 30
0.0
 11
20.7679492185
 21
-0.0000005740000009
 31
0.0
  0
ARC
  5
A8
330
1D
100
AcDbEntity
  8
1
100
AcDbCircle
 10
33.7679492635
 20
-10.499999709
 30
0.0
 40
13.0
100
AcDbArc
 50
180.0
 51
206.1044043989999
  0
LINE
  5
A9
330
1D
100
AcDbEntity
  8
1
100
AcDbLine
 10
22.0940303285
 20
-16.220106386
 30
0.0
 11
21.2620251575
 21
-23.299519546
 31
0.0
  0
LINE
  5
AA
330
1D
100
AcDbEntity
  8
1
100
AcDbLine
 10
21.2620251575
 20
-23.299519546
 30
0.0
 11
21.2667416075
 21
-24.348724276
 31
0.0
  0
LINE
  5
AB
330
1D
100
AcDbEntity
  8
1
100
AcDbLine
 10
21.2667416075
 20
-24.348724276
 30
0.0
 11
21.2816104055
 21
-25.347748414
 31
0.0
  0
LINE
  5
AC
330
1D
100
AcDbEntity
  8
1
100
AcDbLine
 10
21.2816104055
 20
-25.347748414
 30
0.0
 11
21.3068634495
 21
-26.302241363
 31
0.0
  0
LINE
  5
AD
330
1D
100
AcDbEntity
  8
1
100
AcDbLine
 10
21.3068634495
 20
-26.302241363
 30
0.0
 11
21.3423505645
 21
-27.201600947
 31
0.0
  0
LINE
  5
AE
330
1D
100
AcDbEntity
  8
1
100
AcDbLine
 10
21.3423505645
 20
-27.201600947
 30
0.0
 11
21.3985596075
 21
-28.208221883
 31
0.0
  0
LINE
  5
AF
330
1D
100
AcDbEntity
  8
1
100
AcDbLine
 10
21.3985596075
 20
-28.208221883
 30
0.0
 11
21.4693426845
 21
-29.129991416
 31
0.0
  0
LINE
  5
B0
330
1D
100
AcDbEntity
  8
1
100
AcDbLine
 10
21.4693426845
 20
-29.129991416
 30
0.0
 11
21.5543628895
 21
-29.962772146
 31
0.0
  0
LINE
  5
B1
330
1D
100
AcDbEntity
  8
1
100
AcDbLine
 10
21.5543628895
 20
-29.962772146
 30
0.0
 11
21.6565226895
 21
-30.724434523
 31
0.0
  0
LINE
  5
B2
330
1D
100
AcDbEntity
  8
1
100
AcDbLine
 10
21.6565226895
 20
-30.724434523
 30
0.0
 11
21.7732644395
 21
-31.38828172
 31
0.0
  0
LINE
  5
B3
330
1D
100
AcDbEntity
  8
1
100
AcDbLine
 10
21.7732644395
 20
-31.38828172
 30
0.0
 11
21.9040065295
 21
-31.951262957
 31
0.0
  0
LINE
  5
B4
330
1D
100
AcDbEntity
  8
1
100
AcDbLine
 10
21.9040065295
 20
-31.951262957
 30
0.0
 11
21.9910302425
 21
-32.246107576
 31
0.0
  0
LINE
  5
B5
330
1D
100
AcDbEntity
  8
1
100
AcDbLine
 10
21.9910302425
 20
-32.246107576
 30
0.0
 11
22.0830891505
 21
-32.502210574
 31
0.0
  0
LINE
  5
B6
330
1D
100
AcDbEntity
  8
1
100
AcDbLine
 10
22.0830891505
 20
-32.502210574
 30
0.0
 11
22.1805515925
 21
-32.72023551700001
 31
0.0
  0
LINE
  5
B7
330
1D
100
AcDbEntity
  8
1
100
AcDbLine
 10
22.1805515925
 20
-32.72023551700001
 30
0.0
 11
22.2828586575
 21
-32.898653174
 31
0.0
  0
ARC
  5
B8
330
1D
100
AcDbEntity
  8
1
100
AcDbCircle
 10
21.4937370205
 20
-32.818344836
 30
0.0
 40
0.793197572
100
AcDbArc
 50
263.9566939270002
 51
354.1890561949998
  0
LINE
  5
B9
330
1D
100
AcDbEntity
  8
1
100
AcDbLine
 10
21.4102290795
 20
-33.60713429600001
 30
0.0
 11
10.5999940295
 21
-32.47093280400001
 31
0.0
  0
LINE
  5
BA
330
1D
100
AcDbEntity
  8
1
100
AcDbLine
 10
10.5999940295
 20
-32.47093280400001
 30
0.0
 11
10.5843962395
 21
-32.619334516
 31
0.0
  0
LINE
  5
BB
330
1D
100
AcDbEntity
  8
1
100
AcDbLine
 10
10.5843962395
 20
-32.619334516
 30
0.0
 11
10.5745875505
 21
-32.712659092
 31
0.0
  0
LINE
  5
BC
330
1D
100
AcDbEntity
  8
1
100
AcDbLine
 10
10.5745875505
 20
-32.712659092
 30
0.0
 11
10.4058272425
 21
-32.73402782300001
 31
0.0
  0
LINE
  5
BD
330
1D
100
AcDbEntity
  8
1
100
AcDbLine
 10
10.4058272425
 20
-32.73402782300001
 30
0.0
 11
5.221454355500001
 21
-32.193927202
 31
0.0
  0
LINE
  5
BE
330
1D
100
AcDbEntity
  8
1
100
AcDbLine
 10
5.221454355500001
 20
-32.193927202
 30
0.0
 11
5.221454355500001
 21
-22.004748337
 31
0.0
  0
LINE
  5
BF
330
1D
100
AcDbEntity
  8
1
100
AcDbLine
 10
5.221454355500001
 20
-22.004748337
 30
0.0
 11
8.867949176499998
 21
-22.556867093
 31
0.0
  0
LINE
  5
C0
330
1D
100
AcDbEntity
  8
1
100
AcDbLine
 10
21.4102290795
 20
-33.60713429600001
 30
0.0
 11
21.2746417845
 21
-33.35522766300001
 31
0.0
  0
LINE
  5
C1
330
1D
100
AcDbEntity
  8
1
100
AcDbLine
 10
21.2746417845
 20
-33.35522766300001
 30
0.0
 11
21.1476901775
 21
-33.03100936200001
 31
0.0
  0
LINE
  5
C2
330
1D
100
AcDbEntity
  8
1
100
AcDbLine
 10
21.1476901775
 20
-33.03100936200001
 30
0.0
 11
21.0297952165
 21
-32.63542998200001
 31
0.0
  0
LINE
  5
C3
330
1D
100
AcDbEntity
  8
1
100
AcDbLine
 10
21.0297952165
 20
-32.63542998200001
 30
0.0
 11
20.9011835265
 21
-32.068589345
 31
0.0
  0
LINE
  5
C4
330
1D
100
AcDbEntity
  8
1
100
AcDbLine
 10
20.9011835265
 20
-32.068589345
 30
0.0
 11
20.7859672835
 21
-31.399367951
 31
0.0
  0
LINE
  5
C5
330
1D
100
AcDbEntity
  8
1
100
AcDbLine
 10
20.7859672835
 20
-31.399367951
 30
0.0
 11
20.6846005045
 21
-30.631460358
 31
0.0
  0
LINE
  5
C6
330
1D
100
AcDbEntity
  8
1
100
AcDbLine
 10
20.6846005045
 20
-30.631460358
 30
0.0
 11
20.5975379085
 21
-29.768560655
 31
0.0
  0
LINE
  5
C7
330
1D
100
AcDbEntity
  8
1
100
AcDbLine
 10
20.5975379085
 20
-29.768560655
 30
0.0
 11
20.5252335165
 21
-28.814363401
 31
0.0
  0
LINE
  5
C8
330
1D
100
AcDbEntity
  8
1
100
AcDbLine
 10
20.5252335165
 20
-28.814363401
 30
0.0
 11
20.4681415805
 21
-27.772563152
 31
0.0
  0
LINE
  5
C9
330
1D
100
AcDbEntity
  8
1
100
AcDbLine
 10
20.4681415805
 20
-27.772563152
 30
0.0
 11
20.4259626795
 21
-26.632397078
 31
0.0
  0
LINE
  5
CA
330
1D
100
AcDbEntity
  8
1
100
AcDbLine
 10
20.4259626795
 20
-26.632397078
 30
0.0
 11
20.3992649205
 21
-25.407611966
 31
0.0
  0
LINE
  5
CB
330
1D
100
AcDbEntity
  8
1
100
AcDbLine
 10
20.3992649205
 20
-25.407611966
 30
0.0
 11
20.3893561145
 21
-24.413903818
 31
0.0
  0
LINE
  5
CC
330
1D
100
AcDbEntity
  8
1
100
AcDbLine
 10
20.3893561145
 20
-24.413903818
 30
0.0
 11
20.3886192045
 21
-23.374603704
 31
0.0
  0
LINE
  5
CD
330
1D
100
AcDbEntity
  8
1
100
AcDbLine
 10
20.3886192045
 20
-23.374603704
 30
0.0
 11
19.7679492865
 21
-22.61321304
 31
0.0
  0
LINE
  5
CE
330
1D
100
AcDbEntity
  8
1
100
AcDbLine
 10
19.7679492865
 20
-22.61321304
 30
0.0
 11
19.7679492635
 21
0.0000002909999992
 31
0.0
  0
ARC
  5
CF
330
1D
100
AcDbEntity
  8
1
100
AcDbCircle
 10
44.7679492635
 20
0.0000002909999992
 30
0.0
 40
25.0
100
AcDbArc
 50
177.751698199
 51
180.0
  0
LINE
  5
D0
330
1D
100
AcDbEntity
  8
1
100
AcDbLine
 10
21.2620251575
 20
-23.299519546
 30
0.0
 11
21.2274954415
 21
-23.465627447
 31
0.0
  0
LINE
  5
D1
330
1D
100
AcDbEntity
  8
1
100
AcDbLine
 10
21.2274954415
 20
-23.465627447
 30
0.0
 11
21.1572709255
 21
-23.609341696
 31
0.0
  0
LINE
  5
D2
330
1D
100
AcDbEntity
  8
1
100
AcDbLine
 10
21.1572709255
 20
-23.609341696
 30
0.0
 11
21.0640622995
 21
-23.694184251
 31
0.0
  0
LINE
  5
D3
330
1D
100
AcDbEntity
  8
1
100
AcDbLine
 10
21.0640622995
 20
-23.694184251
 30
0.0
 11
20.9704385365
 21
-23.725088328
 31
0.0
  0
LINE
  5
D4
330
1D
100
AcDbEntity
  8
1
100
AcDbLine
 10
20.9704385365
 20
-23.725088328
 30
0.0
 11
20.8180378415
 21
-23.707807638
 31
0.0
  0
LINE
  5
D5
330
1D
100
AcDbEntity
  8
1
100
AcDbLine
 10
20.8180378415
 20
-23.707807638
 30
0.0
 11
20.5807470945
 21
-23.568615891
 31
0.0
  0
LINE
  5
D6
330
1D
100
AcDbEntity
  8
1
100
AcDbLine
 10
20.5807470945
 20
-23.568615891
 30
0.0
 11
20.3886192045
 21
-23.374603704
 31
0.0
  0
LINE
  5
D7
330
1D
100
AcDbEntity
  8
1
100
AcDbLine
 10
-3.1320509275
 20
14.57989531
 30
0.0
 11
-3.1820499115
 21
14.453458957
 31
0.0
  0
ARC
  5
D8
330
1D
100
AcDbEntity
  8
1
100
AcDbCircle
 10
-0.2392499935
 20
13.204235911
 30
0.0
 40
3.196971938
100
AcDbArc
 50
156.998703443
 51
177.072733119
  0
LINE
  5
D9
330
1D
100
AcDbEntity
  8
1
100
AcDbLine
 10
-3.4320504175
 20
13.367499582
 30
0.0
 11
-3.4320504175
 21
12.624751203
 31
0.0
  0
LINE
  5
DA
330
1D
100
AcDbEntity
  8
1
100
AcDbLine
 10
-3.4320504175
 20
12.624751203
 30
0.0
 11
-3.4199804775
 21
12.463237517
 31
0.0
  0
LINE
  5
DB
330
1D
100
AcDbEntity
  8
1
100
AcDbLine
 10
-3.4199804775
 20
12.463237517
 30
0.0
 11
-3.3992902155
 21
12.386038326
 31
0.0
  0
LINE
  5
DC
330
1D
100
AcDbEntity
  8
1
100
AcDbLine
 10
-3.3992902155
 20
12.386038326
 30
0.0
 11
-3.3610612865
 21
12.32584136
 31
0.0
  0
LINE
  5
DD
330
1D
100
AcDbEntity
  8
1
100
AcDbLine
 10
-3.3610612865
 20
12.32584136
 30
0.0
 11
-3.3262558985
 21
12.307222359
 31
0.0
  0
LINE
  5
DE
330
1D
100
AcDbEntity
  8
1
100
AcDbLine
 10
-3.3262558985
 20
12.307222359
 30
0.0
 11
-3.2832995765
 21
12.309312247
 31
0.0
  0
LINE
  5
DF
330
1D
100
AcDbEntity
  8
1
100
AcDbLine
 10
-3.2832995765
 20
12.309312247
 30
0.0
 11
-3.2410883125
 21
12.329261176
 31
0.0
  0
LINE
  5
E0
330
1D
100
AcDbEntity
  8
1
100
AcDbLine
 10
-3.2410883125
 20
12.329261176
 30
0.0
 11
-3.1820499115
 21
12.378360502
 31
0.0
  0
LINE
  5
E1
330
1D
100
AcDbEntity
  8
1
100
AcDbLine
 10
-3.1820499115
 20
12.378360502
 30
0.0
 11
-3.1320507365
 21
12.428585634
 31
0.0
  0
ARC
  5
E2
330
1D
100
AcDbEntity
  8
1
100
AcDbCircle
 10
-21.6445244245
 20
-5.728001975000001
 30
0.0
 40
25.930163047
100
AcDbArc
 50
38.78797781900001
 51
44.443941858
  0
ARC
  5
E3
330
1D
100
AcDbEntity
  8
1
100
AcDbCircle
 10
-17.4693325195
 20
-2.372503652000001
 30
0.0
 40
20.584556848
100
AcDbArc
 50
31.966527242
 51
38.787977819
  0
LINE
  5
E4
330
1D
100
AcDbEntity
  8
1
100
AcDbLine
 10
-3.1320509275
 20
-12.428584151
 30
0.0
 11
-3.1820499115
 21
-12.378357925
 31
0.0
  0
LINE
  5
E5
330
1D
100
AcDbEntity
  8
1
100
AcDbLine
 10
-3.1820499115
 20
-12.378357925
 30
0.0
 11
-3.2118503715
 21
-12.350891359
 31
0.0
  0
LINE
  5
E6
330
1D
100
AcDbEntity
  8
1
100
AcDbLine
 10
-3.2118503715
 20
-12.350891359
 30
0.0
 11
-3.2712594385
 21
-12.313459642
 31
0.0
  0
LINE
  5
E7
330
1D
100
AcDbEntity
  8
1
100
AcDbLine
 10
-3.2712594385
 20
-12.313459642
 30
0.0
 11
-3.3129920025
 21
-12.305455856
 31
0.0
  0
LINE
  5
E8
330
1D
100
AcDbEntity
  8
1
100
AcDbLine
 10
-3.3129920025
 20
-12.305455856
 30
0.0
 11
-3.3489261525
 21
-12.316637315
 31
0.0
  0
LINE
  5
E9
330
1D
100
AcDbEntity
  8
1
100
AcDbLine
 10
-3.3489261525
 20
-12.316637315
 30
0.0
 11
-3.3846684505
 21
-12.355618753
 31
0.0
  0
LINE
  5
EA
330
1D
100
AcDbEntity
  8
1
100
AcDbLine
 10
-3.3846684505
 20
-12.355618753
 30
0.0
 11
-3.4184363445
 21
-12.454847448
 31
0.0
  0
LINE
  5
EB
330
1D
100
AcDbEntity
  8
1
100
AcDbLine
 10
-3.4184363445
 20
-12.454847448
 30
0.0
 11
-3.4320504175
 21
-12.624750488
 31
0.0
  0
LINE
  5
EC
330
1D
100
AcDbEntity
  8
1
100
AcDbLine
 10
-3.4320504175
 20
-12.624750488
 30
0.0
 11
-3.4320504185
 21
-13.367498867
 31
0.0
  0
ARC
  5
ED
330
1D
100
AcDbEntity
  8
1
100
AcDbCircle
 10
-0.1472741565
 20
-13.183063465
 30
0.0
 40
3.289950076
100
AcDbArc
 50
183.213700168
 51
202.7148203009999
  0
LINE
  5
EE
330
1D
100
AcDbEntity
  8
1
100
AcDbLine
 10
-3.1820499115
 20
-14.453460105
 30
0.0
 11
-3.1320509275
 21
-14.579894595
 31
0.0
  0
LINE
  5
EF
330
1D
100
AcDbEntity
  8
1
100
AcDbLine
 10
-3.1320509275
 20
20.500558786
 30
0.0
 11
-3.1820499115
 21
20.41931393
 31
0.0
  0
ARC
  5
F0
330
1D
100
AcDbEntity
  8
1
100
AcDbCircle
 10
-2.0210371675
 20
19.591439139
 30
0.0
 40
1.425947847
100
AcDbArc
 50
144.508752096
 51
171.700301345
  0
LINE
  5
F1
330
1D
100
AcDbEntity
  8
1
100
AcDbLine
 10
-3.4320504175
 20
19.797276132
 30
0.0
 11
-3.4320504175
 21
19.445880674
 31
0.0
  0
LINE
  5
F2
330
1D
100
AcDbEntity
  8
1
100
AcDbLine
 10
-3.4320504175
 20
19.445880674
 30
0.0
 11
-3.4257490895
 21
19.3916777
 31
0.0
  0
LINE
  5
F3
330
1D
100
AcDbEntity
  8
1
100
AcDbLine
 10
-3.4257490895
 20
19.3916777
 30
0.0
 11
-3.3978466655
 21
19.345905058
 31
0.0
  0
LINE
  5
F4
330
1D
100
AcDbEntity
  8
1
100
AcDbLine
 10
-3.3978466655
 20
19.345905058
 30
0.0
 11
-3.3548661285
 21
19.332892619
 31
0.0
  0
LINE
  5
F5
330
1D
100
AcDbEntity
  8
1
100
AcDbLine
 10
-3.3548661285
 20
19.332892619
 30
0.0
 11
-3.2965504345
 21
19.347149305
 31
0.0
  0
LINE
  5
F6
330
1D
100
AcDbEntity
  8
1
100
AcDbLine
 10
-3.2965504345
 20
19.347149305
 30
0.0
 11
-3.2143407275
 21
19.395976685
 31
0.0
  0
LINE
  5
F7
330
1D
100
AcDbEntity
  8
1
100
AcDbLine
 10
-3.2143407275
 20
19.395976685
 30
0.0
 11
-3.1820499115
 21
19.421066515
 31
0.0
  0
LINE
  5
F8
330
1D
100
AcDbEntity
  8
1
100
AcDbLine
 10
-3.1820499115
 20
19.421066515
 30
0.0
 11
-3.1320509275
 21
19.462022357
 31
0.0
  0
LINE
  5
F9
330
1D
100
AcDbEntity
  8
1
100
AcDbLine
 10
-3.1320509275
 20
-19.46202071
 30
0.0
 11
-3.1820499115
 21
-19.421067663
 31
0.0
  0
LINE
  5
FA
330
1D
100
AcDbEntity
  8
1
100
AcDbLine
 10
-3.1820499115
 20
-19.421067663
 30
0.0
 11
-3.2459628545
 21
-19.374312475
 31
0.0
  0
LINE
  5
FB
330
1D
100
AcDbEntity
  8
1
100
AcDbLine
 10
-3.2459628545
 20
-19.374312475
 30
0.0
 11
-3.3304747905
 21
-19.335915908
 31
0.0
  0
LINE
  5
FC
330
1D
100
AcDbEntity
  8
1
100
AcDbLine
 10
-3.3304747905
 20
-19.335915908
 30
0.0
 11
-3.3863280675
 21
-19.339000449
 31
0.0
  0
LINE
  5
FD
330
1D
100
AcDbEntity
  8
1
100
AcDbLine
 10
-3.3863280675
 20
-19.339000449
 30
0.0
 11
-3.4163371435
 21
-19.367890075
 31
0.0
  0
LINE
  5
FE
330
1D
100
AcDbEntity
  8
1
100
AcDbLine
 10
-3.4163371435
 20
-19.367890075
 30
0.0
 11
-3.4320504175
 21
-19.44588089
 31
0.0
  0
LINE
  5
FF
330
1D
100
AcDbEntity
  8
1
100
AcDbLine
 10
-3.4320504175
 20
-19.44588089
 30
0.0
 11
-3.4320504185
 21
-19.797273554
 31
0.0
  0
ARC
  5
100
330
1D
100
AcDbEntity
  8
1
100
AcDbCircle
 10
-1.9778314445
 20
-19.574075734
 30
0.0
 40
1.4712478
100
AcDbArc
 50
188.725832353
 51
215.0649361110001
  0
LINE
  5
101
330
1D
100
AcDbEntity
  8
1
100
AcDbLine
 10
-3.1820499115
 20
-20.419314146
 30
0.0
 11
-3.1320509275
 21
-20.500556208
 31
0.0
  0
LINE
  5
102
330
1D
100
AcDbEntity
  8
1
100
AcDbLine
 10
-3.1320509275
 20
-23.044972323
 30
0.0
 11
-3.1820499115
 21
-23.002869092
 31
0.0
  0
LINE
  5
103
330
1D
100
AcDbEntity
  8
1
100
AcDbLine
 10
-3.1820499115
 20
-23.002869092
 30
0.0
 11
-3.2718685235
 21
-22.933247142
 31
0.0
  0
LINE
  5
104
330
1D
100
AcDbEntity
  8
1
100
AcDbLine
 10
-3.2718685235
 20
-22.933247142
 30
0.0
 11
-3.3505988085
 21
-22.88681978
 31
0.0
  0
LINE
  5
105
330
1D
100
AcDbEntity
  8
1
100
AcDbLine
 10
-3.3505988085
 20
-22.88681978
 30
0.0
 11
-3.4072306715
 21
-22.874240406
 31
0.0
  0
LINE
  5
106
330
1D
100
AcDbEntity
  8
1
100
AcDbLine
 10
-3.4072306715
 20
-22.874240406
 30
0.0
 11
-3.4298878865
 21
-22.894261979
 31
0.0
  0
LINE
  5
107
330
1D
100
AcDbEntity
  8
1
100
AcDbLine
 10
-3.4298878865
 20
-22.894261979
 30
0.0
 11
-3.4320504175
 21
-22.910701685
 31
0.0
  0
LINE
  5
108
330
1D
100
AcDbEntity
  8
1
100
AcDbLine
 10
-3.4320504175
 20
-22.910701685
 30
0.0
 11
-3.4320504185
 21
-23.090562426
 31
0.0
  0
ARC
  5
109
330
1D
100
AcDbEntity
  8
1
100
AcDbCircle
 10
-2.3167504065
 20
-22.721033015
 30
0.0
 40
1.17492387
100
AcDbArc
 50
198.3314463369999
 51
222.568184956
  0
LINE
  5
10A
330
1D
100
AcDbEntity
  8
1
100
AcDbLine
 10
-3.1820499115
 20
-23.51583039
 30
0.0
 11
-3.1320509275
 21
-23.579064399
 31
0.0
  0
LINE
  5
10B
330
1D
100
AcDbEntity
  8
1
100
AcDbLine
 10
-3.4320504175
 20
19.797276132
 30
0.0
 11
-3.4320504175
 21
20.699999653
 31
0.0
  0
LINE
  5
10C
330
1D
100
AcDbEntity
  8
1
100
AcDbLine
 10
-3.4320504175
 20
20.699999653
 30
0.0
 11
-3.4211241415
 21
20.710925929
 31
0.0
  0
LINE
  5
10D
330
1D
100
AcDbEntity
  8
1
100
AcDbLine
 10
-3.4211241415
 20
20.710925929
 30
0.0
 11
-3.3888240125
 21
20.743227921
 31
0.0
  0
LINE
  5
10E
330
1D
100
AcDbEntity
  8
1
100
AcDbLine
 10
-3.3888240125
 20
20.743227921
 30
0.0
 11
-3.3365600515
 21
20.795490019
 31
0.0
  0
LINE
  5
10F
330
1D
100
AcDbEntity
  8
1
100
AcDbLine
 10
-3.3365600515
 20
20.795490019
 30
0.0
 11
-3.2666158635
 21
20.86543607
 31
0.0
  0
LINE
  5
110
330
1D
100
AcDbEntity
  8
1
100
AcDbLine
 10
-3.2666158635
 20
20.86543607
 30
0.0
 11
-3.1820499115
 21
20.950000159
 31
0.0
  0
LINE
  5
111
330
1D
100
AcDbEntity
  8
1
100
AcDbLine
 10
-3.1820499115
 20
20.950000159
 30
0.0
 11
-3.1320509275
 21
21.000001006
 31
0.0
  0
LINE
  5
112
330
1D
100
AcDbEntity
  8
1
100
AcDbLine
 10
-3.1320509275
 20
21.000001006
 30
0.0
 11
-1.8440448455
 21
21.000001006
 31
0.0
  0
LINE
  5
113
330
1D
100
AcDbEntity
  8
1
100
AcDbLine
 10
-3.1320509275
 20
-24.725922957
 30
0.0
 11
-3.1820499115
 21
-24.679668821
 31
0.0
  0
ARC
  5
114
330
1D
100
AcDbEntity
  8
1
100
AcDbCircle
 10
-3.6676805345
 20
-25.053977771
 30
0.0
 40
0.613142962
100
AcDbArc
 50
37.62391547000005
 51
67.39978299500015
  0
LINE
  5
115
330
1D
100
AcDbEntity
  8
1
100
AcDbLine
 10
-3.4320504175
 20
-24.487918817
 30
0.0
 11
-3.4320504185
 21
-24.544166975
 31
0.0
  0
ARC
  5
116
330
1D
100
AcDbEntity
  8
1
100
AcDbCircle
 10
-2.1870717375
 20
-23.746703263
 30
0.0
 40
1.478485809
100
AcDbArc
 50
212.641352371
 51
227.7032105129999
  0
LINE
  5
117
330
1D
100
AcDbEntity
  8
1
100
AcDbLine
 10
-3.1820499115
 20
-24.840293095
 30
0.0
 11
-3.1320509275
 21
-24.893207118
 31
0.0
  0
LINE
  5
118
330
1D
100
AcDbEntity
  8
1
100
AcDbLine
 10
19.7679492865
 20
-22.61321304
 30
0.0
 11
18.5627992485
 21
-22.425506838
 31
0.0
  0
LINE
  5
119
330
1D
100
AcDbEntity
  8
1
100
AcDbLine
 10
18.5627992485
 20
-22.425506838
 30
0.0
 11
15.6190217695
 21
-21.963332422
 31
0.0
  0
LINE
  5
11A
330
1D
100
AcDbEntity
  8
1
100
AcDbLine
 10
15.6190217695
 20
-21.963332422
 30
0.0
 11
12.6760480215
 21
-21.495802902
 31
0.0
  0
LINE
  5
11B
330
1D
100
AcDbEntity
  8
1
100
AcDbLine
 10
12.6760480215
 20
-21.495802902
 30
0.0
 11
9.733974862499998
 21
-21.022573687
 31
0.0
  0
ARC
  5
11C
330
1D
100
AcDbEntity
  8
1
100
AcDbCircle
 10
33.7679492635
 20
-10.499999709
 30
0.0
 40
13.0
100
AcDbArc
 50
206.104404146
 51
222.350481695
  0
LINE
  5
11D
330
1D
100
AcDbEntity
  8
1
100
AcDbLine
 10
24.1604572655
 20
-19.257630795
 30
0.0
 11
23.8746330015
 21
-21.977066636
 31
0.0
  0
LINE
  5
11E
330
1D
100
AcDbEntity
  8
1
100
AcDbLine
 10
23.8746330015
 20
-21.977066636
 30
0.0
 11
23.7005445985
 21
-22.125145063
 31
0.0
  0
LINE
  5
11F
330
1D
100
AcDbEntity
  8
1
100
AcDbLine
 10
23.7005445985
 20
-22.125145063
 30
0.0
 11
23.4183436135
 21
-22.095235638
 31
0.0
  0
LINE
  5
120
330
1D
100
AcDbEntity
  8
1
100
AcDbLine
 10
23.4183436135
 20
-22.095235638
 30
0.0
 11
22.2828586575
 21
-32.898653174
 31
0.0
  0
ARC
  5
121
330
1D
100
AcDbEntity
  8
1
100
AcDbCircle
 10
79.2181287125
 20
8.180979328
 30
0.0
 40
79.916743994
100
AcDbArc
 50
192.069430567
 51
202.1921965479999
  0
ARC
  5
122
330
1D
100
AcDbEntity
  8
CUT
100
AcDbCircle
 10
11.1684902825
 20
-32.539733768
 30
0.0
 40
0.8
100
AcDbArc
 50
194.1594589930001
 51
264.0000039990002
  0
LINE
  5
123
330
1D
100
AcDbEntity
  8
CUT
100
AcDbLine
 10
11.0848675705
 20
-33.33535126
 30
0.0
 11
22.1240605505
 21
-34.49561722600001
 31
0.0
  0
ARC
  5
124
330
1D
100
AcDbEntity
  8
CUT
100
AcDbCircle
 10
22.2076833215
 20
-33.69999971000001
 30
0.0
 40
0.8
100
AcDbArc
 50
264.0
 51
353.9999994969999
  0
LINE
  5
125
330
1D
100
AcDbEntity
  8
CUT
100
AcDbLine
 10
23.0033008135
 20
-33.783622485
 30
0.0
 11
24.1635667795
 21
-22.744429442
 31
0.0
  0
ARC
  5
126
330
1D
100
AcDbEntity
  8
CUT
100
AcDbCircle
 10
23.3679492635
 20
-22.660806671
 30
0.0
 40
0.8
100
AcDbArc
 50
353.9999999999999
 51
54.30991225500007
  0
ARC
  5
127
330
1D
100
AcDbEntity
  8
CUT
100
AcDbCircle
 10
11.1684902825
 20
-32.539733768
 30
0.0
 40
0.21554549
100
AcDbArc
 50
174.0000000000009
 51
263.9999731759999
  0
LINE
  5
128
330
1D
100
AcDbEntity
  8
CUT
100
AcDbLine
 10
11.1459595375
 20
-32.754098523
 30
0.0
 11
22.1851526825
 21
-33.914364419
 31
0.0
  0
ARC
  5
129
330
1D
100
AcDbEntity
  8
CUT
100
AcDbCircle
 10
22.2076833215
 20
-33.69999971000001
 30
0.0
 40
0.21554549
100
AcDbArc
 50
263.9999999999999
 51
354.0000026260009
  0
LINE
  5
12A
330
1D
100
AcDbEntity
  8
CUT
100
AcDbLine
 10
22.4220480765
 20
-33.72253034400001
 30
0.0
 11
23.5823139725
 21
-22.68333731
 31
0.0
  0
ARC
  5
12B
330
1D
100
AcDbEntity
  8
CUT
100
AcDbCircle
 10
23.3679492635
 20
-22.660806671
 30
0.0
 40
0.21554549
100
AcDbArc
 50
353.9999999999999
 51
83.99999999999989
  0
LINE
  5
12C
330
1D
100
AcDbEntity
  8
1
100
AcDbLine
 10
5.221454355500001
 20
-32.193927202
 30
0.0
 11
1.0679493885
 21
-24.999799781
 31
0.0
  0
LINE
  5
12D
330
1D
100
AcDbEntity
  8
1
100
AcDbLine
 10
-3.4320504175
 20
12.624751203
 30
0.0
 11
-3.4320504175
 21
-12.624750488
 31
0.0
  0
LINE
  5
12E
330
1D
100
AcDbEntity
  8
1
100
AcDbLine
 10
-3.4320504175
 20
-13.367498867
 30
0.0
 11
-3.4320504175
 21
-19.44588089
 31
0.0
  0
LINE
  5
12F
330
1D
100
AcDbEntity
  8
1
100
AcDbLine
 10
-3.4320504175
 20
19.445880674
 30
0.0
 11
-3.4320504175
 21
13.367499582
 31
0.0
  0
LINE
  5
130
330
1D
100
AcDbEntity
  8
1
100
AcDbLine
 10
-3.4320504175
 20
-19.797273554
 30
0.0
 11
-3.4320504175
 21
-22.910701685
 31
0.0
  0
LINE
  5
131
330
1D
100
AcDbEntity
  8
1
100
AcDbLine
 10
-3.4320504175
 20
-23.090562426
 30
0.0
 11
-3.4320504175
 21
-24.487918817
 31
0.0
  0
LINE
  5
132
330
1D
100
AcDbEntity
  8
CUT
100
AcDbLine
 10
22.4220480765
 20
-33.72253034400001
 30
0.0
 11
23.0033008135
 21
-33.783622485
 31
0.0
  0
LINE
  5
133
330
1D
100
AcDbEntity
  8
CUT
100
AcDbLine
 10
22.1851527915
 20
-33.9143644
 30
0.0
 11
22.1240605915
 21
-34.49561722600001
 31
0.0
  0
LINE
  5
134
330
1D
100
AcDbEntity
  8
CUT
100
AcDbLine
 10
11.1459595375
 20
-32.754098523
 30
0.0
 11
11.0848675705
 21
-33.33535126
 31
0.0
  0
LINE
  5
135
330
1D
100
AcDbEntity
  8
CUT
100
AcDbLine
 10
23.5823139535
 20
-22.683336973
 30
0.0
 11
24.1635667795
 21
-22.744429871
 31
0.0
  0
LINE
  5
136
330
1D
100
AcDbEntity
  8
1
100
AcDbLine
 10
-0.0000000705
 20
8.529360764
 30
0.0
 11
0.0000000705
 21
-8.529360764000002
 31
0.0
  0
LINE
  5
1D3
330
1D
100
AcDbEntity
  8
1
100
AcDbLine
 10
11.2324151435
 20
24.278113841
 30
0.0
 11
10.37287275785855
 21
32.45611165680074
 31
0.0
  0
LINE
  5
1D4
330
1D
100
AcDbEntity
  8
1
100
AcDbLine
 10
10.37287275785855
 20
32.45611165680074
 30
0.0
 11
10.34458293184825
 21
32.72764769982272
 31
0.0
  0
LINE
  5
1D5
330
1D
100
AcDbEntity
  8
1
100
AcDbLine
 10
15.2735737375
 20
21.005647479
 30
0.0
 11
23.45157203411412
 21
21.86518973470538
 31
0.0
  0
LINE
  5
1D6
330
1D
100
AcDbEntity
  8
1
100
AcDbLine
 10
23.45157203411412
 20
21.86518973470538
 30
0.0
 11
23.88639179912545
 21
21.86518973470538
 31
0.0
  0
LINE
  5
1D9
330
1D
100
AcDbEntity
  8
1
100
AcDbLine
 10
23.45157203411412
 20
21.86518973470538
 30
0.0
 11
12.41237899511412
 21
20.70492379270538
 31
0.0
  0
LINE
  5
1DA
330
1D
100
AcDbEntity
  8
1
100
AcDbLine
 10
11.53313870820538
 20
21.41691853838588
 30
0.0
 11
10.37287275785855
 21
32.45611165680074
 31
0.0
  0
LINE
  5
1DC
330
1D
100
AcDbEntity
  8
3
100
AcDbLine
 10
23.8346698335
 20
22.011059559
 30
0.0
 11
22.62092005976789
 21
33.56599734513753
 31
0.0
  0
LINE
  5
1DD
330
1D
100
AcDbEntity
  8
3
100
AcDbLine
 10
22.62092005976789
 20
33.56599734513753
 30
0.0
 11
21.91718381457206
 21
34.11893296636281
 31
0.0
  0
LINE
  5
1DE
330
1D
100
AcDbEntity
  8
3
100
AcDbLine
 10
21.91718381457206
 20
34.11893296636281
 30
0.0
 11
10.88096141812359
 21
32.9511212221532
 31
0.0
  0
LINE
  5
1DF
330
1D
100
AcDbEntity
  8
3
100
AcDbLine
 10
10.88096141812359
 20
32.9511212221532
 30
0.0
 11
10.39641061357705
 21
32.74924087495281
 31
0.0
  0
LWPOLYLINE
  5
1F1
330
1D
100
AcDbEntity
  8
INFTOTAL
100
AcDbPolyline
 90
        4
 70
     1
 43
0.0
 10
-42.41272562109633
 20
57.58188777502205
 10
-42.41272562109633
 20
-67.05750327321522
 10
59.75562136796361
 20
-67.05750327321522
 10
59.75562136796361
 20
57.58188777502205
  0
LINE
  5
221
330
1D
100
AcDbEntity
  8
1
100
AcDbLine
 10
-1.8320507365
 20
21.00000029
 30
0.0
 11
0.1679492635
 21
21.00000029
 31
0.0
  0
LINE
  5
223
330
1D
100
AcDbEntity
  8
1
100
AcDbLine
 10
0.1679492635
 20
21.00000029
 30
0.0
 11
8.77010732802994
 21
20.99418040830057
 31
0.0
  0
LINE
  5
22F
330
1D
100
AcDbEntity
  8
SK4
100
AcDbLine
 10
-10.3320507365
 20
0.0000002899999991
 30
0.0
 11
26.6679492635
 21
0.0000002899999991
 31
0.0
  0
ARC
  5
2A7
330
1D
100
AcDbEntity
  8
CUT
100
AcDbCircle
 10
23.3679492635
 20
22.66080725099999
 30
0.0
 40
0.8
100
AcDbArc
 50
275.9999999999993
 51
6.000030599999701
  0
LINE
  5
2A8
330
1D
100
AcDbEntity
  8
CUT
100
AcDbLine
 10
24.16356677949999
 20
22.74443045199999
 30
0.0
 11
23.0033008375
 21
33.78362306099999
 31
0.0
  0
ARC
  5
2A9
330
1D
100
AcDbEntity
  8
CUT
100
AcDbCircle
 10
22.20768332149999
 20
33.70000029
 30
0.0
 40
0.8
100
AcDbArc
 50
5.9999999999993
 51
95.99999707299914
  0
LINE
  5
2AA
330
1D
100
AcDbEntity
  8
CUT
100
AcDbLine
 10
22.12406059149999
 20
34.49561780599999
 30
0.0
 11
11.0848675115
 21
33.335351864
 31
0.0
  0
ARC
  5
2AB
330
1D
100
AcDbEntity
  8
CUT
100
AcDbCircle
 10
11.1684902825
 20
32.53973434799999
 30
0.0
 40
0.8
100
AcDbArc
 50
95.9999999999993
 51
185.9999942810006
  0
ARC
  5
2AC
330
1D
100
AcDbEntity
  8
CUT
100
AcDbCircle
 10
12.3287562245
 20
21.500541309
 30
0.0
 40
0.8
100
AcDbArc
 50
186.0000000000003
 51
275.9999999999993
  0
CIRCLE
  5
2AD
330
1D
100
AcDbEntity
  8
1
100
AcDbCircle
 10
17.05551134249999
 20
27.33759776399999
 30
0.0
 40
3.75
  0
LINE
  5
2AE
330
1D
100
AcDbEntity
  8
CUT
100
AcDbLine
 10
23.45157203411411
 20
21.86518973470537
 30
0.0
 11
12.41237899511412
 21
20.70492379270537
 31
0.0
  0
LINE
  5
2AF
330
1D
100
AcDbEntity
  8
CUT
100
AcDbLine
 10
11.53313870820538
 20
21.41691853838587
 30
0.0
 11
10.37287275785855
 21
32.45611165680072
 31
0.0
  0
LINE
  5
2B5
330
1D
100
AcDbEntity
  8
1
100
AcDbLine
 10
10.39641061357705
 20
32.74924087495281
 30
0.0
 11
10.34458293184825
 21
32.72764769982272
 31
0.0
  0
HATCH
  5
2BA
330
1D
100
AcDbEntity
  8
7
100
AcDbHatch
 10
0.0
 20
0.0
 30
0.0
210
0.0
220
0.0
230
1.0
  2
ANSI37
 70
     0
 71
     0
 91
        2
 92
        7
 72
     1
 73
     1
 93
        8
 10
24.16356674622553
 20
22.7444304478976
 42
0.0
 10
23.00330083772096
 20
33.78362306071057
 42
0.4142135484776431
 10
22.12406059152297
 20
34.49561780942491
 42
0.0
 10
11.0848675117894
 20
33.33535186422096
 42
0.4142135526404596
 10
10.37287276342155
 20
32.45611160387241
 42
0.0
 10
11.53313870820538
 20
21.41691853838587
 42
0.4142135623730912
 10
12.41237899511412
 20
20.70492379270538
 42
0.0
 10
23.45157203411411
 20
21.86518973470537
 42
0.4142137089960141
 97
        0
 92
       22
 72
     1
 73
     1
 93
        2
 10
13.30551134249998
 20
27.33759776399999
 42
-0.9999999999999998
 10
20.80551134249998
 20
27.33759776399999
 42
-0.9999999999999998
 97
        0
 75
     0
 76
     1
 52
90.0
 41
5.0
 77
     0
 78
     2
 53
135.0
 43
-80.7818654599188
 44
-35.20945585075327
 45
-0.4419417382415922
 46
-0.4419417382415922
 79
     0
 53
225.0
 43
-80.7818654599188
 44
-35.20945585075327
 45
0.4419417382415922
 46
-0.4419417382415923
 79
     0
 47
0.0
 98
        2
 10
22.71879738516751
 20
31.92029197113775
 10
22.71879738516751
 20
31.92029197113775
1001
ACAD
1010
0.0
1020
0.0
1030
0.0
1001
PE_URL
1000

  0
LINE
  5
2C4
330
1D
100
AcDbEntity
  8
NOCUT
100
AcDbLine
 10
0.0
 20
0.0
 30
0.0
 11
20.767949241
 21
0.0000000000000107
 31
0.0
  0
LINE
  5
2C5
330
1D
100
AcDbEntity
  8
NOCUT
100
AcDbLine
 10
20.767949241
 20
0.0000000000000107
 30
0.0
 11
20.7679492185
 21
10.500000081
 31
0.0
  0
LINE
  5
2C6
330
1D
100
AcDbEntity
  8
NOCUT
100
AcDbLine
 10
23.8746330015
 20
21.977067216
 30
0.0
 11
24.1604572665
 21
19.257631107
 31
0.0
  0
ARC
  5
2C7
330
1D
100
AcDbEntity
  8
NOCUT
100
AcDbCircle
 10
33.76794926350001
 20
10.50000029
 30
0.0
 40
13.0
100
AcDbArc
 50
137.64951918
 51
180.00000092
  0
LINE
  5
2C9
330
1D
100
AcDbEntity
  8
NOCUT
100
AcDbLine
 10
23.8746330015
 20
21.977067216
 30
0.0
 11
23.8346698335
 21
22.011059559
 31
0.0
  0
LINE
  5
2CA
330
1D
100
AcDbEntity
  8
NOCUT
100
AcDbLine
 10
23.8346698335
 20
22.011059559
 30
0.0
 11
22.62092005976789
 21
33.56599734513753
 31
0.0
  0
LINE
  5
2CB
330
1D
100
AcDbEntity
  8
NOCUT
100
AcDbLine
 10
22.62092005976789
 20
33.56599734513753
 30
0.0
 11
21.91718381457206
 21
34.11893296636281
 31
0.0
  0
LINE
  5
2CC
330
1D
100
AcDbEntity
  8
NOCUT
100
AcDbLine
 10
21.91718381457206
 20
34.11893296636281
 30
0.0
 11
10.88096141812359
 21
32.9511212221532
 31
0.0
  0
LINE
  5
2CD
330
1D
100
AcDbEntity
  8
NOCUT
100
AcDbLine
 10
10.88096141812359
 20
32.9511212221532
 30
0.0
 11
10.34458293184825
 21
32.72764769982272
 31
0.0
  0
LINE
  5
2CE
330
1D
100
AcDbEntity
  8
NOCUT
100
AcDbLine
 10
10.34458293184825
 20
32.72764769982272
 30
0.0
 11
5.4342522515
 21
32.216093493
 31
0.0
  0
LINE
  5
2CF
330
1D
100
AcDbEntity
  8
NOCUT
100
AcDbLine
 10
5.4342522515
 20
32.216093493
 30
0.0
 11
1.2679490485
 21
24.999800361
 31
0.0
  0
LINE
  5
2D0
330
1D
100
AcDbEntity
  8
NOCUT
100
AcDbLine
 10
0.0
 20
0.0
 30
0.0
 11
0.0000000000000003
 21
24.99301672626664
 31
0.0
  0
LINE
  5
2D1
330
1D
100
AcDbEntity
  8
NOCUT
100
AcDbLine
 10
0.3160256188333078
 20
24.99625015909443
 30
0.0
 11
0.0000000000000003
 21
24.99301672626664
 31
0.0
  0
LINE
  5
2D2
330
1D
100
AcDbEntity
  8
NOCUT
100
AcDbLine
 10
0.5559231375
 20
24.999800361
 30
0.0
 11
1.2679490485
 21
24.999800361
 31
0.0
  0
ARC
  5
2D3
330
1D
100
AcDbEntity
  8
NOCUT
100
AcDbCircle
 10
0.0659592965
 20
50.001027601
 30
0.0
 40
25.006027835
100
AcDbArc
 50
270.572981194
 51
271.1227155710002
  0
LINE
  5
2D7
330
1D
100
AcDbEntity
  8
4
100
AcDbLine
 10
26.6679492635
 20
0.0000002899999991
 30
0.0
 11
0.0
 21
0.0
 31
0.0
  0
ENDSEC
  0
SECTION
  2
OBJECTS
  0
DICTIONARY
  5
C
330
0
100
AcDbDictionary
281
     1
  3
ACAD_COLOR
350
253
  3
ACAD_DETAILVIEWSTYLE
350
1F5
  3
ACAD_GROUP
350
D
  3
ACAD_LAYOUT
350
1A
  3
ACAD_MATERIAL
350
174
  3
ACAD_MLEADERSTYLE
350
181
  3
ACAD_MLINESTYLE
350
17
  3
ACAD_PLOTSETTINGS
350
19
  3
ACAD_PLOTSTYLENAME
350
E
  3
ACAD_SCALELIST
350
13D
  3
ACAD_SECTIONVIEWSTYLE
350
1F6
  3
ACAD_TABLESTYLE
350
1CA
  3
ACAD_VISUALSTYLE
350
163
  3
ACDB_RECOMPOSE_DATA
350
31E
  3
AcDbVariableDictionary
350
17F
  3
APPDATA
350
1CD
  0
SUN
  5
1FA
330
137
100
AcDbSun
 90
        1
290
     0
 63
     7
421
 16777215
 40
1.0
291
     1
 91
  2455826
 92
 54000000
292
     0
 70
     2
 71
   256
280
     1
  0
DICTIONARY
  5
1CE
330
2
100
AcDbDictionary
280
     1
281
     1
  3
ACAD_LAYERSTATES
360
1CF
  0
DICTIONARY
  5
2B7
330
1D
100
AcDbDictionary
280
     1
281
     1
  3
ACAD_SORTENTS
360
2B8
  0
DICTIONARY
  5
253
102
{ACAD_REACTORS
330
C
102
}
330
C
100
AcDbDictionary
281
     1
  0
DICTIONARY
  5
1F5
102
{ACAD_REACTORS
330
C
102
}
330
C
100
AcDbDictionary
281
     1
  0
DICTIONARY
  5
D
102
{ACAD_REACTORS
330
C
102
}
330
C
100
AcDbDictionary
281
     1
  0
DICTIONARY
  5
1A
102
{ACAD_REACTORS
330
C
102
}
330
C
100
AcDbDictionary
281
     1
  3
Layout1
350
1C
  3
Model
350
1E
  0
DICTIONARY
  5
174
102
{ACAD_REACTORS
330
C
102
}
330
C
100
AcDbDictionary
281
     1
  3
ByBlock
350
176
  3
ByLayer
350
175
  3
Global
350
177
  0
DICTIONARY
  5
181
102
{ACAD_REACTORS
330
C
102
}
330
C
100
AcDbDictionary
281
     1
  3
Standard
350
1CC
  0
DICTIONARY
  5
17
102
{ACAD_REACTORS
330
C
102
}
330
C
100
AcDbDictionary
281
     1
  3
Standard
350
18
  0
DICTIONARY
  5
19
102
{ACAD_REACTORS
330
C
102
}
330
C
100
AcDbDictionary
281
     1
  0
ACDBDICTIONARYWDFLT
  5
E
102
{ACAD_REACTORS
330
C
102
}
330
C
100
AcDbDictionary
281
     1
  3
Normal
350
F
100
AcDbDictionaryWithDefault
340
F
  0
DICTIONARY
  5
13D
102
{ACAD_REACTORS
330
C
102
}
330
C
100
AcDbDictionary
281
     1
  3
A0
350
13E
  3
A1
350
13F
  3
A2
350
140
  3
A3
350
141
  3
A4
350
142
  3
A5
350
143
  3
A6
350
144
  3
A7
350
145
  3
A8
350
146
  3
A9
350
147
  3
B0
350
148
  3
B1
350
149
  3
B2
350
14A
  3
B3
350
14B
  3
B4
350
14C
  3
B5
350
14D
  3
B6
350
14E
  3
B7
350
14F
  3
B8
350
150
  3
B9
350
151
  3
C0
350
152
  3
C1
350
153
  3
C2
350
154
  3
C3
350
155
  3
C4
350
156
  3
C5
350
157
  3
C6
350
158
  3
C7
350
159
  3
C8
350
15A
  3
C9
350
15B
  3
D0
350
15C
  3
D1
350
15D
  3
D2
350
15E
  0
DICTIONARY
  5
1F6
102
{ACAD_REACTORS
330
C
102
}
330
C
100
AcDbDictionary
281
     1
  0
DICTIONARY
  5
1CA
102
{ACAD_REACTORS
330
C
102
}
330
C
100
AcDbDictionary
281
     1
  3
Standard
350
1CB
  0
DICTIONARY
  5
163
102
{ACAD_REACTORS
330
C
102
}
330
C
100
AcDbDictionary
281
     1
  3
2dWireframe
350
168
  3
3D Hidden
350
16A
  3
3dWireframe
350
169
  3
Basic
350
16B
  3
Brighten
350
16F
  3
ColorChange
350
173
  3
Conceptual
350
16D
  3
Dim
350
16E
  3
EdgeColorOff
350
1C4
  3
Facepattern
350
172
  3
Flat
350
164
  3
FlatWithEdges
350
165
  3
Gouraud
350
166
  3
GouraudWithEdges
350
167
  3
Hidden
350
1C1
  3
JitterOff
350
1C2
  3
Linepattern
350
171
  3
OverhangOff
350
1C3
  3
Realistic
350
16C
  3
Shaded
350
1C9
  3
Shaded with edges
350
1C8
  3
Shades of Gray
350
1C5
  3
Sketchy
350
1C6
  3
Thicken
350
170
  3
Wireframe
350
1C0
  3
X-Ray
350
1C7
  0
XRECORD
  5
31E
102
{ACAD_REACTORS
330
C
102
}
330
C
100
AcDbXrecord
280
     1
 90
        1
330
1CB
  0
DICTIONARY
  5
17F
102
{ACAD_REACTORS
330
C
102
}
330
C
100
AcDbDictionary
281
     1
  3
CANNOSCALE
350
1F2
  3
CMLEADERSTYLE
350
1F4
  3
CTABLESTYLE
350
1F3
  3
DIMASSOC
350
183
  3
HIDETEXT
350
184
  3
MSLTSCALE
350
182
  0
DICTIONARY
  5
1CD
102
{ACAD_REACTORS
330
C
102
}
330
C
100
AcDbDictionary
281
     1
  0
DICTIONARY
  5
1CF
102
{ACAD_REACTORS
330
1CE
102
}
330
1CE
100
AcDbDictionary
281
     1
  0
SORTENTSTABLE
  5
2B8
102
{ACAD_REACTORS
330
2B7
102
}
330
2B7
100
AcDbSortentsTable
330
1D
331
2A7
  5
2AA
331
2A8
  5
2AB
331
2A9
  5
2AC
331
2AA
  5
2AD
331
2AB
  5
2AE
331
2AC
  5
2AF
331
2AD
  5
2B5
331
2AE
  5
2B6
331
2AF
  5
2B9
331
2B5
  5
2BA
331
0
  5
2A7
331
0
  5
2A8
331
2BA
  5
2A9
  0
LAYOUT
  5
1C
102
{ACAD_REACTORS
330
1A
102
}
330
1A
100
AcDbPlotSettings
  1

  2
none_device
  4

  6

 40
0.0
 41
0.0
 42
0.0
 43
0.0
 44
0.0
 45
0.0
 46
0.0
 47
0.0
 48
0.0
 49
0.0
140
0.0
141
0.0
142
1.0
143
1.0
 70
   688
 72
     0
 73
     0
 74
     5
  7

 75
    16
 76
     0
 77
     2
 78
   300
147
1.0
148
0.0
149
0.0
100
AcDbLayout
  1
Layout1
 70
     1
 71
     1
 10
0.0
 20
0.0
 11
12.0
 21
9.0
 12
0.0
 22
0.0
 32
0.0
 14
1.000000000000000E+20
 24
1.000000000000000E+20
 34
1.000000000000000E+20
 15
-1.000000000000000E+20
 25
-1.000000000000000E+20
 35
-1.000000000000000E+20
146
0.0
 13
0.0
 23
0.0
 33
0.0
 16
1.0
 26
0.0
 36
0.0
 17
0.0
 27
1.0
 37
0.0
 76
     0
330
1B
  0
LAYOUT
  5
1E
102
{ACAD_REACTORS
330
1A
102
}
330
1A
100
AcDbPlotSettings
  1

  2
none_device
  4

  6

 40
0.0
 41
0.0
 42
0.0
 43
0.0
 44
0.0
 45
0.0
 46
0.0
 47
0.0
 48
0.0
 49
0.0
140
0.0
141
0.0
142
1.0
143
1.0
 70
  1712
 72
     0
 73
     0
 74
     0
  7

 75
     0
 76
     0
 77
     2
 78
   300
147
1.0
148
0.0
149
0.0
100
AcDbLayout
  1
Model
 70
     1
 71
     0
 10
0.0
 20
0.0
 11
12.0
 21
9.0
 12
0.0
 22
0.0
 32
0.0
 14
-42.41272562109633
 24
-67.05750327321522
 34
0.0
 15
59.7556213679636
 25
57.58188777502204
 35
0.0
146
0.0
 13
0.0
 23
0.0
 33
0.0
 16
1.0
 26
0.0
 36
0.0
 17
0.0
 27
1.0
 37
0.0
 76
     0
330
1D
331
137
  0
MATERIAL
  5
176
102
{ACAD_REACTORS
330
174
102
}
330
174
100
AcDbMaterial
  1
ByBlock
 72
     1
 94
      127
  0
MATERIAL
  5
175
102
{ACAD_REACTORS
330
174
102
}
330
174
100
AcDbMaterial
  1
ByLayer
 72
     1
 94
      127
  0
MATERIAL
  5
177
102
{ACAD_REACTORS
330
174
102
}
330
174
100
AcDbMaterial
  1
Global
 72
     1
 94
      127
  0
MLEADERSTYLE
  5
1CC
102
{ACAD_REACTORS
330
181
102
}
330
181
100
AcDbMLeaderStyle
179
     2
170
     2
171
     1
172
     0
 90
        2
 40
0.0
 41
0.0
173
     1
 91
-1056964608
340
14
 92
       -2
290
     1
 42
0.09
291
     1
 43
0.36
  3
Standard
341
0
 44
0.18
300

342
11
174
     1
178
     1
175
     1
176
     0
 93
-1056964608
 45
0.18
292
     0
297
     0
 46
0.18
343
0
 94
-1056964608
 47
1.0
 49
1.0
140
1.0
293
     1
141
0.0
294
     1
177
     0
142
1.0
295
     0
296
     0
143
0.125
271
     0
272
     9
273
     9
298
     0
  0
MLINESTYLE
  5
18
102
{ACAD_REACTORS
330
17
102
}
330
17
100
AcDbMlineStyle
  2
Standard
 70
     0
  3

 62
   256
 51
90.0
 52
90.0
 71
     2
 49
0.5
 62
   256
  6
BYLAYER
 49
-0.5
 62
   256
  6
BYLAYER
  0
ACDBPLACEHOLDER
  5
F
102
{ACAD_REACTORS
330
E
102
}
330
E
  0
SCALE
  5
13E
102
{ACAD_REACTORS
330
13D
102
}
330
13D
100
AcDbScale
 70
     0
300
1:1
140
1.0
141
1.0
290
     1
  0
SCALE
  5
13F
102
{ACAD_REACTORS
330
13D
102
}
330
13D
100
AcDbScale
 70
     0
300
1:2
140
1.0
141
2.0
290
     0
  0
SCALE
  5
140
102
{ACAD_REACTORS
330
13D
102
}
330
13D
100
AcDbScale
 70
     0
300
1:4
140
1.0
141
4.0
290
     0
  0
SCALE
  5
141
102
{ACAD_REACTORS
330
13D
102
}
330
13D
100
AcDbScale
 70
     0
300
1:5
140
1.0
141
5.0
290
     0
  0
SCALE
  5
142
102
{ACAD_REACTORS
330
13D
102
}
330
13D
100
AcDbScale
 70
     0
300
1:8
140
1.0
141
8.0
290
     0
  0
SCALE
  5
143
102
{ACAD_REACTORS
330
13D
102
}
330
13D
100
AcDbScale
 70
     0
300
1:10
140
1.0
141
10.0
290
     0
  0
SCALE
  5
144
102
{ACAD_REACTORS
330
13D
102
}
330
13D
100
AcDbScale
 70
     0
300
1:16
140
1.0
141
16.0
290
     0
  0
SCALE
  5
145
102
{ACAD_REACTORS
330
13D
102
}
330
13D
100
AcDbScale
 70
     0
300
1:20
140
1.0
141
20.0
290
     0
  0
SCALE
  5
146
102
{ACAD_REACTORS
330
13D
102
}
330
13D
100
AcDbScale
 70
     0
300
1:30
140
1.0
141
30.0
290
     0
  0
SCALE
  5
147
102
{ACAD_REACTORS
330
13D
102
}
330
13D
100
AcDbScale
 70
     0
300
1:40
140
1.0
141
40.0
290
     0
  0
SCALE
  5
148
102
{ACAD_REACTORS
330
13D
102
}
330
13D
100
AcDbScale
 70
     0
300
1:50
140
1.0
141
50.0
290
     0
  0
SCALE
  5
149
102
{ACAD_REACTORS
330
13D
102
}
330
13D
100
AcDbScale
 70
     0
300
1:100
140
1.0
141
100.0
290
     0
  0
SCALE
  5
14A
102
{ACAD_REACTORS
330
13D
102
}
330
13D
100
AcDbScale
 70
     0
300
2:1
140
2.0
141
1.0
290
     0
  0
SCALE
  5
14B
102
{ACAD_REACTORS
330
13D
102
}
330
13D
100
AcDbScale
 70
     0
300
4:1
140
4.0
141
1.0
290
     0
  0
SCALE
  5
14C
102
{ACAD_REACTORS
330
13D
102
}
330
13D
100
AcDbScale
 70
     0
300
8:1
140
8.0
141
1.0
290
     0
  0
SCALE
  5
14D
102
{ACAD_REACTORS
330
13D
102
}
330
13D
100
AcDbScale
 70
     0
300
10:1
140
10.0
141
1.0
290
     0
  0
SCALE
  5
14E
102
{ACAD_REACTORS
330
13D
102
}
330
13D
100
AcDbScale
 70
     0
300
100:1
140
100.0
141
1.0
290
     0
  0
SCALE
  5
14F
102
{ACAD_REACTORS
330
13D
102
}
330
13D
100
AcDbScale
 70
     0
300
1/128" = 1'-0"
140
0.0078125
141
12.0
290
     0
  0
SCALE
  5
150
102
{ACAD_REACTORS
330
13D
102
}
330
13D
100
AcDbScale
 70
     0
300
1/64" = 1'-0"
140
0.015625
141
12.0
290
     0
  0
SCALE
  5
151
102
{ACAD_REACTORS
330
13D
102
}
330
13D
100
AcDbScale
 70
     0
300
1/32" = 1'-0"
140
0.03125
141
12.0
290
     0
  0
SCALE
  5
152
102
{ACAD_REACTORS
330
13D
102
}
330
13D
100
AcDbScale
 70
     0
300
1/16" = 1'-0"
140
0.0625
141
12.0
290
     0
  0
SCALE
  5
153
102
{ACAD_REACTORS
330
13D
102
}
330
13D
100
AcDbScale
 70
     0
300
3/32" = 1'-0"
140
0.09375
141
12.0
290
     0
  0
SCALE
  5
154
102
{ACAD_REACTORS
330
13D
102
}
330
13D
100
AcDbScale
 70
     0
300
1/8" = 1'-0"
140
0.125
141
12.0
290
     0
  0
SCALE
  5
155
102
{ACAD_REACTORS
330
13D
102
}
330
13D
100
AcDbScale
 70
     0
300
3/16" = 1'-0"
140
0.1875
141
12.0
290
     0
  0
SCALE
  5
156
102
{ACAD_REACTORS
330
13D
102
}
330
13D
100
AcDbScale
 70
     0
300
1/4" = 1'-0"
140
0.25
141
12.0
290
     0
  0
SCALE
  5
157
102
{ACAD_REACTORS
330
13D
102
}
330
13D
100
AcDbScale
 70
     0
300
3/8" = 1'-0"
140
0.375
141
12.0
290
     0
  0
SCALE
  5
158
102
{ACAD_REACTORS
330
13D
102
}
330
13D
100
AcDbScale
 70
     0
300
1/2" = 1'-0"
140
0.5
141
12.0
290
     0
  0
SCALE
  5
159
102
{ACAD_REACTORS
330
13D
102
}
330
13D
100
AcDbScale
 70
     0
300
3/4" = 1'-0"
140
0.75
141
12.0
290
     0
  0
SCALE
  5
15A
102
{ACAD_REACTORS
330
13D
102
}
330
13D
100
AcDbScale
 70
     0
300
1" = 1'-0"
140
1.0
141
12.0
290
     0
  0
SCALE
  5
15B
102
{ACAD_REACTORS
330
13D
102
}
330
13D
100
AcDbScale
 70
     0
300
1-1/2" = 1'-0"
140
1.5
141
12.0
290
     0
  0
SCALE
  5
15C
102
{ACAD_REACTORS
330
13D
102
}
330
13D
100
AcDbScale
 70
     0
300
3" = 1'-0"
140
3.0
141
12.0
290
     0
  0
SCALE
  5
15D
102
{ACAD_REACTORS
330
13D
102
}
330
13D
100
AcDbScale
 70
     0
300
6" = 1'-0"
140
6.0
141
12.0
290
     0
  0
SCALE
  5
15E
102
{ACAD_REACTORS
330
13D
102
}
330
13D
100
AcDbScale
 70
     0
300
1'-0" = 1'-0"
140
12.0
141
12.0
290
     0
  0
TABLESTYLE
  5
1CB
102
{ACAD_REACTORS
330
1CA
102
}
102
{ACAD_XDICTIONARY
360
31C
102
}
330
1CA
100
AcDbTableStyle
  3
Standard
 70
     0
 71
     0
 40
0.06
 41
0.06
280
     0
281
     0
  7
Standard
140
0.18
170
     2
 62
     0
 63
   257
283
     0
 90
        4
 91
        0
  1

274
    -2
284
     1
 64
     0
275
    -2
285
     1
 65
     0
276
    -2
286
     1
 66
     0
277
    -2
287
     1
 67
     0
278
    -2
288
     1
 68
     0
279
    -2
289
     1
 69
     0
  7
Standard
140
0.25
170
     5
 62
     0
 63
   257
283
     0
 90
        4
 91
        0
  1

274
    -2
284
     1
 64
     0
275
    -2
285
     1
 65
     0
276
    -2
286
     1
 66
     0
277
    -2
287
     1
 67
     0
278
    -2
288
     1
 68
     0
279
    -2
289
     1
 69
     0
  7
Standard
140
0.18
170
     5
 62
     0
 63
   257
283
     0
 90
        4
 91
        0
  1

274
    -2
284
     1
 64
     0
275
    -2
285
     1
 65
     0
276
    -2
286
     1
 66
     0
277
    -2
287
     1
 67
     0
278
    -2
288
     1
 68
     0
279
    -2
289
     1
 69
     0
  0
VISUALSTYLE
  5
168
102
{ACAD_REACTORS
330
163
102
}
330
163
100
AcDbVisualStyle
  2
2dWireframe
 70
     4
177
     3
291
     0
 70
    58
 90
        0
176
     1
 90
        2
176
     1
 90
        0
176
     1
 90
        0
176
     1
 40
-0.6
176
     1
 40
-30.0
176
     1
 62
     7
176
     1
 90
        1
176
     1
 90
        4
176
     1
 62
     7
176
     1
 62
   257
176
     1
 90
        1
176
     1
 90
        1
176
     1
 40
1.0
176
     1
 90
        0
176
     1
 62
   257
176
     1
 40
1.0
176
     1
 90
        1
176
     1
 90
        6
176
     1
 90
        2
176
     1
 62
     7
176
     1
 90
        5
176
     1
 90
        0
176
     1
 90
        0
176
     1
290
     0
176
     1
 90
        1
176
     1
 40
0.0
176
     1
 90
        0
176
     1
290
     1
176
     1
290
     1
176
     1
290
     0
176
     1
290
     0
176
     1
290
     0
176
     1
290
     0
176
     1
290
     0
176
     1
290
     0
176
     1
290
     0
176
     1
 90
       50
176
     1
 40
0.0
176
     1
 40
1.0
176
     1
 90
        0
176
     1
 62
    18
420
        0
176
     1
 90
       50
176
     1
 90
        3
176
     1
 62
     5
420
      255
176
     1
290
     0
176
     1
 90
       50
176
     1
 90
       50
176
     1
 90
       50
176
     1
290
     0
176
     1
 90
       50
176
     1
 62
   256
176
     0
 40
1.0
176
     0
 90
        2
176
     1
  1
strokes_ogs.tif
176
     1
290
     0
176
     1
 40
1.0
176
     1
 40
1.0
176
     1
  0
VISUALSTYLE
  5
16A
102
{ACAD_REACTORS
330
163
102
}
330
163
100
AcDbVisualStyle
  2
3D Hidden
 70
     6
177
     3
291
     0
 70
    58
 90
        1
176
     1
 90
        2
176
     1
 90
        2
176
     1
 90
        0
176
     1
 40
-0.6
176
     1
 40
-30.0
176
     1
 62
     7
176
     1
 90
        2
176
     1
 90
        2
176
     1
 62
     7
176
     1
 62
   257
176
     1
 90
        2
176
     1
 90
        1
176
     1
 40
40.0
176
     1
 90
        0
176
     1
 62
   257
176
     1
 40
1.0
176
     1
 90
        1
176
     1
 90
        6
176
     1
 90
        2
176
     1
 62
     7
176
     1
 90
        3
176
     1
 90
        0
176
     1
 90
        0
176
     1
290
     0
176
     1
 90
        1
176
     1
 40
0.0
176
     1
 90
        0
176
     1
290
     0
176
     1
290
     1
176
     1
290
     1
176
     1
290
     0
176
     1
290
     0
176
     1
290
     0
176
     1
290
     0
176
     1
290
     0
176
     1
290
     0
176
     1
 90
       50
176
     1
 40
0.0
176
     1
 40
1.0
176
     1
 90
        0
176
     1
 62
    18
420
        0
176
     1
 90
       50
176
     1
 90
        3
176
     1
 62
     5
420
      255
176
     1
290
     0
176
     1
 90
       50
176
     1
 90
       50
176
     1
 90
       50
176
     1
290
     0
176
     1
 90
       50
176
     1
 62
   256
176
     0
 40
1.0
176
     0
 90
        2
176
     1
  1
strokes_ogs.tif
176
     1
290
     0
176
     1
 40
1.0
176
     1
 40
1.0
176
     1
  0
VISUALSTYLE
  5
169
102
{ACAD_REACTORS
330
163
102
}
330
163
100
AcDbVisualStyle
  2
3dWireframe
 70
     5
177
     3
291
     0
 70
    58
 90
        0
176
     1
 90
        2
176
     1
 90
        0
176
     1
 90
        0
176
     1
 40
-0.6
176
     1
 40
-30.0
176
     1
 62
     7
176
     1
 90
        1
176
     1
 90
        4
176
     1
 62
     7
176
     1
 62
   257
176
     1
 90
        1
176
     1
 90
        1
176
     1
 40
1.0
176
     1
 90
        0
176
     1
 62
   257
176
     1
 40
1.0
176
     1
 90
        1
176
     1
 90
        6
176
     1
 90
        2
176
     1
 62
     7
176
     1
 90
        5
176
     1
 90
        0
176
     1
 90
        0
176
     1
290
     0
176
     1
 90
        1
176
     1
 40
0.0
176
     1
 90
        0
176
     1
290
     0
176
     1
290
     1
176
     1
290
     1
176
     1
290
     0
176
     1
290
     0
176
     1
290
     0
176
     1
290
     0
176
     1
290
     0
176
     1
290
     0
176
     1
 90
       50
176
     1
 40
0.0
176
     1
 40
1.0
176
     1
 90
        0
176
     1
 62
    18
420
        0
176
     1
 90
       50
176
     1
 90
        3
176
     1
 62
     5
420
      255
176
     1
290
     0
176
     1
 90
       50
176
     1
 90
       50
176
     1
 90
       50
176
     1
290
     0
176
     1
 90
       50
176
     1
 62
   256
176
     0
 40
1.0
176
     0
 90
        2
176
     1
  1
strokes_ogs.tif
176
     1
290
     0
176
     1
 40
1.0
176
     1
 40
1.0
176
     1
  0
VISUALSTYLE
  5
16B
102
{ACAD_REACTORS
330
163
102
}
330
163
100
AcDbVisualStyle
  2
Basic
 70
     7
177
     3
291
     1
 70
    58
 90
        1
176
     1
 90
        0
176
     1
 90
        1
176
     1
 90
        0
176
     1
 40
-0.6
176
     1
 40
-30.0
176
     1
 62
     7
176
     1
 90
        0
176
     1
 90
        4
176
     1
 62
     7
176
     1
 62
   257
176
     1
 90
        1
176
     1
 90
        1
176
     1
 40
1.0
176
     1
 90
        8
176
     1
 62
     7
176
     1
 40
1.0
176
     1
 90
        1
176
     1
 90
        6
176
     1
 90
        2
176
     1
 62
     7
176
     1
 90
        5
176
     1
 90
        0
176
     1
 90
        0
176
     1
290
     0
176
     1
 90
        1
176
     1
 40
0.0
176
     1
 90
        0
176
     1
290
     0
176
     1
290
     1
176
     1
290
     1
176
     1
290
     0
176
     1
290
     0
176
     1
290
     0
176
     1
290
     0
176
     1
290
     0
176
     1
290
     0
176
     1
 90
       50
176
     1
 40
0.0
176
     1
 40
1.0
176
     1
 90
        0
176
     1
 62
    18
420
        0
176
     1
 90
       50
176
     1
 90
        3
176
     1
 62
     5
420
      255
176
     1
290
     0
176
     1
 90
       50
176
     1
 90
       50
176
     1
 90
       50
176
     1
290
     0
176
     1
 90
       50
176
     1
 62
   256
176
     0
 40
1.0
176
     0
 90
        2
176
     1
  1
strokes_ogs.tif
176
     1
290
     0
176
     1
 40
1.0
176
     1
 40
1.0
176
     1
  0
VISUALSTYLE
  5
16F
102
{ACAD_REACTORS
330
163
102
}
330
163
100
AcDbVisualStyle
  2
Brighten
 70
    12
177
     3
291
     1
 70
    58
 90
        2
176
     1
 90
        2
176
     1
 90
        0
176
     1
 90
        0
176
     1
 40
-0.6
176
     1
 40
-30.0
176
     1
 62
     7
176
     1
 90
        1
176
     1
 90
        4
176
     1
 62
     7
176
     1
 62
   257
176
     1
 90
        1
176
     1
 90
        1
176
     1
 40
1.0
176
     1
 90
        8
176
     1
 62
     7
176
     1
 40
1.0
176
     1
 90
        1
176
     1
 90
        6
176
     1
 90
        2
176
     1
 62
     7
176
     1
 90
        5
176
     1
 90
        0
176
     1
 90
        0
176
     1
290
     0
176
     1
 90
        1
176
     1
 40
50.0
176
     1
 90
        0
176
     1
290
     0
176
     1
290
     1
176
     1
290
     1
176
     1
290
     0
176
     1
290
     0
176
     1
290
     0
176
     1
290
     0
176
     1
290
     0
176
     1
290
     0
176
     1
 90
       50
176
     1
 40
0.0
176
     1
 40
1.0
176
     1
 90
        0
176
     1
 62
    18
420
        0
176
     1
 90
       50
176
     1
 90
        3
176
     1
 62
     5
420
      255
176
     1
290
     0
176
     1
 90
       50
176
     1
 90
       50
176
     1
 90
       50
176
     1
290
     0
176
     1
 90
       50
176
     1
 62
   256
176
     0
 40
1.0
176
     0
 90
        2
176
     1
  1
strokes_ogs.tif
176
     1
290
     0
176
     1
 40
1.0
176
     1
 40
1.0
176
     1
  0
VISUALSTYLE
  5
173
102
{ACAD_REACTORS
330
163
102
}
330
163
100
AcDbVisualStyle
  2
ColorChange
 70
    16
177
     3
291
     1
 70
    58
 90
        2
176
     1
 90
        2
176
     1
 90
        3
176
     1
 90
        0
176
     1
 40
-0.6
176
     1
 40
-30.0
176
     1
 62
     8
176
     1
 90
        1
176
     1
 90
        4
176
     1
 62
     7
176
     1
 62
   257
176
     1
 90
        1
176
     1
 90
        1
176
     1
 40
1.0
176
     1
 90
        8
176
     1
 62
     8
176
     1
 40
1.0
176
     1
 90
        1
176
     1
 90
        6
176
     1
 90
        2
176
     1
 62
     7
176
     1
 90
        5
176
     1
 90
        0
176
     1
 90
        0
176
     1
290
     0
176
     1
 90
        1
176
     1
 40
0.0
176
     1
 90
        0
176
     1
290
     0
176
     1
290
     1
176
     1
290
     1
176
     1
290
     0
176
     1
290
     0
176
     1
290
     0
176
     1
290
     0
176
     1
290
     0
176
     1
290
     0
176
     1
 90
       50
176
     1
 40
0.0
176
     1
 40
1.0
176
     1
 90
        0
176
     1
 62
    18
420
        0
176
     1
 90
       50
176
     1
 90
        3
176
     1
 62
     5
420
      255
176
     1
290
     0
176
     1
 90
       50
176
     1
 90
       50
176
     1
 90
       50
176
     1
290
     0
176
     1
 90
       50
176
     1
 62
   256
176
     0
 40
1.0
176
     0
 90
        2
176
     1
  1
strokes_ogs.tif
176
     1
290
     0
176
     1
 40
1.0
176
     1
 40
1.0
176
     1
  0
VISUALSTYLE
  5
16D
102
{ACAD_REACTORS
330
163
102
}
330
163
100
AcDbVisualStyle
  2
Conceptual
 70
     9
177
     3
291
     0
 70
    58
 90
        3
176
     1
 90
        2
176
     1
 90
        0
176
     1
 90
        0
176
     1
 40
-0.6
176
     1
 40
-30.0
176
     1
 62
     7
176
     1
 90
        2
176
     1
 90
        2
176
     1
 62
     7
176
     1
 62
   257
176
     1
 90
        1
176
     1
 90
        1
176
     1
 40
40.0
176
     1
 90
        8
176
     1
 62
     7
176
     1
 40
1.0
176
     1
 90
        1
176
     1
 90
        6
176
     1
 90
        2
176
     1
 62
     7
176
     1
 90
        3
176
     1
 90
        0
176
     1
 90
        0
176
     1
290
     0
176
     1
 90
        1
176
     1
 40
0.0
176
     1
 90
        0
176
     1
290
     0
176
     1
290
     1
176
     1
290
     1
176
     1
290
     0
176
     1
290
     0
176
     1
290
     0
176
     1
290
     0
176
     1
290
     0
176
     1
290
     0
176
     1
 90
       50
176
     1
 40
0.0
176
     1
 40
1.0
176
     1
 90
        0
176
     1
 62
    18
420
        0
176
     1
 90
       50
176
     1
 90
        3
176
     1
 62
     5
420
      255
176
     1
290
     0
176
     1
 90
       50
176
     1
 90
       50
176
     1
 90
       50
176
     1
290
     0
176
     1
 90
       50
176
     1
 62
   256
176
     0
 40
1.0
176
     0
 90
        2
176
     1
  1
strokes_ogs.tif
176
     1
290
     0
176
     1
 40
1.0
176
     1
 40
1.0
176
     1
  0
VISUALSTYLE
  5
16E
102
{ACAD_REACTORS
330
163
102
}
330
163
100
AcDbVisualStyle
  2
Dim
 70
    11
177
     3
291
     1
 70
    58
 90
        2
176
     1
 90
        2
176
     1
 90
        0
176
     1
 90
        0
176
     1
 40
-0.6
176
     1
 40
-30.0
176
     1
 62
     7
176
     1
 90
        1
176
     1
 90
        4
176
     1
 62
     7
176
     1
 62
   257
176
     1
 90
        1
176
     1
 90
        1
176
     1
 40
1.0
176
     1
 90
        8
176
     1
 62
     7
176
     1
 40
1.0
176
     1
 90
        1
176
     1
 90
        6
176
     1
 90
        2
176
     1
 62
     7
176
     1
 90
        5
176
     1
 90
        0
176
     1
 90
        0
176
     1
290
     0
176
     1
 90
        1
176
     1
 40
-50.0
176
     1
 90
        0
176
     1
290
     0
176
     1
290
     1
176
     1
290
     1
176
     1
290
     0
176
     1
290
     0
176
     1
290
     0
176
     1
290
     0
176
     1
290
     0
176
     1
290
     0
176
     1
 90
       50
176
     1
 40
0.0
176
     1
 40
1.0
176
     1
 90
        0
176
     1
 62
    18
420
        0
176
     1
 90
       50
176
     1
 90
        3
176
     1
 62
     5
420
      255
176
     1
290
     0
176
     1
 90
       50
176
     1
 90
       50
176
     1
 90
       50
176
     1
290
     0
176
     1
 90
       50
176
     1
 62
   256
176
     0
 40
1.0
176
     0
 90
        2
176
     1
  1
strokes_ogs.tif
176
     1
290
     0
176
     1
 40
1.0
176
     1
 40
1.0
176
     1
  0
VISUALSTYLE
  5
1C4
102
{ACAD_REACTORS
330
163
102
}
330
163
100
AcDbVisualStyle
  2
EdgeColorOff
 70
    22
177
     3
291
     1
 70
    58
 90
        2
176
     0
 90
        2
176
     0
 90
        0
176
     0
 90
        0
176
     0
 40
0.6
176
     0
 40
30.0
176
     0
 62
     7
420
 16777215
176
     0
 90
        1
176
     0
 90
        4
176
     0
 62
     7
176
     0
 62
   257
176
     0
 90
        1
176
     0
 90
        1
176
     0
 40
1.0
176
     0
 90
        8
176
     2
 62
     7
176
     0
 40
1.0
176
     0
 90
        1
176
     0
 90
        6
176
     0
 90
        2
176
     0
 62
     7
176
     0
 90
        5
176
     0
 90
        0
176
     0
 90
        0
176
     0
290
     0
176
     0
 90
        1
176
     0
 40
0.0
176
     0
 90
        0
176
     0
290
     0
176
     0
290
     1
176
     0
290
     1
176
     0
290
     0
176
     0
290
     0
176
     0
290
     0
176
     0
290
     0
176
     0
290
     0
176
     0
290
     0
176
     0
 90
       50
176
     0
 40
0.0
176
     0
 40
1.0
176
     0
 90
        0
176
     0
 62
    18
420
        0
176
     0
 90
       50
176
     0
 90
        3
176
     0
 62
     5
420
      255
176
     0
290
     0
176
     0
 90
       50
176
     0
 90
       50
176
     0
 90
       50
176
     0
290
     0
176
     0
 90
       50
176
     0
 62
   256
176
     0
 40
1.0
176
     0
 90
        2
176
     0
  1
strokes_ogs.tif
176
     0
290
     0
176
     0
 40
1.0
176
     0
 40
1.0
176
     0
  0
VISUALSTYLE
  5
172
102
{ACAD_REACTORS
330
163
102
}
330
163
100
AcDbVisualStyle
  2
Facepattern
 70
    15
177
     3
291
     1
 70
    58
 90
        2
176
     1
 90
        2
176
     1
 90
        0
176
     1
 90
        0
176
     1
 40
-0.6
176
     1
 40
-30.0
176
     1
 62
     7
176
     1
 90
        1
176
     1
 90
        4
176
     1
 62
     7
176
     1
 62
   257
176
     1
 90
        1
176
     1
 90
        1
176
     1
 40
1.0
176
     1
 90
        8
176
     1
 62
     7
176
     1
 40
1.0
176
     1
 90
        1
176
     1
 90
        6
176
     1
 90
        2
176
     1
 62
     7
176
     1
 90
        5
176
     1
 90
        0
176
     1
 90
        0
176
     1
290
     0
176
     1
 90
        1
176
     1
 40
0.0
176
     1
 90
        0
176
     1
290
     0
176
     1
290
     1
176
     1
290
     1
176
     1
290
     0
176
     1
290
     0
176
     1
290
     0
176
     1
290
     0
176
     1
290
     0
176
     1
290
     0
176
     1
 90
       50
176
     1
 40
0.0
176
     1
 40
1.0
176
     1
 90
        0
176
     1
 62
    18
420
        0
176
     1
 90
       50
176
     1
 90
        3
176
     1
 62
     5
420
      255
176
     1
290
     0
176
     1
 90
       50
176
     1
 90
       50
176
     1
 90
       50
176
     1
290
     0
176
     1
 90
       50
176
     1
 62
   256
176
     0
 40
1.0
176
     0
 90
        2
176
     1
  1
strokes_ogs.tif
176
     1
290
     0
176
     1
 40
1.0
176
     1
 40
1.0
176
     1
  0
VISUALSTYLE
  5
164
102
{ACAD_REACTORS
330
163
102
}
330
163
100
AcDbVisualStyle
  2
Flat
 70
     0
177
     3
291
     1
 70
    58
 90
        2
176
     1
 90
        1
176
     1
 90
        1
176
     1
 90
        2
176
     1
 40
-0.6
176
     1
 40
30.0
176
     1
 62
     7
176
     1
 90
        0
176
     1
 90
        4
176
     1
 62
     7
176
     1
 62
   257
176
     1
 90
        1
176
     1
 90
        1
176
     1
 40
1.0
176
     1
 90
        8
176
     1
 62
     7
176
     1
 40
1.0
176
     1
 90
        1
176
     1
 90
        6
176
     1
 90
        2
176
     1
 62
     7
176
     1
 90
        5
176
     1
 90
        0
176
     1
 90
        0
176
     1
290
     0
176
     1
 90
       13
176
     1
 40
0.0
176
     1
 90
        0
176
     1
290
     0
176
     1
290
     1
176
     1
290
     1
176
     1
290
     0
176
     1
290
     0
176
     1
290
     0
176
     1
290
     0
176
     1
290
     0
176
     1
290
     0
176
     1
 90
       50
176
     1
 40
0.0
176
     1
 40
1.0
176
     1
 90
        0
176
     1
 62
    18
420
        0
176
     1
 90
       50
176
     1
 90
        3
176
     1
 62
     5
420
      255
176
     1
290
     0
176
     1
 90
       50
176
     1
 90
       50
176
     1
 90
       50
176
     1
290
     0
176
     1
 90
       50
176
     1
 62
   256
176
     0
 40
1.0
176
     0
 90
        2
176
     1
  1
strokes_ogs.tif
176
     1
290
     0
176
     1
 40
1.0
176
     1
 40
1.0
176
     1
  0
VISUALSTYLE
  5
165
102
{ACAD_REACTORS
330
163
102
}
330
163
100
AcDbVisualStyle
  2
FlatWithEdges
 70
     1
177
     3
291
     1
 70
    58
 90
        2
176
     1
 90
        1
176
     1
 90
        1
176
     1
 90
        2
176
     1
 40
-0.6
176
     1
 40
30.0
176
     1
 62
     7
176
     1
 90
        1
176
     1
 90
        4
176
     1
 62
     7
176
     1
 62
   257
176
     1
 90
        1
176
     1
 90
        1
176
     1
 40
1.0
176
     1
 90
        0
176
     1
 62
   257
176
     1
 40
1.0
176
     1
 90
        1
176
     1
 90
        6
176
     1
 90
        2
176
     1
 62
     7
176
     1
 90
        5
176
     1
 90
        0
176
     1
 90
        0
176
     1
290
     0
176
     1
 90
       13
176
     1
 40
0.0
176
     1
 90
        0
176
     1
290
     0
176
     1
290
     1
176
     1
290
     1
176
     1
290
     0
176
     1
290
     0
176
     1
290
     0
176
     1
290
     0
176
     1
290
     0
176
     1
290
     0
176
     1
 90
       50
176
     1
 40
0.0
176
     1
 40
1.0
176
     1
 90
        0
176
     1
 62
    18
420
        0
176
     1
 90
       50
176
     1
 90
        3
176
     1
 62
     5
420
      255
176
     1
290
     0
176
     1
 90
       50
176
     1
 90
       50
176
     1
 90
       50
176
     1
290
     0
176
     1
 90
       50
176
     1
 62
   256
176
     0
 40
1.0
176
     0
 90
        2
176
     1
  1
strokes_ogs.tif
176
     1
290
     0
176
     1
 40
1.0
176
     1
 40
1.0
176
     1
  0
VISUALSTYLE
  5
166
102
{ACAD_REACTORS
330
163
102
}
330
163
100
AcDbVisualStyle
  2
Gouraud
 70
     2
177
     3
291
     1
 70
    58
 90
        2
176
     1
 90
        2
176
     1
 90
        1
176
     1
 90
        2
176
     1
 40
-0.6
176
     1
 40
30.0
176
     1
 62
     7
176
     1
 90
        0
176
     1
 90
        4
176
     1
 62
     7
176
     1
 62
   257
176
     1
 90
        1
176
     1
 90
        1
176
     1
 40
1.0
176
     1
 90
        0
176
     1
 62
     7
176
     1
 40
1.0
176
     1
 90
        1
176
     1
 90
        6
176
     1
 90
        2
176
     1
 62
     7
176
     1
 90
        5
176
     1
 90
        0
176
     1
 90
        0
176
     1
290
     0
176
     1
 90
       13
176
     1
 40
0.0
176
     1
 90
        0
176
     1
290
     0
176
     1
290
     1
176
     1
290
     1
176
     1
290
     0
176
     1
290
     0
176
     1
290
     0
176
     1
290
     0
176
     1
290
     0
176
     1
290
     0
176
     1
 90
       50
176
     1
 40
0.0
176
     1
 40
1.0
176
     1
 90
        0
176
     1
 62
    18
420
        0
176
     1
 90
       50
176
     1
 90
        3
176
     1
 62
     5
420
      255
176
     1
290
     0
176
     1
 90
       50
176
     1
 90
       50
176
     1
 90
       50
176
     1
290
     0
176
     1
 90
       50
176
     1
 62
   256
176
     0
 40
1.0
176
     0
 90
        2
176
     1
  1
strokes_ogs.tif
176
     1
290
     0
176
     1
 40
1.0
176
     1
 40
1.0
176
     1
  0
VISUALSTYLE
  5
167
102
{ACAD_REACTORS
330
163
102
}
330
163
100
AcDbVisualStyle
  2
GouraudWithEdges
 70
     3
177
     3
291
     1
 70
    58
 90
        2
176
     1
 90
        2
176
     1
 90
        1
176
     1
 90
        2
176
     1
 40
-0.6
176
     1
 40
30.0
176
     1
 62
     7
176
     1
 90
        1
176
     1
 90
        4
176
     1
 62
     7
176
     1
 62
   257
176
     1
 90
        1
176
     1
 90
        1
176
     1
 40
1.0
176
     1
 90
        0
176
     1
 62
   257
176
     1
 40
1.0
176
     1
 90
        1
176
     1
 90
        6
176
     1
 90
        2
176
     1
 62
     7
176
     1
 90
        5
176
     1
 90
        0
176
     1
 90
        0
176
     1
290
     0
176
     1
 90
       13
176
     1
 40
0.0
176
     1
 90
        0
176
     1
290
     0
176
     1
290
     1
176
     1
290
     1
176
     1
290
     0
176
     1
290
     0
176
     1
290
     0
176
     1
290
     0
176
     1
290
     0
176
     1
290
     0
176
     1
 90
       50
176
     1
 40
0.0
176
     1
 40
1.0
176
     1
 90
        0
176
     1
 62
    18
420
        0
176
     1
 90
       50
176
     1
 90
        3
176
     1
 62
     5
420
      255
176
     1
290
     0
176
     1
 90
       50
176
     1
 90
       50
176
     1
 90
       50
176
     1
290
     0
176
     1
 90
       50
176
     1
 62
   256
176
     0
 40
1.0
176
     0
 90
        2
176
     1
  1
strokes_ogs.tif
176
     1
290
     0
176
     1
 40
1.0
176
     1
 40
1.0
176
     1
  0
VISUALSTYLE
  5
1C1
102
{ACAD_REACTORS
330
163
102
}
330
163
100
AcDbVisualStyle
  2
Hidden
 70
     6
177
     3
291
     0
 70
    58
 90
        1
176
     1
 90
        2
176
     1
 90
        2
176
     1
 90
        0
176
     1
 40
0.6
176
     1
 40
30.0
176
     1
 62
     7
420
 16777215
176
     1
 90
        2
176
     1
 90
        2
176
     1
 62
     7
176
     1
 62
   257
176
     1
 90
        2
176
     1
 90
        1
176
     1
 40
40.0
176
     1
 90
        0
176
     1
 62
   257
176
     1
 40
1.0
176
     1
 90
        1
176
     1
 90
        6
176
     1
 90
        2
176
     1
 62
     7
176
     1
 90
        3
176
     1
 90
        0
176
     1
 90
        0
176
     1
290
     0
176
     1
 90
        1
176
     1
 40
0.0
176
     1
 90
        0
176
     1
290
     0
176
     1
290
     1
176
     1
290
     1
176
     1
290
     0
176
     1
290
     0
176
     1
290
     0
176
     1
290
     0
176
     1
290
     0
176
     1
290
     0
176
     1
 90
       50
176
     1
 40
0.0
176
     1
 40
1.0
176
     1
 90
        0
176
     1
 62
    18
420
        0
176
     1
 90
       50
176
     1
 90
        3
176
     1
 62
     5
420
      255
176
     1
290
     0
176
     1
 90
       50
176
     1
 90
       50
176
     1
 90
       50
176
     1
290
     0
176
     1
 90
       50
176
     1
 62
   256
176
     0
 40
1.0
176
     0
 90
        2
176
     1
  1
strokes_ogs.tif
176
     1
290
     0
176
     1
 40
1.0
176
     1
 40
1.0
176
     1
  0
VISUALSTYLE
  5
1C2
102
{ACAD_REACTORS
330
163
102
}
330
163
100
AcDbVisualStyle
  2
JitterOff
 70
    20
177
     3
291
     1
 70
    58
 90
        2
176
     0
 90
        2
176
     0
 90
        0
176
     0
 90
        0
176
     0
 40
0.6
176
     0
 40
30.0
176
     0
 62
     7
420
 16777215
176
     0
 90
        1
176
     0
 90
        4
176
     0
 62
     7
176
     0
 62
   257
176
     0
 90
        1
176
     0
 90
        1
176
     0
 40
1.0
176
     0
 90
       10
176
     2
 62
     7
176
     0
 40
1.0
176
     0
 90
        1
176
     0
 90
        6
176
     0
 90
        2
176
     0
 62
     7
176
     0
 90
        5
176
     0
 90
        0
176
     0
 90
        0
176
     0
290
     0
176
     0
 90
        1
176
     0
 40
0.0
176
     0
 90
        0
176
     0
290
     0
176
     0
290
     1
176
     0
290
     1
176
     0
290
     0
176
     0
290
     0
176
     0
290
     0
176
     0
290
     0
176
     0
290
     0
176
     0
290
     0
176
     0
 90
       50
176
     0
 40
0.0
176
     0
 40
1.0
176
     0
 90
        0
176
     0
 62
    18
420
        0
176
     0
 90
       50
176
     0
 90
        3
176
     0
 62
     5
420
      255
176
     0
290
     0
176
     0
 90
       50
176
     0
 90
       50
176
     0
 90
       50
176
     0
290
     0
176
     0
 90
       50
176
     0
 62
   256
176
     0
 40
1.0
176
     0
 90
        2
176
     0
  1
strokes_ogs.tif
176
     0
290
     0
176
     0
 40
1.0
176
     0
 40
1.0
176
     0
  0
VISUALSTYLE
  5
171
102
{ACAD_REACTORS
330
163
102
}
330
163
100
AcDbVisualStyle
  2
Linepattern
 70
    14
177
     3
291
     1
 70
    58
 90
        2
176
     1
 90
        2
176
     1
 90
        0
176
     1
 90
        0
176
     1
 40
-0.6
176
     1
 40
-30.0
176
     1
 62
     7
176
     1
 90
        1
176
     1
 90
        4
176
     1
 62
     7
176
     1
 62
   257
176
     1
 90
        7
176
     1
 90
        7
176
     1
 40
1.0
176
     1
 90
        8
176
     1
 62
     7
176
     1
 40
1.0
176
     1
 90
        1
176
     1
 90
        6
176
     1
 90
        2
176
     1
 62
     7
176
     1
 90
        5
176
     1
 90
        0
176
     1
 90
        0
176
     1
290
     0
176
     1
 90
        1
176
     1
 40
0.0
176
     1
 90
        0
176
     1
290
     0
176
     1
290
     1
176
     1
290
     1
176
     1
290
     0
176
     1
290
     0
176
     1
290
     0
176
     1
290
     0
176
     1
290
     0
176
     1
290
     0
176
     1
 90
       50
176
     1
 40
0.0
176
     1
 40
1.0
176
     1
 90
        0
176
     1
 62
    18
420
        0
176
     1
 90
       50
176
     1
 90
        3
176
     1
 62
     5
420
      255
176
     1
290
     0
176
     1
 90
       50
176
     1
 90
       50
176
     1
 90
       50
176
     1
290
     0
176
     1
 90
       50
176
     1
 62
   256
176
     0
 40
1.0
176
     0
 90
        2
176
     1
  1
strokes_ogs.tif
176
     1
290
     0
176
     1
 40
1.0
176
     1
 40
1.0
176
     1
  0
VISUALSTYLE
  5
1C3
102
{ACAD_REACTORS
330
163
102
}
330
163
100
AcDbVisualStyle
  2
OverhangOff
 70
    21
177
     3
291
     1
 70
    58
 90
        2
176
     0
 90
        2
176
     0
 90
        0
176
     0
 90
        0
176
     0
 40
0.6
176
     0
 40
30.0
176
     0
 62
     7
420
 16777215
176
     0
 90
        1
176
     0
 90
        4
176
     0
 62
     7
176
     0
 62
   257
176
     0
 90
        1
176
     0
 90
        1
176
     0
 40
1.0
176
     0
 90
        9
176
     2
 62
     7
176
     0
 40
1.0
176
     0
 90
        1
176
     0
 90
        6
176
     0
 90
        2
176
     0
 62
     7
176
     0
 90
        5
176
     0
 90
        0
176
     0
 90
        0
176
     0
290
     0
176
     0
 90
        1
176
     0
 40
0.0
176
     0
 90
        0
176
     0
290
     0
176
     0
290
     1
176
     0
290
     1
176
     0
290
     0
176
     0
290
     0
176
     0
290
     0
176
     0
290
     0
176
     0
290
     0
176
     0
290
     0
176
     0
 90
       50
176
     0
 40
0.0
176
     0
 40
1.0
176
     0
 90
        0
176
     0
 62
    18
420
        0
176
     0
 90
       50
176
     0
 90
        3
176
     0
 62
     5
420
      255
176
     0
290
     0
176
     0
 90
       50
176
     0
 90
       50
176
     0
 90
       50
176
     0
290
     0
176
     0
 90
       50
176
     0
 62
   256
176
     0
 40
1.0
176
     0
 90
        2
176
     0
  1
strokes_ogs.tif
176
     0
290
     0
176
     0
 40
1.0
176
     0
 40
1.0
176
     0
  0
VISUALSTYLE
  5
16C
102
{ACAD_REACTORS
330
163
102
}
330
163
100
AcDbVisualStyle
  2
Realistic
 70
     8
177
     3
291
     0
 70
    58
 90
        2
176
     1
 90
        2
176
     1
 90
        0
176
     1
 90
        0
176
     1
 40
-0.6
176
     1
 40
-30.0
176
     1
 62
     7
176
     1
 90
        1
176
     1
 90
        0
176
     1
 62
     7
176
     1
 62
   257
176
     1
 90
        1
176
     1
 90
        1
176
     1
 40
1.0
176
     1
 90
        8
176
     1
 62
     8
176
     1
 40
1.0
176
     1
 90
        1
176
     1
 90
        6
176
     1
 90
        2
176
     1
 62
     7
176
     1
 90
        5
176
     1
 90
        0
176
     1
 90
        0
176
     1
290
     0
176
     1
 90
       13
176
     1
 40
0.0
176
     1
 90
        0
176
     1
290
     0
176
     1
290
     1
176
     1
290
     1
176
     1
290
     0
176
     1
290
     0
176
     1
290
     0
176
     1
290
     0
176
     1
290
     0
176
     1
290
     0
176
     1
 90
       50
176
     1
 40
0.0
176
     1
 40
1.0
176
     1
 90
        0
176
     1
 62
    18
420
        0
176
     1
 90
       50
176
     1
 90
        3
176
     1
 62
     5
420
      255
176
     1
290
     0
176
     1
 90
       50
176
     1
 90
       50
176
     1
 90
       50
176
     1
290
     0
176
     1
 90
       50
176
     1
 62
   256
176
     0
 40
1.0
176
     0
 90
        2
176
     1
  1
strokes_ogs.tif
176
     1
290
     0
176
     1
 40
1.0
176
     1
 40
1.0
176
     1
  0
VISUALSTYLE
  5
1C9
102
{ACAD_REACTORS
330
163
102
}
330
163
100
AcDbVisualStyle
  2
Shaded
 70
    27
177
     3
291
     0
 70
    58
 90
        2
176
     1
 90
        2
176
     1
 90
        1
176
     1
 90
        2
176
     1
 40
0.6
176
     1
 40
30.0
176
     1
 62
     7
420
 16777215
176
     1
 90
        0
176
     1
 90
        4
176
     1
 62
     7
176
     1
 62
   257
176
     1
 90
        1
176
     1
 90
        1
176
     1
 40
1.0
176
     1
 90
        8
176
     1
 62
   257
176
     1
 40
1.0
176
     1
 90
        1
176
     1
 90
        6
176
     1
 90
        2
176
     1
 62
     8
420
  7895160
176
     1
 90
        3
176
     1
 90
        0
176
     1
 90
        0
176
     1
290
     0
176
     1
 90
        5
176
     1
 40
0.0
176
     1
 90
        0
176
     1
290
     0
176
     1
290
     1
176
     1
290
     1
176
     1
290
     0
176
     1
290
     0
176
     1
290
     0
176
     1
290
     0
176
     1
290
     0
176
     1
290
     0
176
     1
 90
       50
176
     1
 40
0.0
176
     1
 40
1.0
176
     1
 90
        0
176
     1
 62
    18
420
        0
176
     1
 90
       50
176
     1
 90
        3
176
     1
 62
     5
420
      255
176
     1
290
     0
176
     1
 90
       50
176
     1
 90
       50
176
     1
 90
       50
176
     1
290
     0
176
     1
 90
       50
176
     1
 62
   256
176
     0
 40
1.0
176
     0
 90
        2
176
     1
  1
strokes_ogs.tif
176
     1
290
     0
176
     1
 40
1.0
176
     1
 40
1.0
176
     1
  0
VISUALSTYLE
  5
1C8
102
{ACAD_REACTORS
330
163
102
}
330
163
100
AcDbVisualStyle
  2
Shaded with edges
 70
    26
177
     3
291
     0
 70
    58
 90
        2
176
     1
 90
        2
176
     1
 90
        1
176
     1
 90
        2
176
     1
 40
0.6
176
     1
 40
30.0
176
     1
 62
     7
420
 16777215
176
     1
 90
        1
176
     1
 90
       10
176
     1
 62
     7
176
     1
 62
   257
176
     1
 90
        2
176
     1
 90
        1
176
     1
 40
1.0
176
     1
 90
        8
176
     1
 62
   257
176
     1
 40
1.0
176
     1
 90
        1
176
     1
 90
        6
176
     1
 90
        2
176
     1
 62
     7
176
     1
 90
        3
176
     1
 90
        0
176
     1
 90
        0
176
     1
290
     0
176
     1
 90
        5
176
     1
 40
0.0
176
     1
 90
        0
176
     1
290
     0
176
     1
290
     1
176
     1
290
     1
176
     1
290
     0
176
     1
290
     0
176
     1
290
     0
176
     1
290
     0
176
     1
290
     0
176
     1
290
     0
176
     1
 90
       50
176
     1
 40
0.0
176
     1
 40
1.0
176
     1
 90
        0
176
     1
 62
    18
420
        0
176
     1
 90
       50
176
     1
 90
        3
176
     1
 62
     5
420
      255
176
     1
290
     0
176
     1
 90
       50
176
     1
 90
       50
176
     1
 90
       50
176
     1
290
     0
176
     1
 90
       50
176
     1
 62
   256
176
     0
 40
1.0
176
     0
 90
        2
176
     1
  1
strokes_ogs.tif
176
     1
290
     0
176
     1
 40
1.0
176
     1
 40
1.0
176
     1
  0
VISUALSTYLE
  5
1C5
102
{ACAD_REACTORS
330
163
102
}
330
163
100
AcDbVisualStyle
  2
Shades of Gray
 70
    23
177
     3
291
     0
 70
    58
 90
        2
176
     1
 90
        2
176
     1
 90
        3
176
     1
 90
        0
176
     1
 40
0.6
176
     1
 40
30.0
176
     1
 62
     7
420
 16777215
176
     1
 90
        2
176
     1
 90
        2
176
     1
 62
     7
176
     1
 62
     7
176
     1
 90
        1
176
     1
 90
        1
176
     1
 40
40.0
176
     1
 90
        8
176
     1
 62
     7
176
     1
 40
1.0
176
     1
 90
        1
176
     1
 90
        6
176
     1
 90
        2
176
     1
 62
     7
176
     1
 90
        3
176
     1
 90
        0
176
     1
 90
        0
176
     1
290
     0
176
     1
 90
        1
176
     1
 40
0.0
176
     1
 90
        0
176
     1
290
     0
176
     1
290
     1
176
     1
290
     1
176
     1
290
     0
176
     1
290
     0
176
     1
290
     0
176
     1
290
     0
176
     1
290
     0
176
     1
290
     0
176
     1
 90
       50
176
     1
 40
0.0
176
     1
 40
1.0
176
     1
 90
        0
176
     1
 62
    18
420
        0
176
     1
 90
       50
176
     1
 90
        3
176
     1
 62
     5
420
      255
176
     1
290
     0
176
     1
 90
       50
176
     1
 90
       50
176
     1
 90
       50
176
     1
290
     0
176
     1
 90
       50
176
     1
 62
   256
176
     0
 40
1.0
176
     0
 90
        2
176
     1
  1
strokes_ogs.tif
176
     1
290
     0
176
     1
 40
1.0
176
     1
 40
1.0
176
     1
  0
VISUALSTYLE
  5
1C6
102
{ACAD_REACTORS
330
163
102
}
330
163
100
AcDbVisualStyle
  2
Sketchy
 70
    24
177
     3
291
     0
 70
    58
 90
        1
176
     1
 90
        2
176
     1
 90
        2
176
     1
 90
        0
176
     1
 40
0.6
176
     1
 40
30.0
176
     1
 62
     7
420
 16777215
176
     1
 90
        2
176
     1
 90
        2
176
     1
 62
     7
176
     1
 62
     7
176
     1
 90
        1
176
     1
 90
        1
176
     1
 40
40.0
176
     1
 90
       11
176
     1
 62
     7
176
     1
 40
1.0
176
     1
 90
        1
176
     1
 90
        6
176
     1
 90
        2
176
     1
 62
     7
176
     1
 90
        6
176
     1
 90
        0
176
     1
 90
        0
176
     1
290
     0
176
     1
 90
        1
176
     1
 40
0.0
176
     1
 90
        0
176
     1
290
     0
176
     1
290
     1
176
     1
290
     1
176
     1
290
     0
176
     1
290
     0
176
     1
290
     0
176
     1
290
     0
176
     1
290
     0
176
     1
290
     0
176
     1
 90
       50
176
     1
 40
0.0
176
     1
 40
1.0
176
     1
 90
        0
176
     1
 62
    18
420
        0
176
     1
 90
       50
176
     1
 90
        3
176
     1
 62
     5
420
      255
176
     1
290
     0
176
     1
 90
       50
176
     1
 90
       50
176
     1
 90
       50
176
     1
290
     0
176
     1
 90
       50
176
     1
 62
   256
176
     0
 40
1.0
176
     0
 90
        2
176
     1
  1
strokes_ogs.tif
176
     1
290
     0
176
     1
 40
1.0
176
     1
 40
1.0
176
     1
  0
VISUALSTYLE
  5
170
102
{ACAD_REACTORS
330
163
102
}
330
163
100
AcDbVisualStyle
  2
Thicken
 70
    13
177
     3
291
     1
 70
    58
 90
        2
176
     1
 90
        2
176
     1
 90
        0
176
     1
 90
        0
176
     1
 40
-0.6
176
     1
 40
-30.0
176
     1
 62
     7
176
     1
 90
        1
176
     1
 90
        4
176
     1
 62
     7
176
     1
 62
   257
176
     1
 90
        1
176
     1
 90
        1
176
     1
 40
1.0
176
     1
 90
       12
176
     1
 62
     7
176
     1
 40
1.0
176
     1
 90
        1
176
     1
 90
        6
176
     1
 90
        2
176
     1
 62
     7
176
     1
 90
        5
176
     1
 90
        0
176
     1
 90
        0
176
     1
290
     0
176
     1
 90
        1
176
     1
 40
0.0
176
     1
 90
        0
176
     1
290
     0
176
     1
290
     1
176
     1
290
     1
176
     1
290
     0
176
     1
290
     0
176
     1
290
     0
176
     1
290
     0
176
     1
290
     0
176
     1
290
     0
176
     1
 90
       50
176
     1
 40
0.0
176
     1
 40
1.0
176
     1
 90
        0
176
     1
 62
    18
420
        0
176
     1
 90
       50
176
     1
 90
        3
176
     1
 62
     5
420
      255
176
     1
290
     0
176
     1
 90
       50
176
     1
 90
       50
176
     1
 90
       50
176
     1
290
     0
176
     1
 90
       50
176
     1
 62
   256
176
     0
 40
1.0
176
     0
 90
        2
176
     1
  1
strokes_ogs.tif
176
     1
290
     0
176
     1
 40
1.0
176
     1
 40
1.0
176
     1
  0
VISUALSTYLE
  5
1C0
102
{ACAD_REACTORS
330
163
102
}
330
163
100
AcDbVisualStyle
  2
Wireframe
 70
     5
177
     3
291
     0
 70
    58
 90
        0
176
     1
 90
        2
176
     1
 90
        0
176
     1
 90
        0
176
     1
 40
0.6
176
     1
 40
30.0
176
     1
 62
     7
420
 16777215
176
     1
 90
        1
176
     1
 90
        4
176
     1
 62
     7
176
     1
 62
   257
176
     1
 90
        1
176
     1
 90
        1
176
     1
 40
1.0
176
     1
 90
        0
176
     1
 62
   257
176
     1
 40
1.0
176
     1
 90
        1
176
     1
 90
        6
176
     1
 90
        2
176
     1
 62
     7
176
     1
 90
        3
176
     1
 90
        0
176
     1
 90
        0
176
     1
290
     0
176
     1
 90
        1
176
     1
 40
0.0
176
     1
 90
        0
176
     1
290
     0
176
     1
290
     1
176
     1
290
     1
176
     1
290
     0
176
     1
290
     0
176
     1
290
     0
176
     1
290
     0
176
     1
290
     0
176
     1
290
     0
176
     1
 90
       50
176
     1
 40
0.0
176
     1
 40
1.0
176
     1
 90
        0
176
     1
 62
    18
420
        0
176
     1
 90
       50
176
     1
 90
        3
176
     1
 62
     5
420
      255
176
     1
290
     0
176
     1
 90
       50
176
     1
 90
       50
176
     1
 90
       50
176
     1
290
     0
176
     1
 90
       50
176
     1
 62
   256
176
     0
 40
1.0
176
     0
 90
        2
176
     1
  1
strokes_ogs.tif
176
     1
290
     0
176
     1
 40
1.0
176
     1
 40
1.0
176
     1
  0
VISUALSTYLE
  5
1C7
102
{ACAD_REACTORS
330
163
102
}
330
163
100
AcDbVisualStyle
  2
X-Ray
 70
    25
177
     3
291
     0
 70
    58
 90
        2
176
     1
 90
        2
176
     1
 90
        1
176
     1
 90
        1
176
     1
 40
0.5
176
     1
 40
30.0
176
     1
 62
     7
420
 16777215
176
     1
 90
        1
176
     1
 90
        0
176
     1
 62
     7
176
     1
 62
   257
176
     1
 90
        1
176
     1
 90
        1
176
     1
 40
1.0
176
     1
 90
        8
176
     1
 62
     7
176
     1
 40
1.0
176
     1
 90
        1
176
     1
 90
        6
176
     1
 90
        2
176
     1
 62
     7
176
     1
 90
        3
176
     1
 90
        0
176
     1
 90
        0
176
     1
290
     0
176
     1
 90
       13
176
     1
 40
0.0
176
     1
 90
        0
176
     1
290
     0
176
     1
290
     1
176
     1
290
     1
176
     1
290
     0
176
     1
290
     0
176
     1
290
     0
176
     1
290
     0
176
     1
290
     0
176
     1
290
     0
176
     1
 90
       50
176
     1
 40
0.0
176
     1
 40
1.0
176
     1
 90
        0
176
     1
 62
    18
420
        0
176
     1
 90
       50
176
     1
 90
        3
176
     1
 62
     5
420
      255
176
     1
290
     0
176
     1
 90
       50
176
     1
 90
       50
176
     1
 90
       50
176
     1
290
     0
176
     1
 90
       50
176
     1
 62
   256
176
     0
 40
1.0
176
     0
 90
        2
176
     1
  1
strokes_ogs.tif
176
     1
290
     0
176
     1
 40
1.0
176
     1
 40
1.0
176
     1
  0
DICTIONARYVAR
  5
1F2
102
{ACAD_REACTORS
330
17F
102
}
330
17F
100
DictionaryVariables
280
     0
  1
1:1
  0
DICTIONARYVAR
  5
1F4
102
{ACAD_REACTORS
330
17F
102
}
330
17F
100
DictionaryVariables
280
     0
  1
Standard
  0
DICTIONARYVAR
  5
1F3
102
{ACAD_REACTORS
330
17F
102
}
330
17F
100
DictionaryVariables
280
     0
  1
Standard
  0
DICTIONARYVAR
  5
183
102
{ACAD_REACTORS
330
17F
102
}
330
17F
100
DictionaryVariables
280
     0
  1
2
  0
DICTIONARYVAR
  5
184
102
{ACAD_REACTORS
330
17F
102
}
330
17F
100
DictionaryVariables
280
     0
  1
1
  0
DICTIONARYVAR
  5
182
102
{ACAD_REACTORS
330
17F
102
}
330
17F
100
DictionaryVariables
280
     0
  1
0
  0
DICTIONARY
  5
31C
330
1CB
100
AcDbDictionary
280
     1
281
     1
  3
ACAD_ROUNDTRIP_2008_TABLESTYLE_CELLSTYLEMAP
360
31D
  0
CELLSTYLEMAP
  5
31D
102
{ACAD_REACTORS
330
31C
102
}
330
31C
100
AcDbCellStyleMap
 90
        3
300
CELLSTYLE
  1
TABLEFORMAT_BEGIN
 90
        5
170
     1
 91
        0
 92
    32768
 62
   257
 93
        1
300
CONTENTFORMAT
  1
CONTENTFORMAT_BEGIN
 90
        0
 91
        0
 92
        4
 93
        0
300

 40
0.0
140
1.0
 94
        5
 62
     0
340
11
144
0.25
309
CONTENTFORMAT_END
171
     1
301
MARGIN
  1
CELLMARGIN_BEGIN
 40
0.06
 40
0.06
 40
0.06
 40
0.06
 40
0.06
 40
0.06
309
CELLMARGIN_END
 94
        6
 95
        1
302
GRIDFORMAT
  1
GRIDFORMAT_BEGIN
 90
        0
 91
        1
 62
     0
 92
       -2
340
14
 93
        0
 40
0.045
309
GRIDFORMAT_END
 95
        2
302
GRIDFORMAT
  1
GRIDFORMAT_BEGIN
 90
        0
 91
        1
 62
     0
 92
       -2
340
14
 93
        0
 40
0.045
309
GRIDFORMAT_END
 95
        4
302
GRIDFORMAT
  1
GRIDFORMAT_BEGIN
 90
        0
 91
        1
 62
     0
 92
       -2
340
14
 93
        0
 40
0.045
309
GRIDFORMAT_END
 95
        8
302
GRIDFORMAT
  1
GRIDFORMAT_BEGIN
 90
        0
 91
        1
 62
     0
 92
       -2
340
14
 93
        0
 40
0.045
309
GRIDFORMAT_END
 95
       16
302
GRIDFORMAT
  1
GRIDFORMAT_BEGIN
 90
        0
 91
        1
 62
     0
 92
       -2
340
14
 93
        0
 40
0.045
309
GRIDFORMAT_END
 95
       32
302
GRIDFORMAT
  1
GRIDFORMAT_BEGIN
 90
        0
 91
        1
 62
     0
 92
       -2
340
14
 93
        0
 40
0.045
309
GRIDFORMAT_END
309
TABLEFORMAT_END
  1
CELLSTYLE_BEGIN
 90
        1
 91
        1
300
_TITLE
309
CELLSTYLE_END
300
CELLSTYLE
  1
TABLEFORMAT_BEGIN
 90
        5
170
     1
 91
        0
 92
        0
 62
   257
 93
        1
300
CONTENTFORMAT
  1
CONTENTFORMAT_BEGIN
 90
        0
 91
        0
 92
        4
 93
        0
300

 40
0.0
140
1.0
 94
        5
 62
     0
340
11
144
0.18
309
CONTENTFORMAT_END
171
     1
301
MARGIN
  1
CELLMARGIN_BEGIN
 40
0.06
 40
0.06
 40
0.06
 40
0.06
 40
0.06
 40
0.06
309
CELLMARGIN_END
 94
        6
 95
        1
302
GRIDFORMAT
  1
GRIDFORMAT_BEGIN
 90
        0
 91
        1
 62
     0
 92
       -2
340
14
 93
        0
 40
0.045
309
GRIDFORMAT_END
 95
        2
302
GRIDFORMAT
  1
GRIDFORMAT_BEGIN
 90
        0
 91
        1
 62
     0
 92
       -2
340
14
 93
        0
 40
0.045
309
GRIDFORMAT_END
 95
        4
302
GRIDFORMAT
  1
GRIDFORMAT_BEGIN
 90
        0
 91
        1
 62
     0
 92
       -2
340
14
 93
        0
 40
0.045
309
GRIDFORMAT_END
 95
        8
302
GRIDFORMAT
  1
GRIDFORMAT_BEGIN
 90
        0
 91
        1
 62
     0
 92
       -2
340
14
 93
        0
 40
0.045
309
GRIDFORMAT_END
 95
       16
302
GRIDFORMAT
  1
GRIDFORMAT_BEGIN
 90
        0
 91
        1
 62
     0
 92
       -2
340
14
 93
        0
 40
0.045
309
GRIDFORMAT_END
 95
       32
302
GRIDFORMAT
  1
GRIDFORMAT_BEGIN
 90
        0
 91
        1
 62
     0
 92
       -2
340
14
 93
        0
 40
0.045
309
GRIDFORMAT_END
309
TABLEFORMAT_END
  1
CELLSTYLE_BEGIN
 90
        2
 91
        1
300
_HEADER
309
CELLSTYLE_END
300
CELLSTYLE
  1
TABLEFORMAT_BEGIN
 90
        5
170
     1
 91
        0
 92
        0
 62
   257
 93
        1
300
CONTENTFORMAT
  1
CONTENTFORMAT_BEGIN
 90
        0
 91
        0
 92
        4
 93
        0
300

 40
0.0
140
1.0
 94
        2
 62
     0
340
11
144
0.18
309
CONTENTFORMAT_END
171
     1
301
MARGIN
  1
CELLMARGIN_BEGIN
 40
0.06
 40
0.06
 40
0.06
 40
0.06
 40
0.06
 40
0.06
309
CELLMARGIN_END
 94
        6
 95
        1
302
GRIDFORMAT
  1
GRIDFORMAT_BEGIN
 90
        0
 91
        1
 62
     0
 92
       -2
340
14
 93
        0
 40
0.045
309
GRIDFORMAT_END
 95
        2
302
GRIDFORMAT
  1
GRIDFORMAT_BEGIN
 90
        0
 91
        1
 62
     0
 92
       -2
340
14
 93
        0
 40
0.045
309
GRIDFORMAT_END
 95
        4
302
GRIDFORMAT
  1
GRIDFORMAT_BEGIN
 90
        0
 91
        1
 62
     0
 92
       -2
340
14
 93
        0
 40
0.045
309
GRIDFORMAT_END
 95
        8
302
GRIDFORMAT
  1
GRIDFORMAT_BEGIN
 90
        0
 91
        1
 62
     0
 92
       -2
340
14
 93
        0
 40
0.045
309
GRIDFORMAT_END
 95
       16
302
GRIDFORMAT
  1
GRIDFORMAT_BEGIN
 90
        0
 91
        1
 62
     0
 92
       -2
340
14
 93
        0
 40
0.045
309
GRIDFORMAT_END
 95
       32
302
GRIDFORMAT
  1
GRIDFORMAT_BEGIN
 90
        0
 91
        1
 62
     0
 92
       -2
340
14
 93
        0
 40
0.045
309
GRIDFORMAT_END
309
TABLEFORMAT_END
  1
CELLSTYLE_BEGIN
 90
        3
 91
        2
300
_DATA
309
CELLSTYLE_END
  0
ENDSEC
  0
EOF
