  0
SECTION
  2
HEADER
  9
$ACADVER
  1
AC1027
  9
$ACADMAINTVER
 70
   105
  9
$DWGCODEPAGE
  3
ANSI_1252
  9
$REQUIREDVERSIONS
160
                 0
  9
$LASTSAVEDBY
  1
christoph.stuessi
  9
$INSBASE
 10
0.0
 20
0.0
 30
0.0
  9
$EXTMIN
 10
-38.61579228226734
 20
-42.34357594422828
 30
0.0
  9
$EXTMAX
 10
54.76787454925797
 20
43.36997451509788
 30
0.0
  9
$LIMMIN
 10
-47.089382694
 20
-21.029963599
  9
$LIMMAX
 10
72.471108577
 20
33.026323517
  9
$ORTHOMODE
 70
     0
  9
$REGENMODE
 70
     1
  9
$FILLMODE
 70
     1
  9
$QTEXTMODE
 70
     0
  9
$MIRRTEXT
 70
     1
  9
$LTSCALE
 40
1.0
  9
$ATTMODE
 70
     1
  9
$TEXTSIZE
 40
0.2
  9
$TRACEWID
 40
0.05
  9
$TEXTSTYLE
  7
Standard
  9
$CLAYER
  8
INFTOTAL
  9
$CELTYPE
  6
ByLayer
  9
$CECOLOR
 62
   256
  9
$CELTSCALE
 40
1.0
  9
$DISPSILH
 70
     0
  9
$DIMSCALE
 40
1.0
  9
$DIMASZ
 40
0.18
  9
$DIMEXO
 40
0.0625
  9
$DIMDLI
 40
0.38
  9
$DIMRND
 40
0.0
  9
$DIMDLE
 40
0.0
  9
$DIMEXE
 40
0.18
  9
$DIMTP
 40
0.0
  9
$DIMTM
 40
0.0
  9
$DIMTXT
 40
0.18
  9
$DIMCEN
 40
0.09
  9
$DIMTSZ
 40
0.0
  9
$DIMTOL
 70
     0
  9
$DIMLIM
 70
     0
  9
$DIMTIH
 70
     1
  9
$DIMTOH
 70
     1
  9
$DIMSE1
 70
     0
  9
$DIMSE2
 70
     0
  9
$DIMTAD
 70
     0
  9
$DIMZIN
 70
     0
  9
$DIMBLK
  1

  9
$DIMASO
 70
     1
  9
$DIMSHO
 70
     1
  9
$DIMPOST
  1

  9
$DIMAPOST
  1

  9
$DIMALT
 70
     0
  9
$DIMALTD
 70
     2
  9
$DIMALTF
 40
25.4
  9
$DIMLFAC
 40
1.0
  9
$DIMTOFL
 70
     0
  9
$DIMTVP
 40
0.0
  9
$DIMTIX
 70
     0
  9
$DIMSOXD
 70
     0
  9
$DIMSAH
 70
     0
  9
$DIMBLK1
  1

  9
$DIMBLK2
  1

  9
$DIMSTYLE
  2
Standard
  9
$DIMCLRD
 70
     0
  9
$DIMCLRE
 70
     0
  9
$DIMCLRT
 70
     0
  9
$DIMTFAC
 40
1.0
  9
$DIMGAP
 40
0.09
  9
$DIMJUST
 70
     0
  9
$DIMSD1
 70
     0
  9
$DIMSD2
 70
     0
  9
$DIMTOLJ
 70
     1
  9
$DIMTZIN
 70
     0
  9
$DIMALTZ
 70
     0
  9
$DIMALTTZ
 70
     0
  9
$DIMUPT
 70
     0
  9
$DIMDEC
 70
     4
  9
$DIMTDEC
 70
     4
  9
$DIMALTU
 70
     2
  9
$DIMALTTD
 70
     2
  9
$DIMTXSTY
  7
Standard
  9
$DIMAUNIT
 70
     0
  9
$DIMADEC
 70
     0
  9
$DIMALTRND
 40
0.0
  9
$DIMAZIN
 70
     0
  9
$DIMDSEP
 70
    46
  9
$DIMATFIT
 70
     3
  9
$DIMFRAC
 70
     0
  9
$DIMLDRBLK
  1

  9
$DIMLUNIT
 70
     2
  9
$DIMLWD
 70
    -2
  9
$DIMLWE
 70
    -2
  9
$DIMTMOVE
 70
     2
  9
$DIMFXL
 40
1.0
  9
$DIMFXLON
 70
     0
  9
$DIMJOGANG
 40
0.7853981633974483
  9
$DIMTFILL
 70
     0
  9
$DIMTFILLCLR
 70
     0
  9
$DIMARCSYM
 70
     0
  9
$DIMLTYPE
  6

  9
$DIMLTEX1
  6

  9
$DIMLTEX2
  6

  9
$DIMTXTDIRECTION
 70
     0
  9
$LUNITS
 70
     2
  9
$LUPREC
 70
     4
  9
$SKETCHINC
 40
0.1
  9
$FILLETRAD
 40
0.5
  9
$AUNITS
 70
     2
  9
$AUPREC
 70
     0
  9
$MENU
  1
.
  9
$ELEVATION
 40
0.0
  9
$PELEVATION
 40
0.0
  9
$THICKNESS
 40
0.0
  9
$LIMCHECK
 70
     0
  9
$CHAMFERA
 40
0.5
  9
$CHAMFERB
 40
0.5
  9
$CHAMFERC
 40
1.0
  9
$CHAMFERD
 40
0.0
  9
$SKPOLY
 70
     0
  9
$TDCREATE
 40
2458327.549546493
  9
$TDUCREATE
 40
2458327.46621316
  9
$TDUPDATE
 40
2458397.421745428
  9
$TDUUPDATE
 40
2458397.338412095
  9
$TDINDWG
 40
0.0024503472
  9
$TDUSRTIMER
 40
0.0037939468
  9
$USRTIMER
 70
     1
  9
$ANGBASE
 50
0.0
  9
$ANGDIR
 70
     0
  9
$PDMODE
 70
     0
  9
$PDSIZE
 40
0.0
  9
$PLINEWID
 40
0.0
  9
$SPLFRAME
 70
     0
  9
$SPLINETYPE
 70
     6
  9
$SPLINESEGS
 70
     8
  9
$HANDSEED
  5
2D0
  9
$SURFTAB1
 70
     6
  9
$SURFTAB2
 70
     6
  9
$SURFTYPE
 70
     6
  9
$SURFU
 70
     6
  9
$SURFV
 70
     6
  9
$UCSBASE
  2

  9
$UCSNAME
  2

  9
$UCSORG
 10
0.0
 20
0.0
 30
0.0
  9
$UCSXDIR
 10
1.0
 20
0.0
 30
0.0
  9
$UCSYDIR
 10
0.0
 20
1.0
 30
0.0
  9
$UCSORTHOREF
  2

  9
$UCSORTHOVIEW
 70
     0
  9
$UCSORGTOP
 10
0.0
 20
0.0
 30
0.0
  9
$UCSORGBOTTOM
 10
0.0
 20
0.0
 30
0.0
  9
$UCSORGLEFT
 10
0.0
 20
0.0
 30
0.0
  9
$UCSORGRIGHT
 10
0.0
 20
0.0
 30
0.0
  9
$UCSORGFRONT
 10
0.0
 20
0.0
 30
0.0
  9
$UCSORGBACK
 10
0.0
 20
0.0
 30
0.0
  9
$PUCSBASE
  2

  9
$PUCSNAME
  2

  9
$PUCSORG
 10
0.0
 20
0.0
 30
0.0
  9
$PUCSXDIR
 10
1.0
 20
0.0
 30
0.0
  9
$PUCSYDIR
 10
0.0
 20
1.0
 30
0.0
  9
$PUCSORTHOREF
  2

  9
$PUCSORTHOVIEW
 70
     0
  9
$PUCSORGTOP
 10
0.0
 20
0.0
 30
0.0
  9
$PUCSORGBOTTOM
 10
0.0
 20
0.0
 30
0.0
  9
$PUCSORGLEFT
 10
0.0
 20
0.0
 30
0.0
  9
$PUCSORGRIGHT
 10
0.0
 20
0.0
 30
0.0
  9
$PUCSORGFRONT
 10
0.0
 20
0.0
 30
0.0
  9
$PUCSORGBACK
 10
0.0
 20
0.0
 30
0.0
  9
$USERI1
 70
     0
  9
$USERI2
 70
     0
  9
$USERI3
 70
     0
  9
$USERI4
 70
     0
  9
$USERI5
 70
     0
  9
$USERR1
 40
0.0
  9
$USERR2
 40
0.0
  9
$USERR3
 40
0.0
  9
$USERR4
 40
0.0
  9
$USERR5
 40
0.0
  9
$WORLDVIEW
 70
     1
  9
$SHADEDGE
 70
     3
  9
$SHADEDIF
 70
    70
  9
$TILEMODE
 70
     1
  9
$MAXACTVP
 70
    64
  9
$PINSBASE
 10
0.0
 20
0.0
 30
0.0
  9
$PLIMCHECK
 70
     0
  9
$PEXTMIN
 10
1.000000000000000E+20
 20
1.000000000000000E+20
 30
1.000000000000000E+20
  9
$PEXTMAX
 10
-1.000000000000000E+20
 20
-1.000000000000000E+20
 30
-1.000000000000000E+20
  9
$PLIMMIN
 10
0.0
 20
0.0
  9
$PLIMMAX
 10
0.0
 20
0.0
  9
$UNITMODE
 70
     0
  9
$VISRETAIN
 70
     1
  9
$PLINEGEN
 70
     0
  9
$PSLTSCALE
 70
     1
  9
$TREEDEPTH
 70
  3020
  9
$CMLSTYLE
  2
Standard
  9
$CMLJUST
 70
     0
  9
$CMLSCALE
 40
1.0
  9
$PROXYGRAPHICS
 70
     1
  9
$MEASUREMENT
 70
     0
  9
$CELWEIGHT
370
    -1
  9
$ENDCAPS
280
     0
  9
$JOINSTYLE
280
     0
  9
$LWDISPLAY
290
     0
  9
$INSUNITS
 70
     0
  9
$HYPERLINKBASE
  1

  9
$STYLESHEET
  1

  9
$XEDIT
290
     1
  9
$CEPSNTYPE
380
     0
  9
$PSTYLEMODE
290
     1
  9
$FINGERPRINTGUID
  2
{688DE525-CD26-40E6-AC80-8CCBB1C5ADDE}
  9
$VERSIONGUID
  2
{FAEB1C32-E019-11D5-929B-00C0DF256EC4}
  9
$EXTNAMES
290
     1
  9
$PSVPSCALE
 40
0.0
  9
$OLESTARTUP
290
     0
  9
$SORTENTS
280
   127
  9
$INDEXCTL
280
     0
  9
$HIDETEXT
280
     1
  9
$XCLIPFRAME
280
     2
  9
$HALOGAP
280
     0
  9
$OBSCOLOR
 70
   257
  9
$OBSLTYPE
280
     0
  9
$INTERSECTIONDISPLAY
280
     0
  9
$INTERSECTIONCOLOR
 70
   257
  9
$DIMASSOC
280
     2
  9
$PROJECTNAME
  1

  9
$CAMERADISPLAY
290
     0
  9
$LENSLENGTH
 40
50.0
  9
$CAMERAHEIGHT
 40
0.0
  9
$STEPSPERSEC
 40
2.0
  9
$STEPSIZE
 40
6.0
  9
$3DDWFPREC
 40
2.0
  9
$PSOLWIDTH
 40
0.25
  9
$PSOLHEIGHT
 40
4.0
  9
$LOFTANG1
 40
1.570796326794897
  9
$LOFTANG2
 40
1.570796326794897
  9
$LOFTMAG1
 40
0.0
  9
$LOFTMAG2
 40
0.0
  9
$LOFTPARAM
 70
     7
  9
$LOFTNORMALS
280
     1
  9
$LATITUDE
 40
37.795
  9
$LONGITUDE
 40
-122.394
  9
$NORTHDIRECTION
 40
0.0
  9
$TIMEZONE
 70
 -8000
  9
$LIGHTGLYPHDISPLAY
280
     1
  9
$TILEMODELIGHTSYNCH
280
     1
  9
$SOLIDHIST
280
     0
  9
$SHOWHIST
280
     1
  9
$DWFFRAME
280
     2
  9
$DGNFRAME
280
     2
  9
$REALWORLDSCALE
290
     1
  9
$INTERFERECOLOR
 62
   256
  9
$CSHADOW
280
     0
  9
$SHADOWPLANELOCATION
 40
0.0
  0
ENDSEC
  0
SECTION
  2
CLASSES
  0
CLASS
  1
ACDBDICTIONARYWDFLT
  2
AcDbDictionaryWithDefault
  3
ObjectDBX Classes
 90
        0
 91
        5
280
     0
281
     0
  0
CLASS
  1
SCALE
  2
AcDbScale
  3
ObjectDBX Classes
 90
     1153
 91
        5
280
     0
281
     0
  0
CLASS
  1
VISUALSTYLE
  2
AcDbVisualStyle
  3
ObjectDBX Classes
 90
     4095
 91
        5
280
     0
281
     0
  0
CLASS
  1
MATERIAL
  2
AcDbMaterial
  3
ObjectDBX Classes
 90
     1153
 91
        5
280
     0
281
     0
  0
CLASS
  1
DICTIONARYVAR
  2
AcDbDictionaryVar
  3
ObjectDBX Classes
 90
        0
 91
        5
280
     0
281
     0
  0
CLASS
  1
ACDBPLACEHOLDER
  2
AcDbPlaceHolder
  3
ObjectDBX Classes
 90
        0
 91
        1
280
     0
281
     0
  0
CLASS
  1
LAYOUT
  2
AcDbLayout
  3
ObjectDBX Classes
 90
        0
 91
        1
280
     0
281
     0
  0
CLASS
  1
TABLESTYLE
  2
AcDbTableStyle
  3
ObjectDBX Classes
 90
     4095
 91
        5
280
     0
281
     0
  0
CLASS
  1
MLEADERSTYLE
  2
AcDbMLeaderStyle
  3
ACDB_MLEADERSTYLE_CLASS
 90
     4095
 91
        5
280
     0
281
     0
  0
CLASS
  1
CELLSTYLEMAP
  2
AcDbCellStyleMap
  3
ObjectDBX Classes
 90
     1152
 91
        5
280
     0
281
     0
  0
ENDSEC
  0
SECTION
  2
TABLES
  0
TABLE
  2
VPORT
  5
8
330
0
100
AcDbSymbolTable
 70
     1
  0
VPORT
  5
1F8
330
8
100
AcDbSymbolTableRecord
100
AcDbViewportTableRecord
  2
*Active
 70
     0
 10
0.0
 20
0.0
 11
1.0
 21
1.0
 12
4.336859402048191
 22
-0.4455652610900636
 13
0.0
 23
0.0
 14
0.5
 24
0.5
 15
0.5
 25
0.5
 16
0.0
 26
0.0
 36
1.0
 17
0.0
 27
0.0
 37
0.0
 40
130.9672370553014
 41
2.269399707174231
 42
50.0
 43
0.0
 44
0.0
 50
0.0
 51
0.0
 71
    16
 72
   100
 73
     1
 74
     3
 75
     0
 76
     0
 77
     0
 78
     0
281
     0
 65
     1
110
0.0
120
0.0
130
0.0
111
1.0
121
0.0
131
0.0
112
0.0
122
1.0
132
0.0
 79
     0
146
0.0
348
229
 60
     3
 61
     5
292
     1
282
     1
141
0.0
142
0.0
 63
   256
  0
ENDTAB
  0
TABLE
  2
LTYPE
  5
5
330
0
100
AcDbSymbolTable
 70
     8
  0
LTYPE
  5
14
330
5
100
AcDbSymbolTableRecord
100
AcDbLinetypeTableRecord
  2
ByBlock
 70
     0
  3

 72
    65
 73
     0
 40
0.0
  0
LTYPE
  5
15
330
5
100
AcDbSymbolTableRecord
100
AcDbLinetypeTableRecord
  2
ByLayer
 70
     0
  3

 72
    65
 73
     0
 40
0.0
  0
LTYPE
  5
16
330
5
100
AcDbSymbolTableRecord
100
AcDbLinetypeTableRecord
  2
Continuous
 70
     0
  3
Solid line
 72
    65
 73
     0
 40
0.0
  0
LTYPE
  5
20
330
5
100
AcDbSymbolTableRecord
100
AcDbLinetypeTableRecord
  2
PUNKT
 70
     0
  3
..............
 72
    65
 73
     2
 40
1.5
 49
0.7
 74
     0
 49
-0.8
 74
     0
  0
LTYPE
  5
21
330
5
100
AcDbSymbolTableRecord
100
AcDbLinetypeTableRecord
  2
GESTRICHELT
 70
     0
  3
-- -- -- -- --
 72
    65
 73
     7
 40
2.8
 49
0.9
 74
     0
 49
0.0
 74
     0
 49
0.9
 74
     0
 49
0.0
 74
     0
 49
0.2
 74
     0
 49
0.0
 74
     0
 49
-0.8
 74
     0
  0
LTYPE
  5
22
330
5
100
AcDbSymbolTableRecord
100
AcDbLinetypeTableRecord
  2
STRICHPUNKT
 70
     0
  3
--.--.--.--.--
 72
    65
 73
     4
 40
8.8
 49
5.5
 74
     0
 49
-1.3
 74
     0
 49
0.7
 74
     0
 49
-1.3
 74
     0
  0
LTYPE
  5
25
330
5
100
AcDbSymbolTableRecord
100
AcDbLinetypeTableRecord
  2
PHANTOM
 70
     0
  3
--..--..--..--
 72
    65
 73
     6
 40
14.2
 49
7.0
 74
     0
 49
-1.8
 74
     0
 49
0.9
 74
     0
 49
-1.8
 74
     0
 49
0.9
 74
     0
 49
-1.8
 74
     0
  0
LTYPE
  5
270
330
5
100
AcDbSymbolTableRecord
100
AcDbLinetypeTableRecord
  2
DASH
 70
     0
  3
DASH _ _ _ _ _
 72
    65
 73
     2
 40
0.75
 49
0.4
 74
     0
 49
-0.35
 74
     0
  0
LTYPE
  5
271
330
5
100
AcDbSymbolTableRecord
100
AcDbLinetypeTableRecord
  2
LONGDASH_DASH
 70
     0
  3
LONGDASH_DASH __ . __ . __
 72
    65
 73
     4
 40
0.85
 49
0.4
 74
     0
 49
-0.2
 74
     0
 49
0.05
 74
     0
 49
-0.2
 74
     0
  0
LTYPE
  5
272
330
5
100
AcDbSymbolTableRecord
100
AcDbLinetypeTableRecord
  2
LONGDASH_DASH_DASH
 70
     0
  3
LONGDASH_DASH_DASH __ . . __ . . __
 72
    65
 73
     6
 40
1.1
 49
0.4
 74
     0
 49
-0.2
 74
     0
 49
0.05
 74
     0
 49
-0.2
 74
     0
 49
0.05
 74
     0
 49
-0.2
 74
     0
  0
ENDTAB
  0
TABLE
  2
LAYER
  5
2
102
{ACAD_XDICTIONARY
360
28F
102
}
330
0
100
AcDbSymbolTable
 70
    15
  0
LAYER
  5
23A
330
2
100
AcDbSymbolTableRecord
100
AcDbLayerTableRecord
  2
200
 70
     0
 62
     2
  6
Continuous
370
    50
390
F
347
238
348
0
  0
LAYER
  5
273
330
2
100
AcDbSymbolTableRecord
100
AcDbLayerTableRecord
  2
0
 70
     0
 62
    -1
  6
Continuous
370
    -3
390
F
347
238
348
0
  0
LAYER
  5
274
330
2
100
AcDbSymbolTableRecord
100
AcDbLayerTableRecord
  2
1
 70
     0
 62
     4
  6
Continuous
370
    50
390
F
347
238
348
0
  0
LAYER
  5
275
330
2
100
AcDbSymbolTableRecord
100
AcDbLayerTableRecord
  2
2
 70
     0
 62
     7
  6
Continuous
370
    25
390
F
347
238
348
0
  0
LAYER
  5
276
330
2
100
AcDbSymbolTableRecord
100
AcDbLayerTableRecord
  2
3
 70
     0
 62
     1
  6
DASH
370
    35
390
F
347
238
348
0
  0
LAYER
  5
277
330
2
100
AcDbSymbolTableRecord
100
AcDbLayerTableRecord
  2
4
 70
     0
 62
     2
  6
LONGDASH_DASH
370
    25
390
F
347
238
348
0
  0
LAYER
  5
278
330
2
100
AcDbSymbolTableRecord
100
AcDbLayerTableRecord
  2
6
 70
     0
 62
     5
  6
Continuous
370
    -3
390
F
347
238
348
0
  0
LAYER
  5
279
330
2
100
AcDbSymbolTableRecord
100
AcDbLayerTableRecord
  2
CUT
 70
     0
 62
     1
  6
Continuous
370
    25
390
F
347
238
348
0
  0
LAYER
  5
27A
330
2
100
AcDbSymbolTableRecord
100
AcDbLayerTableRecord
  2
NOCUT
 70
     0
 62
     7
  6
Continuous
370
    25
390
F
347
238
348
0
  0
LAYER
  5
27B
330
2
100
AcDbSymbolTableRecord
100
AcDbLayerTableRecord
  2
SK1
 70
     0
 62
     4
  6
Continuous
370
    50
390
F
347
238
348
0
  0
LAYER
  5
27C
330
2
100
AcDbSymbolTableRecord
100
AcDbLayerTableRecord
  2
SK2
 70
     0
 62
     7
  6
Continuous
370
    25
390
F
347
238
348
0
  0
LAYER
  5
27D
330
2
100
AcDbSymbolTableRecord
100
AcDbLayerTableRecord
  2
SK3
 70
     0
 62
     1
  6
DASH
370
    35
390
F
347
238
348
0
  0
LAYER
  5
27E
330
2
100
AcDbSymbolTableRecord
100
AcDbLayerTableRecord
  2
SK4
 70
     0
 62
     2
  6
LONGDASH_DASH
370
    25
390
F
347
238
348
0
  0
LAYER
  5
27F
330
2
100
AcDbSymbolTableRecord
100
AcDbLayerTableRecord
  2
SK6
 70
     0
 62
     5
  6
Continuous
370
    -3
390
F
347
238
348
0
  0
LAYER
  5
280
330
2
100
AcDbSymbolTableRecord
100
AcDbLayerTableRecord
  2
INFTOTAL
 70
     0
 62
     9
  6
Continuous
370
    18
390
F
347
238
348
0
  0
ENDTAB
  0
TABLE
  2
STYLE
  5
3
330
0
100
AcDbSymbolTable
 70
     2
  0
STYLE
  5
11
330
3
100
AcDbSymbolTableRecord
100
AcDbTextStyleTableRecord
  2
Standard
 70
     0
 40
0.0
 41
1.0
 50
0.0
 71
     0
 42
0.2
  3
txt
  4

  0
STYLE
  5
239
330
3
100
AcDbSymbolTableRecord
100
AcDbTextStyleTableRecord
  2
BMG_Text
 70
     0
 40
3.5
 41
1.0
 50
0.0
 71
     0
 42
0.2
  3
monos.ttf
  4

1001
ACAD
1000
Monospac821 BT
1071
       49
  0
ENDTAB
  0
TABLE
  2
VIEW
  5
6
330
0
100
AcDbSymbolTable
 70
     0
  0
ENDTAB
  0
TABLE
  2
UCS
  5
7
330
0
100
AcDbSymbolTable
 70
     0
  0
ENDTAB
  0
TABLE
  2
APPID
  5
9
330
0
100
AcDbSymbolTable
 70
     1
  0
APPID
  5
12
330
9
100
AcDbSymbolTableRecord
100
AcDbRegAppTableRecord
  2
ACAD
 70
     0
  0
ENDTAB
  0
TABLE
  2
DIMSTYLE
  5
A
330
0
100
AcDbSymbolTable
 70
     1
100
AcDbDimStyleTable
  0
DIMSTYLE
105
28
330
A
100
AcDbSymbolTableRecord
100
AcDbDimStyleTableRecord
  2
Standard
 70
     0
178
     0
340
11
  0
ENDTAB
  0
TABLE
  2
BLOCK_RECORD
  5
1
330
0
100
AcDbSymbolTable
 70
     0
  0
BLOCK_RECORD
  5
1D
330
1
100
AcDbSymbolTableRecord
100
AcDbBlockTableRecord
  2
*Model_Space
340
1E
 70
     0
280
     1
281
     0
  0
BLOCK_RECORD
  5
1B
330
1
100
AcDbSymbolTableRecord
100
AcDbBlockTableRecord
  2
*Paper_Space
340
1C
 70
     0
280
     1
281
     0
  0
ENDTAB
  0
ENDSEC
  0
SECTION
  2
BLOCKS
  0
BLOCK
  5
222
330
1D
100
AcDbEntity
  8
0
100
AcDbBlockBegin
  2
*Model_Space
 70
     0
 10
0.0
 20
0.0
 30
0.0
  3
*Model_Space
  1

  0
ENDBLK
  5
223
330
1D
100
AcDbEntity
  8
0
100
AcDbBlockEnd
  0
BLOCK
  5
220
330
1B
100
AcDbEntity
 67
     1
  8
0
100
AcDbBlockBegin
  2
*Paper_Space
 70
     0
 10
0.0
 20
0.0
 30
0.0
  3
*Paper_Space
  1

  0
ENDBLK
  5
221
330
1B
100
AcDbEntity
 67
     1
  8
0
100
AcDbBlockEnd
  0
ENDSEC
  0
SECTION
  2
ENTITIES
  0
LINE
  5
29
330
1D
100
AcDbEntity
  8
2
  6
Continuous
370
    25
100
AcDbLine
 10
30.881725883
 20
-20.499999999
 30
0.0
 11
18.6
 21
-20.499999999
 31
0.0
  0
LINE
  5
2A
330
1D
100
AcDbEntity
  8
2
  6
Continuous
370
    25
100
AcDbLine
 10
28.881725883
 20
-20.499999999
 30
0.0
 11
28.431725883
 21
-16.999999999
 31
0.0
  0
LINE
  5
2B
330
1D
100
AcDbEntity
  8
2
  6
Continuous
370
    25
100
AcDbLine
 10
28.431725883
 20
-16.999999999
 30
0.0
 11
29.331725883
 21
-16.999999999
 31
0.0
  0
LINE
  5
2C
330
1D
100
AcDbEntity
  8
2
  6
Continuous
370
    25
100
AcDbLine
 10
29.331725883
 20
-16.999999999
 30
0.0
 11
28.881725883
 21
-20.499999999
 31
0.0
  0
LINE
  5
2D
330
1D
100
AcDbEntity
  8
2
  6
Continuous
370
    25
100
AcDbLine
 10
30.881725883
 20
20.499999999
 30
0.0
 11
18.6
 21
20.499999999
 31
0.0
  0
LINE
  5
2E
330
1D
100
AcDbEntity
  8
2
  6
Continuous
370
    25
100
AcDbLine
 10
28.881725883
 20
20.499999999
 30
0.0
 11
29.331725883
 21
16.999999999
 31
0.0
  0
LINE
  5
2F
330
1D
100
AcDbEntity
  8
2
  6
Continuous
370
    25
100
AcDbLine
 10
29.331725883
 20
16.999999999
 30
0.0
 11
28.431725883
 21
16.999999999
 31
0.0
  0
LINE
  5
30
330
1D
100
AcDbEntity
  8
2
  6
Continuous
370
    25
100
AcDbLine
 10
28.431725883
 20
16.999999999
 30
0.0
 11
28.881725883
 21
20.499999999
 31
0.0
  0
LINE
  5
31
330
1D
100
AcDbEntity
  8
2
  6
Continuous
370
    25
100
AcDbLine
 10
28.881725883
 20
-16.999999999
 30
0.0
 11
28.881725883
 21
16.999999999
 31
0.0
  0
TEXT
  5
32
330
1D
100
AcDbEntity
  8
2
  6
Continuous
370
    25
100
AcDbText
 10
27.381725883
 20
-2.848906708
 30
0.0
 40
3.5
  1
41
 50
90.0
  7
BMG_Text
100
AcDbText
  0
CIRCLE
  5
33
330
1D
100
AcDbEntity
  8
2
  6
Continuous
370
    25
100
AcDbCircle
 10
26.131725883
 20
-5.098906708
 30
0.0
 40
1.25
  0
LINE
  5
34
330
1D
100
AcDbEntity
  8
2
  6
Continuous
370
    25
100
AcDbLine
 10
27.381725883
 20
-6.348906708
 30
0.0
 11
24.881725883
 21
-3.848906708
 31
0.0
  0
TEXT
  5
35
330
1D
100
AcDbEntity
  8
2
  6
Continuous
370
    25
100
AcDbText
 10
27.381725883
 20
1.214843292
 30
0.0
 40
3.5
  1
-54
 50
90.0
  7
BMG_Text
100
AcDbText
  0
LINE
  5
36
330
1D
100
AcDbEntity
  8
2
  6
Continuous
370
    25
100
AcDbLine
 10
19.0
 20
29.49635992
 30
0.0
 11
19.0
 21
20.099999999
 31
0.0
  0
LINE
  5
37
330
1D
100
AcDbEntity
  8
2
  6
Continuous
370
    25
100
AcDbLine
 10
19.0
 20
27.49635992
 30
0.0
 11
15.5
 21
27.046359919
 31
0.0
  0
LINE
  5
38
330
1D
100
AcDbEntity
  8
2
  6
Continuous
370
    25
100
AcDbLine
 10
15.5
 20
27.046359919
 30
0.0
 11
15.5
 21
27.946359919
 31
0.0
  0
LINE
  5
39
330
1D
100
AcDbEntity
  8
2
  6
Continuous
370
    25
100
AcDbLine
 10
15.5
 20
27.946359919
 30
0.0
 11
19.0
 21
27.49635992
 31
0.0
  0
LINE
  5
3A
330
1D
100
AcDbEntity
  8
2
  6
Continuous
370
    25
100
AcDbLine
 10
-3.5
 20
27.496359915
 30
0.0
 11
15.5
 21
27.496359919
 31
0.0
  0
TEXT
  5
3B
330
1D
100
AcDbEntity
  8
2
  6
Continuous
370
    25
100
AcDbText
 10
6.085312248
 20
28.996359917
 30
0.0
 40
3.5
  1
47
 50
0.000000014
  7
BMG_Text
100
AcDbText
  0
LINE
  5
3C
330
1D
100
AcDbEntity
  8
4
  6
LONGDASH_DASH
370
    25
100
AcDbLine
 10
-2.328391496
 20
0.0
 30
0.0
 11
20.994152633
 21
0.0
 31
0.0
  0
TEXT
  5
3D
330
1D
100
AcDbEntity
  8
SK6
  6
Continuous
370
    35
100
AcDbText
 10
-2.11353289836681
 20
-29.64843971424945
 30
0.0
 40
3.5
  1
639.143
  7
BMG_Text
100
AcDbText
  0
ARC
  5
3E
330
1D
100
AcDbEntity
  8
1
  6
Continuous
370
    50
100
AcDbCircle
 10
14.396988421
 20
13.83924428
 30
0.0
 40
0.25
100
AcDbArc
 50
300.0
 51
30.186353213
  0
ARC
  5
3F
330
1D
100
AcDbEntity
  8
1
  6
Continuous
370
    50
100
AcDbCircle
 10
14.396988421
 20
13.83924428
 30
0.0
 40
0.25
100
AcDbArc
 50
209.813646785
 51
300.0
  0
ARC
  5
40
330
1D
100
AcDbEntity
  8
1
  6
Continuous
370
    50
100
AcDbCircle
 10
13.659488421
 20
13.416640743
 30
0.0
 40
0.6
100
AcDbArc
 50
29.813646787
 51
150.186353214
  0
ARC
  5
41
330
1D
100
AcDbEntity
  8
1
  6
Continuous
370
    50
100
AcDbCircle
 10
12.921988421
 20
13.83924428
 30
0.0
 40
0.25
100
AcDbArc
 50
239.999999996
 51
330.186353214
  0
ARC
  5
42
330
1D
100
AcDbEntity
  8
1
  6
Continuous
370
    50
100
AcDbCircle
 10
12.921988421
 20
13.83924428
 30
0.0
 40
0.25
100
AcDbArc
 50
149.813646784
 51
239.999999996
  0
ARC
  5
43
330
1D
100
AcDbEntity
  8
1
  6
Continuous
370
    50
100
AcDbCircle
 10
12.187253021
 20
14.266636247
 30
0.0
 40
0.6
100
AcDbArc
 50
329.813646786
 51
90.186353213
  0
ARC
  5
44
330
1D
100
AcDbEntity
  8
1
  6
Continuous
370
    50
100
AcDbCircle
 10
12.184488421
 20
15.116631751
 30
0.0
 40
0.25
100
AcDbArc
 50
180.0
 51
270.186353213
  0
ARC
  5
45
330
1D
100
AcDbEntity
  8
1
  6
Continuous
370
    50
100
AcDbCircle
 10
12.184488421
 20
15.116631751
 30
0.0
 40
0.25
100
AcDbArc
 50
89.813646787
 51
180.0
  0
ARC
  5
46
330
1D
100
AcDbEntity
  8
1
  6
Continuous
370
    50
100
AcDbCircle
 10
12.187253021
 20
15.966627255
 30
0.0
 40
0.6
100
AcDbArc
 50
269.813646786
 51
30.186353215
  0
ARC
  5
47
330
1D
100
AcDbEntity
  8
1
  6
Continuous
370
    50
100
AcDbCircle
 10
12.921988421
 20
16.394019221
 30
0.0
 40
0.25
100
AcDbArc
 50
120.000000002
 51
210.186353214
  0
ARC
  5
48
330
1D
100
AcDbEntity
  8
1
  6
Continuous
370
    50
100
AcDbCircle
 10
14.396988421
 20
16.394019221
 30
0.0
 40
0.25
100
AcDbArc
 50
329.813646784
 51
60.0
  0
ARC
  5
49
330
1D
100
AcDbEntity
  8
1
  6
Continuous
370
    50
100
AcDbCircle
 10
15.13172382
 20
15.966627255
 30
0.0
 40
0.6
100
AcDbArc
 50
149.813646786
 51
270.186353213
  0
ARC
  5
4A
330
1D
100
AcDbEntity
  8
1
  6
Continuous
370
    50
100
AcDbCircle
 10
15.134488421
 20
15.116631751
 30
0.0
 40
0.25
100
AcDbArc
 50
0.0
 51
90.186353213
  0
ARC
  5
4B
330
1D
100
AcDbEntity
  8
1
  6
Continuous
370
    50
100
AcDbCircle
 10
15.134488421
 20
15.116631751
 30
0.0
 40
0.25
100
AcDbArc
 50
269.813646787
 51
0.0
  0
ARC
  5
4C
330
1D
100
AcDbEntity
  8
1
  6
Continuous
370
    50
100
AcDbCircle
 10
15.13172382
 20
14.266636247
 30
0.0
 40
0.6
100
AcDbArc
 50
89.813646786
 51
210.186353214
  0
LINE
  5
4D
330
1D
100
AcDbEntity
  8
1
  6
Continuous
370
    50
100
AcDbLine
 10
18.564841061
 20
11.10717719
 30
0.0
 11
18.672723227
 21
11.118611037
 31
0.0
  0
LINE
  5
4E
330
1D
100
AcDbEntity
  8
1
  6
Continuous
370
    50
100
AcDbLine
 10
18.672723227
 20
11.118611037
 30
0.0
 11
18.800515429
 21
9.902749485
 31
0.0
  0
ARC
  5
4F
330
1D
100
AcDbEntity
  8
1
  6
Continuous
370
    50
100
AcDbCircle
 10
24.196924124
 20
3.996924124
 30
0.0
 40
8.0
100
AcDbArc
 50
132.419299223
 51
179.99999936
  0
LINE
  5
50
330
1D
100
AcDbEntity
  8
SK3
  6
DASH
370
    35
100
AcDbLine
 10
16.196924224
 20
-1.503075757
 30
0.0
 11
10.061390218
 21
-7.638609782
 31
0.0
  0
ARC
  5
51
330
1D
100
AcDbEntity
  8
SK3
  6
DASH
370
    35
100
AcDbCircle
 10
13.596924124
 20
-11.174143687
 30
0.0
 40
5.0
100
AcDbArc
 50
135.0
 51
180.00002006
  0
LINE
  5
52
330
1D
100
AcDbEntity
  8
SK3
  6
DASH
370
    35
100
AcDbLine
 10
8.596924096
 20
-11.174145438
 30
0.0
 11
8.596924096
 21
-16.038718917
 31
0.0
  0
LINE
  5
53
330
1D
100
AcDbEntity
  8
SK3
  6
DASH
370
    35
100
AcDbLine
 10
8.596924096
 20
-16.038718917
 30
0.0
 11
6.596923768
 21
-19.502817937
 31
0.0
  0
LINE
  5
54
330
1D
100
AcDbEntity
  8
1
  6
Continuous
370
    50
100
AcDbLine
 10
0.2311505
 20
19.496488567
 30
0.0
 11
0.252660326
 21
19.49666773
 31
0.0
  0
LINE
  5
55
330
1D
100
AcDbEntity
  8
1
  6
Continuous
370
    50
100
AcDbLine
 10
9.294299371
 20
13.063004888
 30
0.0
 11
8.823505546
 21
12.481623281
 31
0.0
  0
ARC
  5
56
330
1D
100
AcDbEntity
  8
1
  6
Continuous
370
    50
100
AcDbCircle
 10
10.455512065
 20
11.16005046
 30
0.0
 40
2.1
100
AcDbArc
 50
141.0
 51
152.076934633
  0
ARC
  5
57
330
1D
100
AcDbEntity
  8
SK3
  6
DASH
370
    35
100
AcDbCircle
 10
10.455512065
 20
11.16005046
 30
0.0
 40
2.1
100
AcDbArc
 50
152.076934633
 51
216.073523778
  0
ARC
  5
58
330
1D
100
AcDbEntity
  8
1
  6
Continuous
370
    50
100
AcDbCircle
 10
10.455512065
 20
11.16005046
 30
0.0
 40
2.1
100
AcDbArc
 50
216.073523778
 51
320.999998788
  0
LINE
  5
59
330
1D
100
AcDbEntity
  8
1
  6
Continuous
370
    50
100
AcDbLine
 10
12.087518777
 20
9.838477425
 30
0.0
 11
12.555527463
 21
10.416420824
 31
0.0
  0
LINE
  5
5A
330
1D
100
AcDbEntity
  8
1
  6
Continuous
370
    50
100
AcDbLine
 10
8.836342916
 20
19.334524936
 30
0.0
 11
8.824563002
 21
19.446602785
 31
0.0
  0
ARC
  5
5B
330
1D
100
AcDbEntity
  8
1
  6
Continuous
370
    50
100
AcDbCircle
 10
8.668167559
 20
19.156658424
 30
0.0
 40
0.329434769
100
AcDbArc
 50
61.65766015499999
 51
91.55644531100002
  0
ARC
  5
5C
330
1D
100
AcDbEntity
  8
1
  6
Continuous
370
    50
100
AcDbCircle
 10
12.921988421
 20
16.394019221
 30
0.0
 40
0.25
100
AcDbArc
 50
29.813646785
 51
120.0
  0
ARC
  5
5D
330
1D
100
AcDbEntity
  8
1
  6
Continuous
370
    50
100
AcDbCircle
 10
13.659488421
 20
16.816622759
 30
0.0
 40
0.6
100
AcDbArc
 50
209.813646787
 51
330.186353214
  0
ARC
  5
5E
330
1D
100
AcDbEntity
  8
1
  6
Continuous
370
    50
100
AcDbCircle
 10
14.396988421
 20
16.394019221
 30
0.0
 40
0.25
100
AcDbArc
 50
59.999999998
 51
150.186353213
  0
ARC
  5
60
330
1D
100
AcDbEntity
  8
CUT
100
AcDbCircle
 10
18.2
 20
11.819139885
 30
0.0
 40
0.8
100
AcDbArc
 50
276.05
 51
6.050009191
  0
LINE
  5
61
330
1D
100
AcDbEntity
  8
CUT
100
AcDbLine
 10
18.995544239
 20
11.90345706
 30
0.0
 11
18.160278502
 21
19.784317046
 31
0.0
  0
ARC
  5
62
330
1D
100
AcDbEntity
  8
CUT
100
AcDbCircle
 10
17.364734264
 20
19.7
 30
0.0
 40
0.8
100
AcDbArc
 50
6.05
 51
96.049999542
  0
LINE
  5
63
330
1D
100
AcDbEntity
  8
CUT
100
AcDbLine
 10
17.280417224
 20
20.495544239
 30
0.0
 11
9.399557103
 21
19.660278502
 31
0.0
  0
ARC
  5
64
330
1D
100
AcDbEntity
  8
CUT
100
AcDbCircle
 10
9.483874149
 20
18.864734263
 30
0.0
 40
0.8
100
AcDbArc
 50
96.04999999999998
 51
186.049997808
  0
ARC
  5
66
330
1D
100
AcDbEntity
  8
CUT
100
AcDbCircle
 10
10.319139885
 20
10.983874149
 30
0.0
 40
0.8
100
AcDbArc
 50
186.05
 51
276.05
  0
LINE
  5
67
330
1D
100
AcDbEntity
  8
1
  6
Continuous
370
    50
100
AcDbLine
 10
18.672723227
 20
11.118611037
 30
0.0
 11
18.637612075
 21
11.14944154
 31
0.0
  0
CIRCLE
  5
68
330
1D
100
AcDbEntity
  8
1
  6
Continuous
370
    50
100
AcDbCircle
 10
13.659488421
 20
15.116631751
 30
0.0
 40
2.65
  0
LINE
  5
69
330
1D
100
AcDbEntity
  8
1
  6
Continuous
370
    50
100
AcDbLine
 10
2.799999584
 20
19.116156366
 30
0.0
 11
3.065091241
 21
19.120641615
 31
0.0
  0
LINE
  5
6A
330
1D
100
AcDbEntity
  8
1
  6
Continuous
370
    50
100
AcDbLine
 10
3.065091241
 20
19.120641615
 30
0.0
 11
3.322652225
 21
19.133624252
 31
0.0
  0
LINE
  5
6B
330
1D
100
AcDbEntity
  8
1
  6
Continuous
370
    50
100
AcDbLine
 10
3.322652225
 20
19.133624252
 30
0.0
 11
3.565126714
 21
19.154396471
 31
0.0
  0
LINE
  5
6C
330
1D
100
AcDbEntity
  8
1
  6
Continuous
370
    50
100
AcDbLine
 10
3.565126714
 20
19.154396471
 30
0.0
 11
3.78629813
 21
19.18152776
 31
0.0
  0
LINE
  5
6D
330
1D
100
AcDbEntity
  8
1
  6
Continuous
370
    50
100
AcDbLine
 10
3.78629813
 20
19.18152776
 30
0.0
 11
3.981836755
 21
19.213848378
 31
0.0
  0
LINE
  5
6E
330
1D
100
AcDbEntity
  8
1
  6
Continuous
370
    50
100
AcDbLine
 10
3.981836755
 20
19.213848378
 30
0.0
 11
4.144522045
 21
19.249212559
 31
0.0
  0
LINE
  5
6F
330
1D
100
AcDbEntity
  8
1
  6
Continuous
370
    50
100
AcDbLine
 10
4.144522045
 20
19.249212559
 30
0.0
 11
4.271309506
 21
19.286383506
 31
0.0
  0
LINE
  5
70
330
1D
100
AcDbEntity
  8
1
  6
Continuous
370
    50
100
AcDbLine
 10
4.271309506
 20
19.286383506
 30
0.0
 11
4.35631318
 21
19.323006835
 31
0.0
  0
LINE
  5
71
330
1D
100
AcDbEntity
  8
1
  6
Continuous
370
    50
100
AcDbLine
 10
4.35631318
 20
19.323006835
 30
0.0
 11
4.396581706
 21
19.357611056
 31
0.0
  0
LINE
  5
72
330
1D
100
AcDbEntity
  8
1
  6
Continuous
370
    50
100
AcDbLine
 10
4.396581706
 20
19.357611056
 30
0.0
 11
4.390866179
 21
19.388825264
 31
0.0
  0
LINE
  5
73
330
1D
100
AcDbEntity
  8
1
  6
Continuous
370
    50
100
AcDbLine
 10
4.390866179
 20
19.388825264
 30
0.0
 11
4.338927251
 21
19.41553187
 31
0.0
  0
LINE
  5
74
330
1D
100
AcDbEntity
  8
1
  6
Continuous
370
    50
100
AcDbLine
 10
4.338927251
 20
19.41553187
 30
0.0
 11
4.242810104
 21
19.437626567
 31
0.0
  0
LINE
  5
75
330
1D
100
AcDbEntity
  8
1
  6
Continuous
370
    50
100
AcDbLine
 10
4.242810104
 20
19.437626567
 30
0.0
 11
4.105893579
 21
19.454863485
 31
0.0
  0
LINE
  5
76
330
1D
100
AcDbEntity
  8
1
  6
Continuous
370
    50
100
AcDbLine
 10
4.105893579
 20
19.454863485
 30
0.0
 11
3.93191414
 21
19.467857297
 31
0.0
  0
LINE
  5
77
330
1D
100
AcDbEntity
  8
1
  6
Continuous
370
    50
100
AcDbLine
 10
3.93191414
 20
19.467857297
 30
0.0
 11
3.726275321
 21
19.477058764
 31
0.0
  0
LINE
  5
78
330
1D
100
AcDbEntity
  8
1
  6
Continuous
370
    50
100
AcDbLine
 10
3.726275321
 20
19.477058764
 30
0.0
 11
3.494537119
 21
19.483227845
 31
0.0
  0
LINE
  5
79
330
1D
100
AcDbEntity
  8
1
  6
Continuous
370
    50
100
AcDbLine
 10
3.494537119
 20
19.483227845
 30
0.0
 11
3.243039046
 21
19.486979213
 31
0.0
  0
LINE
  5
7A
330
1D
100
AcDbEntity
  8
1
  6
Continuous
370
    50
100
AcDbLine
 10
3.243039046
 20
19.486979213
 30
0.0
 11
2.9790687
 21
19.488826956
 31
0.0
  0
LINE
  5
7B
330
1D
100
AcDbEntity
  8
1
  6
Continuous
370
    50
100
AcDbLine
 10
2.9790687
 20
19.488826956
 30
0.0
 11
2.709815894
 21
19.489087727
 31
0.0
  0
LINE
  5
7C
330
1D
100
AcDbEntity
  8
1
  6
Continuous
370
    50
100
AcDbLine
 10
2.709815894
 20
19.489087727
 30
0.0
 11
2.443105597
 21
19.487776425
 31
0.0
  0
LINE
  5
7D
330
1D
100
AcDbEntity
  8
1
  6
Continuous
370
    50
100
AcDbLine
 10
2.443105597
 20
19.487776425
 30
0.0
 11
2.186542992
 21
19.48470306
 31
0.0
  0
LINE
  5
7E
330
1D
100
AcDbEntity
  8
1
  6
Continuous
370
    50
100
AcDbLine
 10
2.186542992
 20
19.48470306
 30
0.0
 11
1.947280634
 21
19.479398247
 31
0.0
  0
LINE
  5
7F
330
1D
100
AcDbEntity
  8
1
  6
Continuous
370
    50
100
AcDbLine
 10
1.947280634
 20
19.479398247
 30
0.0
 11
1.732480396
 21
19.471251037
 31
0.0
  0
LINE
  5
80
330
1D
100
AcDbEntity
  8
1
  6
Continuous
370
    50
100
AcDbLine
 10
1.732480396
 20
19.471251037
 30
0.0
 11
1.547767464
 21
19.459635582
 31
0.0
  0
LINE
  5
81
330
1D
100
AcDbEntity
  8
1
  6
Continuous
370
    50
100
AcDbLine
 10
1.547767464
 20
19.459635582
 30
0.0
 11
1.398904864
 21
19.443911131
 31
0.0
  0
LINE
  5
82
330
1D
100
AcDbEntity
  8
1
  6
Continuous
370
    50
100
AcDbLine
 10
1.398904864
 20
19.443911131
 30
0.0
 11
1.289372016
 21
19.423753586
 31
0.0
  0
LINE
  5
83
330
1D
100
AcDbEntity
  8
1
  6
Continuous
370
    50
100
AcDbLine
 10
1.289372016
 20
19.423753586
 30
0.0
 11
1.222665105
 21
19.398928251
 31
0.0
  0
LINE
  5
84
330
1D
100
AcDbEntity
  8
1
  6
Continuous
370
    50
100
AcDbLine
 10
1.222665105
 20
19.398928251
 30
0.0
 11
1.200000439
 21
19.369815107
 31
0.0
  0
LINE
  5
85
330
1D
100
AcDbEntity
  8
1
  6
Continuous
370
    50
100
AcDbLine
 10
1.200000439
 20
19.369815107
 30
0.0
 11
1.222672556
 21
19.336786684
 31
0.0
  0
LINE
  5
86
330
1D
100
AcDbEntity
  8
1
  6
Continuous
370
    50
100
AcDbLine
 10
1.222672556
 20
19.336786684
 30
0.0
 11
1.289506126
 21
19.301158007
 31
0.0
  0
LINE
  5
87
330
1D
100
AcDbEntity
  8
1
  6
Continuous
370
    50
100
AcDbLine
 10
1.289506126
 20
19.301158007
 30
0.0
 11
1.400299985
 21
19.263949808
 31
0.0
  0
LINE
  5
88
330
1D
100
AcDbEntity
  8
1
  6
Continuous
370
    50
100
AcDbLine
 10
1.400299985
 20
19.263949808
 30
0.0
 11
1.550986115
 21
19.227263149
 31
0.0
  0
LINE
  5
89
330
1D
100
AcDbEntity
  8
1
  6
Continuous
370
    50
100
AcDbLine
 10
1.550986115
 20
19.227263149
 30
0.0
 11
1.738837604
 21
19.192871269
 31
0.0
  0
LINE
  5
8A
330
1D
100
AcDbEntity
  8
1
  6
Continuous
370
    50
100
AcDbLine
 10
1.738837604
 20
19.192871269
 30
0.0
 11
1.957661156
 21
19.162871506
 31
0.0
  0
LINE
  5
8B
330
1D
100
AcDbEntity
  8
1
  6
Continuous
370
    50
100
AcDbLine
 10
1.957661156
 20
19.162871506
 30
0.0
 11
2.199592684
 21
19.139379825
 31
0.0
  0
LINE
  5
8C
330
1D
100
AcDbEntity
  8
1
  6
Continuous
370
    50
100
AcDbLine
 10
2.199592684
 20
19.139379825
 30
0.0
 11
2.459169049
 21
19.123517539
 31
0.0
  0
LINE
  5
8D
330
1D
100
AcDbEntity
  8
1
  6
Continuous
370
    50
100
AcDbLine
 10
2.459169049
 20
19.123517539
 30
0.0
 11
2.799999584
 21
19.116156366
 31
0.0
  0
ARC
  5
8E
330
1D
100
AcDbEntity
  8
1
  6
Continuous
370
    50
100
AcDbCircle
 10
-0.204777732
 20
12.444052671
 30
0.0
 40
0.287331895
100
AcDbArc
 50
350.317178354
 51
14.625317136
  0
LINE
  5
8F
330
1D
100
AcDbEntity
  8
1
  6
Continuous
370
    50
100
AcDbLine
 10
0.076685716
 20
12.517501231
 30
0.0
 11
0.042813514
 21
12.602553334
 31
0.0
  0
LINE
  5
90
330
1D
100
AcDbEntity
  8
1
  6
Continuous
370
    50
100
AcDbLine
 10
0.042813514
 20
12.602553334
 30
0.0
 11
-0.017468241
 21
12.665549823
 31
0.0
  0
ARC
  5
91
330
1D
100
AcDbEntity
  8
1
  6
Continuous
370
    50
100
AcDbCircle
 10
-19.390239698
 20
-16.467798105
 30
0.0
 40
34.986515051
100
AcDbArc
 50
56.377327849
 51
58.67771340000001
  0
ARC
  5
92
330
1D
100
AcDbEntity
  8
1
  6
Continuous
370
    50
100
AcDbCircle
 10
15.625176196
 20
-16.467798105
 30
0.0
 40
34.987063284
100
AcDbArc
 50
116.563029735
 51
118.744007418
  0
ARC
  5
93
330
1D
100
AcDbEntity
  8
1
  6
Continuous
370
    50
100
AcDbCircle
 10
-0.077994896
 20
14.96492755
 30
0.0
 40
0.156825801
100
AcDbArc
 50
292.702272554
 51
67.297549676
  0
ARC
  5
94
330
1D
100
AcDbEntity
  8
1
  6
Continuous
370
    50
100
AcDbCircle
 10
-15.060112679
 20
-16.467798105
 30
0.0
 40
34.977327837
100
AcDbArc
 50
64.528097096
 51
66.652547761
  0
ARC
  5
95
330
1D
100
AcDbEntity
  8
1
  6
Continuous
370
    50
100
AcDbCircle
 10
14.488332801
 20
-24.162557173
 30
0.0
 40
43.303078035
100
AcDbArc
 50
111.162050608
 51
111.240985639
  0
ARC
  5
96
330
1D
100
AcDbEntity
  8
1
  6
Continuous
370
    50
100
AcDbCircle
 10
-32.767188411
 20
-259.092125457
 30
0.0
 40
277.122509817
100
AcDbArc
 50
83.26858454000002
 51
83.44762446199998
  0
LINE
  5
97
330
1D
100
AcDbEntity
  8
1
  6
Continuous
370
    50
100
AcDbLine
 10
-0.284438338
 20
16.11799803
 30
0.0
 11
0.498925019
 21
16.048089232
 31
0.0
  0
LINE
  5
98
330
1D
100
AcDbEntity
  8
1
  6
Continuous
370
    50
100
AcDbLine
 10
0.498925019
 20
16.048089232
 30
0.0
 11
1.293879617
 21
16.021088328
 31
0.0
  0
LINE
  5
99
330
1D
100
AcDbEntity
  8
1
  6
Continuous
370
    50
100
AcDbLine
 10
1.293879617
 20
16.021088328
 30
0.0
 11
2.091469858
 21
16.032092836
 31
0.0
  0
LINE
  5
9A
330
1D
100
AcDbEntity
  8
1
  6
Continuous
370
    50
100
AcDbLine
 10
2.091469858
 20
16.032092836
 30
0.0
 11
2.882736419
 21
16.076181646
 31
0.0
  0
LINE
  5
9B
330
1D
100
AcDbEntity
  8
1
  6
Continuous
370
    50
100
AcDbLine
 10
2.882736419
 20
16.076181646
 30
0.0
 11
3.728017826
 21
16.157772954
 31
0.0
  0
LINE
  5
9C
330
1D
100
AcDbEntity
  8
1
  6
Continuous
370
    50
100
AcDbLine
 10
3.728017826
 20
16.157772954
 30
0.0
 11
4.558675606
 21
16.278636273
 31
0.0
  0
LINE
  5
9D
330
1D
100
AcDbEntity
  8
1
  6
Continuous
370
    50
100
AcDbLine
 10
4.558675606
 20
16.278636273
 30
0.0
 11
5.358378086
 21
16.443871524
 31
0.0
  0
LINE
  5
9E
330
1D
100
AcDbEntity
  8
1
  6
Continuous
370
    50
100
AcDbLine
 10
5.358378086
 20
16.443871524
 30
0.0
 11
5.691162925
 21
16.531155076
 31
0.0
  0
LINE
  5
9F
330
1D
100
AcDbEntity
  8
1
  6
Continuous
370
    50
100
AcDbLine
 10
5.691162925
 20
16.531155076
 30
0.0
 11
6.0100515
 21
16.631015208
 31
0.0
  0
LINE
  5
A0
330
1D
100
AcDbEntity
  8
1
  6
Continuous
370
    50
100
AcDbLine
 10
6.0100515
 20
16.631015208
 30
0.0
 11
6.30571289
 21
16.745724346
 31
0.0
  0
LINE
  5
A1
330
1D
100
AcDbEntity
  8
1
  6
Continuous
370
    50
100
AcDbLine
 10
6.30571289
 20
16.745724346
 30
0.0
 11
6.502729524
 21
16.842064079
 31
0.0
  0
LINE
  5
A2
330
1D
100
AcDbEntity
  8
1
  6
Continuous
370
    50
100
AcDbLine
 10
6.502729524
 20
16.842064079
 30
0.0
 11
6.668734979
 21
16.950075146
 31
0.0
  0
LINE
  5
A3
330
1D
100
AcDbEntity
  8
1
  6
Continuous
370
    50
100
AcDbLine
 10
6.668734979
 20
16.950075146
 30
0.0
 11
6.749433149
 21
17.024197247
 31
0.0
  0
LINE
  5
A4
330
1D
100
AcDbEntity
  8
1
  6
Continuous
370
    50
100
AcDbLine
 10
6.749433149
 20
17.024197247
 30
0.0
 11
6.804796551
 21
17.102450695
 31
0.0
  0
LINE
  5
A5
330
1D
100
AcDbEntity
  8
1
  6
Continuous
370
    50
100
AcDbLine
 10
6.804796551
 20
17.102450695
 30
0.0
 11
6.826985311
 21
17.173521783
 31
0.0
  0
LINE
  5
A6
330
1D
100
AcDbEntity
  8
1
  6
Continuous
370
    50
100
AcDbLine
 10
6.826985311
 20
17.173521783
 30
0.0
 11
6.821700055
 21
17.244291123
 31
0.0
  0
LINE
  5
A7
330
1D
100
AcDbEntity
  8
1
  6
Continuous
370
    50
100
AcDbLine
 10
6.821700055
 20
17.244291123
 30
0.0
 11
6.78238241
 21
17.32016411
 31
0.0
  0
LINE
  5
A8
330
1D
100
AcDbEntity
  8
1
  6
Continuous
370
    50
100
AcDbLine
 10
6.78238241
 20
17.32016411
 30
0.0
 11
6.712998878
 21
17.390311327
 31
0.0
  0
LINE
  5
A9
330
1D
100
AcDbEntity
  8
1
  6
Continuous
370
    50
100
AcDbLine
 10
6.712998878
 20
17.390311327
 30
0.0
 11
6.511539836
 21
17.508484986
 31
0.0
  0
LINE
  5
AA
330
1D
100
AcDbEntity
  8
1
  6
Continuous
370
    50
100
AcDbLine
 10
6.511539836
 20
17.508484986
 30
0.0
 11
6.206022259
 21
17.618842985
 31
0.0
  0
LINE
  5
AB
330
1D
100
AcDbEntity
  8
1
  6
Continuous
370
    50
100
AcDbLine
 10
6.206022259
 20
17.618842985
 30
0.0
 11
5.861925576
 21
17.704222914
 31
0.0
  0
LINE
  5
AC
330
1D
100
AcDbEntity
  8
1
  6
Continuous
370
    50
100
AcDbLine
 10
5.861925576
 20
17.704222914
 30
0.0
 11
5.377391968
 21
17.791092958
 31
0.0
  0
LINE
  5
AD
330
1D
100
AcDbEntity
  8
1
  6
Continuous
370
    50
100
AcDbLine
 10
5.377391968
 20
17.791092958
 30
0.0
 11
4.871665184
 21
17.8551456
 31
0.0
  0
LINE
  5
AE
330
1D
100
AcDbEntity
  8
1
  6
Continuous
370
    50
100
AcDbLine
 10
4.871665184
 20
17.8551456
 30
0.0
 11
4.355398075
 21
17.901631531
 31
0.0
  0
ARC
  5
AF
330
1D
100
AcDbEntity
  8
1
  6
Continuous
370
    50
100
AcDbCircle
 10
-39.494133044
 20
-564.848260635
 30
0.0
 40
584.397311936
100
AcDbArc
 50
85.696837583
 51
86.216342435
  0
ARC
  5
B0
330
1D
100
AcDbEntity
  8
1
  6
Continuous
370
    50
100
AcDbCircle
 10
-12.707849298
 20
-37.508271156
 30
0.0
 40
57.014018926
100
AcDbArc
 50
78.078224415
 51
78.355465187
  0
ARC
  5
B1
330
1D
100
AcDbEntity
  8
1
  6
Continuous
370
    50
100
AcDbCircle
 10
8.942785797
 20
-37.508271156
 30
0.0
 40
57.017611823
100
AcDbArc
 50
99.041386063
 51
100.246803522
  0
LINE
  5
B2
330
1D
100
AcDbEntity
  8
1
  6
Continuous
370
    50
100
AcDbLine
 10
-0.017469134
 20
18.801276203
 30
0.0
 11
0.040295217
 21
18.815037426
 31
0.0
  0
LINE
  5
B3
330
1D
100
AcDbEntity
  8
1
  6
Continuous
370
    50
100
AcDbLine
 10
0.040295217
 20
18.815037426
 30
0.0
 11
0.072934348
 21
18.831734177
 31
0.0
  0
LINE
  5
B4
330
1D
100
AcDbEntity
  8
1
  6
Continuous
370
    50
100
AcDbLine
 10
0.072934348
 20
18.831734177
 30
0.0
 11
0.082404036
 21
18.849973198
 31
0.0
  0
LINE
  5
B5
330
1D
100
AcDbEntity
  8
1
  6
Continuous
370
    50
100
AcDbLine
 10
0.082404036
 20
18.849973198
 30
0.0
 11
0.068629775
 21
18.867359128
 31
0.0
  0
LINE
  5
B6
330
1D
100
AcDbEntity
  8
1
  6
Continuous
370
    50
100
AcDbLine
 10
0.068629775
 20
18.867359128
 30
0.0
 11
0.034319852
 21
18.882144805
 31
0.0
  0
LINE
  5
B7
330
1D
100
AcDbEntity
  8
1
  6
Continuous
370
    50
100
AcDbLine
 10
0.034319852
 20
18.882144805
 30
0.0
 11
-0.017468241
 21
18.893174711
 31
0.0
  0
ARC
  5
B8
330
1D
100
AcDbEntity
  8
1
  6
Continuous
370
    50
100
AcDbCircle
 10
-8.377722279
 20
-37.508271156
 30
0.0
 40
57.017689742
100
AcDbArc
 50
81.568573479
 51
82.76792326699999
  0
ARC
  5
B9
330
1D
100
AcDbEntity
  8
1
  6
Continuous
370
    50
100
AcDbCircle
 10
4.612658778
 20
-37.508271156
 30
0.0
 40
57.014399146
100
AcDbArc
 50
94.658264472
 51
95.85151243599998
  0
LINE
  5
BA
330
1D
100
AcDbEntity
  8
1
  6
Continuous
370
    50
100
AcDbLine
 10
-0.017469134
 20
19.315898981
 30
0.0
 11
-0.006846469
 21
19.316807952
 31
0.0
  0
LINE
  5
BB
330
1D
100
AcDbEntity
  8
1
  6
Continuous
370
    50
100
AcDbLine
 10
-0.006846469
 20
19.316807952
 30
0.0
 11
0.04241677
 21
19.323167022
 31
0.0
  0
LINE
  5
BC
330
1D
100
AcDbEntity
  8
1
  6
Continuous
370
    50
100
AcDbLine
 10
0.04241677
 20
19.323167022
 30
0.0
 11
0.073368345
 21
19.331250902
 31
0.0
  0
LINE
  5
BD
330
1D
100
AcDbEntity
  8
1
  6
Continuous
370
    50
100
AcDbLine
 10
0.073368345
 20
19.331250902
 30
0.0
 11
0.082405899
 21
19.339997884
 31
0.0
  0
LINE
  5
BE
330
1D
100
AcDbEntity
  8
1
  6
Continuous
370
    50
100
AcDbLine
 10
0.082405899
 20
19.339997884
 30
0.0
 11
0.068763886
 21
19.348368611
 31
0.0
  0
LINE
  5
BF
330
1D
100
AcDbEntity
  8
1
  6
Continuous
370
    50
100
AcDbLine
 10
0.068763886
 20
19.348368611
 30
0.0
 11
0.034239758
 21
19.35548019
 31
0.0
  0
LINE
  5
C0
330
1D
100
AcDbEntity
  8
1
  6
Continuous
370
    50
100
AcDbLine
 10
0.034239758
 20
19.35548019
 30
0.0
 11
-0.017468241
 21
19.360682459
 31
0.0
  0
ARC
  5
C1
330
1D
100
AcDbEntity
  8
1
  6
Continuous
370
    50
100
AcDbCircle
 10
-4.04759526
 20
-37.508271156
 30
0.0
 40
57.011576096
100
AcDbArc
 50
85.946401968
 51
87.136938366
  0
ARC
  5
C2
330
1D
100
AcDbEntity
  8
1
  6
Continuous
370
    50
100
AcDbCircle
 10
0.282531759
 20
-37.508271156
 30
0.0
 40
57.008756748
100
AcDbArc
 50
90.30151516
 51
91.49016387
  0
LINE
  5
C3
330
1D
100
AcDbEntity
  8
1
  6
Continuous
370
    50
100
AcDbLine
 10
-0.017469134
 20
19.499231692
 30
0.0
 11
0.012871493
 21
19.499410506
 31
0.0
  0
LINE
  5
C4
330
1D
100
AcDbEntity
  8
1
  6
Continuous
370
    50
100
AcDbLine
 10
0.012871493
 20
19.499410506
 30
0.0
 11
0.055736546
 21
19.499742057
 31
0.0
  0
LINE
  5
C5
330
1D
100
AcDbEntity
  8
1
  6
Continuous
370
    50
100
AcDbLine
 10
0.055736546
 20
19.499742057
 30
0.0
 11
8.65888554
 21
19.499742057
 31
0.0
  0
LINE
  5
C6
330
1D
100
AcDbEntity
  8
1
  6
Continuous
370
    50
100
AcDbLine
 10
6.599999648
 20
19.499742057
 30
0.0
 11
6.609053035
 21
19.48406231
 31
0.0
  0
LINE
  5
C7
330
1D
100
AcDbEntity
  8
1
  6
Continuous
370
    50
100
AcDbLine
 10
6.609053035
 20
19.48406231
 30
0.0
 11
6.632123757
 21
19.444104846
 31
0.0
  0
LINE
  5
C8
330
1D
100
AcDbEntity
  8
1
  6
Continuous
370
    50
100
AcDbLine
 10
6.632123757
 20
19.444104846
 30
0.0
 11
6.669184808
 21
19.379910644
 31
0.0
  0
LINE
  5
C9
330
1D
100
AcDbEntity
  8
1
  6
Continuous
370
    50
100
AcDbLine
 10
6.669184808
 20
19.379910644
 30
0.0
 11
6.72018962
 21
19.29156911
 31
0.0
  0
LINE
  5
CA
330
1D
100
AcDbEntity
  8
1
  6
Continuous
370
    50
100
AcDbLine
 10
6.72018962
 20
19.29156911
 30
0.0
 11
6.785074864
 21
19.179184552
 31
0.0
  0
LINE
  5
CB
330
1D
100
AcDbEntity
  8
1
  6
Continuous
370
    50
100
AcDbLine
 10
6.785074864
 20
19.179184552
 30
0.0
 11
6.863758583
 21
19.042898532
 31
0.0
  0
LINE
  5
CC
330
1D
100
AcDbEntity
  8
1
  6
Continuous
370
    50
100
AcDbLine
 10
6.863758583
 20
19.042898532
 30
0.0
 11
6.95614392
 21
18.882882412
 31
0.0
  0
LINE
  5
CD
330
1D
100
AcDbEntity
  8
1
  6
Continuous
370
    50
100
AcDbLine
 10
6.95614392
 20
18.882882412
 30
0.0
 11
7.06211539
 21
18.699337359
 31
0.0
  0
LINE
  5
CE
330
1D
100
AcDbEntity
  8
1
  6
Continuous
370
    50
100
AcDbLine
 10
7.06211539
 20
18.699337359
 30
0.0
 11
7.181540746
 21
18.49248689
 31
0.0
  0
LINE
  5
CF
330
1D
100
AcDbEntity
  8
1
  6
Continuous
370
    50
100
AcDbLine
 10
7.181540746
 20
18.49248689
 30
0.0
 11
7.314270977
 21
18.262591775
 31
0.0
  0
LINE
  5
D0
330
1D
100
AcDbEntity
  8
1
  6
Continuous
370
    50
100
AcDbLine
 10
7.314270977
 20
18.262591775
 30
0.0
 11
7.460141238
 21
18.009935137
 31
0.0
  0
LINE
  5
D1
330
1D
100
AcDbEntity
  8
1
  6
Continuous
370
    50
100
AcDbLine
 10
7.460141238
 20
18.009935137
 30
0.0
 11
7.61896899
 21
17.734837349
 31
0.0
  0
LINE
  5
D2
330
1D
100
AcDbEntity
  8
1
  6
Continuous
370
    50
100
AcDbLine
 10
7.61896899
 20
17.734837349
 30
0.0
 11
7.790556792
 21
17.437637415
 31
0.0
  0
LINE
  5
D3
330
1D
100
AcDbEntity
  8
1
  6
Continuous
370
    50
100
AcDbLine
 10
7.790556792
 20
17.437637415
 30
0.0
 11
7.974691373
 21
17.118707862
 31
0.0
  0
LINE
  5
D4
330
1D
100
AcDbEntity
  8
1
  6
Continuous
370
    50
100
AcDbLine
 10
7.974691373
 20
17.118707862
 30
0.0
 11
8.171141763
 21
16.778447296
 31
0.0
  0
LINE
  5
D5
330
1D
100
AcDbEntity
  8
1
  6
Continuous
370
    50
100
AcDbLine
 10
8.171141763
 20
16.778447296
 30
0.0
 11
8.379664887
 21
16.417272951
 31
0.0
  0
LINE
  5
D6
330
1D
100
AcDbEntity
  8
1
  6
Continuous
370
    50
100
AcDbLine
 10
8.379664887
 20
16.417272951
 30
0.0
 11
8.599999976
 21
16.035643037
 31
0.0
  0
LINE
  5
D7
330
1D
100
AcDbEntity
  8
1
  6
Continuous
370
    50
100
AcDbLine
 10
8.599999976
 20
16.035643037
 30
0.0
 11
8.599999976
 21
11.171069559
 31
0.0
  0
ARC
  5
D8
330
1D
100
AcDbEntity
  8
1
  6
Continuous
370
    50
100
AcDbCircle
 10
13.600321129
 20
11.171201774
 30
0.0
 40
5.000321155
100
AcDbArc
 50
180.001514983
 51
224.998483352
  0
LINE
  5
D9
330
1D
100
AcDbEntity
  8
1
  6
Continuous
370
    50
100
AcDbLine
 10
10.06446654
 20
7.635534372
 30
0.0
 11
10.652146917
 21
7.047853064
 31
0.0
  0
LINE
  5
DA
330
1D
100
AcDbEntity
  8
1
  6
Continuous
370
    50
100
AcDbLine
 10
10.652146917
 20
7.047853064
 30
0.0
 11
11.247287188
 21
6.452711861
 31
0.0
  0
LINE
  5
DB
330
1D
100
AcDbEntity
  8
1
  6
Continuous
370
    50
100
AcDbLine
 10
11.247287188
 20
6.452711861
 30
0.0
 11
11.849256382
 21
5.850744065
 31
0.0
  0
LINE
  5
DC
330
1D
100
AcDbEntity
  8
1
  6
Continuous
370
    50
100
AcDbLine
 10
11.849256382
 20
5.850744065
 30
0.0
 11
12.457417473
 21
5.242582973
 31
0.0
  0
LINE
  5
DD
330
1D
100
AcDbEntity
  8
1
  6
Continuous
370
    50
100
AcDbLine
 10
12.457417473
 20
5.242582973
 30
0.0
 11
13.071126919
 21
4.628873061
 31
0.0
  0
LINE
  5
DE
330
1D
100
AcDbEntity
  8
1
  6
Continuous
370
    50
100
AcDbLine
 10
13.071126919
 20
4.628873061
 30
0.0
 11
13.689735122
 21
4.010264393
 31
0.0
  0
LINE
  5
DF
330
1D
100
AcDbEntity
  8
1
  6
Continuous
370
    50
100
AcDbLine
 10
13.689735122
 20
4.010264393
 30
0.0
 11
14.312587828
 21
3.387412619
 31
0.0
  0
LINE
  5
E0
330
1D
100
AcDbEntity
  8
1
  6
Continuous
370
    50
100
AcDbLine
 10
14.312587828
 20
3.387412619
 30
0.0
 11
14.939025194
 21
2.760975253
 31
0.0
  0
LINE
  5
E1
330
1D
100
AcDbEntity
  8
1
  6
Continuous
370
    50
100
AcDbLine
 10
14.939025194
 20
2.760975253
 30
0.0
 11
15.568384584
 21
2.131615396
 31
0.0
  0
LINE
  5
E2
330
1D
100
AcDbEntity
  8
1
  6
Continuous
370
    50
100
AcDbLine
 10
15.568384584
 20
2.131615396
 30
0.0
 11
16.200000104
 21
1.499999877
 31
0.0
  0
LINE
  5
E3
330
1D
100
AcDbEntity
  8
1
  6
Continuous
370
    50
100
AcDbLine
 10
16.200000104
 20
3.996924124
 30
0.0
 11
16.200000104
 21
0.000000562
 31
0.0
  0
LINE
  5
E4
330
1D
100
AcDbEntity
  8
1
  6
Continuous
370
    50
100
AcDbLine
 10
16.200000104
 20
0.000000562
 30
0.0
 11
16.200000004
 21
-4.000000004
 31
0.0
  0
ARC
  5
E5
330
1D
100
AcDbEntity
  8
1
  6
Continuous
370
    50
100
AcDbCircle
 10
24.200000004
 20
-4.000000004
 30
0.0
 40
8.0
100
AcDbArc
 50
180.0
 51
181.09810082
  0
LINE
  5
E6
330
1D
100
AcDbEntity
  8
1
  6
Continuous
370
    50
100
AcDbLine
 10
16.201469265
 20
-4.153314416
 30
0.0
 11
15.945828902
 21
-4.024546031
 31
0.0
  0
LINE
  5
E7
330
1D
100
AcDbEntity
  8
1
  6
Continuous
370
    50
100
AcDbLine
 10
15.945828902
 20
-4.024546031
 30
0.0
 11
14.954434857
 21
-3.482350517
 31
0.0
  0
LINE
  5
E8
330
1D
100
AcDbEntity
  8
1
  6
Continuous
370
    50
100
AcDbLine
 10
14.954434857
 20
-3.482350517
 30
0.0
 11
14.472413026
 21
-3.186866079
 31
0.0
  0
LINE
  5
E9
330
1D
100
AcDbEntity
  8
1
  6
Continuous
370
    50
100
AcDbLine
 10
14.472413026
 20
-3.186866079
 30
0.0
 11
14.003517721
 21
-2.871091847
 31
0.0
  0
LINE
  5
EA
330
1D
100
AcDbEntity
  8
1
  6
Continuous
370
    50
100
AcDbLine
 10
14.003517721
 20
-2.871091847
 30
0.0
 11
13.551089596
 21
-2.530471791
 31
0.0
  0
LINE
  5
EB
330
1D
100
AcDbEntity
  8
1
  6
Continuous
370
    50
100
AcDbLine
 10
13.551089596
 20
-2.530471791
 30
0.0
 11
13.123114743
 21
-2.159941379
 31
0.0
  0
LINE
  5
EC
330
1D
100
AcDbEntity
  8
1
  6
Continuous
370
    50
100
AcDbLine
 10
13.123114743
 20
-2.159941379
 30
0.0
 11
12.759007197
 21
-1.786853556
 31
0.0
  0
LINE
  5
ED
330
1D
100
AcDbEntity
  8
1
  6
Continuous
370
    50
100
AcDbLine
 10
12.759007197
 20
-1.786853556
 30
0.0
 11
12.437237576
 21
-1.375540529
 31
0.0
  0
LINE
  5
EE
330
1D
100
AcDbEntity
  8
1
  6
Continuous
370
    50
100
AcDbLine
 10
12.437237576
 20
-1.375540529
 30
0.0
 11
12.180934809
 21
-0.924907062
 31
0.0
  0
LINE
  5
EF
330
1D
100
AcDbEntity
  8
1
  6
Continuous
370
    50
100
AcDbLine
 10
12.180934809
 20
-0.924907062
 30
0.0
 11
12.052628827
 21
-0.58038849
 31
0.0
  0
LINE
  5
F0
330
1D
100
AcDbEntity
  8
1
  6
Continuous
370
    50
100
AcDbLine
 10
12.052628827
 20
-0.58038849
 30
0.0
 11
11.980758198
 21
-0.220283304
 31
0.0
  0
LINE
  5
F1
330
1D
100
AcDbEntity
  8
1
  6
Continuous
370
    50
100
AcDbLine
 10
11.980758198
 20
-0.220283304
 30
0.0
 11
11.968713403
 21
0.000000562
 31
0.0
  0
LINE
  5
F2
330
1D
100
AcDbEntity
  8
1
  6
Continuous
370
    50
100
AcDbLine
 10
11.968713403
 20
0.000000562
 30
0.0
 11
11.968713403
 21
-19.16481149
 31
0.0
  0
LINE
  5
F3
330
1D
100
AcDbEntity
  8
1
  6
Continuous
370
    50
100
AcDbLine
 10
11.968713403
 20
-19.16481149
 30
0.0
 11
8.857579585
 21
-19.16481149
 31
0.0
  0
LINE
  5
F4
330
1D
100
AcDbEntity
  8
1
  6
Continuous
370
    50
100
AcDbLine
 10
8.857579585
 20
-19.16481149
 30
0.0
 11
8.844677042
 21
-19.287574707
 31
0.0
  0
LINE
  5
F5
330
1D
100
AcDbEntity
  8
1
  6
Continuous
370
    50
100
AcDbLine
 10
8.844677042
 20
-19.287574707
 30
0.0
 11
8.834691402
 21
-19.382576012
 31
0.0
  0
LINE
  5
F6
330
1D
100
AcDbEntity
  8
1
  6
Continuous
370
    50
100
AcDbLine
 10
8.834691402
 20
-19.382576012
 30
0.0
 11
8.827638881
 21
-19.449678664
 31
0.0
  0
ARC
  5
F7
330
1D
100
AcDbEntity
  8
1
  6
Continuous
370
    50
100
AcDbCircle
 10
8.671243439
 20
-19.159734303
 30
0.0
 40
0.329434769
100
AcDbArc
 50
270.370985979
 51
298.342339845
  0
LINE
  5
F8
330
1D
100
AcDbEntity
  8
1
  6
Continuous
370
    50
100
AcDbLine
 10
8.673445005
 20
-19.49974361
 30
0.0
 11
0.055736546
 21
-19.49974361
 31
0.0
  0
LINE
  5
F9
330
1D
100
AcDbEntity
  8
1
  6
Continuous
370
    50
100
AcDbLine
 10
0.055736546
 20
-19.49974361
 30
0.0
 11
0.03422672
 21
-19.499564447
 31
0.0
  0
LINE
  5
FA
330
1D
100
AcDbEntity
  8
1
  6
Continuous
370
    50
100
AcDbLine
 10
0.03422672
 20
-19.499564447
 30
0.0
 11
-0.017468241
 21
-19.499230758
 31
0.0
  0
ARC
  5
FB
330
1D
100
AcDbEntity
  8
1
  6
Continuous
370
    50
100
AcDbCircle
 10
0.282531759
 20
37.508271148
 30
0.0
 40
57.008291271
100
AcDbArc
 50
268.509836921
 51
269.698485732
  0
ARC
  5
FC
330
1D
100
AcDbEntity
  8
1
  6
Continuous
370
    50
100
AcDbCircle
 10
-4.04759526
 20
37.508271148
 30
0.0
 40
57.010003324
100
AcDbArc
 50
272.8630608669999
 51
274.053597136
  0
LINE
  5
FD
330
1D
100
AcDbEntity
  8
1
  6
Continuous
370
    50
100
AcDbLine
 10
-0.017469134
 20
-19.360682481
 30
0.0
 11
-0.007064398
 21
-19.359907621
 31
0.0
  0
LINE
  5
FE
330
1D
100
AcDbEntity
  8
1
  6
Continuous
370
    50
100
AcDbLine
 10
-0.007064398
 20
-19.359907621
 30
0.0
 11
0.042189528
 21
-19.354269976
 31
0.0
  0
LINE
  5
FF
330
1D
100
AcDbEntity
  8
1
  6
Continuous
370
    50
100
AcDbLine
 10
0.042189528
 20
-19.354269976
 30
0.0
 11
0.073254723
 21
-19.346767008
 31
0.0
  0
LINE
  5
100
330
1D
100
AcDbEntity
  8
1
  6
Continuous
370
    50
100
AcDbLine
 10
0.073254723
 20
-19.346767008
 30
0.0
 11
0.08241335
 21
-19.338189877
 31
0.0
  0
LINE
  5
101
330
1D
100
AcDbEntity
  8
1
  6
Continuous
370
    50
100
AcDbLine
 10
0.08241335
 20
-19.338189877
 30
0.0
 11
0.068801139
 21
-19.329525666
 31
0.0
  0
LINE
  5
102
330
1D
100
AcDbEntity
  8
1
  6
Continuous
370
    50
100
AcDbLine
 10
0.068801139
 20
-19.329525666
 30
0.0
 11
0.034278874
 21
-19.321791498
 31
0.0
  0
LINE
  5
103
330
1D
100
AcDbEntity
  8
1
  6
Continuous
370
    50
100
AcDbLine
 10
0.034278874
 20
-19.321791498
 30
0.0
 11
-0.017468241
 21
-19.315899533
 31
0.0
  0
ARC
  5
104
330
1D
100
AcDbEntity
  8
1
  6
Continuous
370
    50
100
AcDbCircle
 10
4.612658778
 20
37.508271148
 30
0.0
 40
57.012493804
100
AcDbArc
 50
264.148488348
 51
265.3417364670001
  0
ARC
  5
105
330
1D
100
AcDbEntity
  8
1
  6
Continuous
370
    50
100
AcDbCircle
 10
-8.377722279
 20
37.508271148
 30
0.0
 40
57.016445711
100
AcDbArc
 50
277.232075973
 51
278.431425632
  0
LINE
  5
106
330
1D
100
AcDbEntity
  8
1
  6
Continuous
370
    50
100
AcDbLine
 10
-0.017469134
 20
-18.89317473
 30
0.0
 11
0.039790441
 21
-18.880424808
 31
0.0
  0
LINE
  5
107
330
1D
100
AcDbEntity
  8
1
  6
Continuous
370
    50
100
AcDbLine
 10
0.039790441
 20
-18.880424808
 30
0.0
 11
0.072682891
 21
-18.864412113
 31
0.0
  0
LINE
  5
108
330
1D
100
AcDbEntity
  8
1
  6
Continuous
370
    50
100
AcDbLine
 10
0.072682891
 20
-18.864412113
 30
0.0
 11
0.082422663
 21
-18.846316865
 31
0.0
  0
LINE
  5
109
330
1D
100
AcDbEntity
  8
1
  6
Continuous
370
    50
100
AcDbLine
 10
0.082422663
 20
-18.846316865
 30
0.0
 11
0.068709869
 21
-18.828544203
 31
0.0
  0
LINE
  5
10A
330
1D
100
AcDbEntity
  8
1
  6
Continuous
370
    50
100
AcDbLine
 10
0.068709869
 20
-18.828544203
 30
0.0
 11
0.034399946
 21
-18.813072141
 31
0.0
  0
LINE
  5
10B
330
1D
100
AcDbEntity
  8
1
  6
Continuous
370
    50
100
AcDbLine
 10
0.034399946
 20
-18.813072141
 30
0.0
 11
-0.017468241
 21
-18.801275205
 31
0.0
  0
ARC
  5
10C
330
1D
100
AcDbEntity
  8
1
  6
Continuous
370
    50
100
AcDbCircle
 10
8.942785797
 20
37.508271148
 30
0.0
 40
57.017989819
100
AcDbArc
 50
259.753197247
 51
260.958614665
  0
ARC
  5
10D
330
1D
100
AcDbEntity
  8
1
  6
Continuous
370
    50
100
AcDbCircle
 10
-12.707849298
 20
37.508271148
 30
0.0
 40
57.014921249
100
AcDbArc
 50
281.6445343780001
 51
282.861777207
  0
LINE
  5
10E
330
1D
100
AcDbEntity
  8
1
  6
Continuous
370
    50
100
AcDbLine
 10
-0.017469134
 20
-18.071194548
 30
0.0
 11
0.035081674
 21
-18.053347847
 31
0.0
  0
LINE
  5
10F
330
1D
100
AcDbEntity
  8
1
  6
Continuous
370
    50
100
AcDbLine
 10
0.035081674
 20
-18.053347847
 30
0.0
 11
0.071550403
 21
-18.027093863
 31
0.0
  0
LINE
  5
110
330
1D
100
AcDbEntity
  8
1
  6
Continuous
370
    50
100
AcDbLine
 10
0.071550403
 20
-18.027093863
 30
0.0
 11
0.082439427
 21
-17.997459179
 31
0.0
  0
LINE
  5
111
330
1D
100
AcDbEntity
  8
1
  6
Continuous
370
    50
100
AcDbLine
 10
0.082439427
 20
-17.997459179
 30
0.0
 11
0.068549682
 21
-17.969213329
 31
0.0
  0
LINE
  5
112
330
1D
100
AcDbEntity
  8
1
  6
Continuous
370
    50
100
AcDbLine
 10
0.068549682
 20
-17.969213329
 30
0.0
 11
0.034610424
 21
-17.945326768
 31
0.0
  0
LINE
  5
113
330
1D
100
AcDbEntity
  8
1
  6
Continuous
370
    50
100
AcDbLine
 10
0.034610424
 20
-17.945326768
 30
0.0
 11
-0.017468241
 21
-17.926849247
 31
0.0
  0
ARC
  5
114
330
1D
100
AcDbEntity
  8
1
  6
Continuous
370
    50
100
AcDbCircle
 10
10.158205782
 20
24.162557165
 30
0.0
 40
43.301991571
100
AcDbArc
 50
254.791809243
 51
256.408777439
  0
ARC
  5
115
330
1D
100
AcDbEntity
  8
1
  6
Continuous
370
    50
100
AcDbCircle
 10
-13.923269284
 20
24.162557165
 30
0.0
 40
43.297304671
100
AcDbArc
 50
287.089084438
 51
288.732852048
  0
LINE
  5
116
330
1D
100
AcDbEntity
  8
1
  6
Continuous
370
    50
100
AcDbLine
 10
-0.017469134
 20
-16.842924427
 30
0.0
 11
0.026237834
 21
-16.822978757
 31
0.0
  0
LINE
  5
117
330
1D
100
AcDbEntity
  8
1
  6
Continuous
370
    50
100
AcDbLine
 10
0.026237834
 20
-16.822978757
 30
0.0
 11
0.069352482
 21
-16.783113495
 31
0.0
  0
LINE
  5
118
330
1D
100
AcDbEntity
  8
1
  6
Continuous
370
    50
100
AcDbLine
 10
0.069352482
 20
-16.783113495
 30
0.0
 11
0.082472954
 21
-16.737790682
 31
0.0
  0
LINE
  5
119
330
1D
100
AcDbEntity
  8
1
  6
Continuous
370
    50
100
AcDbLine
 10
0.082472954
 20
-16.737790682
 30
0.0
 11
0.068335477
 21
-16.696238328
 31
0.0
  0
LINE
  5
11A
330
1D
100
AcDbEntity
  8
1
  6
Continuous
370
    50
100
AcDbLine
 10
0.068335477
 20
-16.696238328
 30
0.0
 11
0.034951288
 21
-16.662634114
 31
0.0
  0
LINE
  5
11B
330
1D
100
AcDbEntity
  8
1
  6
Continuous
370
    50
100
AcDbLine
 10
0.034951288
 20
-16.662634114
 30
0.0
 11
-0.017468241
 21
-16.635982043
 31
0.0
  0
ARC
  5
11C
330
1D
100
AcDbEntity
  8
1
  6
Continuous
370
    50
100
AcDbCircle
 10
14.488332801
 20
24.162557165
 30
0.0
 40
43.300566571
100
AcDbArc
 50
248.759015368
 51
250.427305833
  0
ARC
  5
11D
330
1D
100
AcDbEntity
  8
1
  6
Continuous
370
    50
100
AcDbCircle
 10
-15.060112679
 20
16.467798097
 30
0.0
 40
34.973260297
100
AcDbArc
 50
293.347450481
 51
295.471901685
  0
ARC
  5
11E
330
1D
100
AcDbEntity
  8
1
  6
Continuous
370
    50
100
AcDbCircle
 10
-0.077935741
 20
-14.964927822
 30
0.0
 40
0.156803409
100
AcDbArc
 50
292.682266205
 51
67.31741256799998
  0
ARC
  5
11F
330
1D
100
AcDbEntity
  8
1
  6
Continuous
370
    50
100
AcDbCircle
 10
15.625176196
 20
16.467798097
 30
0.0
 40
34.980486158
100
AcDbArc
 50
241.255993789
 51
243.436971531
  0
ARC
  5
120
330
1D
100
AcDbEntity
  8
1
  6
Continuous
370
    50
100
AcDbCircle
 10
-19.390239698
 20
16.467798097
 30
0.0
 40
34.991229485
100
AcDbArc
 50
301.3222843589999
 51
303.622671087
  0
ARC
  5
121
330
1D
100
AcDbEntity
  8
1
  6
Continuous
370
    50
100
AcDbCircle
 10
-0.17751274
 20
-12.456986025
 30
0.0
 40
0.262893033
100
AcDbArc
 50
307.501227448
 51
52.498636186
  0
ARC
  5
122
330
1D
100
AcDbEntity
  8
1
  6
Continuous
370
    50
100
AcDbCircle
 10
19.955303215
 20
16.467798097
 30
0.0
 40
34.979035305
100
AcDbArc
 50
234.505296738
 51
235.180525909
  0
ARC
  5
123
330
1D
100
AcDbEntity
  8
1
  6
Continuous
370
    50
100
AcDbCircle
 10
11.397531676
 20
4.467841763
 30
0.0
 40
20.233988242
100
AcDbArc
 50
231.467031852
 51
234.505203419
  0
ARC
  5
124
330
1D
100
AcDbEntity
  8
1
  6
Continuous
370
    50
100
AcDbCircle
 10
-15.162595177
 20
4.467841763
 30
0.0
 40
20.221952039
100
AcDbArc
 50
313.667105445
 51
318.468954128
  0
ARC
  5
125
330
1D
100
AcDbEntity
  8
1
  6
Continuous
370
    50
100
AcDbCircle
 10
-0.536982589
 20
-8.59334543
 30
0.0
 40
0.627940625
100
AcDbArc
 50
325.8253258789999
 51
34.174612143
  0
ARC
  5
126
330
1D
100
AcDbEntity
  8
1
  6
Continuous
370
    50
100
AcDbCircle
 10
15.727658694
 20
4.467841763
 30
0.0
 40
20.23398204
100
AcDbArc
 50
218.787977819
 51
218.908255546
  0
ARC
  5
127
330
1D
100
AcDbEntity
  8
1
  6
Continuous
370
    50
100
AcDbCircle
 10
12.471009008
 20
1.850553071
 30
0.0
 40
16.055954342
100
AcDbArc
 50
211.664063588
 51
218.787977819
  0
LINE
  5
128
330
1D
100
AcDbEntity
  8
1
  6
Continuous
370
    50
100
AcDbLine
 10
-1.199999209
 20
-5.356070954
 30
0.0
 11
6.900000004
 21
-5.356071325
 31
0.0
  0
ARC
  5
129
330
1D
100
AcDbEntity
  8
1
  6
Continuous
370
    50
100
AcDbCircle
 10
-25.58072799
 20
-0.000000004
 30
0.0
 40
32.919374098
100
AcDbArc
 50
350.636193962
 51
0.0
  0
ARC
  5
12A
330
1D
100
AcDbEntity
  8
1
  6
Continuous
370
    50
100
AcDbCircle
 10
-25.58072799
 20
-0.000000004
 30
0.0
 40
32.913740696
100
AcDbArc
 50
0.0
 51
9.363807327
  0
LINE
  5
12B
330
1D
100
AcDbEntity
  8
1
  6
Continuous
370
    50
100
AcDbLine
 10
6.90000007
 20
5.356072079
 30
0.0
 11
-1.199999209
 21
5.356072079
 31
0.0
  0
ARC
  5
12C
330
1D
100
AcDbEntity
  8
1
  6
Continuous
370
    50
100
AcDbCircle
 10
12.471009008
 20
-1.850553079
 30
0.0
 40
16.061987692
100
AcDbArc
 50
141.212022181
 51
148.335939192
  0
ARC
  5
12D
330
1D
100
AcDbEntity
  8
1
  6
Continuous
370
    50
100
AcDbCircle
 10
15.727658694
 20
-4.467841771
 30
0.0
 40
20.233988242
100
AcDbArc
 50
141.091746072
 51
141.212022181
  0
ARC
  5
12E
330
1D
100
AcDbEntity
  8
1
  6
Continuous
370
    50
100
AcDbCircle
 10
-0.5455598
 20
8.593345623
 30
0.0
 40
0.635055077
100
AcDbArc
 50
326.260015889
 51
33.739902668
  0
ARC
  5
12F
330
1D
100
AcDbEntity
  8
1
  6
Continuous
370
    50
100
AcDbCircle
 10
-15.162595177
 20
-4.467841771
 30
0.0
 40
20.23135964
100
AcDbArc
 50
41.53104358499999
 51
46.332891298
  0
ARC
  5
130
330
1D
100
AcDbEntity
  8
1
  6
Continuous
370
    50
100
AcDbCircle
 10
11.397531676
 20
-4.467841771
 30
0.0
 40
20.221897657
100
AcDbArc
 50
125.494796581
 51
128.532969099
  0
ARC
  5
131
330
1D
100
AcDbEntity
  8
1
  6
Continuous
370
    50
100
AcDbCircle
 10
19.955303215
 20
-16.467798105
 30
0.0
 40
34.972862207
100
AcDbArc
 50
124.819474105
 51
125.494703262
  0
LINE
  5
132
330
1D
100
AcDbEntity
  8
1
  6
Continuous
370
    50
100
AcDbLine
 10
-0.017469134
 20
12.248423513
 30
0.0
 11
0.038535018
 21
12.307711508
 31
0.0
  0
LINE
  5
133
330
1D
100
AcDbEntity
  8
1
  6
Continuous
370
    50
100
AcDbLine
 10
0.038535018
 20
12.307711508
 30
0.0
 11
0.076724831
 21
12.402114089
 31
0.0
  0
LINE
  5
134
330
1D
100
AcDbEntity
  8
1
  6
Continuous
370
    50
100
AcDbLine
 10
-1.199999209
 20
6.580992233
 30
0.0
 11
-1.300000902
 21
6.107092466
 31
0.0
  0
LINE
  5
135
330
1D
100
AcDbEntity
  8
1
  6
Continuous
370
    50
100
AcDbLine
 10
-1.300000902
 20
6.107092466
 30
0.0
 11
-1.357407626
 21
5.764989745
 31
0.0
  0
LINE
  5
136
330
1D
100
AcDbEntity
  8
1
  6
Continuous
370
    50
100
AcDbLine
 10
-1.357407626
 20
5.764989745
 30
0.0
 11
-1.397093143
 21
5.328400623
 31
0.0
  0
LINE
  5
137
330
1D
100
AcDbEntity
  8
1
  6
Continuous
370
    50
100
AcDbLine
 10
-1.397093143
 20
5.328400623
 30
0.0
 11
-1.199999209
 21
5.356072079
 31
0.0
  0
LINE
  5
138
330
1D
100
AcDbEntity
  8
1
  6
Continuous
370
    50
100
AcDbLine
 10
-1.199999209
 20
-5.356070954
 30
0.0
 11
-1.397093143
 21
-5.328401361
 31
0.0
  0
LINE
  5
139
330
1D
100
AcDbEntity
  8
1
  6
Continuous
370
    50
100
AcDbLine
 10
-1.397093143
 20
-5.328401361
 30
0.0
 11
-1.382637154
 21
-5.54181486
 31
0.0
  0
LINE
  5
13A
330
1D
100
AcDbEntity
  8
1
  6
Continuous
370
    50
100
AcDbLine
 10
-1.382637154
 20
-5.54181486
 30
0.0
 11
-1.300000902
 21
-6.107091341
 31
0.0
  0
LINE
  5
13B
330
1D
100
AcDbEntity
  8
1
  6
Continuous
370
    50
100
AcDbLine
 10
-1.300000902
 20
-6.107091341
 30
0.0
 11
-1.199999209
 21
-6.580992971
 31
0.0
  0
LINE
  5
13C
330
1D
100
AcDbEntity
  8
1
  6
Continuous
370
    50
100
AcDbLine
 10
11.968713403
 20
-19.16481149
 30
0.0
 11
16.615523873
 21
-19.65321096
 31
0.0
  0
LINE
  5
13D
330
1D
100
AcDbEntity
  8
1
  6
Continuous
370
    50
100
AcDbLine
 10
16.615523873
 20
-19.65321096
 30
0.0
 11
16.511892583
 21
-19.353814792
 31
0.0
  0
LINE
  5
13E
330
1D
100
AcDbEntity
  8
1
  6
Continuous
370
    50
100
AcDbLine
 10
16.511892583
 20
-19.353814792
 30
0.0
 11
16.419251133
 21
-18.96630928
 31
0.0
  0
LINE
  5
13F
330
1D
100
AcDbEntity
  8
1
  6
Continuous
370
    50
100
AcDbLine
 10
16.419251133
 20
-18.96630928
 30
0.0
 11
16.338246092
 21
-18.493172849
 31
0.0
  0
LINE
  5
140
330
1D
100
AcDbEntity
  8
1
  6
Continuous
370
    50
100
AcDbLine
 10
16.338246092
 20
-18.493172849
 30
0.0
 11
16.271129865
 21
-17.952226937
 31
0.0
  0
LINE
  5
141
330
1D
100
AcDbEntity
  8
1
  6
Continuous
370
    50
100
AcDbLine
 10
16.271129865
 20
-17.952226937
 30
0.0
 11
16.215440268
 21
-17.331808476
 31
0.0
  0
LINE
  5
142
330
1D
100
AcDbEntity
  8
1
  6
Continuous
370
    50
100
AcDbLine
 10
16.215440268
 20
-17.331808476
 30
0.0
 11
16.171470899
 21
-16.636337988
 31
0.0
  0
LINE
  5
143
330
1D
100
AcDbEntity
  8
1
  6
Continuous
370
    50
100
AcDbLine
 10
16.171470899
 20
-16.636337988
 30
0.0
 11
16.139515126
 21
-15.870236229
 31
0.0
  0
LINE
  5
144
330
1D
100
AcDbEntity
  8
1
  6
Continuous
370
    50
100
AcDbLine
 10
16.139515126
 20
-15.870236229
 30
0.0
 11
16.119866316
 21
-15.037923955
 31
0.0
  0
LINE
  5
145
330
1D
100
AcDbEntity
  8
1
  6
Continuous
370
    50
100
AcDbLine
 10
16.119866316
 20
-15.037923955
 30
0.0
 11
16.112667192
 21
-14.117678065
 31
0.0
  0
LINE
  5
146
330
1D
100
AcDbEntity
  8
1
  6
Continuous
370
    50
100
AcDbLine
 10
16.112667192
 20
-14.117678065
 30
0.0
 11
16.1184067
 21
-13.130114317
 31
0.0
  0
LINE
  5
147
330
1D
100
AcDbEntity
  8
1
  6
Continuous
370
    50
100
AcDbLine
 10
16.1184067
 20
-13.130114317
 30
0.0
 11
16.136953989
 21
-12.082351741
 31
0.0
  0
LINE
  5
148
330
1D
100
AcDbEntity
  8
1
  6
Continuous
370
    50
100
AcDbLine
 10
16.136953989
 20
-12.082351741
 30
0.0
 11
16.168179373
 21
-10.981510762
 31
0.0
  0
LINE
  5
149
330
1D
100
AcDbEntity
  8
1
  6
Continuous
370
    50
100
AcDbLine
 10
16.168179373
 20
-10.981510762
 30
0.0
 11
16.211952465
 21
-9.834711809
 31
0.0
  0
LINE
  5
14A
330
1D
100
AcDbEntity
  8
1
  6
Continuous
370
    50
100
AcDbLine
 10
16.211952465
 20
-9.834711809
 30
0.0
 11
16.272060722
 21
-8.569844436
 31
0.0
  0
LINE
  5
14B
330
1D
100
AcDbEntity
  8
1
  6
Continuous
370
    50
100
AcDbLine
 10
16.272060722
 20
-8.569844436
 30
0.0
 11
16.345848944
 21
-7.260159027
 31
0.0
  0
LINE
  5
14C
330
1D
100
AcDbEntity
  8
1
  6
Continuous
370
    50
100
AcDbLine
 10
16.345848944
 20
-7.260159027
 30
0.0
 11
16.432740176
 21
-5.91563936
 31
0.0
  0
LINE
  5
14D
330
1D
100
AcDbEntity
  8
1
  6
Continuous
370
    50
100
AcDbLine
 10
16.432740176
 20
-5.91563936
 30
0.0
 11
16.267703064
 21
-5.038587745
 31
0.0
  0
LINE
  5
14E
330
1D
100
AcDbEntity
  8
1
  6
Continuous
370
    50
100
AcDbLine
 10
16.267703064
 20
-5.038587745
 30
0.0
 11
16.201469265
 21
-4.153314416
 31
0.0
  0
ARC
  5
14F
330
1D
100
AcDbEntity
  8
1
  6
Continuous
370
    50
100
AcDbCircle
 10
24.219044549
 20
-3.99261263
 30
0.0
 40
8.020259821
100
AcDbArc
 50
193.873032446
 51
208.531927911
  0
LINE
  5
150
330
1D
100
AcDbEntity
  8
1
  6
Continuous
370
    50
100
AcDbLine
 10
17.172836615
 20
-7.823476937
 30
0.0
 11
17.125834627
 21
-8.684925173
 31
0.0
  0
LINE
  5
151
330
1D
100
AcDbEntity
  8
1
  6
Continuous
370
    50
100
AcDbLine
 10
17.125834627
 20
-8.684925173
 30
0.0
 11
17.085474599
 21
-9.525366496
 31
0.0
  0
LINE
  5
152
330
1D
100
AcDbEntity
  8
1
  6
Continuous
370
    50
100
AcDbLine
 10
17.085474599
 20
-9.525366496
 30
0.0
 11
17.041702904
 21
-10.626251247
 31
0.0
  0
LINE
  5
153
330
1D
100
AcDbEntity
  8
1
  6
Continuous
370
    50
100
AcDbLine
 10
17.041702904
 20
-10.626251247
 30
0.0
 11
17.010477288
 21
-11.683059294
 31
0.0
  0
LINE
  5
154
330
1D
100
AcDbEntity
  8
1
  6
Continuous
370
    50
100
AcDbLine
 10
17.010477288
 20
-11.683059294
 30
0.0
 11
16.991928602
 21
-12.688951936
 31
0.0
  0
LINE
  5
155
330
1D
100
AcDbEntity
  8
1
  6
Continuous
370
    50
100
AcDbLine
 10
16.991928602
 20
-12.688951936
 30
0.0
 11
16.986188395
 21
-13.637088142
 31
0.0
  0
LINE
  5
156
330
1D
100
AcDbEntity
  8
1
  6
Continuous
370
    50
100
AcDbLine
 10
16.986188395
 20
-13.637088142
 30
0.0
 11
16.993387053
 21
-14.520627815
 31
0.0
  0
LINE
  5
157
330
1D
100
AcDbEntity
  8
1
  6
Continuous
370
    50
100
AcDbLine
 10
16.993387053
 20
-14.520627815
 30
0.0
 11
17.013037959
 21
-15.319814809
 31
0.0
  0
LINE
  5
158
330
1D
100
AcDbEntity
  8
1
  6
Continuous
370
    50
100
AcDbLine
 10
17.013037959
 20
-15.319814809
 30
0.0
 11
17.044996759
 21
-16.055461388
 31
0.0
  0
LINE
  5
159
330
1D
100
AcDbEntity
  8
1
  6
Continuous
370
    50
100
AcDbLine
 10
17.044996759
 20
-16.055461388
 30
0.0
 11
17.088968572
 21
-16.723326311
 31
0.0
  0
LINE
  5
15A
330
1D
100
AcDbEntity
  8
1
  6
Continuous
370
    50
100
AcDbLine
 10
17.088968572
 20
-16.723326311
 30
0.0
 11
17.144658054
 21
-17.319167867
 31
0.0
  0
LINE
  5
15B
330
1D
100
AcDbEntity
  8
1
  6
Continuous
370
    50
100
AcDbLine
 10
17.144658054
 20
-17.319167867
 30
0.0
 11
17.211769973
 21
-17.838745048
 31
0.0
  0
LINE
  5
15C
330
1D
100
AcDbEntity
  8
1
  6
Continuous
370
    50
100
AcDbLine
 10
17.211769973
 20
-17.838745048
 30
0.0
 11
17.291427157
 21
-18.286902361
 31
0.0
  0
LINE
  5
15D
330
1D
100
AcDbEntity
  8
1
  6
Continuous
370
    50
100
AcDbLine
 10
17.291427157
 20
-18.286902361
 30
0.0
 11
17.382360911
 21
-18.655432291
 31
0.0
  0
LINE
  5
15E
330
1D
100
AcDbEntity
  8
1
  6
Continuous
370
    50
100
AcDbLine
 10
17.382360911
 20
-18.655432291
 30
0.0
 11
17.483953536
 21
-18.942060551
 31
0.0
  0
ARC
  5
15F
330
1D
100
AcDbEntity
  8
1
  6
Continuous
370
    50
100
AcDbCircle
 10
16.696638337
 20
-18.8664431
 30
0.0
 40
0.790938191
100
AcDbArc
 50
264.113696905
 51
354.5138719460001
  0
ARC
  5
160
330
1D
100
AcDbEntity
  8
1
  6
Continuous
370
    50
100
AcDbCircle
 10
24.200000004
 20
-4.000000004
 30
0.0
 40
8.0
100
AcDbArc
 50
208.550593874
 51
210.032759118
  0
ARC
  5
161
330
1D
100
AcDbEntity
  8
1
  6
Continuous
370
    50
100
AcDbCircle
 10
77.41742676
 20
-10.527386944
 30
0.0
 40
60.196256095
100
AcDbArc
 50
177.597457572
 51
179.25300976
  0
ARC
  5
162
330
1D
100
AcDbEntity
  8
1
  6
Continuous
370
    50
100
AcDbCircle
 10
27.060838963
 20
-9.870897262
 30
0.0
 40
9.823024903
100
AcDbArc
 50
179.252610435
 51
186.491905721
  0
ARC
  5
163
330
1D
100
AcDbEntity
  8
1
  6
Continuous
370
    50
100
AcDbCircle
 10
20.045152328
 20
-10.669229818
 30
0.0
 40
2.762062233
100
AcDbArc
 50
186.491905721
 51
200.858261683
  0
ARC
  5
164
330
1D
100
AcDbEntity
  8
1
  6
Continuous
370
    50
100
AcDbCircle
 10
17.569295601
 20
-11.612600315
 30
0.0
 40
0.112568993
100
AcDbArc
 50
200.858850832
 51
263.933483482
  0
ARC
  5
165
330
1D
100
AcDbEntity
  8
1
  6
Continuous
370
    50
100
AcDbCircle
 10
17.569295601
 20
-11.612600315
 30
0.0
 40
0.112568993
100
AcDbArc
 50
263.933483482
 51
327.008116132
  0
ARC
  5
166
330
1D
100
AcDbEntity
  8
1
  6
Continuous
370
    50
100
AcDbCircle
 10
15.34702375
 20
-10.16992147
 30
0.0
 40
2.762062233
100
AcDbArc
 50
327.0087052810001
 51
341.375061243
  0
ARC
  5
167
330
1D
100
AcDbEntity
  8
1
  6
Continuous
370
    50
100
AcDbCircle
 10
8.655847303
 20
-7.914849056
 30
0.0
 40
9.823024903
100
AcDbArc
 50
341.375061243
 51
348.614356529
  0
ARC
  5
168
330
1D
100
AcDbEntity
  8
1
  6
Continuous
370
    50
100
AcDbCircle
 10
-40.713868684
 20
2.027386936
 30
0.0
 40
60.183891786
100
AcDbArc
 50
348.613957204
 51
348.982567856
  0
ARC
  5
169
330
1D
100
AcDbEntity
  8
1
  6
Continuous
370
    50
100
AcDbCircle
 10
24.200000004
 20
-4.000000004
 30
0.0
 40
8.0
100
AcDbArc
 50
223.191498489
 51
227.580702563
  0
LINE
  5
16A
330
1D
100
AcDbEntity
  8
1
  6
Continuous
370
    50
100
AcDbLine
 10
18.803591305
 20
-9.905825738
 30
0.0
 11
18.675799107
 21
-11.121686917
 31
0.0
  0
LINE
  5
16B
330
1D
100
AcDbEntity
  8
1
  6
Continuous
370
    50
100
AcDbLine
 10
18.675799107
 20
-11.121686917
 30
0.0
 11
18.524442192
 21
-11.254591305
 31
0.0
  0
LINE
  5
16C
330
1D
100
AcDbEntity
  8
1
  6
Continuous
370
    50
100
AcDbLine
 10
18.524442192
 20
-11.254591305
 30
0.0
 11
18.294500686
 21
-11.230220456
 31
0.0
  0
LINE
  5
16D
330
1D
100
AcDbEntity
  8
1
  6
Continuous
370
    50
100
AcDbLine
 10
18.294500686
 20
-11.230220456
 30
0.0
 11
17.483953536
 21
-18.942060551
 31
0.0
  0
LINE
  5
16E
330
1D
100
AcDbEntity
  8
1
  6
Continuous
370
    50
100
AcDbLine
 10
-1.199999209
 20
11.350732859
 30
0.0
 11
-1.300000902
 21
11.095718112
 31
0.0
  0
ARC
  5
16F
330
1D
100
AcDbEntity
  8
1
  6
Continuous
370
    50
100
AcDbCircle
 10
-0.107455975
 20
10.592189769
 30
0.0
 40
1.294489936
100
AcDbArc
 50
157.109066153
 51
176.858605643
  0
LINE
  5
170
330
1D
100
AcDbEntity
  8
1
  6
Continuous
370
    50
100
AcDbLine
 10
-1.400000732
 20
10.663128089
 30
0.0
 11
-1.400000732
 21
10.153791498
 31
0.0
  0
LINE
  5
171
330
1D
100
AcDbEntity
  8
1
  6
Continuous
370
    50
100
AcDbLine
 10
-1.400000732
 20
10.153791498
 30
0.0
 11
-1.39473876
 21
10.089822676
 31
0.0
  0
LINE
  5
172
330
1D
100
AcDbEntity
  8
1
  6
Continuous
370
    50
100
AcDbLine
 10
-1.39473876
 20
10.089822676
 30
0.0
 11
-1.38640156
 21
10.061801042
 31
0.0
  0
LINE
  5
173
330
1D
100
AcDbEntity
  8
1
  6
Continuous
370
    50
100
AcDbLine
 10
-1.38640156
 20
10.061801042
 30
0.0
 11
-1.371483635
 21
10.040511008
 31
0.0
  0
LINE
  5
174
330
1D
100
AcDbEntity
  8
1
  6
Continuous
370
    50
100
AcDbLine
 10
-1.371483635
 20
10.040511008
 30
0.0
 11
-1.356938239
 21
10.03386509
 31
0.0
  0
LINE
  5
175
330
1D
100
AcDbEntity
  8
1
  6
Continuous
370
    50
100
AcDbLine
 10
-1.356938239
 20
10.03386509
 30
0.0
 11
-1.33917978
 21
10.035709109
 31
0.0
  0
LINE
  5
176
330
1D
100
AcDbEntity
  8
1
  6
Continuous
370
    50
100
AcDbLine
 10
-1.33917978
 20
10.035709109
 30
0.0
 11
-1.321460437
 21
10.044707548
 31
0.0
  0
LINE
  5
177
330
1D
100
AcDbEntity
  8
1
  6
Continuous
370
    50
100
AcDbLine
 10
-1.321460437
 20
10.044707548
 30
0.0
 11
-1.300000902
 21
10.062495809
 31
0.0
  0
LINE
  5
178
330
1D
100
AcDbEntity
  8
1
  6
Continuous
370
    50
100
AcDbLine
 10
-1.300000902
 20
10.062495809
 30
0.0
 11
-1.199999209
 21
10.159982931
 31
0.0
  0
LINE
  5
179
330
1D
100
AcDbEntity
  8
1
  6
Continuous
370
    50
100
AcDbLine
 10
-1.199999209
 20
-10.159983669
 30
0.0
 11
-1.300000902
 21
-10.062496547
 31
0.0
  0
LINE
  5
17A
330
1D
100
AcDbEntity
  8
1
  6
Continuous
370
    50
100
AcDbLine
 10
-1.300000902
 20
-10.062496547
 30
0.0
 11
-1.312657576
 21
-10.051199604
 31
0.0
  0
LINE
  5
17B
330
1D
100
AcDbEntity
  8
1
  6
Continuous
370
    50
100
AcDbLine
 10
-1.312657576
 20
-10.051199604
 30
0.0
 11
-1.337115969
 21
-10.036438141
 31
0.0
  0
LINE
  5
17C
330
1D
100
AcDbEntity
  8
1
  6
Continuous
370
    50
100
AcDbLine
 10
-1.337115969
 20
-10.036438141
 30
0.0
 11
-1.354315635
 21
-10.033565011
 31
0.0
  0
LINE
  5
17D
330
1D
100
AcDbEntity
  8
1
  6
Continuous
370
    50
100
AcDbLine
 10
-1.354315635
 20
-10.033565011
 30
0.0
 11
-1.368890833
 21
-10.038589496
 31
0.0
  0
LINE
  5
17E
330
1D
100
AcDbEntity
  8
1
  6
Continuous
370
    50
100
AcDbLine
 10
-1.368890833
 20
-10.038589496
 30
0.0
 11
-1.383270453
 21
-10.055376586
 31
0.0
  0
LINE
  5
17F
330
1D
100
AcDbEntity
  8
1
  6
Continuous
370
    50
100
AcDbLine
 10
-1.383270453
 20
-10.055376586
 30
0.0
 11
-1.39611898
 21
-10.097558048
 31
0.0
  0
LINE
  5
180
330
1D
100
AcDbEntity
  8
1
  6
Continuous
370
    50
100
AcDbLine
 10
-1.39611898
 20
-10.097558048
 30
0.0
 11
-1.400000732
 21
-10.153792236
 31
0.0
  0
LINE
  5
181
330
1D
100
AcDbEntity
  8
1
  6
Continuous
370
    50
100
AcDbLine
 10
-1.400000732
 20
-10.153792236
 30
0.0
 11
-1.400000732
 21
-10.663126964
 31
0.0
  0
ARC
  5
182
330
1D
100
AcDbEntity
  8
1
  6
Continuous
370
    50
100
AcDbCircle
 10
-0.067201877
 20
-10.582883291
 30
0.0
 40
1.335212281
100
AcDbArc
 50
183.445441567
 51
202.58688664
  0
LINE
  5
183
330
1D
100
AcDbEntity
  8
1
  6
Continuous
370
    50
100
AcDbLine
 10
-1.300000902
 20
-11.095716987
 30
0.0
 11
-1.199999209
 21
-11.350733597
 31
0.0
  0
LINE
  5
184
330
1D
100
AcDbEntity
  8
1
  6
Continuous
370
    50
100
AcDbLine
 10
-1.199999209
 20
-13.423694201
 30
0.0
 11
-1.300000902
 21
-13.339244664
 31
0.0
  0
LINE
  5
185
330
1D
100
AcDbEntity
  8
1
  6
Continuous
370
    50
100
AcDbLine
 10
-1.300000902
 20
-13.339244664
 30
0.0
 11
-1.320435982
 21
-13.323814046
 31
0.0
  0
LINE
  5
186
330
1D
100
AcDbEntity
  8
1
  6
Continuous
370
    50
100
AcDbLine
 10
-1.320435982
 20
-13.323814046
 30
0.0
 11
-1.350858565
 21
-13.309520107
 31
0.0
  0
LINE
  5
187
330
1D
100
AcDbEntity
  8
1
  6
Continuous
370
    50
100
AcDbLine
 10
-1.350858565
 20
-13.309520107
 30
0.0
 11
-1.373623814
 21
-13.310210683
 31
0.0
  0
LINE
  5
188
330
1D
100
AcDbEntity
  8
1
  6
Continuous
370
    50
100
AcDbLine
 10
-1.373623814
 20
-13.310210683
 30
0.0
 11
-1.387047898
 21
-13.32066245
 31
0.0
  0
LINE
  5
189
330
1D
100
AcDbEntity
  8
1
  6
Continuous
370
    50
100
AcDbLine
 10
-1.387047898
 20
-13.32066245
 30
0.0
 11
-1.398037504
 21
-13.349624254
 31
0.0
  0
LINE
  5
18A
330
1D
100
AcDbEntity
  8
1
  6
Continuous
370
    50
100
AcDbLine
 10
-1.398037504
 20
-13.349624254
 30
0.0
 11
-1.400000732
 21
-13.375915025
 31
0.0
  0
LINE
  5
18B
330
1D
100
AcDbEntity
  8
1
  6
Continuous
370
    50
100
AcDbLine
 10
-1.400000732
 20
-13.375915025
 30
0.0
 11
-1.400000732
 21
-13.70717622
 31
0.0
  0
ARC
  5
18C
330
1D
100
AcDbEntity
  8
1
  6
Continuous
370
    50
100
AcDbCircle
 10
-0.627078282
 20
-13.62682863
 30
0.0
 40
0.777087414
100
AcDbArc
 50
185.934750722
 51
210.008083162
  0
LINE
  5
18D
330
1D
100
AcDbEntity
  8
1
  6
Continuous
370
    50
100
AcDbLine
 10
-1.300000902
 20
-14.015467275
 30
0.0
 11
-1.199999209
 21
-14.208056402
 31
0.0
  0
LINE
  5
18E
330
1D
100
AcDbEntity
  8
1
  6
Continuous
370
    50
100
AcDbLine
 10
-1.199999209
 20
14.208056595
 30
0.0
 11
-1.300000902
 21
14.015466537
 31
0.0
  0
ARC
  5
18F
330
1D
100
AcDbEntity
  8
1
  6
Continuous
370
    50
100
AcDbCircle
 10
-0.747751799
 20
13.665970425
 30
0.0
 40
0.653549236
100
AcDbArc
 50
147.67193561
 51
176.385128914
  0
LINE
  5
190
330
1D
100
AcDbEntity
  8
1
  6
Continuous
370
    50
100
AcDbLine
 10
-1.400000732
 20
13.707176413
 30
0.0
 11
-1.400000732
 21
13.375916149
 31
0.0
  0
LINE
  5
191
330
1D
100
AcDbEntity
  8
1
  6
Continuous
370
    50
100
AcDbLine
 10
-1.400000732
 20
13.375916149
 30
0.0
 11
-1.396210249
 21
13.340976652
 31
0.0
  0
LINE
  5
192
330
1D
100
AcDbEntity
  8
1
  6
Continuous
370
    50
100
AcDbLine
 10
-1.396210249
 20
13.340976652
 30
0.0
 11
-1.38543671
 21
13.318673339
 31
0.0
  0
LINE
  5
193
330
1D
100
AcDbEntity
  8
1
  6
Continuous
370
    50
100
AcDbLine
 10
-1.38543671
 20
13.318673339
 30
0.0
 11
-1.369568836
 21
13.308961507
 31
0.0
  0
LINE
  5
194
330
1D
100
AcDbEntity
  8
1
  6
Continuous
370
    50
100
AcDbLine
 10
-1.369568836
 20
13.308961507
 30
0.0
 11
-1.347531881
 21
13.310421821
 31
0.0
  0
LINE
  5
195
330
1D
100
AcDbEntity
  8
1
  6
Continuous
370
    50
100
AcDbLine
 10
-1.347531881
 20
13.310421821
 30
0.0
 11
-1.324619483
 21
13.321154382
 31
0.0
  0
LINE
  5
196
330
1D
100
AcDbEntity
  8
1
  6
Continuous
370
    50
100
AcDbLine
 10
-1.324619483
 20
13.321154382
 30
0.0
 11
-1.300000902
 21
13.339244392
 31
0.0
  0
LINE
  5
197
330
1D
100
AcDbEntity
  8
1
  6
Continuous
370
    50
100
AcDbLine
 10
-1.300000902
 20
13.339244392
 30
0.0
 11
-1.199999209
 21
13.423692997
 31
0.0
  0
LINE
  5
198
330
1D
100
AcDbEntity
  8
1
  6
Continuous
370
    50
100
AcDbLine
 10
-1.199999209
 20
16.198721345
 30
0.0
 11
-1.300000902
 21
16.039066579
 31
0.0
  0
ARC
  5
199
330
1D
100
AcDbEntity
  8
1
  6
Continuous
370
    50
100
AcDbCircle
 10
-0.907658094
 20
15.735086373
 30
0.0
 40
0.496323327
100
AcDbArc
 50
142.23211451
 51
172.738521117
  0
LINE
  5
19A
330
1D
100
AcDbEntity
  8
1
  6
Continuous
370
    50
100
AcDbLine
 10
-1.400000732
 20
15.797820505
 30
0.0
 11
-1.400000732
 21
15.563760515
 31
0.0
  0
LINE
  5
19B
330
1D
100
AcDbEntity
  8
1
  6
Continuous
370
    50
100
AcDbLine
 10
-1.400000732
 20
15.563760515
 30
0.0
 11
-1.397704091
 21
15.544407632
 31
0.0
  0
LINE
  5
19C
330
1D
100
AcDbEntity
  8
1
  6
Continuous
370
    50
100
AcDbLine
 10
-1.397704091
 20
15.544407632
 30
0.0
 11
-1.386684682
 21
15.527453836
 31
0.0
  0
LINE
  5
19D
330
1D
100
AcDbEntity
  8
1
  6
Continuous
370
    50
100
AcDbLine
 10
-1.386684682
 20
15.527453836
 30
0.0
 11
-1.369242873
 21
15.523367192
 31
0.0
  0
LINE
  5
19E
330
1D
100
AcDbEntity
  8
1
  6
Continuous
370
    50
100
AcDbLine
 10
-1.369242873
 20
15.523367192
 30
0.0
 11
-1.345631983
 21
15.530113693
 31
0.0
  0
LINE
  5
19F
330
1D
100
AcDbEntity
  8
1
  6
Continuous
370
    50
100
AcDbLine
 10
-1.345631983
 20
15.530113693
 30
0.0
 11
-1.311178636
 21
15.551351573
 31
0.0
  0
LINE
  5
1A0
330
1D
100
AcDbEntity
  8
1
  6
Continuous
370
    50
100
AcDbLine
 10
-1.311178636
 20
15.551351573
 30
0.0
 11
-1.300000902
 21
15.560113456
 31
0.0
  0
LINE
  5
1A1
330
1D
100
AcDbEntity
  8
1
  6
Continuous
370
    50
100
AcDbLine
 10
-1.300000902
 20
15.560113456
 30
0.0
 11
-1.199999209
 21
15.641797896
 31
0.0
  0
LINE
  5
1A2
330
1D
100
AcDbEntity
  8
1
  6
Continuous
370
    50
100
AcDbLine
 10
-1.199999209
 20
-15.641798634
 30
0.0
 11
-1.300000902
 21
-15.560111866
 31
0.0
  0
LINE
  5
1A3
330
1D
100
AcDbEntity
  8
1
  6
Continuous
370
    50
100
AcDbLine
 10
-1.300000902
 20
-15.560111866
 30
0.0
 11
-1.32689191
 21
-15.54044373
 31
0.0
  0
LINE
  5
1A4
330
1D
100
AcDbEntity
  8
1
  6
Continuous
370
    50
100
AcDbLine
 10
-1.32689191
 20
-15.54044373
 30
0.0
 11
-1.356355231
 21
-15.525947228
 31
0.0
  0
LINE
  5
1A5
330
1D
100
AcDbEntity
  8
1
  6
Continuous
370
    50
100
AcDbLine
 10
-1.356355231
 20
-15.525947228
 30
0.0
 11
-1.380128171
 21
-15.524390522
 31
0.0
  0
LINE
  5
1A6
330
1D
100
AcDbEntity
  8
1
  6
Continuous
370
    50
100
AcDbLine
 10
-1.380128171
 20
-15.524390522
 30
0.0
 11
-1.393183451
 21
-15.534138676
 31
0.0
  0
LINE
  5
1A7
330
1D
100
AcDbEntity
  8
1
  6
Continuous
370
    50
100
AcDbLine
 10
-1.393183451
 20
-15.534138676
 30
0.0
 11
-1.400000732
 21
-15.563762184
 31
0.0
  0
LINE
  5
1A8
330
1D
100
AcDbEntity
  8
1
  6
Continuous
370
    50
100
AcDbLine
 10
-1.400000732
 20
-15.563762184
 30
0.0
 11
-1.400000732
 21
-15.797818914
 31
0.0
  0
ARC
  5
1A9
330
1D
100
AcDbEntity
  8
1
  6
Continuous
370
    50
100
AcDbCircle
 10
-0.861010728
 20
-15.715752549
 30
0.0
 40
0.545201901
100
AcDbArc
 50
188.657336194
 51
216.371558726
  0
LINE
  5
1AA
330
1D
100
AcDbEntity
  8
1
  6
Continuous
370
    50
100
AcDbLine
 10
-1.300000902
 20
-16.039067783
 30
0.0
 11
-1.199999209
 21
-16.198721152
 31
0.0
  0
LINE
  5
1AB
330
1D
100
AcDbEntity
  8
1
  6
Continuous
370
    50
100
AcDbLine
 10
-1.199999209
 20
-17.223128952
 30
0.0
 11
-1.300000902
 21
-17.140557194
 31
0.0
  0
LINE
  5
1AC
330
1D
100
AcDbEntity
  8
1
  6
Continuous
370
    50
100
AcDbLine
 10
-1.300000902
 20
-17.140557194
 30
0.0
 11
-1.332524549
 21
-17.116155146
 31
0.0
  0
LINE
  5
1AD
330
1D
100
AcDbEntity
  8
1
  6
Continuous
370
    50
100
AcDbLine
 10
-1.332524549
 20
-17.116155146
 30
0.0
 11
-1.363433283
 21
-17.099438604
 31
0.0
  0
LINE
  5
1AE
330
1D
100
AcDbEntity
  8
1
  6
Continuous
370
    50
100
AcDbLine
 10
-1.363433283
 20
-17.099438604
 30
0.0
 11
-1.38672566
 21
-17.096096087
 31
0.0
  0
LINE
  5
1AF
330
1D
100
AcDbEntity
  8
1
  6
Continuous
370
    50
100
AcDbLine
 10
-1.38672566
 20
-17.096096087
 30
0.0
 11
-1.39756253
 21
-17.10510058
 31
0.0
  0
LINE
  5
1B0
330
1D
100
AcDbEntity
  8
1
  6
Continuous
370
    50
100
AcDbLine
 10
-1.39756253
 20
-17.10510058
 30
0.0
 11
-1.400000732
 21
-17.118594978
 31
0.0
  0
LINE
  5
1B1
330
1D
100
AcDbEntity
  8
1
  6
Continuous
370
    50
100
AcDbLine
 10
-1.400000732
 20
-17.118594978
 30
0.0
 11
-1.400000732
 21
-17.284544787
 31
0.0
  0
ARC
  5
1B2
330
1D
100
AcDbEntity
  8
1
  6
Continuous
370
    50
100
AcDbCircle
 10
-0.989254603
 20
-17.198516508
 30
0.0
 40
0.419658489
100
AcDbArc
 50
191.829260228
 51
222.228171101
  0
LINE
  5
1B3
330
1D
100
AcDbEntity
  8
1
  6
Continuous
370
    50
100
AcDbLine
 10
-1.300000902
 20
-17.480562577
 30
0.0
 11
-1.199999209
 21
-17.618974574
 31
0.0
  0
LINE
  5
1B4
330
1D
100
AcDbEntity
  8
1
  6
Continuous
370
    50
100
AcDbLine
 10
-1.199999209
 20
18.599946614
 30
0.0
 11
-1.300000902
 21
18.47669911
 31
0.0
  0
ARC
  5
1B5
330
1D
100
AcDbEntity
  8
1
  6
Continuous
370
    50
100
AcDbCircle
 10
-1.070204277
 20
18.222804407
 30
0.0
 40
0.34244563
100
AcDbArc
 50
132.14781436
 51
164.378638911
  0
LINE
  5
1B6
330
1D
100
AcDbEntity
  8
1
  6
Continuous
370
    50
100
AcDbLine
 10
-1.400000732
 20
18.315017786
 30
0.0
 11
-1.397931333
 21
18.19540989
 31
0.0
  0
LINE
  5
1B7
330
1D
100
AcDbEntity
  8
1
  6
Continuous
370
    50
100
AcDbLine
 10
-1.397931333
 20
18.19540989
 30
0.0
 11
-1.385125648
 21
18.192299273
 31
0.0
  0
LINE
  5
1B8
330
1D
100
AcDbEntity
  8
1
  6
Continuous
370
    50
100
AcDbLine
 10
-1.385125648
 20
18.192299273
 30
0.0
 11
-1.363654937
 21
18.201053705
 31
0.0
  0
LINE
  5
1B9
330
1D
100
AcDbEntity
  8
1
  6
Continuous
370
    50
100
AcDbLine
 10
-1.363654937
 20
18.201053705
 30
0.0
 11
-1.334834229
 21
18.219911124
 31
0.0
  0
LINE
  5
1BA
330
1D
100
AcDbEntity
  8
1
  6
Continuous
370
    50
100
AcDbLine
 10
-1.334834229
 20
18.219911124
 30
0.0
 11
-1.300000902
 21
18.247750219
 31
0.0
  0
LINE
  5
1BB
330
1D
100
AcDbEntity
  8
1
  6
Continuous
370
    50
100
AcDbLine
 10
-1.300000902
 20
18.247750219
 30
0.0
 11
-1.199999209
 21
18.333208378
 31
0.0
  0
LINE
  5
1BC
330
1D
100
AcDbEntity
  8
1
  6
Continuous
370
    50
100
AcDbLine
 10
-1.199999209
 20
-18.333206788
 30
0.0
 11
-1.300000902
 21
-18.247748396
 31
0.0
  0
LINE
  5
1BD
330
1D
100
AcDbEntity
  8
1
  6
Continuous
370
    50
100
AcDbLine
 10
-1.300000902
 20
-18.247748396
 30
0.0
 11
-1.337654274
 21
-18.217856201
 31
0.0
  0
LINE
  5
1BE
330
1D
100
AcDbEntity
  8
1
  6
Continuous
370
    50
100
AcDbLine
 10
-1.337654274
 20
-18.217856201
 30
0.0
 11
-1.369322967
 21
-18.198087249
 31
0.0
  0
LINE
  5
1BF
330
1D
100
AcDbEntity
  8
1
  6
Continuous
370
    50
100
AcDbLine
 10
-1.369322967
 20
-18.198087249
 30
0.0
 11
-1.391559224
 21
-18.191951463
 31
0.0
  0
LINE
  5
1C0
330
1D
100
AcDbEntity
  8
1
  6
Continuous
370
    50
100
AcDbLine
 10
-1.391559224
 20
-18.191951463
 30
0.0
 11
-1.400000732
 21
-18.203348523
 31
0.0
  0
LINE
  5
1C1
330
1D
100
AcDbEntity
  8
1
  6
Continuous
370
    50
100
AcDbLine
 10
-1.400000732
 20
-18.203348523
 30
0.0
 11
-1.400000732
 21
-18.315018058
 31
0.0
  0
ARC
  5
1C2
330
1D
100
AcDbEntity
  8
1
  6
Continuous
370
    50
100
AcDbCircle
 10
-0.963088989
 20
-18.156555302
 30
0.0
 40
0.464760494
100
AcDbArc
 50
199.935113303
 51
223.53821196
  0
LINE
  5
1C3
330
1D
100
AcDbEntity
  8
1
  6
Continuous
370
    50
100
AcDbLine
 10
-1.300000902
 20
-18.476700081
 30
0.0
 11
-1.199999209
 21
-18.599945257
 31
0.0
  0
ARC
  5
1C4
330
1D
100
AcDbEntity
  8
1
  6
Continuous
370
    50
100
AcDbCircle
 10
24.189055505
 20
-4.00862664
 30
0.0
 40
7.986116623
100
AcDbArc
 50
206.851177142
 51
223.200120124
  0
LINE
  5
1C5
330
1D
100
AcDbEntity
  8
1
  6
Continuous
370
    50
100
AcDbLine
 10
-1.199999209
 20
19.209050205
 30
0.0
 11
-1.300000902
 21
19.097298946
 31
0.0
  0
ARC
  5
1C6
330
1D
100
AcDbEntity
  8
1
  6
Continuous
370
    50
100
AcDbCircle
 10
-1.009272944
 20
18.775374381
 30
0.0
 40
0.433772027
100
AcDbArc
 50
132.084984826
 51
154.259149292
  0
LINE
  5
1C7
330
1D
100
AcDbEntity
  8
1
  6
Continuous
370
    50
100
AcDbLine
 10
-1.400000732
 20
18.96376219
 30
0.0
 11
-1.400000732
 21
18.899139579
 31
0.0
  0
ARC
  5
1C8
330
1D
100
AcDbEntity
  8
1
  6
Continuous
370
    50
100
AcDbCircle
 10
-1.438355558
 20
19.066599652
 30
0.0
 40
0.171796299
100
AcDbArc
 50
282.900438533
 51
323.643229651
  0
LINE
  5
1C9
330
1D
100
AcDbEntity
  8
1
  6
Continuous
370
    50
100
AcDbLine
 10
-1.300000902
 20
18.964756843
 30
0.0
 11
-1.199999209
 21
19.054573592
 31
0.0
  0
LINE
  5
1CA
330
1D
100
AcDbEntity
  8
1
  6
Continuous
370
    50
100
AcDbLine
 10
-1.199999209
 20
-19.054573398
 30
0.0
 11
-1.300000902
 21
-18.964755485
 31
0.0
  0
LINE
  5
1CB
330
1D
100
AcDbEntity
  8
1
  6
Continuous
370
    50
100
AcDbLine
 10
-1.300000902
 20
-18.964755485
 30
0.0
 11
-1.34248225
 21
-18.928360796
 31
0.0
  0
LINE
  5
1CC
330
1D
100
AcDbEntity
  8
1
  6
Continuous
370
    50
100
AcDbLine
 10
-1.34248225
 20
-18.928360796
 30
0.0
 11
-1.374378185
 21
-18.904789603
 31
0.0
  0
LINE
  5
1CD
330
1D
100
AcDbEntity
  8
1
  6
Continuous
370
    50
100
AcDbLine
 10
-1.374378185
 20
-18.904789603
 30
0.0
 11
-1.400000732
 21
-18.899139968
 31
0.0
  0
LINE
  5
1CE
330
1D
100
AcDbEntity
  8
1
  6
Continuous
370
    50
100
AcDbLine
 10
-1.400000732
 20
-18.899139968
 30
0.0
 11
-1.400000732
 21
-18.963762579
 31
0.0
  0
ARC
  5
1CF
330
1D
100
AcDbEntity
  8
1
  6
Continuous
370
    50
100
AcDbCircle
 10
-0.981133638
 20
-18.75430128
 30
0.0
 40
0.46832006
100
AcDbArc
 50
206.56808798
 51
227.087969624
  0
LINE
  5
1D0
330
1D
100
AcDbEntity
  8
1
  6
Continuous
370
    50
100
AcDbLine
 10
-1.300000902
 20
-19.097298869
 30
0.0
 11
-1.199999209
 21
-19.209051641
 31
0.0
  0
LINE
  5
1D1
330
1D
100
AcDbEntity
  8
1
  6
Continuous
370
    50
100
AcDbLine
 10
-1.199999209
 20
19.481205012
 30
0.0
 11
-1.300000902
 21
19.378472682
 31
0.0
  0
ARC
  5
1D2
330
1D
100
AcDbEntity
  8
1
  6
Continuous
370
    50
100
AcDbCircle
 10
-0.669754647
 20
18.700430149
 30
0.0
 40
0.925717029
100
AcDbArc
 50
132.907719135
 51
142.07758829
  0
LINE
  5
1D3
330
1D
100
AcDbEntity
  8
1
  6
Continuous
370
    50
100
AcDbLine
 10
-1.400000732
 20
19.269370105
 30
0.0
 11
-1.400000732
 21
19.248195555
 31
0.0
  0
ARC
  5
1D4
330
1D
100
AcDbEntity
  8
1
  6
Continuous
370
    50
100
AcDbCircle
 10
-1.799220252
 20
19.808908881
 30
0.0
 40
0.688313635
100
AcDbArc
 50
305.450298629
 51
316.492053299
  0
LINE
  5
1D5
330
1D
100
AcDbEntity
  8
1
  6
Continuous
370
    50
100
AcDbLine
 10
-1.300000902
 20
19.335035797
 30
0.0
 11
-1.199999209
 21
19.430570867
 31
0.0
  0
LINE
  5
1D6
330
1D
100
AcDbEntity
  8
1
  6
Continuous
370
    50
100
AcDbLine
 10
-1.199999209
 20
-19.43057044
 30
0.0
 11
-1.300000902
 21
-19.335034905
 31
0.0
  0
ARC
  5
1D7
330
1D
100
AcDbEntity
  8
1
  6
Continuous
370
    50
100
AcDbCircle
 10
-1.623784545
 20
-19.606897221
 30
0.0
 40
0.42278241
100
AcDbArc
 50
40.0182279
 51
58.04101725
  0
LINE
  5
1D8
330
1D
100
AcDbEntity
  8
1
  6
Continuous
370
    50
100
AcDbLine
 10
-1.400000732
 20
-19.248197108
 30
0.0
 11
-1.400000732
 21
-19.269371891
 31
0.0
  0
ARC
  5
1D9
330
1D
100
AcDbEntity
  8
1
  6
Continuous
370
    50
100
AcDbCircle
 10
-0.646330344
 20
-18.678949301
 30
0.0
 40
0.957401634
100
AcDbArc
 50
218.075017428
 51
226.940710533
  0
LINE
  5
1DA
330
1D
100
AcDbEntity
  8
1
  6
Continuous
370
    50
100
AcDbLine
 10
-1.300000902
 20
-19.378472488
 30
0.0
 11
-1.199999209
 21
-19.481205518
 31
0.0
  0
LINE
  5
1DB
330
1D
100
AcDbEntity
  8
1
  6
Continuous
370
    50
100
AcDbLine
 10
9.397343416
 20
-19.170098958
 30
0.0
 11
9.45735598
 21
-19.182445035
 31
0.0
  0
LINE
  5
1DC
330
1D
100
AcDbEntity
  8
CUT
100
AcDbLine
 10
9.45735598
 20
-19.182445035
 30
0.0
 11
17.338942049
 21
-20.010833137
 31
0.0
  0
ARC
  5
1DD
330
1D
100
AcDbEntity
  8
CUT
100
AcDbCircle
 10
17.371611929
 20
-19.7
 30
0.0
 40
0.312545293
100
AcDbArc
 50
264.0
 51
353.999997684
  0
LINE
  5
1DE
330
1D
100
AcDbEntity
  8
CUT
100
AcDbLine
 10
17.682445036
 20
-19.732669889
 30
0.0
 11
18.510833137
 21
-11.851083858
 31
0.0
  0
ARC
  5
1DF
330
1D
100
AcDbEntity
  8
CUT
100
AcDbCircle
 10
18.2
 20
-11.818413979
 30
0.0
 40
0.312545293
100
AcDbArc
 50
354.0
 51
78.031312885
  0
ARC
  5
1E0
330
1D
100
AcDbEntity
  8
CUT
100
AcDbCircle
 10
9.490025908
 20
-18.871611929
 30
0.0
 40
0.8
100
AcDbArc
 50
215.589696985
 51
264.000013278
  0
LINE
  5
1E1
330
1D
100
AcDbEntity
  8
CUT
100
AcDbLine
 10
9.406403322
 20
-19.66722946
 30
0.0
 11
17.287989158
 21
-20.495617516
 31
0.0
  0
ARC
  5
1E2
330
1D
100
AcDbEntity
  8
CUT
100
AcDbCircle
 10
17.371611929
 20
-19.7
 30
0.0
 40
0.8
100
AcDbArc
 50
264.0
 51
353.9999994749999
  0
LINE
  5
1E3
330
1D
100
AcDbEntity
  8
CUT
100
AcDbLine
 10
18.16722946
 20
-19.78362278
 30
0.0
 11
18.995617516
 21
-11.90203675
 31
0.0
  0
ARC
  5
1E4
330
1D
100
AcDbEntity
  8
CUT
100
AcDbCircle
 10
18.2
 20
-11.818413979
 30
0.0
 40
0.8
100
AcDbArc
 50
354.0
 51
56.474588264
  0
LINE
  5
1E5
330
1D
100
AcDbEntity
  8
1
  6
Continuous
370
    50
100
AcDbLine
 10
6.90000007
 20
5.356072079
 30
0.0
 11
6.90000007
 21
-5.356070954
 31
0.0
  0
LINE
  5
1E6
330
1D
100
AcDbEntity
  8
1
  6
Continuous
370
    50
100
AcDbLine
 10
16.423588069
 20
-5.867002901
 30
0.0
 11
16.499805181
 21
-6.15917835
 31
0.0
  0
LINE
  5
1E7
330
1D
100
AcDbEntity
  8
1
  6
Continuous
370
    50
100
AcDbLine
 10
-1.400000732
 20
10.153791498
 30
0.0
 11
-1.400000732
 21
-10.153792236
 31
0.0
  0
LINE
  5
1E8
330
1D
100
AcDbEntity
  8
1
  6
Continuous
370
    50
100
AcDbLine
 10
-1.400000732
 20
-10.663126964
 30
0.0
 11
-1.400000732
 21
-13.375915025
 31
0.0
  0
LINE
  5
1E9
330
1D
100
AcDbEntity
  8
1
  6
Continuous
370
    50
100
AcDbLine
 10
-1.400000732
 20
13.375916149
 30
0.0
 11
-1.400000732
 21
10.663128089
 31
0.0
  0
LINE
  5
1EA
330
1D
100
AcDbEntity
  8
1
  6
Continuous
370
    50
100
AcDbLine
 10
-1.400000732
 20
-13.70717622
 30
0.0
 11
-1.400000732
 21
-15.563762184
 31
0.0
  0
LINE
  5
1EB
330
1D
100
AcDbEntity
  8
1
  6
Continuous
370
    50
100
AcDbLine
 10
-1.400000732
 20
15.563760515
 30
0.0
 11
-1.400000732
 21
13.707176413
 31
0.0
  0
LINE
  5
1EC
330
1D
100
AcDbEntity
  8
1
  6
Continuous
370
    50
100
AcDbLine
 10
-1.400000732
 20
-15.797818914
 30
0.0
 11
-1.400000732
 21
-17.118594978
 31
0.0
  0
LINE
  5
1ED
330
1D
100
AcDbEntity
  8
1
  6
Continuous
370
    50
100
AcDbLine
 10
-1.400000732
 20
18.203348484
 30
0.0
 11
-1.400000732
 21
15.797820505
 31
0.0
  0
LINE
  5
1EE
330
1D
100
AcDbEntity
  8
1
  6
Continuous
370
    50
100
AcDbLine
 10
-1.400000732
 20
-17.284544787
 30
0.0
 11
-1.400000732
 21
-18.203348523
 31
0.0
  0
LINE
  5
1EF
330
1D
100
AcDbEntity
  8
1
  6
Continuous
370
    50
100
AcDbLine
 10
-1.400000732
 20
-18.315018058
 30
0.0
 11
-1.400000732
 21
-18.899139968
 31
0.0
  0
LINE
  5
1F0
330
1D
100
AcDbEntity
  8
1
  6
Continuous
370
    50
100
AcDbLine
 10
-1.400000732
 20
18.899139579
 30
0.0
 11
-1.400000732
 21
18.315017786
 31
0.0
  0
LINE
  5
1F1
330
1D
100
AcDbEntity
  8
1
  6
Continuous
370
    50
100
AcDbLine
 10
-1.400000732
 20
-18.963762579
 30
0.0
 11
-1.400000732
 21
-19.248197108
 31
0.0
  0
LINE
  5
1F2
330
1D
100
AcDbEntity
  8
1
  6
Continuous
370
    50
100
AcDbLine
 10
-1.400000732
 20
19.248195555
 30
0.0
 11
-1.400000732
 21
18.96376219
 31
0.0
  0
LINE
  5
1F3
330
1D
100
AcDbEntity
  8
CUT
100
AcDbLine
 10
18.510833124
 20
-11.851083856
 30
0.0
 11
18.995617516
 21
-11.902036514
 31
0.0
  0
LINE
  5
1F4
330
1D
100
AcDbEntity
  8
CUT
100
AcDbLine
 10
17.682445036
 20
-19.732669889
 30
0.0
 11
18.16722946
 21
-19.78362278
 31
0.0
  0
LINE
  5
1F5
330
1D
100
AcDbEntity
  8
CUT
100
AcDbLine
 10
17.338942071
 20
-20.010833124
 30
0.0
 11
17.28798918
 21
-20.495617516
 31
0.0
  0
LINE
  5
1F6
330
1D
100
AcDbEntity
  8
CUT
100
AcDbLine
 10
9.45735598
 20
-19.182445035
 30
0.0
 11
9.406403322
 21
-19.66722946
 31
0.0
  0
LINE
  5
1F7
330
1D
100
AcDbEntity
  8
1
  6
Continuous
370
    50
100
AcDbLine
 10
11.968713403
 20
0.000000562
 30
0.0
 11
16.200000104
 21
0.000000562
 31
0.0
  0
LINE
  5
293
330
1D
100
AcDbEntity
  8
1
100
AcDbLine
 10
9.294299371
 20
13.063004888
 30
0.0
 11
8.683874149
 21
18.864734263
 31
0.0
  0
LINE
  5
294
330
1D
100
AcDbEntity
  8
1
100
AcDbLine
 10
8.683874149
 20
18.864734263
 30
0.0
 11
8.683874149
 21
19.499742057
 31
0.0
  0
LINE
  5
295
330
1D
100
AcDbEntity
  8
1
100
AcDbLine
 10
12.555527463
 20
10.416420824
 30
0.0
 11
18.2843170459471
 21
11.02359564627864
 31
0.0
  0
LINE
  5
296
330
1D
100
AcDbEntity
  8
1
100
AcDbLine
 10
18.2843170459471
 20
11.02359564627864
 30
0.0
 11
18.68270974724501
 21
11.02359564627864
 31
0.0
  0
LINE
  5
29D
330
1D
100
AcDbEntity
  8
CUT
100
AcDbLine
 10
10.4034569309471
 20
10.18832991027864
 30
0.0
 11
18.2843170459471
 21
11.02359564627864
 31
0.0
  0
LINE
  5
29E
330
1D
100
AcDbEntity
  8
CUT
100
AcDbLine
 10
9.523595646278636
 20
10.8995571030529
 30
0.0
 11
8.683874149
 21
18.864734263
 31
0.0
  0
CIRCLE
  5
29F
330
1D
100
AcDbEntity
  8
CUT
100
AcDbCircle
 10
13.659488421
 20
15.116631751
 30
0.0
 40
2.649999999999999
  0
LINE
  5
2A1
330
1D
100
AcDbEntity
  8
1
100
AcDbLine
 10
18.637612075
 20
11.14944154
 30
0.0
 11
17.69877526880406
 21
19.6799838087089
 31
0.0
  0
LINE
  5
2A2
330
1D
100
AcDbEntity
  8
1
100
AcDbLine
 10
17.69877526880406
 20
19.6799838087089
 30
0.0
 11
17.24581040789631
 21
20.17412729333555
 31
0.0
  0
LINE
  5
2A3
330
1D
100
AcDbEntity
  8
1
100
AcDbLine
 10
17.24581040789631
 20
20.17412729333555
 30
0.0
 11
9.790738655482485
 21
19.3905638605
 31
0.0
  0
LINE
  5
2A4
330
1D
100
AcDbEntity
  8
1
100
AcDbLine
 10
9.790738655482485
 20
19.3905638605
 30
0.0
 11
8.830452958999999
 21
19.33510232917279
 31
0.0
  0
LINE
  5
2BA
330
1D
100
AcDbEntity
  8
NOCUT
100
AcDbLine
 10
16.196924124
 20
3.996924213360857
 30
0.0
 11
16.196924124
 21
0.0346625276492887
 31
0.0
  0
LINE
  5
2BB
330
1D
100
AcDbEntity
  8
NOCUT
100
AcDbLine
 10
16.196924124
 20
0.0346625276492887
 30
0.0
 11
-1.374165619530732
 21
0.0346625276492908
 31
0.0
  0
LINE
  5
2BC
330
1D
100
AcDbEntity
  8
NOCUT
100
AcDbLine
 10
-1.374165619530732
 20
0.0346625276492908
 30
0.0
 11
-1.400000732
 21
19.269370105
 31
0.0
  0
LINE
  5
2BD
330
1D
100
AcDbEntity
  8
NOCUT
100
AcDbLine
 10
-1.400000732
 20
19.269370105
 30
0.0
 11
-1.19999999527453
 21
19.48120546512896
 31
0.0
  0
LINE
  5
2BE
330
1D
100
AcDbEntity
  8
NOCUT
100
AcDbLine
 10
-1.19999999527453
 20
19.48120546512896
 30
0.0
 11
8.65888554
 21
19.499742057
 31
0.0
  0
LINE
  5
2BF
330
1D
100
AcDbEntity
  8
NOCUT
100
AcDbLine
 10
8.65888554
 20
19.499742057
 30
0.0
 11
8.683874149
 21
19.48571855536911
 31
0.0
  0
LINE
  5
2C0
330
1D
100
AcDbEntity
  8
NOCUT
100
AcDbLine
 10
8.683874149
 20
19.48571855536911
 30
0.0
 11
8.744473928197914
 21
19.47713401596593
 31
0.0
  0
LINE
  5
2C1
330
1D
100
AcDbEntity
  8
NOCUT
100
AcDbLine
 10
8.744473928197914
 20
19.47713401596593
 30
0.0
 11
8.824563002
 21
19.446602785
 31
0.0
  0
LINE
  5
2C2
330
1D
100
AcDbEntity
  8
NOCUT
100
AcDbLine
 10
8.824563002
 20
19.446602785
 30
0.0
 11
8.837038845099212
 21
19.33548269860821
 31
0.0
  0
LINE
  5
2C3
330
1D
100
AcDbEntity
  8
NOCUT
100
AcDbLine
 10
8.836342916
 20
19.334524936
 30
0.0
 11
9.399557103052896
 21
19.66027850172136
 31
0.0
  0
LINE
  5
2C4
330
1D
100
AcDbEntity
  8
NOCUT
100
AcDbLine
 10
9.399557103052896
 20
19.66027850172136
 30
0.0
 11
17.28041722441217
 21
20.49554423939536
 31
0.0
  0
ARC
  5
2C5
330
1D
100
AcDbEntity
  8
NOCUT
100
AcDbCircle
 10
17.364734264
 20
19.7
 30
0.0
 40
0.7999999999999962
100
AcDbArc
 50
6.049999999999691
 51
96.0499995420002
  0
LINE
  5
2C6
330
1D
100
AcDbEntity
  8
NOCUT
100
AcDbLine
 10
18.160278502
 20
19.784317046
 30
0.0
 11
19.0
 21
11.819139885
 31
0.0
  0
ARC
  5
2C7
330
1D
100
AcDbEntity
  8
NOCUT
100
AcDbCircle
 10
18.1999991976947
 20
11.81914016871726
 30
0.0
 40
0.8000008023053524
100
AcDbArc
 50
303.162507032588
 51
359.9999796802682
  0
ARC
  5
2C8
330
1D
100
AcDbEntity
  8
NOCUT
100
AcDbCircle
 10
24.18193126777857
 20
4.00769184191446
 30
0.0
 40
7.981938426663572
100
AcDbArc
 50
132.3919878819518
 51
180.0772926256293
  0
LINE
  5
2C9
330
1D
100
AcDbEntity
  8
NOCUT
100
AcDbLine
 10
18.800515429
 20
9.902749485
 30
0.0
 11
18.672723227
 21
11.118611037
 31
0.0
  0
LINE
  5
2CA
330
1D
100
AcDbEntity
  8
NOCUT
100
AcDbLine
 10
18.672723227
 20
11.118611037
 30
0.0
 11
18.637612075
 21
11.14944154
 31
0.0
  0
LWPOLYLINE
  5
2CC
330
1D
100
AcDbEntity
  8
INFTOTAL
100
AcDbPolyline
 90
        4
 70
     1
 43
0.0
 10
-38.61579228226734
 20
43.36997451509788
 10
-38.61579228226734
 20
-42.34357594422828
 10
54.76787454925797
 20
-42.34357594422828
 10
54.76787454925797
 20
43.36997451509788
  0
ENDSEC
  0
SECTION
  2
OBJECTS
  0
DICTIONARY
  5
C
330
0
100
AcDbDictionary
281
     1
  3
ACAD_DETAILVIEWSTYLE
350
29B
  3
ACAD_GROUP
350
D
  3
ACAD_LAYOUT
350
1A
  3
ACAD_MATERIAL
350
235
  3
ACAD_MLEADERSTYLE
350
242
  3
ACAD_MLINESTYLE
350
17
  3
ACAD_PLOTSETTINGS
350
19
  3
ACAD_PLOTSTYLENAME
350
E
  3
ACAD_SCALELIST
350
1FE
  3
ACAD_SECTIONVIEWSTYLE
350
29C
  3
ACAD_TABLESTYLE
350
28B
  3
ACAD_VISUALSTYLE
350
224
  3
ACDB_RECOMPOSE_DATA
350
2CF
  3
AcDbVariableDictionary
350
240
  3
APPDATA
350
28E
  0
DICTIONARY
  5
28F
330
2
100
AcDbDictionary
280
     1
281
     1
  3
ACAD_LAYERSTATES
360
290
  0
DICTIONARY
  5
29B
102
{ACAD_REACTORS
330
C
102
}
330
C
100
AcDbDictionary
281
     1
  0
DICTIONARY
  5
D
102
{ACAD_REACTORS
330
C
102
}
330
C
100
AcDbDictionary
281
     1
  0
DICTIONARY
  5
1A
102
{ACAD_REACTORS
330
C
102
}
330
C
100
AcDbDictionary
281
     1
  3
Layout1
350
1C
  3
Model
350
1E
  0
DICTIONARY
  5
235
102
{ACAD_REACTORS
330
C
102
}
330
C
100
AcDbDictionary
281
     1
  3
ByBlock
350
237
  3
ByLayer
350
236
  3
Global
350
238
  0
DICTIONARY
  5
242
102
{ACAD_REACTORS
330
C
102
}
330
C
100
AcDbDictionary
281
     1
  3
Standard
350
28D
  0
DICTIONARY
  5
17
102
{ACAD_REACTORS
330
C
102
}
330
C
100
AcDbDictionary
281
     1
  3
Standard
350
18
  0
DICTIONARY
  5
19
102
{ACAD_REACTORS
330
C
102
}
330
C
100
AcDbDictionary
281
     1
  0
ACDBDICTIONARYWDFLT
  5
E
102
{ACAD_REACTORS
330
C
102
}
330
C
100
AcDbDictionary
281
     1
  3
Normal
350
F
100
AcDbDictionaryWithDefault
340
F
  0
DICTIONARY
  5
1FE
102
{ACAD_REACTORS
330
C
102
}
330
C
100
AcDbDictionary
281
     1
  3
A0
350
1FF
  3
A1
350
200
  3
A2
350
201
  3
A3
350
202
  3
A4
350
203
  3
A5
350
204
  3
A6
350
205
  3
A7
350
206
  3
A8
350
207
  3
A9
350
208
  3
B0
350
209
  3
B1
350
20A
  3
B2
350
20B
  3
B3
350
20C
  3
B4
350
20D
  3
B5
350
20E
  3
B6
350
20F
  3
B7
350
210
  3
B8
350
211
  3
B9
350
212
  3
C0
350
213
  3
C1
350
214
  3
C2
350
215
  3
C3
350
216
  3
C4
350
217
  3
C5
350
218
  3
C6
350
219
  3
C7
350
21A
  3
C8
350
21B
  3
C9
350
21C
  3
D0
350
21D
  3
D1
350
21E
  3
D2
350
21F
  0
DICTIONARY
  5
29C
102
{ACAD_REACTORS
330
C
102
}
330
C
100
AcDbDictionary
281
     1
  0
DICTIONARY
  5
28B
102
{ACAD_REACTORS
330
C
102
}
330
C
100
AcDbDictionary
281
     1
  3
Standard
350
28C
  0
DICTIONARY
  5
224
102
{ACAD_REACTORS
330
C
102
}
330
C
100
AcDbDictionary
281
     1
  3
2dWireframe
350
229
  3
3D Hidden
350
22B
  3
3dWireframe
350
22A
  3
Basic
350
22C
  3
Brighten
350
230
  3
ColorChange
350
234
  3
Conceptual
350
22E
  3
Dim
350
22F
  3
EdgeColorOff
350
285
  3
Facepattern
350
233
  3
Flat
350
225
  3
FlatWithEdges
350
226
  3
Gouraud
350
227
  3
GouraudWithEdges
350
228
  3
Hidden
350
282
  3
JitterOff
350
283
  3
Linepattern
350
232
  3
OverhangOff
350
284
  3
Realistic
350
22D
  3
Shaded
350
28A
  3
Shaded with edges
350
289
  3
Shades of Gray
350
286
  3
Sketchy
350
287
  3
Thicken
350
231
  3
Wireframe
350
281
  3
X-Ray
350
288
  0
XRECORD
  5
2CF
102
{ACAD_REACTORS
330
C
102
}
330
C
100
AcDbXrecord
280
     1
 90
        1
330
28C
  0
DICTIONARY
  5
240
102
{ACAD_REACTORS
330
C
102
}
330
C
100
AcDbDictionary
281
     1
  3
CANNOSCALE
350
298
  3
CMLEADERSTYLE
350
29A
  3
CTABLESTYLE
350
299
  3
DIMASSOC
350
244
  3
HIDETEXT
350
245
  3
MSLTSCALE
350
243
  0
DICTIONARY
  5
28E
102
{ACAD_REACTORS
330
C
102
}
330
C
100
AcDbDictionary
281
     1
  0
DICTIONARY
  5
290
102
{ACAD_REACTORS
330
28F
102
}
330
28F
100
AcDbDictionary
281
     1
  0
LAYOUT
  5
1C
102
{ACAD_REACTORS
330
1A
102
}
330
1A
100
AcDbPlotSettings
  1

  2
none_device
  4

  6

 40
0.0
 41
0.0
 42
0.0
 43
0.0
 44
0.0
 45
0.0
 46
0.0
 47
0.0
 48
0.0
 49
0.0
140
0.0
141
0.0
142
1.0
143
1.0
 70
   688
 72
     0
 73
     0
 74
     5
  7

 75
    16
 76
     0
 77
     2
 78
   300
147
1.0
148
0.0
149
0.0
100
AcDbLayout
  1
Layout1
 70
     1
 71
     1
 10
0.0
 20
0.0
 11
12.0
 21
9.0
 12
0.0
 22
0.0
 32
0.0
 14
1.000000000000000E+20
 24
1.000000000000000E+20
 34
1.000000000000000E+20
 15
-1.000000000000000E+20
 25
-1.000000000000000E+20
 35
-1.000000000000000E+20
146
0.0
 13
0.0
 23
0.0
 33
0.0
 16
1.0
 26
0.0
 36
0.0
 17
0.0
 27
1.0
 37
0.0
 76
     0
330
1B
  0
LAYOUT
  5
1E
102
{ACAD_REACTORS
330
1A
102
}
330
1A
100
AcDbPlotSettings
  1

  2
none_device
  4

  6

 40
0.0
 41
0.0
 42
0.0
 43
0.0
 44
0.0
 45
0.0
 46
0.0
 47
0.0
 48
0.0
 49
0.0
140
0.0
141
0.0
142
1.0
143
1.0
 70
  1712
 72
     0
 73
     0
 74
     0
  7

 75
     0
 76
     0
 77
     2
 78
   300
147
1.0
148
0.0
149
0.0
100
AcDbLayout
  1
Model
 70
     1
 71
     0
 10
0.0
 20
0.0
 11
12.0
 21
9.0
 12
0.0
 22
0.0
 32
0.0
 14
-38.61579228226734
 24
-42.34357594422828
 34
0.0
 15
54.76787454925797
 25
43.36997451509788
 35
0.0
146
0.0
 13
0.0
 23
0.0
 33
0.0
 16
1.0
 26
0.0
 36
0.0
 17
0.0
 27
1.0
 37
0.0
 76
     0
330
1D
331
1F8
  0
MATERIAL
  5
237
102
{ACAD_REACTORS
330
235
102
}
330
235
100
AcDbMaterial
  1
ByBlock
 72
     1
 94
      127
  0
MATERIAL
  5
236
102
{ACAD_REACTORS
330
235
102
}
330
235
100
AcDbMaterial
  1
ByLayer
 72
     1
 94
      127
  0
MATERIAL
  5
238
102
{ACAD_REACTORS
330
235
102
}
330
235
100
AcDbMaterial
  1
Global
 72
     1
 94
      127
  0
MLEADERSTYLE
  5
28D
102
{ACAD_REACTORS
330
242
102
}
330
242
100
AcDbMLeaderStyle
179
     2
170
     2
171
     1
172
     0
 90
        2
 40
0.0
 41
0.0
173
     1
 91
-1056964608
340
14
 92
       -2
290
     1
 42
0.09
291
     1
 43
0.36
  3
Standard
341
0
 44
0.18
300

342
11
174
     1
178
     1
175
     1
176
     0
 93
-1056964608
 45
0.18
292
     0
297
     0
 46
0.18
343
0
 94
-1056964608
 47
1.0
 49
1.0
140
1.0
293
     1
141
0.0
294
     1
177
     0
142
1.0
295
     0
296
     0
143
0.125
271
     0
272
     9
273
     9
298
     0
  0
MLINESTYLE
  5
18
102
{ACAD_REACTORS
330
17
102
}
330
17
100
AcDbMlineStyle
  2
Standard
 70
     0
  3

 62
   256
 51
90.0
 52
90.0
 71
     2
 49
0.5
 62
   256
  6
BYLAYER
 49
-0.5
 62
   256
  6
BYLAYER
  0
ACDBPLACEHOLDER
  5
F
102
{ACAD_REACTORS
330
E
102
}
330
E
  0
SCALE
  5
1FF
102
{ACAD_REACTORS
330
1FE
102
}
330
1FE
100
AcDbScale
 70
     0
300
1:1
140
1.0
141
1.0
290
     1
  0
SCALE
  5
200
102
{ACAD_REACTORS
330
1FE
102
}
330
1FE
100
AcDbScale
 70
     0
300
1:2
140
1.0
141
2.0
290
     0
  0
SCALE
  5
201
102
{ACAD_REACTORS
330
1FE
102
}
330
1FE
100
AcDbScale
 70
     0
300
1:4
140
1.0
141
4.0
290
     0
  0
SCALE
  5
202
102
{ACAD_REACTORS
330
1FE
102
}
330
1FE
100
AcDbScale
 70
     0
300
1:5
140
1.0
141
5.0
290
     0
  0
SCALE
  5
203
102
{ACAD_REACTORS
330
1FE
102
}
330
1FE
100
AcDbScale
 70
     0
300
1:8
140
1.0
141
8.0
290
     0
  0
SCALE
  5
204
102
{ACAD_REACTORS
330
1FE
102
}
330
1FE
100
AcDbScale
 70
     0
300
1:10
140
1.0
141
10.0
290
     0
  0
SCALE
  5
205
102
{ACAD_REACTORS
330
1FE
102
}
330
1FE
100
AcDbScale
 70
     0
300
1:16
140
1.0
141
16.0
290
     0
  0
SCALE
  5
206
102
{ACAD_REACTORS
330
1FE
102
}
330
1FE
100
AcDbScale
 70
     0
300
1:20
140
1.0
141
20.0
290
     0
  0
SCALE
  5
207
102
{ACAD_REACTORS
330
1FE
102
}
330
1FE
100
AcDbScale
 70
     0
300
1:30
140
1.0
141
30.0
290
     0
  0
SCALE
  5
208
102
{ACAD_REACTORS
330
1FE
102
}
330
1FE
100
AcDbScale
 70
     0
300
1:40
140
1.0
141
40.0
290
     0
  0
SCALE
  5
209
102
{ACAD_REACTORS
330
1FE
102
}
330
1FE
100
AcDbScale
 70
     0
300
1:50
140
1.0
141
50.0
290
     0
  0
SCALE
  5
20A
102
{ACAD_REACTORS
330
1FE
102
}
330
1FE
100
AcDbScale
 70
     0
300
1:100
140
1.0
141
100.0
290
     0
  0
SCALE
  5
20B
102
{ACAD_REACTORS
330
1FE
102
}
330
1FE
100
AcDbScale
 70
     0
300
2:1
140
2.0
141
1.0
290
     0
  0
SCALE
  5
20C
102
{ACAD_REACTORS
330
1FE
102
}
330
1FE
100
AcDbScale
 70
     0
300
4:1
140
4.0
141
1.0
290
     0
  0
SCALE
  5
20D
102
{ACAD_REACTORS
330
1FE
102
}
330
1FE
100
AcDbScale
 70
     0
300
8:1
140
8.0
141
1.0
290
     0
  0
SCALE
  5
20E
102
{ACAD_REACTORS
330
1FE
102
}
330
1FE
100
AcDbScale
 70
     0
300
10:1
140
10.0
141
1.0
290
     0
  0
SCALE
  5
20F
102
{ACAD_REACTORS
330
1FE
102
}
330
1FE
100
AcDbScale
 70
     0
300
100:1
140
100.0
141
1.0
290
     0
  0
SCALE
  5
210
102
{ACAD_REACTORS
330
1FE
102
}
330
1FE
100
AcDbScale
 70
     0
300
1/128" = 1'-0"
140
0.0078125
141
12.0
290
     0
  0
SCALE
  5
211
102
{ACAD_REACTORS
330
1FE
102
}
330
1FE
100
AcDbScale
 70
     0
300
1/64" = 1'-0"
140
0.015625
141
12.0
290
     0
  0
SCALE
  5
212
102
{ACAD_REACTORS
330
1FE
102
}
330
1FE
100
AcDbScale
 70
     0
300
1/32" = 1'-0"
140
0.03125
141
12.0
290
     0
  0
SCALE
  5
213
102
{ACAD_REACTORS
330
1FE
102
}
330
1FE
100
AcDbScale
 70
     0
300
1/16" = 1'-0"
140
0.0625
141
12.0
290
     0
  0
SCALE
  5
214
102
{ACAD_REACTORS
330
1FE
102
}
330
1FE
100
AcDbScale
 70
     0
300
3/32" = 1'-0"
140
0.09375
141
12.0
290
     0
  0
SCALE
  5
215
102
{ACAD_REACTORS
330
1FE
102
}
330
1FE
100
AcDbScale
 70
     0
300
1/8" = 1'-0"
140
0.125
141
12.0
290
     0
  0
SCALE
  5
216
102
{ACAD_REACTORS
330
1FE
102
}
330
1FE
100
AcDbScale
 70
     0
300
3/16" = 1'-0"
140
0.1875
141
12.0
290
     0
  0
SCALE
  5
217
102
{ACAD_REACTORS
330
1FE
102
}
330
1FE
100
AcDbScale
 70
     0
300
1/4" = 1'-0"
140
0.25
141
12.0
290
     0
  0
SCALE
  5
218
102
{ACAD_REACTORS
330
1FE
102
}
330
1FE
100
AcDbScale
 70
     0
300
3/8" = 1'-0"
140
0.375
141
12.0
290
     0
  0
SCALE
  5
219
102
{ACAD_REACTORS
330
1FE
102
}
330
1FE
100
AcDbScale
 70
     0
300
1/2" = 1'-0"
140
0.5
141
12.0
290
     0
  0
SCALE
  5
21A
102
{ACAD_REACTORS
330
1FE
102
}
330
1FE
100
AcDbScale
 70
     0
300
3/4" = 1'-0"
140
0.75
141
12.0
290
     0
  0
SCALE
  5
21B
102
{ACAD_REACTORS
330
1FE
102
}
330
1FE
100
AcDbScale
 70
     0
300
1" = 1'-0"
140
1.0
141
12.0
290
     0
  0
SCALE
  5
21C
102
{ACAD_REACTORS
330
1FE
102
}
330
1FE
100
AcDbScale
 70
     0
300
1-1/2" = 1'-0"
140
1.5
141
12.0
290
     0
  0
SCALE
  5
21D
102
{ACAD_REACTORS
330
1FE
102
}
330
1FE
100
AcDbScale
 70
     0
300
3" = 1'-0"
140
3.0
141
12.0
290
     0
  0
SCALE
  5
21E
102
{ACAD_REACTORS
330
1FE
102
}
330
1FE
100
AcDbScale
 70
     0
300
6" = 1'-0"
140
6.0
141
12.0
290
     0
  0
SCALE
  5
21F
102
{ACAD_REACTORS
330
1FE
102
}
330
1FE
100
AcDbScale
 70
     0
300
1'-0" = 1'-0"
140
12.0
141
12.0
290
     0
  0
TABLESTYLE
  5
28C
102
{ACAD_REACTORS
330
28B
102
}
102
{ACAD_XDICTIONARY
360
2CD
102
}
330
28B
100
AcDbTableStyle
  3
Standard
 70
     0
 71
     0
 40
0.06
 41
0.06
280
     0
281
     0
  7
Standard
140
0.18
170
     2
 62
     0
 63
   257
283
     0
 90
        4
 91
        0
  1

274
    -2
284
     1
 64
     0
275
    -2
285
     1
 65
     0
276
    -2
286
     1
 66
     0
277
    -2
287
     1
 67
     0
278
    -2
288
     1
 68
     0
279
    -2
289
     1
 69
     0
  7
Standard
140
0.25
170
     5
 62
     0
 63
   257
283
     0
 90
        4
 91
        0
  1

274
    -2
284
     1
 64
     0
275
    -2
285
     1
 65
     0
276
    -2
286
     1
 66
     0
277
    -2
287
     1
 67
     0
278
    -2
288
     1
 68
     0
279
    -2
289
     1
 69
     0
  7
Standard
140
0.18
170
     5
 62
     0
 63
   257
283
     0
 90
        4
 91
        0
  1

274
    -2
284
     1
 64
     0
275
    -2
285
     1
 65
     0
276
    -2
286
     1
 66
     0
277
    -2
287
     1
 67
     0
278
    -2
288
     1
 68
     0
279
    -2
289
     1
 69
     0
  0
VISUALSTYLE
  5
229
102
{ACAD_REACTORS
330
224
102
}
330
224
100
AcDbVisualStyle
  2
2dWireframe
 70
     4
177
     3
291
     0
 70
    58
 90
        0
176
     1
 90
        2
176
     1
 90
        0
176
     1
 90
        0
176
     1
 40
-0.6
176
     1
 40
-30.0
176
     1
 62
     7
176
     1
 90
        1
176
     1
 90
        4
176
     1
 62
     7
176
     1
 62
   257
176
     1
 90
        1
176
     1
 90
        1
176
     1
 40
1.0
176
     1
 90
        0
176
     1
 62
   257
176
     1
 40
1.0
176
     1
 90
        1
176
     1
 90
        6
176
     1
 90
        2
176
     1
 62
     7
176
     1
 90
        5
176
     1
 90
        0
176
     1
 90
        0
176
     1
290
     0
176
     1
 90
        1
176
     1
 40
0.0
176
     1
 90
        0
176
     1
290
     1
176
     1
290
     1
176
     1
290
     0
176
     1
290
     0
176
     1
290
     0
176
     1
290
     0
176
     1
290
     0
176
     1
290
     0
176
     1
290
     0
176
     1
 90
       50
176
     1
 40
0.0
176
     1
 40
1.0
176
     1
 90
        0
176
     1
 62
    18
420
        0
176
     1
 90
       50
176
     1
 90
        3
176
     1
 62
     5
420
      255
176
     1
290
     0
176
     1
 90
       50
176
     1
 90
       50
176
     1
 90
       50
176
     1
290
     0
176
     1
 90
       50
176
     1
 62
   256
176
     0
 40
1.0
176
     0
 90
        2
176
     1
  1
strokes_ogs.tif
176
     1
290
     0
176
     1
 40
1.0
176
     1
 40
1.0
176
     1
  0
VISUALSTYLE
  5
22B
102
{ACAD_REACTORS
330
224
102
}
330
224
100
AcDbVisualStyle
  2
3D Hidden
 70
     6
177
     3
291
     0
 70
    58
 90
        1
176
     1
 90
        2
176
     1
 90
        2
176
     1
 90
        0
176
     1
 40
-0.6
176
     1
 40
-30.0
176
     1
 62
     7
176
     1
 90
        2
176
     1
 90
        2
176
     1
 62
     7
176
     1
 62
   257
176
     1
 90
        2
176
     1
 90
        1
176
     1
 40
40.0
176
     1
 90
        0
176
     1
 62
   257
176
     1
 40
1.0
176
     1
 90
        1
176
     1
 90
        6
176
     1
 90
        2
176
     1
 62
     7
176
     1
 90
        3
176
     1
 90
        0
176
     1
 90
        0
176
     1
290
     0
176
     1
 90
        1
176
     1
 40
0.0
176
     1
 90
        0
176
     1
290
     0
176
     1
290
     1
176
     1
290
     1
176
     1
290
     0
176
     1
290
     0
176
     1
290
     0
176
     1
290
     0
176
     1
290
     0
176
     1
290
     0
176
     1
 90
       50
176
     1
 40
0.0
176
     1
 40
1.0
176
     1
 90
        0
176
     1
 62
    18
420
        0
176
     1
 90
       50
176
     1
 90
        3
176
     1
 62
     5
420
      255
176
     1
290
     0
176
     1
 90
       50
176
     1
 90
       50
176
     1
 90
       50
176
     1
290
     0
176
     1
 90
       50
176
     1
 62
   256
176
     0
 40
1.0
176
     0
 90
        2
176
     1
  1
strokes_ogs.tif
176
     1
290
     0
176
     1
 40
1.0
176
     1
 40
1.0
176
     1
  0
VISUALSTYLE
  5
22A
102
{ACAD_REACTORS
330
224
102
}
330
224
100
AcDbVisualStyle
  2
3dWireframe
 70
     5
177
     3
291
     0
 70
    58
 90
        0
176
     1
 90
        2
176
     1
 90
        0
176
     1
 90
        0
176
     1
 40
-0.6
176
     1
 40
-30.0
176
     1
 62
     7
176
     1
 90
        1
176
     1
 90
        4
176
     1
 62
     7
176
     1
 62
   257
176
     1
 90
        1
176
     1
 90
        1
176
     1
 40
1.0
176
     1
 90
        0
176
     1
 62
   257
176
     1
 40
1.0
176
     1
 90
        1
176
     1
 90
        6
176
     1
 90
        2
176
     1
 62
     7
176
     1
 90
        5
176
     1
 90
        0
176
     1
 90
        0
176
     1
290
     0
176
     1
 90
        1
176
     1
 40
0.0
176
     1
 90
        0
176
     1
290
     0
176
     1
290
     1
176
     1
290
     1
176
     1
290
     0
176
     1
290
     0
176
     1
290
     0
176
     1
290
     0
176
     1
290
     0
176
     1
290
     0
176
     1
 90
       50
176
     1
 40
0.0
176
     1
 40
1.0
176
     1
 90
        0
176
     1
 62
    18
420
        0
176
     1
 90
       50
176
     1
 90
        3
176
     1
 62
     5
420
      255
176
     1
290
     0
176
     1
 90
       50
176
     1
 90
       50
176
     1
 90
       50
176
     1
290
     0
176
     1
 90
       50
176
     1
 62
   256
176
     0
 40
1.0
176
     0
 90
        2
176
     1
  1
strokes_ogs.tif
176
     1
290
     0
176
     1
 40
1.0
176
     1
 40
1.0
176
     1
  0
VISUALSTYLE
  5
22C
102
{ACAD_REACTORS
330
224
102
}
330
224
100
AcDbVisualStyle
  2
Basic
 70
     7
177
     3
291
     1
 70
    58
 90
        1
176
     1
 90
        0
176
     1
 90
        1
176
     1
 90
        0
176
     1
 40
-0.6
176
     1
 40
-30.0
176
     1
 62
     7
176
     1
 90
        0
176
     1
 90
        4
176
     1
 62
     7
176
     1
 62
   257
176
     1
 90
        1
176
     1
 90
        1
176
     1
 40
1.0
176
     1
 90
        8
176
     1
 62
     7
176
     1
 40
1.0
176
     1
 90
        1
176
     1
 90
        6
176
     1
 90
        2
176
     1
 62
     7
176
     1
 90
        5
176
     1
 90
        0
176
     1
 90
        0
176
     1
290
     0
176
     1
 90
        1
176
     1
 40
0.0
176
     1
 90
        0
176
     1
290
     0
176
     1
290
     1
176
     1
290
     1
176
     1
290
     0
176
     1
290
     0
176
     1
290
     0
176
     1
290
     0
176
     1
290
     0
176
     1
290
     0
176
     1
 90
       50
176
     1
 40
0.0
176
     1
 40
1.0
176
     1
 90
        0
176
     1
 62
    18
420
        0
176
     1
 90
       50
176
     1
 90
        3
176
     1
 62
     5
420
      255
176
     1
290
     0
176
     1
 90
       50
176
     1
 90
       50
176
     1
 90
       50
176
     1
290
     0
176
     1
 90
       50
176
     1
 62
   256
176
     0
 40
1.0
176
     0
 90
        2
176
     1
  1
strokes_ogs.tif
176
     1
290
     0
176
     1
 40
1.0
176
     1
 40
1.0
176
     1
  0
VISUALSTYLE
  5
230
102
{ACAD_REACTORS
330
224
102
}
330
224
100
AcDbVisualStyle
  2
Brighten
 70
    12
177
     3
291
     1
 70
    58
 90
        2
176
     1
 90
        2
176
     1
 90
        0
176
     1
 90
        0
176
     1
 40
-0.6
176
     1
 40
-30.0
176
     1
 62
     7
176
     1
 90
        1
176
     1
 90
        4
176
     1
 62
     7
176
     1
 62
   257
176
     1
 90
        1
176
     1
 90
        1
176
     1
 40
1.0
176
     1
 90
        8
176
     1
 62
     7
176
     1
 40
1.0
176
     1
 90
        1
176
     1
 90
        6
176
     1
 90
        2
176
     1
 62
     7
176
     1
 90
        5
176
     1
 90
        0
176
     1
 90
        0
176
     1
290
     0
176
     1
 90
        1
176
     1
 40
50.0
176
     1
 90
        0
176
     1
290
     0
176
     1
290
     1
176
     1
290
     1
176
     1
290
     0
176
     1
290
     0
176
     1
290
     0
176
     1
290
     0
176
     1
290
     0
176
     1
290
     0
176
     1
 90
       50
176
     1
 40
0.0
176
     1
 40
1.0
176
     1
 90
        0
176
     1
 62
    18
420
        0
176
     1
 90
       50
176
     1
 90
        3
176
     1
 62
     5
420
      255
176
     1
290
     0
176
     1
 90
       50
176
     1
 90
       50
176
     1
 90
       50
176
     1
290
     0
176
     1
 90
       50
176
     1
 62
   256
176
     0
 40
1.0
176
     0
 90
        2
176
     1
  1
strokes_ogs.tif
176
     1
290
     0
176
     1
 40
1.0
176
     1
 40
1.0
176
     1
  0
VISUALSTYLE
  5
234
102
{ACAD_REACTORS
330
224
102
}
330
224
100
AcDbVisualStyle
  2
ColorChange
 70
    16
177
     3
291
     1
 70
    58
 90
        2
176
     1
 90
        2
176
     1
 90
        3
176
     1
 90
        0
176
     1
 40
-0.6
176
     1
 40
-30.0
176
     1
 62
     8
176
     1
 90
        1
176
     1
 90
        4
176
     1
 62
     7
176
     1
 62
   257
176
     1
 90
        1
176
     1
 90
        1
176
     1
 40
1.0
176
     1
 90
        8
176
     1
 62
     8
176
     1
 40
1.0
176
     1
 90
        1
176
     1
 90
        6
176
     1
 90
        2
176
     1
 62
     7
176
     1
 90
        5
176
     1
 90
        0
176
     1
 90
        0
176
     1
290
     0
176
     1
 90
        1
176
     1
 40
0.0
176
     1
 90
        0
176
     1
290
     0
176
     1
290
     1
176
     1
290
     1
176
     1
290
     0
176
     1
290
     0
176
     1
290
     0
176
     1
290
     0
176
     1
290
     0
176
     1
290
     0
176
     1
 90
       50
176
     1
 40
0.0
176
     1
 40
1.0
176
     1
 90
        0
176
     1
 62
    18
420
        0
176
     1
 90
       50
176
     1
 90
        3
176
     1
 62
     5
420
      255
176
     1
290
     0
176
     1
 90
       50
176
     1
 90
       50
176
     1
 90
       50
176
     1
290
     0
176
     1
 90
       50
176
     1
 62
   256
176
     0
 40
1.0
176
     0
 90
        2
176
     1
  1
strokes_ogs.tif
176
     1
290
     0
176
     1
 40
1.0
176
     1
 40
1.0
176
     1
  0
VISUALSTYLE
  5
22E
102
{ACAD_REACTORS
330
224
102
}
330
224
100
AcDbVisualStyle
  2
Conceptual
 70
     9
177
     3
291
     0
 70
    58
 90
        3
176
     1
 90
        2
176
     1
 90
        0
176
     1
 90
        0
176
     1
 40
-0.6
176
     1
 40
-30.0
176
     1
 62
     7
176
     1
 90
        2
176
     1
 90
        2
176
     1
 62
     7
176
     1
 62
   257
176
     1
 90
        1
176
     1
 90
        1
176
     1
 40
40.0
176
     1
 90
        8
176
     1
 62
     7
176
     1
 40
1.0
176
     1
 90
        1
176
     1
 90
        6
176
     1
 90
        2
176
     1
 62
     7
176
     1
 90
        3
176
     1
 90
        0
176
     1
 90
        0
176
     1
290
     0
176
     1
 90
        1
176
     1
 40
0.0
176
     1
 90
        0
176
     1
290
     0
176
     1
290
     1
176
     1
290
     1
176
     1
290
     0
176
     1
290
     0
176
     1
290
     0
176
     1
290
     0
176
     1
290
     0
176
     1
290
     0
176
     1
 90
       50
176
     1
 40
0.0
176
     1
 40
1.0
176
     1
 90
        0
176
     1
 62
    18
420
        0
176
     1
 90
       50
176
     1
 90
        3
176
     1
 62
     5
420
      255
176
     1
290
     0
176
     1
 90
       50
176
     1
 90
       50
176
     1
 90
       50
176
     1
290
     0
176
     1
 90
       50
176
     1
 62
   256
176
     0
 40
1.0
176
     0
 90
        2
176
     1
  1
strokes_ogs.tif
176
     1
290
     0
176
     1
 40
1.0
176
     1
 40
1.0
176
     1
  0
VISUALSTYLE
  5
22F
102
{ACAD_REACTORS
330
224
102
}
330
224
100
AcDbVisualStyle
  2
Dim
 70
    11
177
     3
291
     1
 70
    58
 90
        2
176
     1
 90
        2
176
     1
 90
        0
176
     1
 90
        0
176
     1
 40
-0.6
176
     1
 40
-30.0
176
     1
 62
     7
176
     1
 90
        1
176
     1
 90
        4
176
     1
 62
     7
176
     1
 62
   257
176
     1
 90
        1
176
     1
 90
        1
176
     1
 40
1.0
176
     1
 90
        8
176
     1
 62
     7
176
     1
 40
1.0
176
     1
 90
        1
176
     1
 90
        6
176
     1
 90
        2
176
     1
 62
     7
176
     1
 90
        5
176
     1
 90
        0
176
     1
 90
        0
176
     1
290
     0
176
     1
 90
        1
176
     1
 40
-50.0
176
     1
 90
        0
176
     1
290
     0
176
     1
290
     1
176
     1
290
     1
176
     1
290
     0
176
     1
290
     0
176
     1
290
     0
176
     1
290
     0
176
     1
290
     0
176
     1
290
     0
176
     1
 90
       50
176
     1
 40
0.0
176
     1
 40
1.0
176
     1
 90
        0
176
     1
 62
    18
420
        0
176
     1
 90
       50
176
     1
 90
        3
176
     1
 62
     5
420
      255
176
     1
290
     0
176
     1
 90
       50
176
     1
 90
       50
176
     1
 90
       50
176
     1
290
     0
176
     1
 90
       50
176
     1
 62
   256
176
     0
 40
1.0
176
     0
 90
        2
176
     1
  1
strokes_ogs.tif
176
     1
290
     0
176
     1
 40
1.0
176
     1
 40
1.0
176
     1
  0
VISUALSTYLE
  5
285
102
{ACAD_REACTORS
330
224
102
}
330
224
100
AcDbVisualStyle
  2
EdgeColorOff
 70
    22
177
     3
291
     1
 70
    58
 90
        2
176
     0
 90
        2
176
     0
 90
        0
176
     0
 90
        0
176
     0
 40
0.6
176
     0
 40
30.0
176
     0
 62
     7
420
 16777215
176
     0
 90
        1
176
     0
 90
        4
176
     0
 62
     7
176
     0
 62
   257
176
     0
 90
        1
176
     0
 90
        1
176
     0
 40
1.0
176
     0
 90
        8
176
     2
 62
     7
176
     0
 40
1.0
176
     0
 90
        1
176
     0
 90
        6
176
     0
 90
        2
176
     0
 62
     7
176
     0
 90
        5
176
     0
 90
        0
176
     0
 90
        0
176
     0
290
     0
176
     0
 90
        1
176
     0
 40
0.0
176
     0
 90
        0
176
     0
290
     0
176
     0
290
     1
176
     0
290
     1
176
     0
290
     0
176
     0
290
     0
176
     0
290
     0
176
     0
290
     0
176
     0
290
     0
176
     0
290
     0
176
     0
 90
       50
176
     0
 40
0.0
176
     0
 40
1.0
176
     0
 90
        0
176
     0
 62
    18
420
        0
176
     0
 90
       50
176
     0
 90
        3
176
     0
 62
     5
420
      255
176
     0
290
     0
176
     0
 90
       50
176
     0
 90
       50
176
     0
 90
       50
176
     0
290
     0
176
     0
 90
       50
176
     0
 62
   256
176
     0
 40
1.0
176
     0
 90
        2
176
     0
  1
strokes_ogs.tif
176
     0
290
     0
176
     0
 40
1.0
176
     0
 40
1.0
176
     0
  0
VISUALSTYLE
  5
233
102
{ACAD_REACTORS
330
224
102
}
330
224
100
AcDbVisualStyle
  2
Facepattern
 70
    15
177
     3
291
     1
 70
    58
 90
        2
176
     1
 90
        2
176
     1
 90
        0
176
     1
 90
        0
176
     1
 40
-0.6
176
     1
 40
-30.0
176
     1
 62
     7
176
     1
 90
        1
176
     1
 90
        4
176
     1
 62
     7
176
     1
 62
   257
176
     1
 90
        1
176
     1
 90
        1
176
     1
 40
1.0
176
     1
 90
        8
176
     1
 62
     7
176
     1
 40
1.0
176
     1
 90
        1
176
     1
 90
        6
176
     1
 90
        2
176
     1
 62
     7
176
     1
 90
        5
176
     1
 90
        0
176
     1
 90
        0
176
     1
290
     0
176
     1
 90
        1
176
     1
 40
0.0
176
     1
 90
        0
176
     1
290
     0
176
     1
290
     1
176
     1
290
     1
176
     1
290
     0
176
     1
290
     0
176
     1
290
     0
176
     1
290
     0
176
     1
290
     0
176
     1
290
     0
176
     1
 90
       50
176
     1
 40
0.0
176
     1
 40
1.0
176
     1
 90
        0
176
     1
 62
    18
420
        0
176
     1
 90
       50
176
     1
 90
        3
176
     1
 62
     5
420
      255
176
     1
290
     0
176
     1
 90
       50
176
     1
 90
       50
176
     1
 90
       50
176
     1
290
     0
176
     1
 90
       50
176
     1
 62
   256
176
     0
 40
1.0
176
     0
 90
        2
176
     1
  1
strokes_ogs.tif
176
     1
290
     0
176
     1
 40
1.0
176
     1
 40
1.0
176
     1
  0
VISUALSTYLE
  5
225
102
{ACAD_REACTORS
330
224
102
}
330
224
100
AcDbVisualStyle
  2
Flat
 70
     0
177
     3
291
     1
 70
    58
 90
        2
176
     1
 90
        1
176
     1
 90
        1
176
     1
 90
        2
176
     1
 40
-0.6
176
     1
 40
30.0
176
     1
 62
     7
176
     1
 90
        0
176
     1
 90
        4
176
     1
 62
     7
176
     1
 62
   257
176
     1
 90
        1
176
     1
 90
        1
176
     1
 40
1.0
176
     1
 90
        8
176
     1
 62
     7
176
     1
 40
1.0
176
     1
 90
        1
176
     1
 90
        6
176
     1
 90
        2
176
     1
 62
     7
176
     1
 90
        5
176
     1
 90
        0
176
     1
 90
        0
176
     1
290
     0
176
     1
 90
       13
176
     1
 40
0.0
176
     1
 90
        0
176
     1
290
     0
176
     1
290
     1
176
     1
290
     1
176
     1
290
     0
176
     1
290
     0
176
     1
290
     0
176
     1
290
     0
176
     1
290
     0
176
     1
290
     0
176
     1
 90
       50
176
     1
 40
0.0
176
     1
 40
1.0
176
     1
 90
        0
176
     1
 62
    18
420
        0
176
     1
 90
       50
176
     1
 90
        3
176
     1
 62
     5
420
      255
176
     1
290
     0
176
     1
 90
       50
176
     1
 90
       50
176
     1
 90
       50
176
     1
290
     0
176
     1
 90
       50
176
     1
 62
   256
176
     0
 40
1.0
176
     0
 90
        2
176
     1
  1
strokes_ogs.tif
176
     1
290
     0
176
     1
 40
1.0
176
     1
 40
1.0
176
     1
  0
VISUALSTYLE
  5
226
102
{ACAD_REACTORS
330
224
102
}
330
224
100
AcDbVisualStyle
  2
FlatWithEdges
 70
     1
177
     3
291
     1
 70
    58
 90
        2
176
     1
 90
        1
176
     1
 90
        1
176
     1
 90
        2
176
     1
 40
-0.6
176
     1
 40
30.0
176
     1
 62
     7
176
     1
 90
        1
176
     1
 90
        4
176
     1
 62
     7
176
     1
 62
   257
176
     1
 90
        1
176
     1
 90
        1
176
     1
 40
1.0
176
     1
 90
        0
176
     1
 62
   257
176
     1
 40
1.0
176
     1
 90
        1
176
     1
 90
        6
176
     1
 90
        2
176
     1
 62
     7
176
     1
 90
        5
176
     1
 90
        0
176
     1
 90
        0
176
     1
290
     0
176
     1
 90
       13
176
     1
 40
0.0
176
     1
 90
        0
176
     1
290
     0
176
     1
290
     1
176
     1
290
     1
176
     1
290
     0
176
     1
290
     0
176
     1
290
     0
176
     1
290
     0
176
     1
290
     0
176
     1
290
     0
176
     1
 90
       50
176
     1
 40
0.0
176
     1
 40
1.0
176
     1
 90
        0
176
     1
 62
    18
420
        0
176
     1
 90
       50
176
     1
 90
        3
176
     1
 62
     5
420
      255
176
     1
290
     0
176
     1
 90
       50
176
     1
 90
       50
176
     1
 90
       50
176
     1
290
     0
176
     1
 90
       50
176
     1
 62
   256
176
     0
 40
1.0
176
     0
 90
        2
176
     1
  1
strokes_ogs.tif
176
     1
290
     0
176
     1
 40
1.0
176
     1
 40
1.0
176
     1
  0
VISUALSTYLE
  5
227
102
{ACAD_REACTORS
330
224
102
}
330
224
100
AcDbVisualStyle
  2
Gouraud
 70
     2
177
     3
291
     1
 70
    58
 90
        2
176
     1
 90
        2
176
     1
 90
        1
176
     1
 90
        2
176
     1
 40
-0.6
176
     1
 40
30.0
176
     1
 62
     7
176
     1
 90
        0
176
     1
 90
        4
176
     1
 62
     7
176
     1
 62
   257
176
     1
 90
        1
176
     1
 90
        1
176
     1
 40
1.0
176
     1
 90
        0
176
     1
 62
     7
176
     1
 40
1.0
176
     1
 90
        1
176
     1
 90
        6
176
     1
 90
        2
176
     1
 62
     7
176
     1
 90
        5
176
     1
 90
        0
176
     1
 90
        0
176
     1
290
     0
176
     1
 90
       13
176
     1
 40
0.0
176
     1
 90
        0
176
     1
290
     0
176
     1
290
     1
176
     1
290
     1
176
     1
290
     0
176
     1
290
     0
176
     1
290
     0
176
     1
290
     0
176
     1
290
     0
176
     1
290
     0
176
     1
 90
       50
176
     1
 40
0.0
176
     1
 40
1.0
176
     1
 90
        0
176
     1
 62
    18
420
        0
176
     1
 90
       50
176
     1
 90
        3
176
     1
 62
     5
420
      255
176
     1
290
     0
176
     1
 90
       50
176
     1
 90
       50
176
     1
 90
       50
176
     1
290
     0
176
     1
 90
       50
176
     1
 62
   256
176
     0
 40
1.0
176
     0
 90
        2
176
     1
  1
strokes_ogs.tif
176
     1
290
     0
176
     1
 40
1.0
176
     1
 40
1.0
176
     1
  0
VISUALSTYLE
  5
228
102
{ACAD_REACTORS
330
224
102
}
330
224
100
AcDbVisualStyle
  2
GouraudWithEdges
 70
     3
177
     3
291
     1
 70
    58
 90
        2
176
     1
 90
        2
176
     1
 90
        1
176
     1
 90
        2
176
     1
 40
-0.6
176
     1
 40
30.0
176
     1
 62
     7
176
     1
 90
        1
176
     1
 90
        4
176
     1
 62
     7
176
     1
 62
   257
176
     1
 90
        1
176
     1
 90
        1
176
     1
 40
1.0
176
     1
 90
        0
176
     1
 62
   257
176
     1
 40
1.0
176
     1
 90
        1
176
     1
 90
        6
176
     1
 90
        2
176
     1
 62
     7
176
     1
 90
        5
176
     1
 90
        0
176
     1
 90
        0
176
     1
290
     0
176
     1
 90
       13
176
     1
 40
0.0
176
     1
 90
        0
176
     1
290
     0
176
     1
290
     1
176
     1
290
     1
176
     1
290
     0
176
     1
290
     0
176
     1
290
     0
176
     1
290
     0
176
     1
290
     0
176
     1
290
     0
176
     1
 90
       50
176
     1
 40
0.0
176
     1
 40
1.0
176
     1
 90
        0
176
     1
 62
    18
420
        0
176
     1
 90
       50
176
     1
 90
        3
176
     1
 62
     5
420
      255
176
     1
290
     0
176
     1
 90
       50
176
     1
 90
       50
176
     1
 90
       50
176
     1
290
     0
176
     1
 90
       50
176
     1
 62
   256
176
     0
 40
1.0
176
     0
 90
        2
176
     1
  1
strokes_ogs.tif
176
     1
290
     0
176
     1
 40
1.0
176
     1
 40
1.0
176
     1
  0
VISUALSTYLE
  5
282
102
{ACAD_REACTORS
330
224
102
}
330
224
100
AcDbVisualStyle
  2
Hidden
 70
     6
177
     3
291
     0
 70
    58
 90
        1
176
     1
 90
        2
176
     1
 90
        2
176
     1
 90
        0
176
     1
 40
0.6
176
     1
 40
30.0
176
     1
 62
     7
420
 16777215
176
     1
 90
        2
176
     1
 90
        2
176
     1
 62
     7
176
     1
 62
   257
176
     1
 90
        2
176
     1
 90
        1
176
     1
 40
40.0
176
     1
 90
        0
176
     1
 62
   257
176
     1
 40
1.0
176
     1
 90
        1
176
     1
 90
        6
176
     1
 90
        2
176
     1
 62
     7
176
     1
 90
        3
176
     1
 90
        0
176
     1
 90
        0
176
     1
290
     0
176
     1
 90
        1
176
     1
 40
0.0
176
     1
 90
        0
176
     1
290
     0
176
     1
290
     1
176
     1
290
     1
176
     1
290
     0
176
     1
290
     0
176
     1
290
     0
176
     1
290
     0
176
     1
290
     0
176
     1
290
     0
176
     1
 90
       50
176
     1
 40
0.0
176
     1
 40
1.0
176
     1
 90
        0
176
     1
 62
    18
420
        0
176
     1
 90
       50
176
     1
 90
        3
176
     1
 62
     5
420
      255
176
     1
290
     0
176
     1
 90
       50
176
     1
 90
       50
176
     1
 90
       50
176
     1
290
     0
176
     1
 90
       50
176
     1
 62
   256
176
     0
 40
1.0
176
     0
 90
        2
176
     1
  1
strokes_ogs.tif
176
     1
290
     0
176
     1
 40
1.0
176
     1
 40
1.0
176
     1
  0
VISUALSTYLE
  5
283
102
{ACAD_REACTORS
330
224
102
}
330
224
100
AcDbVisualStyle
  2
JitterOff
 70
    20
177
     3
291
     1
 70
    58
 90
        2
176
     0
 90
        2
176
     0
 90
        0
176
     0
 90
        0
176
     0
 40
0.6
176
     0
 40
30.0
176
     0
 62
     7
420
 16777215
176
     0
 90
        1
176
     0
 90
        4
176
     0
 62
     7
176
     0
 62
   257
176
     0
 90
        1
176
     0
 90
        1
176
     0
 40
1.0
176
     0
 90
       10
176
     2
 62
     7
176
     0
 40
1.0
176
     0
 90
        1
176
     0
 90
        6
176
     0
 90
        2
176
     0
 62
     7
176
     0
 90
        5
176
     0
 90
        0
176
     0
 90
        0
176
     0
290
     0
176
     0
 90
        1
176
     0
 40
0.0
176
     0
 90
        0
176
     0
290
     0
176
     0
290
     1
176
     0
290
     1
176
     0
290
     0
176
     0
290
     0
176
     0
290
     0
176
     0
290
     0
176
     0
290
     0
176
     0
290
     0
176
     0
 90
       50
176
     0
 40
0.0
176
     0
 40
1.0
176
     0
 90
        0
176
     0
 62
    18
420
        0
176
     0
 90
       50
176
     0
 90
        3
176
     0
 62
     5
420
      255
176
     0
290
     0
176
     0
 90
       50
176
     0
 90
       50
176
     0
 90
       50
176
     0
290
     0
176
     0
 90
       50
176
     0
 62
   256
176
     0
 40
1.0
176
     0
 90
        2
176
     0
  1
strokes_ogs.tif
176
     0
290
     0
176
     0
 40
1.0
176
     0
 40
1.0
176
     0
  0
VISUALSTYLE
  5
232
102
{ACAD_REACTORS
330
224
102
}
330
224
100
AcDbVisualStyle
  2
Linepattern
 70
    14
177
     3
291
     1
 70
    58
 90
        2
176
     1
 90
        2
176
     1
 90
        0
176
     1
 90
        0
176
     1
 40
-0.6
176
     1
 40
-30.0
176
     1
 62
     7
176
     1
 90
        1
176
     1
 90
        4
176
     1
 62
     7
176
     1
 62
   257
176
     1
 90
        7
176
     1
 90
        7
176
     1
 40
1.0
176
     1
 90
        8
176
     1
 62
     7
176
     1
 40
1.0
176
     1
 90
        1
176
     1
 90
        6
176
     1
 90
        2
176
     1
 62
     7
176
     1
 90
        5
176
     1
 90
        0
176
     1
 90
        0
176
     1
290
     0
176
     1
 90
        1
176
     1
 40
0.0
176
     1
 90
        0
176
     1
290
     0
176
     1
290
     1
176
     1
290
     1
176
     1
290
     0
176
     1
290
     0
176
     1
290
     0
176
     1
290
     0
176
     1
290
     0
176
     1
290
     0
176
     1
 90
       50
176
     1
 40
0.0
176
     1
 40
1.0
176
     1
 90
        0
176
     1
 62
    18
420
        0
176
     1
 90
       50
176
     1
 90
        3
176
     1
 62
     5
420
      255
176
     1
290
     0
176
     1
 90
       50
176
     1
 90
       50
176
     1
 90
       50
176
     1
290
     0
176
     1
 90
       50
176
     1
 62
   256
176
     0
 40
1.0
176
     0
 90
        2
176
     1
  1
strokes_ogs.tif
176
     1
290
     0
176
     1
 40
1.0
176
     1
 40
1.0
176
     1
  0
VISUALSTYLE
  5
284
102
{ACAD_REACTORS
330
224
102
}
330
224
100
AcDbVisualStyle
  2
OverhangOff
 70
    21
177
     3
291
     1
 70
    58
 90
        2
176
     0
 90
        2
176
     0
 90
        0
176
     0
 90
        0
176
     0
 40
0.6
176
     0
 40
30.0
176
     0
 62
     7
420
 16777215
176
     0
 90
        1
176
     0
 90
        4
176
     0
 62
     7
176
     0
 62
   257
176
     0
 90
        1
176
     0
 90
        1
176
     0
 40
1.0
176
     0
 90
        9
176
     2
 62
     7
176
     0
 40
1.0
176
     0
 90
        1
176
     0
 90
        6
176
     0
 90
        2
176
     0
 62
     7
176
     0
 90
        5
176
     0
 90
        0
176
     0
 90
        0
176
     0
290
     0
176
     0
 90
        1
176
     0
 40
0.0
176
     0
 90
        0
176
     0
290
     0
176
     0
290
     1
176
     0
290
     1
176
     0
290
     0
176
     0
290
     0
176
     0
290
     0
176
     0
290
     0
176
     0
290
     0
176
     0
290
     0
176
     0
 90
       50
176
     0
 40
0.0
176
     0
 40
1.0
176
     0
 90
        0
176
     0
 62
    18
420
        0
176
     0
 90
       50
176
     0
 90
        3
176
     0
 62
     5
420
      255
176
     0
290
     0
176
     0
 90
       50
176
     0
 90
       50
176
     0
 90
       50
176
     0
290
     0
176
     0
 90
       50
176
     0
 62
   256
176
     0
 40
1.0
176
     0
 90
        2
176
     0
  1
strokes_ogs.tif
176
     0
290
     0
176
     0
 40
1.0
176
     0
 40
1.0
176
     0
  0
VISUALSTYLE
  5
22D
102
{ACAD_REACTORS
330
224
102
}
330
224
100
AcDbVisualStyle
  2
Realistic
 70
     8
177
     3
291
     0
 70
    58
 90
        2
176
     1
 90
        2
176
     1
 90
        0
176
     1
 90
        0
176
     1
 40
-0.6
176
     1
 40
-30.0
176
     1
 62
     7
176
     1
 90
        1
176
     1
 90
        0
176
     1
 62
     7
176
     1
 62
   257
176
     1
 90
        1
176
     1
 90
        1
176
     1
 40
1.0
176
     1
 90
        8
176
     1
 62
     8
176
     1
 40
1.0
176
     1
 90
        1
176
     1
 90
        6
176
     1
 90
        2
176
     1
 62
     7
176
     1
 90
        5
176
     1
 90
        0
176
     1
 90
        0
176
     1
290
     0
176
     1
 90
       13
176
     1
 40
0.0
176
     1
 90
        0
176
     1
290
     0
176
     1
290
     1
176
     1
290
     1
176
     1
290
     0
176
     1
290
     0
176
     1
290
     0
176
     1
290
     0
176
     1
290
     0
176
     1
290
     0
176
     1
 90
       50
176
     1
 40
0.0
176
     1
 40
1.0
176
     1
 90
        0
176
     1
 62
    18
420
        0
176
     1
 90
       50
176
     1
 90
        3
176
     1
 62
     5
420
      255
176
     1
290
     0
176
     1
 90
       50
176
     1
 90
       50
176
     1
 90
       50
176
     1
290
     0
176
     1
 90
       50
176
     1
 62
   256
176
     0
 40
1.0
176
     0
 90
        2
176
     1
  1
strokes_ogs.tif
176
     1
290
     0
176
     1
 40
1.0
176
     1
 40
1.0
176
     1
  0
VISUALSTYLE
  5
28A
102
{ACAD_REACTORS
330
224
102
}
330
224
100
AcDbVisualStyle
  2
Shaded
 70
    27
177
     3
291
     0
 70
    58
 90
        2
176
     1
 90
        2
176
     1
 90
        1
176
     1
 90
        2
176
     1
 40
0.6
176
     1
 40
30.0
176
     1
 62
     7
420
 16777215
176
     1
 90
        0
176
     1
 90
        4
176
     1
 62
     7
176
     1
 62
   257
176
     1
 90
        1
176
     1
 90
        1
176
     1
 40
1.0
176
     1
 90
        8
176
     1
 62
   257
176
     1
 40
1.0
176
     1
 90
        1
176
     1
 90
        6
176
     1
 90
        2
176
     1
 62
     8
420
  7895160
176
     1
 90
        3
176
     1
 90
        0
176
     1
 90
        0
176
     1
290
     0
176
     1
 90
        5
176
     1
 40
0.0
176
     1
 90
        0
176
     1
290
     0
176
     1
290
     1
176
     1
290
     1
176
     1
290
     0
176
     1
290
     0
176
     1
290
     0
176
     1
290
     0
176
     1
290
     0
176
     1
290
     0
176
     1
 90
       50
176
     1
 40
0.0
176
     1
 40
1.0
176
     1
 90
        0
176
     1
 62
    18
420
        0
176
     1
 90
       50
176
     1
 90
        3
176
     1
 62
     5
420
      255
176
     1
290
     0
176
     1
 90
       50
176
     1
 90
       50
176
     1
 90
       50
176
     1
290
     0
176
     1
 90
       50
176
     1
 62
   256
176
     0
 40
1.0
176
     0
 90
        2
176
     1
  1
strokes_ogs.tif
176
     1
290
     0
176
     1
 40
1.0
176
     1
 40
1.0
176
     1
  0
VISUALSTYLE
  5
289
102
{ACAD_REACTORS
330
224
102
}
330
224
100
AcDbVisualStyle
  2
Shaded with edges
 70
    26
177
     3
291
     0
 70
    58
 90
        2
176
     1
 90
        2
176
     1
 90
        1
176
     1
 90
        2
176
     1
 40
0.6
176
     1
 40
30.0
176
     1
 62
     7
420
 16777215
176
     1
 90
        1
176
     1
 90
       10
176
     1
 62
     7
176
     1
 62
   257
176
     1
 90
        2
176
     1
 90
        1
176
     1
 40
1.0
176
     1
 90
        8
176
     1
 62
   257
176
     1
 40
1.0
176
     1
 90
        1
176
     1
 90
        6
176
     1
 90
        2
176
     1
 62
     7
176
     1
 90
        3
176
     1
 90
        0
176
     1
 90
        0
176
     1
290
     0
176
     1
 90
        5
176
     1
 40
0.0
176
     1
 90
        0
176
     1
290
     0
176
     1
290
     1
176
     1
290
     1
176
     1
290
     0
176
     1
290
     0
176
     1
290
     0
176
     1
290
     0
176
     1
290
     0
176
     1
290
     0
176
     1
 90
       50
176
     1
 40
0.0
176
     1
 40
1.0
176
     1
 90
        0
176
     1
 62
    18
420
        0
176
     1
 90
       50
176
     1
 90
        3
176
     1
 62
     5
420
      255
176
     1
290
     0
176
     1
 90
       50
176
     1
 90
       50
176
     1
 90
       50
176
     1
290
     0
176
     1
 90
       50
176
     1
 62
   256
176
     0
 40
1.0
176
     0
 90
        2
176
     1
  1
strokes_ogs.tif
176
     1
290
     0
176
     1
 40
1.0
176
     1
 40
1.0
176
     1
  0
VISUALSTYLE
  5
286
102
{ACAD_REACTORS
330
224
102
}
330
224
100
AcDbVisualStyle
  2
Shades of Gray
 70
    23
177
     3
291
     0
 70
    58
 90
        2
176
     1
 90
        2
176
     1
 90
        3
176
     1
 90
        0
176
     1
 40
0.6
176
     1
 40
30.0
176
     1
 62
     7
420
 16777215
176
     1
 90
        2
176
     1
 90
        2
176
     1
 62
     7
176
     1
 62
     7
176
     1
 90
        1
176
     1
 90
        1
176
     1
 40
40.0
176
     1
 90
        8
176
     1
 62
     7
176
     1
 40
1.0
176
     1
 90
        1
176
     1
 90
        6
176
     1
 90
        2
176
     1
 62
     7
176
     1
 90
        3
176
     1
 90
        0
176
     1
 90
        0
176
     1
290
     0
176
     1
 90
        1
176
     1
 40
0.0
176
     1
 90
        0
176
     1
290
     0
176
     1
290
     1
176
     1
290
     1
176
     1
290
     0
176
     1
290
     0
176
     1
290
     0
176
     1
290
     0
176
     1
290
     0
176
     1
290
     0
176
     1
 90
       50
176
     1
 40
0.0
176
     1
 40
1.0
176
     1
 90
        0
176
     1
 62
    18
420
        0
176
     1
 90
       50
176
     1
 90
        3
176
     1
 62
     5
420
      255
176
     1
290
     0
176
     1
 90
       50
176
     1
 90
       50
176
     1
 90
       50
176
     1
290
     0
176
     1
 90
       50
176
     1
 62
   256
176
     0
 40
1.0
176
     0
 90
        2
176
     1
  1
strokes_ogs.tif
176
     1
290
     0
176
     1
 40
1.0
176
     1
 40
1.0
176
     1
  0
VISUALSTYLE
  5
287
102
{ACAD_REACTORS
330
224
102
}
330
224
100
AcDbVisualStyle
  2
Sketchy
 70
    24
177
     3
291
     0
 70
    58
 90
        1
176
     1
 90
        2
176
     1
 90
        2
176
     1
 90
        0
176
     1
 40
0.6
176
     1
 40
30.0
176
     1
 62
     7
420
 16777215
176
     1
 90
        2
176
     1
 90
        2
176
     1
 62
     7
176
     1
 62
     7
176
     1
 90
        1
176
     1
 90
        1
176
     1
 40
40.0
176
     1
 90
       11
176
     1
 62
     7
176
     1
 40
1.0
176
     1
 90
        1
176
     1
 90
        6
176
     1
 90
        2
176
     1
 62
     7
176
     1
 90
        6
176
     1
 90
        0
176
     1
 90
        0
176
     1
290
     0
176
     1
 90
        1
176
     1
 40
0.0
176
     1
 90
        0
176
     1
290
     0
176
     1
290
     1
176
     1
290
     1
176
     1
290
     0
176
     1
290
     0
176
     1
290
     0
176
     1
290
     0
176
     1
290
     0
176
     1
290
     0
176
     1
 90
       50
176
     1
 40
0.0
176
     1
 40
1.0
176
     1
 90
        0
176
     1
 62
    18
420
        0
176
     1
 90
       50
176
     1
 90
        3
176
     1
 62
     5
420
      255
176
     1
290
     0
176
     1
 90
       50
176
     1
 90
       50
176
     1
 90
       50
176
     1
290
     0
176
     1
 90
       50
176
     1
 62
   256
176
     0
 40
1.0
176
     0
 90
        2
176
     1
  1
strokes_ogs.tif
176
     1
290
     0
176
     1
 40
1.0
176
     1
 40
1.0
176
     1
  0
VISUALSTYLE
  5
231
102
{ACAD_REACTORS
330
224
102
}
330
224
100
AcDbVisualStyle
  2
Thicken
 70
    13
177
     3
291
     1
 70
    58
 90
        2
176
     1
 90
        2
176
     1
 90
        0
176
     1
 90
        0
176
     1
 40
-0.6
176
     1
 40
-30.0
176
     1
 62
     7
176
     1
 90
        1
176
     1
 90
        4
176
     1
 62
     7
176
     1
 62
   257
176
     1
 90
        1
176
     1
 90
        1
176
     1
 40
1.0
176
     1
 90
       12
176
     1
 62
     7
176
     1
 40
1.0
176
     1
 90
        1
176
     1
 90
        6
176
     1
 90
        2
176
     1
 62
     7
176
     1
 90
        5
176
     1
 90
        0
176
     1
 90
        0
176
     1
290
     0
176
     1
 90
        1
176
     1
 40
0.0
176
     1
 90
        0
176
     1
290
     0
176
     1
290
     1
176
     1
290
     1
176
     1
290
     0
176
     1
290
     0
176
     1
290
     0
176
     1
290
     0
176
     1
290
     0
176
     1
290
     0
176
     1
 90
       50
176
     1
 40
0.0
176
     1
 40
1.0
176
     1
 90
        0
176
     1
 62
    18
420
        0
176
     1
 90
       50
176
     1
 90
        3
176
     1
 62
     5
420
      255
176
     1
290
     0
176
     1
 90
       50
176
     1
 90
       50
176
     1
 90
       50
176
     1
290
     0
176
     1
 90
       50
176
     1
 62
   256
176
     0
 40
1.0
176
     0
 90
        2
176
     1
  1
strokes_ogs.tif
176
     1
290
     0
176
     1
 40
1.0
176
     1
 40
1.0
176
     1
  0
VISUALSTYLE
  5
281
102
{ACAD_REACTORS
330
224
102
}
330
224
100
AcDbVisualStyle
  2
Wireframe
 70
     5
177
     3
291
     0
 70
    58
 90
        0
176
     1
 90
        2
176
     1
 90
        0
176
     1
 90
        0
176
     1
 40
0.6
176
     1
 40
30.0
176
     1
 62
     7
420
 16777215
176
     1
 90
        1
176
     1
 90
        4
176
     1
 62
     7
176
     1
 62
   257
176
     1
 90
        1
176
     1
 90
        1
176
     1
 40
1.0
176
     1
 90
        0
176
     1
 62
   257
176
     1
 40
1.0
176
     1
 90
        1
176
     1
 90
        6
176
     1
 90
        2
176
     1
 62
     7
176
     1
 90
        3
176
     1
 90
        0
176
     1
 90
        0
176
     1
290
     0
176
     1
 90
        1
176
     1
 40
0.0
176
     1
 90
        0
176
     1
290
     0
176
     1
290
     1
176
     1
290
     1
176
     1
290
     0
176
     1
290
     0
176
     1
290
     0
176
     1
290
     0
176
     1
290
     0
176
     1
290
     0
176
     1
 90
       50
176
     1
 40
0.0
176
     1
 40
1.0
176
     1
 90
        0
176
     1
 62
    18
420
        0
176
     1
 90
       50
176
     1
 90
        3
176
     1
 62
     5
420
      255
176
     1
290
     0
176
     1
 90
       50
176
     1
 90
       50
176
     1
 90
       50
176
     1
290
     0
176
     1
 90
       50
176
     1
 62
   256
176
     0
 40
1.0
176
     0
 90
        2
176
     1
  1
strokes_ogs.tif
176
     1
290
     0
176
     1
 40
1.0
176
     1
 40
1.0
176
     1
  0
VISUALSTYLE
  5
288
102
{ACAD_REACTORS
330
224
102
}
330
224
100
AcDbVisualStyle
  2
X-Ray
 70
    25
177
     3
291
     0
 70
    58
 90
        2
176
     1
 90
        2
176
     1
 90
        1
176
     1
 90
        1
176
     1
 40
0.5
176
     1
 40
30.0
176
     1
 62
     7
420
 16777215
176
     1
 90
        1
176
     1
 90
        0
176
     1
 62
     7
176
     1
 62
   257
176
     1
 90
        1
176
     1
 90
        1
176
     1
 40
1.0
176
     1
 90
        8
176
     1
 62
     7
176
     1
 40
1.0
176
     1
 90
        1
176
     1
 90
        6
176
     1
 90
        2
176
     1
 62
     7
176
     1
 90
        3
176
     1
 90
        0
176
     1
 90
        0
176
     1
290
     0
176
     1
 90
       13
176
     1
 40
0.0
176
     1
 90
        0
176
     1
290
     0
176
     1
290
     1
176
     1
290
     1
176
     1
290
     0
176
     1
290
     0
176
     1
290
     0
176
     1
290
     0
176
     1
290
     0
176
     1
290
     0
176
     1
 90
       50
176
     1
 40
0.0
176
     1
 40
1.0
176
     1
 90
        0
176
     1
 62
    18
420
        0
176
     1
 90
       50
176
     1
 90
        3
176
     1
 62
     5
420
      255
176
     1
290
     0
176
     1
 90
       50
176
     1
 90
       50
176
     1
 90
       50
176
     1
290
     0
176
     1
 90
       50
176
     1
 62
   256
176
     0
 40
1.0
176
     0
 90
        2
176
     1
  1
strokes_ogs.tif
176
     1
290
     0
176
     1
 40
1.0
176
     1
 40
1.0
176
     1
  0
DICTIONARYVAR
  5
298
102
{ACAD_REACTORS
330
240
102
}
330
240
100
DictionaryVariables
280
     0
  1
1:1
  0
DICTIONARYVAR
  5
29A
102
{ACAD_REACTORS
330
240
102
}
330
240
100
DictionaryVariables
280
     0
  1
Standard
  0
DICTIONARYVAR
  5
299
102
{ACAD_REACTORS
330
240
102
}
330
240
100
DictionaryVariables
280
     0
  1
Standard
  0
DICTIONARYVAR
  5
244
102
{ACAD_REACTORS
330
240
102
}
330
240
100
DictionaryVariables
280
     0
  1
2
  0
DICTIONARYVAR
  5
245
102
{ACAD_REACTORS
330
240
102
}
330
240
100
DictionaryVariables
280
     0
  1
1
  0
DICTIONARYVAR
  5
243
102
{ACAD_REACTORS
330
240
102
}
330
240
100
DictionaryVariables
280
     0
  1
0
  0
DICTIONARY
  5
2CD
330
28C
100
AcDbDictionary
280
     1
281
     1
  3
ACAD_ROUNDTRIP_2008_TABLESTYLE_CELLSTYLEMAP
360
2CE
  0
CELLSTYLEMAP
  5
2CE
102
{ACAD_REACTORS
330
2CD
102
}
330
2CD
100
AcDbCellStyleMap
 90
        3
300
CELLSTYLE
  1
TABLEFORMAT_BEGIN
 90
        5
170
     1
 91
        0
 92
    32768
 62
   257
 93
        1
300
CONTENTFORMAT
  1
CONTENTFORMAT_BEGIN
 90
        0
 91
        0
 92
        4
 93
        0
300

 40
0.0
140
1.0
 94
        5
 62
     0
340
11
144
0.25
309
CONTENTFORMAT_END
171
     1
301
MARGIN
  1
CELLMARGIN_BEGIN
 40
0.06
 40
0.06
 40
0.06
 40
0.06
 40
0.06
 40
0.06
309
CELLMARGIN_END
 94
        6
 95
        1
302
GRIDFORMAT
  1
GRIDFORMAT_BEGIN
 90
        0
 91
        1
 62
     0
 92
       -2
340
14
 93
        0
 40
0.045
309
GRIDFORMAT_END
 95
        2
302
GRIDFORMAT
  1
GRIDFORMAT_BEGIN
 90
        0
 91
        1
 62
     0
 92
       -2
340
14
 93
        0
 40
0.045
309
GRIDFORMAT_END
 95
        4
302
GRIDFORMAT
  1
GRIDFORMAT_BEGIN
 90
        0
 91
        1
 62
     0
 92
       -2
340
14
 93
        0
 40
0.045
309
GRIDFORMAT_END
 95
        8
302
GRIDFORMAT
  1
GRIDFORMAT_BEGIN
 90
        0
 91
        1
 62
     0
 92
       -2
340
14
 93
        0
 40
0.045
309
GRIDFORMAT_END
 95
       16
302
GRIDFORMAT
  1
GRIDFORMAT_BEGIN
 90
        0
 91
        1
 62
     0
 92
       -2
340
14
 93
        0
 40
0.045
309
GRIDFORMAT_END
 95
       32
302
GRIDFORMAT
  1
GRIDFORMAT_BEGIN
 90
        0
 91
        1
 62
     0
 92
       -2
340
14
 93
        0
 40
0.045
309
GRIDFORMAT_END
309
TABLEFORMAT_END
  1
CELLSTYLE_BEGIN
 90
        1
 91
        1
300
_TITLE
309
CELLSTYLE_END
300
CELLSTYLE
  1
TABLEFORMAT_BEGIN
 90
        5
170
     1
 91
        0
 92
        0
 62
   257
 93
        1
300
CONTENTFORMAT
  1
CONTENTFORMAT_BEGIN
 90
        0
 91
        0
 92
        4
 93
        0
300

 40
0.0
140
1.0
 94
        5
 62
     0
340
11
144
0.18
309
CONTENTFORMAT_END
171
     1
301
MARGIN
  1
CELLMARGIN_BEGIN
 40
0.06
 40
0.06
 40
0.06
 40
0.06
 40
0.06
 40
0.06
309
CELLMARGIN_END
 94
        6
 95
        1
302
GRIDFORMAT
  1
GRIDFORMAT_BEGIN
 90
        0
 91
        1
 62
     0
 92
       -2
340
14
 93
        0
 40
0.045
309
GRIDFORMAT_END
 95
        2
302
GRIDFORMAT
  1
GRIDFORMAT_BEGIN
 90
        0
 91
        1
 62
     0
 92
       -2
340
14
 93
        0
 40
0.045
309
GRIDFORMAT_END
 95
        4
302
GRIDFORMAT
  1
GRIDFORMAT_BEGIN
 90
        0
 91
        1
 62
     0
 92
       -2
340
14
 93
        0
 40
0.045
309
GRIDFORMAT_END
 95
        8
302
GRIDFORMAT
  1
GRIDFORMAT_BEGIN
 90
        0
 91
        1
 62
     0
 92
       -2
340
14
 93
        0
 40
0.045
309
GRIDFORMAT_END
 95
       16
302
GRIDFORMAT
  1
GRIDFORMAT_BEGIN
 90
        0
 91
        1
 62
     0
 92
       -2
340
14
 93
        0
 40
0.045
309
GRIDFORMAT_END
 95
       32
302
GRIDFORMAT
  1
GRIDFORMAT_BEGIN
 90
        0
 91
        1
 62
     0
 92
       -2
340
14
 93
        0
 40
0.045
309
GRIDFORMAT_END
309
TABLEFORMAT_END
  1
CELLSTYLE_BEGIN
 90
        2
 91
        1
300
_HEADER
309
CELLSTYLE_END
300
CELLSTYLE
  1
TABLEFORMAT_BEGIN
 90
        5
170
     1
 91
        0
 92
        0
 62
   257
 93
        1
300
CONTENTFORMAT
  1
CONTENTFORMAT_BEGIN
 90
        0
 91
        0
 92
        4
 93
        0
300

 40
0.0
140
1.0
 94
        2
 62
     0
340
11
144
0.18
309
CONTENTFORMAT_END
171
     1
301
MARGIN
  1
CELLMARGIN_BEGIN
 40
0.06
 40
0.06
 40
0.06
 40
0.06
 40
0.06
 40
0.06
309
CELLMARGIN_END
 94
        6
 95
        1
302
GRIDFORMAT
  1
GRIDFORMAT_BEGIN
 90
        0
 91
        1
 62
     0
 92
       -2
340
14
 93
        0
 40
0.045
309
GRIDFORMAT_END
 95
        2
302
GRIDFORMAT
  1
GRIDFORMAT_BEGIN
 90
        0
 91
        1
 62
     0
 92
       -2
340
14
 93
        0
 40
0.045
309
GRIDFORMAT_END
 95
        4
302
GRIDFORMAT
  1
GRIDFORMAT_BEGIN
 90
        0
 91
        1
 62
     0
 92
       -2
340
14
 93
        0
 40
0.045
309
GRIDFORMAT_END
 95
        8
302
GRIDFORMAT
  1
GRIDFORMAT_BEGIN
 90
        0
 91
        1
 62
     0
 92
       -2
340
14
 93
        0
 40
0.045
309
GRIDFORMAT_END
 95
       16
302
GRIDFORMAT
  1
GRIDFORMAT_BEGIN
 90
        0
 91
        1
 62
     0
 92
       -2
340
14
 93
        0
 40
0.045
309
GRIDFORMAT_END
 95
       32
302
GRIDFORMAT
  1
GRIDFORMAT_BEGIN
 90
        0
 91
        1
 62
     0
 92
       -2
340
14
 93
        0
 40
0.045
309
GRIDFORMAT_END
309
TABLEFORMAT_END
  1
CELLSTYLE_BEGIN
 90
        3
 91
        2
300
_DATA
309
CELLSTYLE_END
  0
ENDSEC
  0
EOF
