  0
SECTION
  2
HEADER
  9
$ACADVER
  1
AC1027
  9
$ACADMAINTVER
 70
   105
  9
$DWGCODEPAGE
  3
ANSI_1252
  9
$REQUIREDVERSIONS
160
                 0
  9
$LASTSAVEDBY
  1
christoph.stuessi
  9
$INSBASE
 10
0.0
 20
0.0
 30
0.0
  9
$EXTMIN
 10
-24.54188214453054
 20
-25.68321718062026
 30
0.0
  9
$EXTMAX
 10
35.46419947707781
 20
23.87677955136261
 30
0.0
  9
$LIMMIN
 10
-29.162913615
 20
-10.308985563
  9
$LIMMAX
 10
40.544639498
 20
21.207541889
  9
$ORTHOMODE
 70
     0
  9
$REGENMODE
 70
     1
  9
$FILLMODE
 70
     1
  9
$QTEXTMODE
 70
     0
  9
$MIRRTEXT
 70
     1
  9
$LTSCALE
 40
1.0
  9
$ATTMODE
 70
     1
  9
$TEXTSIZE
 40
0.2
  9
$TRACEWID
 40
0.05
  9
$TEXTSTYLE
  7
Standard
  9
$CLAYER
  8
1
  9
$CELTYPE
  6
ByLayer
  9
$CECOLOR
 62
   256
  9
$CELTSCALE
 40
1.0
  9
$DISPSILH
 70
     0
  9
$DIMSCALE
 40
1.0
  9
$DIMASZ
 40
0.18
  9
$DIMEXO
 40
0.0625
  9
$DIMDLI
 40
0.38
  9
$DIMRND
 40
0.0
  9
$DIMDLE
 40
0.0
  9
$DIMEXE
 40
0.18
  9
$DIMTP
 40
0.0
  9
$DIMTM
 40
0.0
  9
$DIMTXT
 40
0.18
  9
$DIMCEN
 40
0.09
  9
$DIMTSZ
 40
0.0
  9
$DIMTOL
 70
     0
  9
$DIMLIM
 70
     0
  9
$DIMTIH
 70
     1
  9
$DIMTOH
 70
     1
  9
$DIMSE1
 70
     0
  9
$DIMSE2
 70
     0
  9
$DIMTAD
 70
     0
  9
$DIMZIN
 70
     0
  9
$DIMBLK
  1

  9
$DIMASO
 70
     1
  9
$DIMSHO
 70
     1
  9
$DIMPOST
  1

  9
$DIMAPOST
  1

  9
$DIMALT
 70
     0
  9
$DIMALTD
 70
     2
  9
$DIMALTF
 40
25.4
  9
$DIMLFAC
 40
1.0
  9
$DIMTOFL
 70
     0
  9
$DIMTVP
 40
0.0
  9
$DIMTIX
 70
     0
  9
$DIMSOXD
 70
     0
  9
$DIMSAH
 70
     0
  9
$DIMBLK1
  1

  9
$DIMBLK2
  1

  9
$DIMSTYLE
  2
Standard
  9
$DIMCLRD
 70
     0
  9
$DIMCLRE
 70
     0
  9
$DIMCLRT
 70
     0
  9
$DIMTFAC
 40
1.0
  9
$DIMGAP
 40
0.09
  9
$DIMJUST
 70
     0
  9
$DIMSD1
 70
     0
  9
$DIMSD2
 70
     0
  9
$DIMTOLJ
 70
     1
  9
$DIMTZIN
 70
     0
  9
$DIMALTZ
 70
     0
  9
$DIMALTTZ
 70
     0
  9
$DIMUPT
 70
     0
  9
$DIMDEC
 70
     4
  9
$DIMTDEC
 70
     4
  9
$DIMALTU
 70
     2
  9
$DIMALTTD
 70
     2
  9
$DIMTXSTY
  7
Standard
  9
$DIMAUNIT
 70
     0
  9
$DIMADEC
 70
     0
  9
$DIMALTRND
 40
0.0
  9
$DIMAZIN
 70
     0
  9
$DIMDSEP
 70
    46
  9
$DIMATFIT
 70
     3
  9
$DIMFRAC
 70
     0
  9
$DIMLDRBLK
  1

  9
$DIMLUNIT
 70
     2
  9
$DIMLWD
 70
    -2
  9
$DIMLWE
 70
    -2
  9
$DIMTMOVE
 70
     2
  9
$DIMFXL
 40
1.0
  9
$DIMFXLON
 70
     0
  9
$DIMJOGANG
 40
0.7853981633974483
  9
$DIMTFILL
 70
     0
  9
$DIMTFILLCLR
 70
     0
  9
$DIMARCSYM
 70
     0
  9
$DIMLTYPE
  6

  9
$DIMLTEX1
  6

  9
$DIMLTEX2
  6

  9
$DIMTXTDIRECTION
 70
     0
  9
$LUNITS
 70
     2
  9
$LUPREC
 70
     4
  9
$SKETCHINC
 40
0.1
  9
$FILLETRAD
 40
0.5
  9
$AUNITS
 70
     2
  9
$AUPREC
 70
     0
  9
$MENU
  1
.
  9
$ELEVATION
 40
0.0
  9
$PELEVATION
 40
0.0
  9
$THICKNESS
 40
0.0
  9
$LIMCHECK
 70
     0
  9
$CHAMFERA
 40
0.5
  9
$CHAMFERB
 40
0.5
  9
$CHAMFERC
 40
1.0
  9
$CHAMFERD
 40
0.0
  9
$SKPOLY
 70
     0
  9
$TDCREATE
 40
2458327.549544479
  9
$TDUCREATE
 40
2458327.466211146
  9
$TDUPDATE
 40
2458397.392832338
  9
$TDUUPDATE
 40
2458397.309499005
  9
$TDINDWG
 40
0.0012702894
  9
$TDUSRTIMER
 40
0.004892662
  9
$USRTIMER
 70
     1
  9
$ANGBASE
 50
0.0
  9
$ANGDIR
 70
     0
  9
$PDMODE
 70
     0
  9
$PDSIZE
 40
0.0
  9
$PLINEWID
 40
0.0
  9
$SPLFRAME
 70
     0
  9
$SPLINETYPE
 70
     6
  9
$SPLINESEGS
 70
     8
  9
$HANDSEED
  5
21A
  9
$SURFTAB1
 70
     6
  9
$SURFTAB2
 70
     6
  9
$SURFTYPE
 70
     6
  9
$SURFU
 70
     6
  9
$SURFV
 70
     6
  9
$UCSBASE
  2

  9
$UCSNAME
  2

  9
$UCSORG
 10
0.0
 20
0.0
 30
0.0
  9
$UCSXDIR
 10
1.0
 20
0.0
 30
0.0
  9
$UCSYDIR
 10
0.0
 20
1.0
 30
0.0
  9
$UCSORTHOREF
  2

  9
$UCSORTHOVIEW
 70
     0
  9
$UCSORGTOP
 10
0.0
 20
0.0
 30
0.0
  9
$UCSORGBOTTOM
 10
0.0
 20
0.0
 30
0.0
  9
$UCSORGLEFT
 10
0.0
 20
0.0
 30
0.0
  9
$UCSORGRIGHT
 10
0.0
 20
0.0
 30
0.0
  9
$UCSORGFRONT
 10
0.0
 20
0.0
 30
0.0
  9
$UCSORGBACK
 10
0.0
 20
0.0
 30
0.0
  9
$PUCSBASE
  2

  9
$PUCSNAME
  2

  9
$PUCSORG
 10
0.0
 20
0.0
 30
0.0
  9
$PUCSXDIR
 10
1.0
 20
0.0
 30
0.0
  9
$PUCSYDIR
 10
0.0
 20
1.0
 30
0.0
  9
$PUCSORTHOREF
  2

  9
$PUCSORTHOVIEW
 70
     0
  9
$PUCSORGTOP
 10
0.0
 20
0.0
 30
0.0
  9
$PUCSORGBOTTOM
 10
0.0
 20
0.0
 30
0.0
  9
$PUCSORGLEFT
 10
0.0
 20
0.0
 30
0.0
  9
$PUCSORGRIGHT
 10
0.0
 20
0.0
 30
0.0
  9
$PUCSORGFRONT
 10
0.0
 20
0.0
 30
0.0
  9
$PUCSORGBACK
 10
0.0
 20
0.0
 30
0.0
  9
$USERI1
 70
     0
  9
$USERI2
 70
     0
  9
$USERI3
 70
     0
  9
$USERI4
 70
     0
  9
$USERI5
 70
     0
  9
$USERR1
 40
0.0
  9
$USERR2
 40
0.0
  9
$USERR3
 40
0.0
  9
$USERR4
 40
0.0
  9
$USERR5
 40
0.0
  9
$WORLDVIEW
 70
     1
  9
$SHADEDGE
 70
     3
  9
$SHADEDIF
 70
    70
  9
$TILEMODE
 70
     1
  9
$MAXACTVP
 70
    64
  9
$PINSBASE
 10
0.0
 20
0.0
 30
0.0
  9
$PLIMCHECK
 70
     0
  9
$PEXTMIN
 10
1.000000000000000E+20
 20
1.000000000000000E+20
 30
1.000000000000000E+20
  9
$PEXTMAX
 10
-1.000000000000000E+20
 20
-1.000000000000000E+20
 30
-1.000000000000000E+20
  9
$PLIMMIN
 10
0.0
 20
0.0
  9
$PLIMMAX
 10
0.0
 20
0.0
  9
$UNITMODE
 70
     0
  9
$VISRETAIN
 70
     1
  9
$PLINEGEN
 70
     0
  9
$PSLTSCALE
 70
     1
  9
$TREEDEPTH
 70
  3020
  9
$CMLSTYLE
  2
Standard
  9
$CMLJUST
 70
     0
  9
$CMLSCALE
 40
1.0
  9
$PROXYGRAPHICS
 70
     1
  9
$MEASUREMENT
 70
     0
  9
$CELWEIGHT
370
    -1
  9
$ENDCAPS
280
     0
  9
$JOINSTYLE
280
     0
  9
$LWDISPLAY
290
     0
  9
$INSUNITS
 70
     0
  9
$HYPERLINKBASE
  1

  9
$STYLESHEET
  1

  9
$XEDIT
290
     1
  9
$CEPSNTYPE
380
     0
  9
$PSTYLEMODE
290
     1
  9
$FINGERPRINTGUID
  2
{94B922E0-457B-45D4-859C-2F1F1F008215}
  9
$VERSIONGUID
  2
{FAEB1C32-E019-11D5-929B-00C0DF256EC4}
  9
$EXTNAMES
290
     1
  9
$PSVPSCALE
 40
0.0
  9
$OLESTARTUP
290
     0
  9
$SORTENTS
280
   127
  9
$INDEXCTL
280
     0
  9
$HIDETEXT
280
     1
  9
$XCLIPFRAME
280
     2
  9
$HALOGAP
280
     0
  9
$OBSCOLOR
 70
   257
  9
$OBSLTYPE
280
     0
  9
$INTERSECTIONDISPLAY
280
     0
  9
$INTERSECTIONCOLOR
 70
   257
  9
$DIMASSOC
280
     2
  9
$PROJECTNAME
  1

  9
$CAMERADISPLAY
290
     0
  9
$LENSLENGTH
 40
50.0
  9
$CAMERAHEIGHT
 40
0.0
  9
$STEPSPERSEC
 40
2.0
  9
$STEPSIZE
 40
6.0
  9
$3DDWFPREC
 40
2.0
  9
$PSOLWIDTH
 40
0.25
  9
$PSOLHEIGHT
 40
4.0
  9
$LOFTANG1
 40
1.570796326794897
  9
$LOFTANG2
 40
1.570796326794897
  9
$LOFTMAG1
 40
0.0
  9
$LOFTMAG2
 40
0.0
  9
$LOFTPARAM
 70
     7
  9
$LOFTNORMALS
280
     1
  9
$LATITUDE
 40
37.795
  9
$LONGITUDE
 40
-122.394
  9
$NORTHDIRECTION
 40
0.0
  9
$TIMEZONE
 70
 -8000
  9
$LIGHTGLYPHDISPLAY
280
     1
  9
$TILEMODELIGHTSYNCH
280
     1
  9
$SOLIDHIST
280
     0
  9
$SHOWHIST
280
     1
  9
$DWFFRAME
280
     2
  9
$DGNFRAME
280
     2
  9
$REALWORLDSCALE
290
     1
  9
$INTERFERECOLOR
 62
   256
  9
$CSHADOW
280
     0
  9
$SHADOWPLANELOCATION
 40
0.0
  0
ENDSEC
  0
SECTION
  2
CLASSES
  0
CLASS
  1
ACDBDICTIONARYWDFLT
  2
AcDbDictionaryWithDefault
  3
ObjectDBX Classes
 90
        0
 91
        5
280
     0
281
     0
  0
CLASS
  1
SCALE
  2
AcDbScale
  3
ObjectDBX Classes
 90
     1153
 91
        5
280
     0
281
     0
  0
CLASS
  1
VISUALSTYLE
  2
AcDbVisualStyle
  3
ObjectDBX Classes
 90
     4095
 91
        5
280
     0
281
     0
  0
CLASS
  1
MATERIAL
  2
AcDbMaterial
  3
ObjectDBX Classes
 90
     1153
 91
        5
280
     0
281
     0
  0
CLASS
  1
DICTIONARYVAR
  2
AcDbDictionaryVar
  3
ObjectDBX Classes
 90
        0
 91
        5
280
     0
281
     0
  0
CLASS
  1
ACDBPLACEHOLDER
  2
AcDbPlaceHolder
  3
ObjectDBX Classes
 90
        0
 91
        1
280
     0
281
     0
  0
CLASS
  1
LAYOUT
  2
AcDbLayout
  3
ObjectDBX Classes
 90
        0
 91
        1
280
     0
281
     0
  0
CLASS
  1
TABLESTYLE
  2
AcDbTableStyle
  3
ObjectDBX Classes
 90
     4095
 91
        5
280
     0
281
     0
  0
CLASS
  1
MLEADERSTYLE
  2
AcDbMLeaderStyle
  3
ACDB_MLEADERSTYLE_CLASS
 90
     4095
 91
        5
280
     0
281
     0
  0
CLASS
  1
CELLSTYLEMAP
  2
AcDbCellStyleMap
  3
ObjectDBX Classes
 90
     1152
 91
        5
280
     0
281
     0
  0
ENDSEC
  0
SECTION
  2
TABLES
  0
TABLE
  2
VPORT
  5
8
330
0
100
AcDbSymbolTable
 70
     1
  0
VPORT
  5
14A
330
8
100
AcDbSymbolTableRecord
100
AcDbViewportTableRecord
  2
*Active
 70
     0
 10
0.0
 20
0.0
 11
1.0
 21
1.0
 12
11.90160198168189
 22
-0.1177988981156108
 13
0.0
 23
0.0
 14
0.5
 24
0.5
 15
0.5
 25
0.5
 16
0.0
 26
0.0
 36
1.0
 17
0.0
 27
0.0
 37
0.0
 40
53.64418029785148
 41
2.269399707174231
 42
50.0
 43
0.0
 44
0.0
 50
0.0
 51
0.0
 71
    16
 72
   100
 73
     1
 74
     3
 75
     0
 76
     0
 77
     0
 78
     0
281
     0
 65
     1
110
0.0
120
0.0
130
0.0
111
1.0
121
0.0
131
0.0
112
0.0
122
1.0
132
0.0
 79
     0
146
0.0
348
17B
 60
     3
 61
     5
292
     1
282
     1
141
0.0
142
0.0
 63
   256
  0
ENDTAB
  0
TABLE
  2
LTYPE
  5
5
330
0
100
AcDbSymbolTable
 70
     8
  0
LTYPE
  5
14
330
5
100
AcDbSymbolTableRecord
100
AcDbLinetypeTableRecord
  2
ByBlock
 70
     0
  3

 72
    65
 73
     0
 40
0.0
  0
LTYPE
  5
15
330
5
100
AcDbSymbolTableRecord
100
AcDbLinetypeTableRecord
  2
ByLayer
 70
     0
  3

 72
    65
 73
     0
 40
0.0
  0
LTYPE
  5
16
330
5
100
AcDbSymbolTableRecord
100
AcDbLinetypeTableRecord
  2
Continuous
 70
     0
  3
Solid line
 72
    65
 73
     0
 40
0.0
  0
LTYPE
  5
20
330
5
100
AcDbSymbolTableRecord
100
AcDbLinetypeTableRecord
  2
PUNKT
 70
     0
  3
..............
 72
    65
 73
     2
 40
1.5
 49
0.7
 74
     0
 49
-0.8
 74
     0
  0
LTYPE
  5
21
330
5
100
AcDbSymbolTableRecord
100
AcDbLinetypeTableRecord
  2
GESTRICHELT
 70
     0
  3
-- -- -- -- --
 72
    65
 73
     7
 40
2.8
 49
0.9
 74
     0
 49
0.0
 74
     0
 49
0.9
 74
     0
 49
0.0
 74
     0
 49
0.2
 74
     0
 49
0.0
 74
     0
 49
-0.8
 74
     0
  0
LTYPE
  5
22
330
5
100
AcDbSymbolTableRecord
100
AcDbLinetypeTableRecord
  2
STRICHPUNKT
 70
     0
  3
--.--.--.--.--
 72
    65
 73
     4
 40
8.8
 49
5.5
 74
     0
 49
-1.3
 74
     0
 49
0.7
 74
     0
 49
-1.3
 74
     0
  0
LTYPE
  5
25
330
5
100
AcDbSymbolTableRecord
100
AcDbLinetypeTableRecord
  2
PHANTOM
 70
     0
  3
--..--..--..--
 72
    65
 73
     6
 40
14.2
 49
7.0
 74
     0
 49
-1.8
 74
     0
 49
0.9
 74
     0
 49
-1.8
 74
     0
 49
0.9
 74
     0
 49
-1.8
 74
     0
  0
LTYPE
  5
1C2
330
5
100
AcDbSymbolTableRecord
100
AcDbLinetypeTableRecord
  2
DASH
 70
     0
  3
DASH _ _ _ _ _
 72
    65
 73
     2
 40
0.75
 49
0.4
 74
     0
 49
-0.35
 74
     0
  0
LTYPE
  5
1C3
330
5
100
AcDbSymbolTableRecord
100
AcDbLinetypeTableRecord
  2
LONGDASH_DASH
 70
     0
  3
LONGDASH_DASH __ . __ . __
 72
    65
 73
     4
 40
0.85
 49
0.4
 74
     0
 49
-0.2
 74
     0
 49
0.05
 74
     0
 49
-0.2
 74
     0
  0
LTYPE
  5
1C4
330
5
100
AcDbSymbolTableRecord
100
AcDbLinetypeTableRecord
  2
LONGDASH_DASH_DASH
 70
     0
  3
LONGDASH_DASH_DASH __ . . __ . . __
 72
    65
 73
     6
 40
1.1
 49
0.4
 74
     0
 49
-0.2
 74
     0
 49
0.05
 74
     0
 49
-0.2
 74
     0
 49
0.05
 74
     0
 49
-0.2
 74
     0
  0
ENDTAB
  0
TABLE
  2
LAYER
  5
2
102
{ACAD_XDICTIONARY
360
1E1
102
}
330
0
100
AcDbSymbolTable
 70
    15
  0
LAYER
  5
18C
330
2
100
AcDbSymbolTableRecord
100
AcDbLayerTableRecord
  2
200
 70
     0
 62
     2
  6
Continuous
370
    50
390
F
347
18A
348
0
  0
LAYER
  5
1C5
330
2
100
AcDbSymbolTableRecord
100
AcDbLayerTableRecord
  2
0
 70
     0
 62
    -1
  6
Continuous
370
    -3
390
F
347
18A
348
0
  0
LAYER
  5
1C6
330
2
100
AcDbSymbolTableRecord
100
AcDbLayerTableRecord
  2
1
 70
     0
 62
     4
  6
Continuous
370
    50
390
F
347
18A
348
0
  0
LAYER
  5
1C7
330
2
100
AcDbSymbolTableRecord
100
AcDbLayerTableRecord
  2
2
 70
     0
 62
     7
  6
Continuous
370
    25
390
F
347
18A
348
0
  0
LAYER
  5
1C8
330
2
100
AcDbSymbolTableRecord
100
AcDbLayerTableRecord
  2
3
 70
     0
 62
     1
  6
DASH
370
    35
390
F
347
18A
348
0
  0
LAYER
  5
1C9
330
2
100
AcDbSymbolTableRecord
100
AcDbLayerTableRecord
  2
4
 70
     0
 62
     2
  6
LONGDASH_DASH
370
    25
390
F
347
18A
348
0
  0
LAYER
  5
1CA
330
2
100
AcDbSymbolTableRecord
100
AcDbLayerTableRecord
  2
6
 70
     0
 62
     5
  6
Continuous
370
    -3
390
F
347
18A
348
0
  0
LAYER
  5
1CB
330
2
100
AcDbSymbolTableRecord
100
AcDbLayerTableRecord
  2
CUT
 70
     0
 62
     1
  6
Continuous
370
    25
390
F
347
18A
348
0
  0
LAYER
  5
1CC
330
2
100
AcDbSymbolTableRecord
100
AcDbLayerTableRecord
  2
NOCUT
 70
     0
 62
     7
  6
Continuous
370
    25
390
F
347
18A
348
0
  0
LAYER
  5
1CD
330
2
100
AcDbSymbolTableRecord
100
AcDbLayerTableRecord
  2
SK1
 70
     0
 62
     4
  6
Continuous
370
    50
390
F
347
18A
348
0
  0
LAYER
  5
1CE
330
2
100
AcDbSymbolTableRecord
100
AcDbLayerTableRecord
  2
SK2
 70
     0
 62
     7
  6
Continuous
370
    25
390
F
347
18A
348
0
  0
LAYER
  5
1CF
330
2
100
AcDbSymbolTableRecord
100
AcDbLayerTableRecord
  2
SK3
 70
     0
 62
     1
  6
DASH
370
    35
390
F
347
18A
348
0
  0
LAYER
  5
1D0
330
2
100
AcDbSymbolTableRecord
100
AcDbLayerTableRecord
  2
SK4
 70
     0
 62
     2
  6
LONGDASH_DASH
370
    25
390
F
347
18A
348
0
  0
LAYER
  5
1D1
330
2
100
AcDbSymbolTableRecord
100
AcDbLayerTableRecord
  2
SK6
 70
     0
 62
     5
  6
Continuous
370
    -3
390
F
347
18A
348
0
  0
LAYER
  5
1D2
330
2
100
AcDbSymbolTableRecord
100
AcDbLayerTableRecord
  2
INFTOTAL
 70
     0
 62
     9
  6
Continuous
370
    18
390
F
347
18A
348
0
  0
ENDTAB
  0
TABLE
  2
STYLE
  5
3
330
0
100
AcDbSymbolTable
 70
     2
  0
STYLE
  5
11
330
3
100
AcDbSymbolTableRecord
100
AcDbTextStyleTableRecord
  2
Standard
 70
     0
 40
0.0
 41
1.0
 50
0.0
 71
     0
 42
0.2
  3
txt
  4

  0
STYLE
  5
18B
330
3
100
AcDbSymbolTableRecord
100
AcDbTextStyleTableRecord
  2
BMG_Text
 70
     0
 40
3.5
 41
1.0
 50
0.0
 71
     0
 42
0.2
  3
monos.ttf
  4

1001
ACAD
1000
Monospac821 BT
1071
       49
  0
ENDTAB
  0
TABLE
  2
VIEW
  5
6
330
0
100
AcDbSymbolTable
 70
     0
  0
ENDTAB
  0
TABLE
  2
UCS
  5
7
330
0
100
AcDbSymbolTable
 70
     0
  0
ENDTAB
  0
TABLE
  2
APPID
  5
9
330
0
100
AcDbSymbolTable
 70
     1
  0
APPID
  5
12
330
9
100
AcDbSymbolTableRecord
100
AcDbRegAppTableRecord
  2
ACAD
 70
     0
  0
ENDTAB
  0
TABLE
  2
DIMSTYLE
  5
A
330
0
100
AcDbSymbolTable
 70
     1
100
AcDbDimStyleTable
  0
DIMSTYLE
105
28
330
A
100
AcDbSymbolTableRecord
100
AcDbDimStyleTableRecord
  2
Standard
 70
     0
178
     0
340
11
  0
ENDTAB
  0
TABLE
  2
BLOCK_RECORD
  5
1
330
0
100
AcDbSymbolTable
 70
     0
  0
BLOCK_RECORD
  5
1D
330
1
100
AcDbSymbolTableRecord
100
AcDbBlockTableRecord
  2
*Model_Space
340
1E
 70
     0
280
     1
281
     0
  0
BLOCK_RECORD
  5
1B
330
1
100
AcDbSymbolTableRecord
100
AcDbBlockTableRecord
  2
*Paper_Space
340
1C
 70
     0
280
     1
281
     0
  0
ENDTAB
  0
ENDSEC
  0
SECTION
  2
BLOCKS
  0
BLOCK
  5
174
330
1D
100
AcDbEntity
  8
0
100
AcDbBlockBegin
  2
*Model_Space
 70
     0
 10
0.0
 20
0.0
 30
0.0
  3
*Model_Space
  1

  0
ENDBLK
  5
175
330
1D
100
AcDbEntity
  8
0
100
AcDbBlockEnd
  0
BLOCK
  5
172
330
1B
100
AcDbEntity
 67
     1
  8
0
100
AcDbBlockBegin
  2
*Paper_Space
 70
     0
 10
0.0
 20
0.0
 30
0.0
  3
*Paper_Space
  1

  0
ENDBLK
  5
173
330
1B
100
AcDbEntity
 67
     1
  8
0
100
AcDbBlockEnd
  0
ENDSEC
  0
SECTION
  2
ENTITIES
  0
LINE
  5
29
330
1D
100
AcDbEntity
  8
2
  6
Continuous
370
    25
100
AcDbLine
 10
23.881725883
 20
-9.999999999
 30
0.0
 11
11.6
 21
-9.999999999
 31
0.0
  0
LINE
  5
2A
330
1D
100
AcDbEntity
  8
2
  6
Continuous
370
    25
100
AcDbLine
 10
21.881725883
 20
-9.999999999
 30
0.0
 11
21.431725883
 21
-6.499999999
 31
0.0
  0
LINE
  5
2B
330
1D
100
AcDbEntity
  8
2
  6
Continuous
370
    25
100
AcDbLine
 10
21.431725883
 20
-6.499999999
 30
0.0
 11
22.331725883
 21
-6.499999999
 31
0.0
  0
LINE
  5
2C
330
1D
100
AcDbEntity
  8
2
  6
Continuous
370
    25
100
AcDbLine
 10
22.331725883
 20
-6.499999999
 30
0.0
 11
21.881725883
 21
-9.999999999
 31
0.0
  0
LINE
  5
2D
330
1D
100
AcDbEntity
  8
2
  6
Continuous
370
    25
100
AcDbLine
 10
23.881725883
 20
9.999999999
 30
0.0
 11
11.6
 21
9.999999999
 31
0.0
  0
LINE
  5
2E
330
1D
100
AcDbEntity
  8
2
  6
Continuous
370
    25
100
AcDbLine
 10
21.881725883
 20
9.999999999
 30
0.0
 11
22.331725883
 21
6.499999999
 31
0.0
  0
LINE
  5
2F
330
1D
100
AcDbEntity
  8
2
  6
Continuous
370
    25
100
AcDbLine
 10
22.331725883
 20
6.499999999
 30
0.0
 11
21.431725883
 21
6.499999999
 31
0.0
  0
LINE
  5
30
330
1D
100
AcDbEntity
  8
2
  6
Continuous
370
    25
100
AcDbLine
 10
21.431725883
 20
6.499999999
 30
0.0
 11
21.881725883
 21
9.999999999
 31
0.0
  0
LINE
  5
31
330
1D
100
AcDbEntity
  8
2
  6
Continuous
370
    25
100
AcDbLine
 10
21.881725883
 20
-6.499999999
 30
0.0
 11
21.881725883
 21
6.499999999
 31
0.0
  0
TEXT
  5
32
330
1D
100
AcDbEntity
  8
2
  6
Continuous
370
    25
100
AcDbText
 10
20.381725883
 20
-3.286406474
 30
0.0
 40
3.5
  1
20
 50
90.0
  7
BMG_Text
100
AcDbText
  0
CIRCLE
  5
33
330
1D
100
AcDbEntity
  8
2
  6
Continuous
370
    25
100
AcDbCircle
 10
19.131725883
 20
-5.536406474
 30
0.0
 40
1.25
  0
LINE
  5
34
330
1D
100
AcDbEntity
  8
2
  6
Continuous
370
    25
100
AcDbLine
 10
20.381725883
 20
-6.786406474
 30
0.0
 11
17.881725883
 21
-4.286406474
 31
0.0
  0
TEXT
  5
35
330
1D
100
AcDbEntity
  8
2
  6
Continuous
370
    25
100
AcDbText
 10
20.381725883
 20
1.542968526
 30
0.0
 40
3.5
  1
-26
 50
90.0
  7
BMG_Text
100
AcDbText
  0
LINE
  5
36
330
1D
100
AcDbEntity
  8
2
  6
Continuous
370
    25
100
AcDbLine
 10
12.0
 20
17.898556327
 30
0.0
 11
12.0
 21
9.599999999
 31
0.0
  0
LINE
  5
37
330
1D
100
AcDbEntity
  8
2
  6
Continuous
370
    25
100
AcDbLine
 10
12.0
 20
15.898556327
 30
0.0
 11
8.5
 21
15.448556326
 31
0.0
  0
LINE
  5
38
330
1D
100
AcDbEntity
  8
2
  6
Continuous
370
    25
100
AcDbLine
 10
8.5
 20
15.448556326
 30
0.0
 11
8.5
 21
16.348556326
 31
0.0
  0
LINE
  5
39
330
1D
100
AcDbEntity
  8
2
  6
Continuous
370
    25
100
AcDbLine
 10
8.5
 20
16.348556326
 30
0.0
 11
12.0
 21
15.898556327
 31
0.0
  0
LINE
  5
3A
330
1D
100
AcDbEntity
  8
2
  6
Continuous
370
    25
100
AcDbLine
 10
-10.5
 20
15.898556322
 30
0.0
 11
8.5
 21
15.898556326
 31
0.0
  0
TEXT
  5
3B
330
1D
100
AcDbEntity
  8
2
  6
Continuous
370
    25
100
AcDbText
 10
-2.227187752
 20
17.398556324
 30
0.0
 40
3.5
  1
32.5
 50
0.000000014
  7
BMG_Text
100
AcDbText
  0
LINE
  5
3C
330
1D
100
AcDbEntity
  8
4
  6
LONGDASH_DASH
370
    25
100
AcDbLine
 10
-4.935682649
 20
0.0
 30
0.0
 11
13.994152633
 21
0.0
 31
0.0
  0
TEXT
  5
3D
330
1D
100
AcDbEntity
  8
SK6
  6
Continuous
370
    35
100
AcDbText
 10
-0.8345604490438595
 20
-21.38712156229101
 30
0.0
 40
3.5
  1
639.113
  7
BMG_Text
100
AcDbText
  0
LINE
  5
3E
330
1D
100
AcDbEntity
  8
1
  6
Continuous
370
    50
100
AcDbLine
 10
6.122215086
 20
3.10246157
 30
0.0
 11
11.641811385
 21
3.682594723
 31
0.0
  0
ARC
  5
3F
330
1D
100
AcDbEntity
  8
CUT
100
AcDbCircle
 10
11.6
 20
4.080403481
 30
0.0
 40
0.4
100
AcDbArc
 50
276.0
 51
6.000031313
  0
LINE
  5
40
330
1D
100
AcDbEntity
  8
CUT
100
AcDbLine
 10
11.997808758
 20
4.122215086
 30
0.0
 11
11.417675787
 21
9.641811385
 31
0.0
  0
ARC
  5
41
330
1D
100
AcDbEntity
  8
CUT
100
AcDbCircle
 10
11.019867029
 20
9.6
 30
0.0
 40
0.4
100
AcDbArc
 50
6.0
 51
95.99999635300001
  0
LINE
  5
42
330
1D
100
AcDbEntity
  8
CUT
100
AcDbLine
 10
10.978055669
 20
9.997808758
 30
0.0
 11
5.458459124
 21
9.417675787
 31
0.0
  0
ARC
  5
43
330
1D
100
AcDbEntity
  8
CUT
100
AcDbCircle
 10
5.500270509
 20
9.019867029
 30
0.0
 40
0.4
100
AcDbArc
 50
96.0
 51
185.999993651
  0
ARC
  5
45
330
1D
100
AcDbEntity
  8
CUT
100
AcDbCircle
 10
6.080403481
 20
3.50027051
 30
0.0
 40
0.4
100
AcDbArc
 50
186.0
 51
276.0
  0
LINE
  5
46
330
1D
100
AcDbEntity
  8
1
  6
Continuous
370
    50
100
AcDbLine
 10
5.420034186
 20
5.956556411
 30
0.0
 11
5.192288589
 21
5.932619529
 31
0.0
  0
ARC
  5
47
330
1D
100
AcDbEntity
  8
SK3
  6
DASH
370
    35
100
AcDbCircle
 10
5.333402015
 20
4.590014971
 30
0.0
 40
1.35
100
AcDbArc
 50
96.0
 51
264.328984688
  0
ARC
  5
48
330
1D
100
AcDbEntity
  8
1
  6
Continuous
370
    50
100
AcDbCircle
 10
5.333402015
 20
4.590014971
 30
0.0
 40
1.35
100
AcDbArc
 50
264.328984688
 51
276.000087132
  0
LINE
  5
49
330
1D
100
AcDbEntity
  8
1
  6
Continuous
370
    50
100
AcDbLine
 10
5.278689222
 20
9.352886055
 30
0.0
 11
5.265941013
 21
9.474175431
 31
0.0
  0
ARC
  5
4A
330
1D
100
AcDbEntity
  8
1
  6
Continuous
370
    50
100
AcDbCircle
 10
5.143816041
 20
9.108152489
 30
0.0
 40
0.385859175
100
AcDbArc
 50
71.548523799
 51
85.85187992299998
  0
ARC
  5
4B
330
1D
100
AcDbEntity
  8
1
  6
Continuous
370
    50
100
AcDbCircle
 10
8.411296279
 20
5.488683399
 30
0.0
 40
0.15
100
AcDbArc
 50
185.992794366
 51
354.007205638
  0
ARC
  5
4C
330
1D
100
AcDbEntity
  8
1
  6
Continuous
370
    50
100
AcDbCircle
 10
7.864302011
 20
5.431261535
 30
0.0
 40
0.4
100
AcDbArc
 50
5.992794361999998
 51
114.007205639
  0
ARC
  5
4D
330
1D
100
AcDbEntity
  8
1
  6
Continuous
370
    50
100
AcDbCircle
 10
7.64053367
 20
5.933683399
 30
0.0
 40
0.15
100
AcDbArc
 50
125.992794369
 51
294.007205638
  0
ARC
  5
4E
330
1D
100
AcDbEntity
  8
1
  6
Continuous
370
    50
100
AcDbCircle
 10
7.317307743
 20
6.378683399
 30
0.0
 40
0.4
100
AcDbArc
 50
305.992794362
 51
54.007205636
  0
ARC
  5
4F
330
1D
100
AcDbEntity
  8
1
  6
Continuous
370
    50
100
AcDbCircle
 10
7.64053367
 20
6.823683399
 30
0.0
 40
0.15
100
AcDbArc
 50
65.992794361
 51
234.007205638
  0
ARC
  5
50
330
1D
100
AcDbEntity
  8
1
  6
Continuous
370
    50
100
AcDbCircle
 10
7.864302011
 20
7.326105263
 30
0.0
 40
0.4
100
AcDbArc
 50
245.992794362
 51
354.007205637
  0
ARC
  5
51
330
1D
100
AcDbEntity
  8
1
  6
Continuous
370
    50
100
AcDbCircle
 10
8.411296279
 20
7.268683399
 30
0.0
 40
0.15
100
AcDbArc
 50
5.992794361999998
 51
174.007205638
  0
ARC
  5
52
330
1D
100
AcDbEntity
  8
1
  6
Continuous
370
    50
100
AcDbCircle
 10
8.958290548
 20
7.326105263
 30
0.0
 40
0.4
100
AcDbArc
 50
185.992794362
 51
294.007205639
  0
ARC
  5
53
330
1D
100
AcDbEntity
  8
1
  6
Continuous
370
    50
100
AcDbCircle
 10
9.182058889
 20
6.823683399
 30
0.0
 40
0.15
100
AcDbArc
 50
305.992794369
 51
114.007205638
  0
ARC
  5
54
330
1D
100
AcDbEntity
  8
1
  6
Continuous
370
    50
100
AcDbCircle
 10
9.505284816
 20
6.378683399
 30
0.0
 40
0.4
100
AcDbArc
 50
125.992794362
 51
234.007205636
  0
ARC
  5
55
330
1D
100
AcDbEntity
  8
1
  6
Continuous
370
    50
100
AcDbCircle
 10
9.182058889
 20
5.933683399
 30
0.0
 40
0.15
100
AcDbArc
 50
245.992794361
 51
54.007205638
  0
ARC
  5
56
330
1D
100
AcDbEntity
  8
1
  6
Continuous
370
    50
100
AcDbCircle
 10
8.958290548
 20
5.431261535
 30
0.0
 40
0.4
100
AcDbArc
 50
65.992794362
 51
174.007205638
  0
LINE
  5
57
330
1D
100
AcDbEntity
  8
1
  6
Continuous
370
    50
100
AcDbLine
 10
11.706561333
 20
3.69485863
 30
0.0
 11
11.80000001
 21
2.8058493
 31
0.0
  0
LINE
  5
58
330
1D
100
AcDbEntity
  8
1
  6
Continuous
370
    50
100
AcDbLine
 10
11.80000001
 20
2.8058493
 30
0.0
 11
11.800000005
 21
2.772613639
 31
0.0
  0
ARC
  5
59
330
1D
100
AcDbEntity
  8
1
  6
Continuous
370
    50
100
AcDbCircle
 10
14.100000005
 20
-0.499999995
 30
0.0
 40
4.0
100
AcDbArc
 50
125.099632195
 51
154.435880718
  0
LINE
  5
5A
330
1D
100
AcDbEntity
  8
SK3
  6
DASH
370
    35
100
AcDbLine
 10
8.367949189
 20
0.0
 30
0.0
 11
6.200000005
 21
-1.251666045
 31
0.0
  0
ARC
  5
5B
330
1D
100
AcDbEntity
  8
SK3
  6
DASH
370
    35
100
AcDbCircle
 10
7.200000005
 20
-2.983716853
 30
0.0
 40
2.0
100
AcDbArc
 50
119.999999993
 51
180.000004781
  0
LINE
  5
5C
330
1D
100
AcDbEntity
  8
SK3
  6
DASH
370
    35
100
AcDbLine
 10
5.199999915
 20
-2.98371702
 30
0.0
 11
5.199999915
 21
-7.249999563
 31
0.0
  0
LINE
  5
5D
330
1D
100
AcDbEntity
  8
1
  6
Continuous
370
    50
100
AcDbLine
 10
5.4745153
 20
3.247410451
 30
0.0
 11
5.74901271
 21
3.276261264
 31
0.0
  0
LINE
  5
5E
330
1D
100
AcDbEntity
  8
SK3
  6
DASH
370
    35
100
AcDbLine
 10
5.199999915
 20
-7.249999148
 30
0.0
 11
3.900961851
 21
-9.500000398
 31
0.0
  0
CIRCLE
  5
5F
330
1D
100
AcDbEntity
  8
1
  6
Continuous
370
    50
100
AcDbCircle
 10
8.411296279
 20
6.378683399
 30
0.0
 40
1.8
  0
LINE
  5
60
330
1D
100
AcDbEntity
  8
1
  6
Continuous
370
    50
100
AcDbLine
 10
1.649999905
 20
9.49355006
 30
0.0
 11
1.499060456
 21
9.493076948
 31
0.0
  0
LINE
  5
61
330
1D
100
AcDbEntity
  8
1
  6
Continuous
370
    50
100
AcDbLine
 10
1.499060456
 20
9.493076948
 30
0.0
 11
1.352374356
 21
9.491547716
 31
0.0
  0
LINE
  5
62
330
1D
100
AcDbEntity
  8
1
  6
Continuous
370
    50
100
AcDbLine
 10
1.352374356
 20
9.491547716
 30
0.0
 11
1.214192163
 21
9.488729534
 31
0.0
  0
LINE
  5
63
330
1D
100
AcDbEntity
  8
1
  6
Continuous
370
    50
100
AcDbLine
 10
1.214192163
 20
9.488729534
 30
0.0
 11
1.088299703
 21
9.484249872
 31
0.0
  0
LINE
  5
64
330
1D
100
AcDbEntity
  8
1
  6
Continuous
370
    50
100
AcDbLine
 10
1.088299703
 20
9.484249872
 30
0.0
 11
0.978528436
 21
9.47767101
 31
0.0
  0
LINE
  5
65
330
1D
100
AcDbEntity
  8
1
  6
Continuous
370
    50
100
AcDbLine
 10
0.978528436
 20
9.47767101
 30
0.0
 11
0.887660224
 21
9.468611104
 31
0.0
  0
LINE
  5
66
330
1D
100
AcDbEntity
  8
1
  6
Continuous
370
    50
100
AcDbLine
 10
0.887660224
 20
9.468611104
 30
0.0
 11
0.818555158
 21
9.456714389
 31
0.0
  0
LINE
  5
67
330
1D
100
AcDbEntity
  8
1
  6
Continuous
370
    50
100
AcDbLine
 10
0.818555158
 20
9.456714389
 30
0.0
 11
0.772699628
 21
9.441891459
 31
0.0
  0
LINE
  5
68
330
1D
100
AcDbEntity
  8
1
  6
Continuous
370
    50
100
AcDbLine
 10
0.772699628
 20
9.441891459
 30
0.0
 11
0.751569781
 21
9.42409761
 31
0.0
  0
LINE
  5
69
330
1D
100
AcDbEntity
  8
1
  6
Continuous
370
    50
100
AcDbLine
 10
0.751569781
 20
9.42409761
 30
0.0
 11
0.755430113
 21
9.403774289
 31
0.0
  0
LINE
  5
6A
330
1D
100
AcDbEntity
  8
1
  6
Continuous
370
    50
100
AcDbLine
 10
0.755430113
 20
9.403774289
 30
0.0
 11
0.78475653
 21
9.38123442
 31
0.0
  0
LINE
  5
6B
330
1D
100
AcDbEntity
  8
1
  6
Continuous
370
    50
100
AcDbLine
 10
0.78475653
 20
9.38123442
 30
0.0
 11
0.838381153
 21
9.357556475
 31
0.0
  0
LINE
  5
6C
330
1D
100
AcDbEntity
  8
1
  6
Continuous
370
    50
100
AcDbLine
 10
0.838381153
 20
9.357556475
 30
0.0
 11
0.916106541
 21
9.333491099
 31
0.0
  0
LINE
  5
6D
330
1D
100
AcDbEntity
  8
1
  6
Continuous
370
    50
100
AcDbLine
 10
0.916106541
 20
9.333491099
 30
0.0
 11
1.015038144
 21
9.310537723
 31
0.0
  0
LINE
  5
6E
330
1D
100
AcDbEntity
  8
1
  6
Continuous
370
    50
100
AcDbLine
 10
1.015038144
 20
9.310537723
 30
0.0
 11
1.132909123
 21
9.289981571
 31
0.0
  0
LINE
  5
6F
330
1D
100
AcDbEntity
  8
1
  6
Continuous
370
    50
100
AcDbLine
 10
1.132909123
 20
9.289981571
 30
0.0
 11
1.266145993
 21
9.273065028
 31
0.0
  0
LINE
  5
70
330
1D
100
AcDbEntity
  8
1
  6
Continuous
370
    50
100
AcDbLine
 10
1.266145993
 20
9.273065028
 30
0.0
 11
1.408699814
 21
9.261136649
 31
0.0
  0
LINE
  5
71
330
1D
100
AcDbEntity
  8
1
  6
Continuous
370
    50
100
AcDbLine
 10
1.408699814
 20
9.261136649
 30
0.0
 11
1.558402467
 21
9.254596901
 31
0.0
  0
LINE
  5
72
330
1D
100
AcDbEntity
  8
1
  6
Continuous
370
    50
100
AcDbLine
 10
1.558402467
 20
9.254596901
 30
0.0
 11
1.707413148
 21
9.25396919
 31
0.0
  0
LINE
  5
73
330
1D
100
AcDbEntity
  8
1
  6
Continuous
370
    50
100
AcDbLine
 10
1.707413148
 20
9.25396919
 30
0.0
 11
1.85478377
 21
9.258966667
 31
0.0
  0
LINE
  5
74
330
1D
100
AcDbEntity
  8
1
  6
Continuous
370
    50
100
AcDbLine
 10
1.85478377
 20
9.258966667
 30
0.0
 11
1.995137807
 21
9.269255919
 31
0.0
  0
LINE
  5
75
330
1D
100
AcDbEntity
  8
1
  6
Continuous
370
    50
100
AcDbLine
 10
1.995137807
 20
9.269255919
 30
0.0
 11
2.125969071
 21
9.284095613
 31
0.0
  0
LINE
  5
76
330
1D
100
AcDbEntity
  8
1
  6
Continuous
370
    50
100
AcDbLine
 10
2.125969071
 20
9.284095613
 30
0.0
 11
2.245239828
 21
9.302932543
 31
0.0
  0
LINE
  5
77
330
1D
100
AcDbEntity
  8
1
  6
Continuous
370
    50
100
AcDbLine
 10
2.245239828
 20
9.302932543
 30
0.0
 11
2.348133277
 21
9.324425605
 31
0.0
  0
LINE
  5
78
330
1D
100
AcDbEntity
  8
1
  6
Continuous
370
    50
100
AcDbLine
 10
2.348133277
 20
9.324425605
 30
0.0
 11
2.433479678
 21
9.347965715
 31
0.0
  0
LINE
  5
79
330
1D
100
AcDbEntity
  8
1
  6
Continuous
370
    50
100
AcDbLine
 10
2.433479678
 20
9.347965715
 30
0.0
 11
2.496728588
 21
9.371865315
 31
0.0
  0
LINE
  5
7A
330
1D
100
AcDbEntity
  8
1
  6
Continuous
370
    50
100
AcDbLine
 10
2.496728588
 20
9.371865315
 30
0.0
 11
2.536164511
 21
9.395262
 31
0.0
  0
LINE
  5
7B
330
1D
100
AcDbEntity
  8
1
  6
Continuous
370
    50
100
AcDbLine
 10
2.536164511
 20
9.395262
 30
0.0
 11
2.549992789
 21
9.416933877
 31
0.0
  0
LINE
  5
7C
330
1D
100
AcDbEntity
  8
1
  6
Continuous
370
    50
100
AcDbLine
 10
2.549992789
 20
9.416933877
 30
0.0
 11
2.537422728
 21
9.436009226
 31
0.0
  0
LINE
  5
7D
330
1D
100
AcDbEntity
  8
1
  6
Continuous
370
    50
100
AcDbLine
 10
2.537422728
 20
9.436009226
 30
0.0
 11
2.499143507
 21
9.452204925
 31
0.0
  0
LINE
  5
7E
330
1D
100
AcDbEntity
  8
1
  6
Continuous
370
    50
100
AcDbLine
 10
2.499143507
 20
9.452204925
 30
0.0
 11
2.436654556
 21
9.465140996
 31
0.0
  0
LINE
  5
7F
330
1D
100
AcDbEntity
  8
1
  6
Continuous
370
    50
100
AcDbLine
 10
2.436654556
 20
9.465140996
 30
0.0
 11
2.351691861
 21
9.475169477
 31
0.0
  0
LINE
  5
80
330
1D
100
AcDbEntity
  8
1
  6
Continuous
370
    50
100
AcDbLine
 10
2.351691861
 20
9.475169477
 30
0.0
 11
2.24724124
 21
9.482467321
 31
0.0
  0
LINE
  5
81
330
1D
100
AcDbEntity
  8
1
  6
Continuous
370
    50
100
AcDbLine
 10
2.24724124
 20
9.482467321
 30
0.0
 11
2.125936475
 21
9.487554205
 31
0.0
  0
LINE
  5
82
330
1D
100
AcDbEntity
  8
1
  6
Continuous
370
    50
100
AcDbLine
 10
2.125936475
 20
9.487554205
 30
0.0
 11
1.991228115
 21
9.490836186
 31
0.0
  0
LINE
  5
83
330
1D
100
AcDbEntity
  8
1
  6
Continuous
370
    50
100
AcDbLine
 10
1.991228115
 20
9.490836186
 30
0.0
 11
1.846921544
 21
9.492721183
 31
0.0
  0
LINE
  5
84
330
1D
100
AcDbEntity
  8
1
  6
Continuous
370
    50
100
AcDbLine
 10
1.846921544
 20
9.492721183
 30
0.0
 11
1.649999905
 21
9.49355006
 31
0.0
  0
ARC
  5
85
330
1D
100
AcDbEntity
  8
1
  6
Continuous
370
    50
100
AcDbCircle
 10
-18.913117238
 20
2.733169191
 30
0.0
 40
31.004229131
100
AcDbArc
 50
348.613957204
 51
350.020067444
  0
ARC
  5
86
330
1D
100
AcDbEntity
  8
1
  6
Continuous
370
    50
100
AcDbCircle
 10
6.514763237
 20
-2.38758112
 30
0.0
 40
5.059350619
100
AcDbArc
 50
341.375061243
 51
348.614356529
  0
ARC
  5
87
330
1D
100
AcDbEntity
  8
1
  6
Continuous
370
    50
100
AcDbCircle
 10
9.961054785
 20
-3.549056544
 30
0.0
 40
1.422600615
100
AcDbArc
 50
327.0087052810001
 51
341.375061243
  0
ARC
  5
88
330
1D
100
AcDbEntity
  8
1
  6
Continuous
370
    50
100
AcDbCircle
 10
11.105636273
 20
-4.292108524
 30
0.0
 40
0.057978679
100
AcDbArc
 50
263.933483482
 51
327.008116132
  0
ARC
  5
89
330
1D
100
AcDbEntity
  8
1
  6
Continuous
370
    50
100
AcDbCircle
 10
11.105636273
 20
-4.292108524
 30
0.0
 40
0.057978679
100
AcDbArc
 50
200.858850832
 51
263.933483482
  0
ARC
  5
8A
330
1D
100
AcDbEntity
  8
1
  6
Continuous
370
    50
100
AcDbCircle
 10
12.380826695
 20
-3.806225392
 30
0.0
 40
1.422600615
100
AcDbArc
 50
186.491905721
 51
200.858261683
  0
ARC
  5
8B
330
1D
100
AcDbEntity
  8
1
  6
Continuous
370
    50
100
AcDbCircle
 10
15.99425727
 20
-3.395044075
 30
0.0
 40
5.059350619
100
AcDbArc
 50
179.252610435
 51
186.491905721
  0
ARC
  5
8C
330
1D
100
AcDbEntity
  8
1
  6
Continuous
370
    50
100
AcDbCircle
 10
41.930426235
 20
-3.733169196
 30
0.0
 40
30.997723529
100
AcDbArc
 50
178.649579189
 51
179.25300976
  0
LINE
  5
8D
330
1D
100
AcDbEntity
  8
1
  6
Continuous
370
    50
100
AcDbLine
 10
10.936428591
 20
-3.002527396
 30
0.0
 11
10.888566876
 21
-2.974894589
 31
0.0
  0
LINE
  5
8E
330
1D
100
AcDbEntity
  8
1
  6
Continuous
370
    50
100
AcDbLine
 10
10.888566876
 20
-2.974894589
 30
0.0
 11
10.859467003
 21
-2.95809353
 31
0.0
  0
LINE
  5
8F
330
1D
100
AcDbEntity
  8
1
  6
Continuous
370
    50
100
AcDbLine
 10
10.859467003
 20
-2.95809353
 30
0.0
 11
10.822278362
 21
-2.93662282
 31
0.0
  0
LINE
  5
90
330
1D
100
AcDbEntity
  8
1
  6
Continuous
370
    50
100
AcDbLine
 10
10.822278362
 20
-2.93662282
 30
0.0
 11
10.773580668
 21
-2.908507122
 31
0.0
  0
LINE
  5
91
330
1D
100
AcDbEntity
  8
1
  6
Continuous
370
    50
100
AcDbLine
 10
10.773580668
 20
-2.908507122
 30
0.0
 11
10.655143678
 21
-2.840127556
 31
0.0
  0
LINE
  5
92
330
1D
100
AcDbEntity
  8
1
  6
Continuous
370
    50
100
AcDbLine
 10
10.655143678
 20
-2.840127556
 30
0.0
 11
10.586371327
 21
-2.800422015
 31
0.0
  0
LINE
  5
93
330
1D
100
AcDbEntity
  8
1
  6
Continuous
370
    50
100
AcDbLine
 10
10.586371327
 20
-2.800422015
 30
0.0
 11
10.513626186
 21
-2.758422627
 31
0.0
  0
LINE
  5
94
330
1D
100
AcDbEntity
  8
1
  6
Continuous
370
    50
100
AcDbLine
 10
10.513626186
 20
-2.758422627
 30
0.0
 11
10.078923807
 21
-2.507447025
 31
0.0
  0
LINE
  5
95
330
1D
100
AcDbEntity
  8
1
  6
Continuous
370
    50
100
AcDbLine
 10
10.078923807
 20
-2.507447025
 30
0.0
 11
9.640938051
 21
-2.254575717
 31
0.0
  0
LINE
  5
96
330
1D
100
AcDbEntity
  8
1
  6
Continuous
370
    50
100
AcDbLine
 10
9.640938051
 20
-2.254575717
 30
0.0
 11
9.200000118
 21
-1.999999623
 31
0.0
  0
LINE
  5
97
330
1D
100
AcDbEntity
  8
1
  6
Continuous
370
    50
100
AcDbLine
 10
9.200000118
 20
-1.999999623
 30
0.0
 11
7.199999791
 21
-1.999999623
 31
0.0
  0
ARC
  5
98
330
1D
100
AcDbEntity
  8
1
  6
Continuous
370
    50
100
AcDbCircle
 10
7.200172321
 20
0.00017277
 30
0.0
 40
2.0001724
100
AcDbArc
 50
180.004955532
 51
269.995057808
  0
LINE
  5
99
330
1D
100
AcDbEntity
  8
1
  6
Continuous
370
    50
100
AcDbLine
 10
5.199999928
 20
-0.000000226
 30
0.0
 11
5.199999928
 21
7.248334361
 31
0.0
  0
LINE
  5
9A
330
1D
100
AcDbEntity
  8
1
  6
Continuous
370
    50
100
AcDbLine
 10
5.199999928
 20
7.248334361
 30
0.0
 11
5.071731664
 21
7.470501361
 31
0.0
  0
LINE
  5
9B
330
1D
100
AcDbEntity
  8
1
  6
Continuous
370
    50
100
AcDbLine
 10
5.071731664
 20
7.470501361
 30
0.0
 11
4.949365657
 21
7.682446164
 31
0.0
  0
LINE
  5
9C
330
1D
100
AcDbEntity
  8
1
  6
Continuous
370
    50
100
AcDbLine
 10
4.949365657
 20
7.682446164
 30
0.0
 11
4.833068613
 21
7.883878199
 31
0.0
  0
LINE
  5
9D
330
1D
100
AcDbEntity
  8
1
  6
Continuous
370
    50
100
AcDbLine
 10
4.833068613
 20
7.883878199
 30
0.0
 11
4.72300072
 21
8.074521792
 31
0.0
  0
LINE
  5
9E
330
1D
100
AcDbEntity
  8
1
  6
Continuous
370
    50
100
AcDbLine
 10
4.72300072
 20
8.074521792
 30
0.0
 11
4.619311456
 21
8.254116175
 31
0.0
  0
LINE
  5
9F
330
1D
100
AcDbEntity
  8
1
  6
Continuous
370
    50
100
AcDbLine
 10
4.619311456
 20
8.254116175
 30
0.0
 11
4.522143312
 21
8.422415477
 31
0.0
  0
LINE
  5
A0
330
1D
100
AcDbEntity
  8
1
  6
Continuous
370
    50
100
AcDbLine
 10
4.522143312
 20
8.422415477
 30
0.0
 11
4.431629468
 21
8.579190594
 31
0.0
  0
LINE
  5
A1
330
1D
100
AcDbEntity
  8
1
  6
Continuous
370
    50
100
AcDbLine
 10
4.431629468
 20
8.579190594
 30
0.0
 11
4.347893324
 21
8.724225459
 31
0.0
  0
LINE
  5
A2
330
1D
100
AcDbEntity
  8
1
  6
Continuous
370
    50
100
AcDbLine
 10
4.347893324
 20
8.724225459
 30
0.0
 11
4.271049432
 21
8.857322631
 31
0.0
  0
LINE
  5
A3
330
1D
100
AcDbEntity
  8
1
  6
Continuous
370
    50
100
AcDbLine
 10
4.271049432
 20
8.857322631
 30
0.0
 11
4.201203499
 21
8.978299571
 31
0.0
  0
LINE
  5
A4
330
1D
100
AcDbEntity
  8
1
  6
Continuous
370
    50
100
AcDbLine
 10
4.201203499
 20
8.978299571
 30
0.0
 11
4.138450053
 21
9.086992366
 31
0.0
  0
LINE
  5
A5
330
1D
100
AcDbEntity
  8
1
  6
Continuous
370
    50
100
AcDbLine
 10
4.138450053
 20
9.086992366
 30
0.0
 11
4.082876172
 21
9.183248279
 31
0.0
  0
LINE
  5
A6
330
1D
100
AcDbEntity
  8
1
  6
Continuous
370
    50
100
AcDbLine
 10
4.082876172
 20
9.183248279
 30
0.0
 11
4.034558225
 21
9.266938788
 31
0.0
  0
LINE
  5
A7
330
1D
100
AcDbEntity
  8
1
  6
Continuous
370
    50
100
AcDbLine
 10
4.034558225
 20
9.266938788
 30
0.0
 11
3.993560474
 21
9.337948409
 31
0.0
  0
LINE
  5
A8
330
1D
100
AcDbEntity
  8
1
  6
Continuous
370
    50
100
AcDbLine
 10
3.993560474
 20
9.337948409
 30
0.0
 11
3.959939729
 21
9.396180284
 31
0.0
  0
LINE
  5
A9
330
1D
100
AcDbEntity
  8
1
  6
Continuous
370
    50
100
AcDbLine
 10
3.959939729
 20
9.396180284
 30
0.0
 11
3.933743488
 21
9.44155432
 31
0.0
  0
LINE
  5
AA
330
1D
100
AcDbEntity
  8
1
  6
Continuous
370
    50
100
AcDbLine
 10
3.933743488
 20
9.44155432
 30
0.0
 11
3.915005278
 21
9.474009049
 31
0.0
  0
LINE
  5
AB
330
1D
100
AcDbEntity
  8
1
  6
Continuous
370
    50
100
AcDbLine
 10
3.915005278
 20
9.474009049
 30
0.0
 11
3.899999808
 21
9.5000004
 31
0.0
  0
LINE
  5
AC
330
1D
100
AcDbEntity
  8
1
  6
Continuous
370
    50
100
AcDbLine
 10
5.172082123
 20
9.5000004
 30
0.0
 11
-1.19999991
 21
9.5000004
 31
0.0
  0
LINE
  5
AD
330
1D
100
AcDbEntity
  8
1
  6
Continuous
370
    50
100
AcDbLine
 10
-1.19999991
 20
9.35649663
 30
0.0
 11
-1.172017392
 21
9.354134796
 31
0.0
  0
LINE
  5
AE
330
1D
100
AcDbEntity
  8
1
  6
Continuous
370
    50
100
AcDbLine
 10
-1.172017392
 20
9.354134796
 30
0.0
 11
-1.106979881
 21
9.351768045
 31
0.0
  0
ARC
  5
AF
330
1D
100
AcDbEntity
  8
1
  6
Continuous
370
    50
100
AcDbCircle
 10
-48.976950094
 20
-6864.77023642
 30
0.0
 40
6874.288680752
100
AcDbArc
 50
89.591871231
 51
89.60101043899999
  0
ARC
  5
B0
330
1D
100
AcDbEntity
  8
1
  6
Continuous
370
    50
100
AcDbCircle
 10
0.026096161
 20
9.027266868
 30
0.0
 40
0.319675538
100
AcDbArc
 50
60.70165880900002
 51
96.571530576
  0
LINE
  5
B1
330
1D
100
AcDbEntity
  8
1
  6
Continuous
370
    50
100
AcDbLine
 10
0.182531688
 20
9.306050611
 30
0.0
 11
0.182531688
 21
9.165150819
 31
0.0
  0
ARC
  5
B2
330
1D
100
AcDbEntity
  8
1
  6
Continuous
370
    50
100
AcDbCircle
 10
0.089548514
 20
9.22834463
 30
0.0
 40
0.112424768
100
AcDbArc
 50
266.421715143
 51
325.798941701
  0
ARC
  5
B3
330
1D
100
AcDbEntity
  8
1
  6
Continuous
370
    50
100
AcDbCircle
 10
4.712658792
 20
-18.273260307
 30
0.0
 40
27.777998909
100
AcDbArc
 50
99.59503161499998
 51
102.290840382
  0
ARC
  5
B4
330
1D
100
AcDbEntity
  8
1
  6
Continuous
370
    50
100
AcDbCircle
 10
-27.670268583
 20
-435.196210639
 30
0.0
 40
444.725977577
100
AcDbArc
 50
86.155270513
 51
86.58771541999998
  0
LINE
  5
B5
330
1D
100
AcDbEntity
  8
1
  6
Continuous
370
    50
100
AcDbLine
 10
2.149652604
 20
8.52562092
 30
0.0
 11
2.457749944
 21
8.501469863
 31
0.0
  0
LINE
  5
B6
330
1D
100
AcDbEntity
  8
1
  6
Continuous
370
    50
100
AcDbLine
 10
2.457749944
 20
8.501469863
 30
0.0
 11
2.763085913
 21
8.470870328
 31
0.0
  0
LINE
  5
B7
330
1D
100
AcDbEntity
  8
1
  6
Continuous
370
    50
100
AcDbLine
 10
2.763085913
 20
8.470870328
 30
0.0
 11
3.122380849
 21
8.423566592
 31
0.0
  0
LINE
  5
B8
330
1D
100
AcDbEntity
  8
1
  6
Continuous
370
    50
100
AcDbLine
 10
3.122380849
 20
8.423566592
 30
0.0
 11
3.470766272
 21
8.359603358
 31
0.0
  0
LINE
  5
B9
330
1D
100
AcDbEntity
  8
1
  6
Continuous
370
    50
100
AcDbLine
 10
3.470766272
 20
8.359603358
 30
0.0
 11
3.661527213
 21
8.311649558
 31
0.0
  0
LINE
  5
BA
330
1D
100
AcDbEntity
  8
1
  6
Continuous
370
    50
100
AcDbLine
 10
3.661527213
 20
8.311649558
 30
0.0
 11
3.836858932
 21
8.250819293
 31
0.0
  0
LINE
  5
BB
330
1D
100
AcDbEntity
  8
1
  6
Continuous
370
    50
100
AcDbLine
 10
3.836858932
 20
8.250819293
 30
0.0
 11
3.958733667
 21
8.187105653
 31
0.0
  0
LINE
  5
BC
330
1D
100
AcDbEntity
  8
1
  6
Continuous
370
    50
100
AcDbLine
 10
3.958733667
 20
8.187105653
 30
0.0
 11
4.006334495
 21
8.148439002
 31
0.0
  0
LINE
  5
BD
330
1D
100
AcDbEntity
  8
1
  6
Continuous
370
    50
100
AcDbLine
 10
4.006334495
 20
8.148439002
 30
0.0
 11
4.038883287
 21
8.105439839
 31
0.0
  0
LINE
  5
BE
330
1D
100
AcDbEntity
  8
1
  6
Continuous
370
    50
100
AcDbLine
 10
4.038883287
 20
8.105439839
 30
0.0
 11
4.050727848
 21
8.040308726
 31
0.0
  0
LINE
  5
BF
330
1D
100
AcDbEntity
  8
1
  6
Continuous
370
    50
100
AcDbLine
 10
4.050727848
 20
8.040308726
 30
0.0
 11
4.021958362
 21
7.975447697
 31
0.0
  0
LINE
  5
C0
330
1D
100
AcDbEntity
  8
1
  6
Continuous
370
    50
100
AcDbLine
 10
4.021958362
 20
7.975447697
 30
0.0
 11
3.978678871
 21
7.929324878
 31
0.0
  0
LINE
  5
C1
330
1D
100
AcDbEntity
  8
1
  6
Continuous
370
    50
100
AcDbLine
 10
3.978678871
 20
7.929324878
 30
0.0
 11
3.922752019
 21
7.8867802
 31
0.0
  0
LINE
  5
C2
330
1D
100
AcDbEntity
  8
1
  6
Continuous
370
    50
100
AcDbLine
 10
3.922752019
 20
7.8867802
 30
0.0
 11
3.796730105
 21
7.815859986
 31
0.0
  0
LINE
  5
C3
330
1D
100
AcDbEntity
  8
1
  6
Continuous
370
    50
100
AcDbLine
 10
3.796730105
 20
7.815859986
 30
0.0
 11
3.653804686
 21
7.754359168
 31
0.0
  0
LINE
  5
C4
330
1D
100
AcDbEntity
  8
1
  6
Continuous
370
    50
100
AcDbLine
 10
3.653804686
 20
7.754359168
 30
0.0
 11
3.476127896
 21
7.691479993
 31
0.0
  0
LINE
  5
C5
330
1D
100
AcDbEntity
  8
1
  6
Continuous
370
    50
100
AcDbLine
 10
3.476127896
 20
7.691479993
 30
0.0
 11
3.290562805
 21
7.635872585
 31
0.0
  0
LINE
  5
C6
330
1D
100
AcDbEntity
  8
1
  6
Continuous
370
    50
100
AcDbLine
 10
3.290562805
 20
7.635872585
 30
0.0
 11
2.906160343
 21
7.540464175
 31
0.0
  0
LINE
  5
C7
330
1D
100
AcDbEntity
  8
1
  6
Continuous
370
    50
100
AcDbLine
 10
2.906160343
 20
7.540464175
 30
0.0
 11
2.510471184
 21
7.461368812
 31
0.0
  0
LINE
  5
C8
330
1D
100
AcDbEntity
  8
1
  6
Continuous
370
    50
100
AcDbLine
 10
2.510471184
 20
7.461368812
 30
0.0
 11
2.109742638
 21
7.394827676
 31
0.0
  0
LINE
  5
C9
330
1D
100
AcDbEntity
  8
1
  6
Continuous
370
    50
100
AcDbLine
 10
2.109742638
 20
7.394827676
 30
0.0
 11
1.704561438
 21
7.338884992
 31
0.0
  0
LINE
  5
CA
330
1D
100
AcDbEntity
  8
1
  6
Continuous
370
    50
100
AcDbLine
 10
1.704561438
 20
7.338884992
 30
0.0
 11
1.296542499
 21
7.292384056
 31
0.0
  0
LINE
  5
CB
330
1D
100
AcDbEntity
  8
1
  6
Continuous
370
    50
100
AcDbLine
 10
1.296542499
 20
7.292384056
 30
0.0
 11
0.886190597
 21
7.254792151
 31
0.0
  0
LINE
  5
CC
330
1D
100
AcDbEntity
  8
1
  6
Continuous
370
    50
100
AcDbLine
 10
0.886190597
 20
7.254792151
 30
0.0
 11
0.060913067
 21
7.205633221
 31
0.0
  0
LINE
  5
CD
330
1D
100
AcDbEntity
  8
1
  6
Continuous
370
    50
100
AcDbLine
 10
0.060913067
 20
7.205633221
 30
0.0
 11
-0.568496149
 21
7.192378638
 31
0.0
  0
LINE
  5
CE
330
1D
100
AcDbEntity
  8
1
  6
Continuous
370
    50
100
AcDbLine
 10
-0.568496149
 20
7.192378638
 30
0.0
 11
-1.19999991
 21
7.202474174
 31
0.0
  0
ARC
  5
CF
330
1D
100
AcDbEntity
  8
1
  6
Continuous
370
    50
100
AcDbCircle
 10
-9.53472563
 20
-8.022773437
 30
0.0
 40
17.045637007
100
AcDbArc
 50
55.64611020900001
 51
60.727401141
  0
ARC
  5
D0
330
1D
100
AcDbEntity
  8
1
  6
Continuous
370
    50
100
AcDbCircle
 10
-0.10642123
 20
5.824108848
 30
0.0
 40
0.29232215
100
AcDbArc
 50
310.269752905
 51
49.73029070400001
  0
ARC
  5
D1
330
1D
100
AcDbEntity
  8
1
  6
Continuous
370
    50
100
AcDbCircle
 10
6.130618427
 20
-2.176640863
 30
0.0
 40
9.85251507
100
AcDbArc
 50
127.869292728
 51
135.456976267
  0
ARC
  5
D2
330
1D
100
AcDbEntity
  8
1
  6
Continuous
370
    50
100
AcDbCircle
 10
6.130618427
 20
-2.176640863
 30
0.0
 40
9.854459108
100
AcDbArc
 50
136.528464853
 51
138.054089469
  0
LINE
  5
D3
330
1D
100
AcDbEntity
  8
1
  6
Continuous
370
    50
100
AcDbLine
 10
-1.19999991
 20
3.041381722
 30
0.0
 11
3.000000019
 21
3.041381263
 31
0.0
  0
ARC
  5
D4
330
1D
100
AcDbEntity
  8
1
  6
Continuous
370
    50
100
AcDbCircle
 10
-12.289325632
 20
-0.000000003
 30
0.0
 40
15.588889596
100
AcDbArc
 50
0.0
 51
11.250523793
  0
ARC
  5
D5
330
1D
100
AcDbEntity
  8
1
  6
Continuous
370
    50
100
AcDbCircle
 10
-12.289325632
 20
-0.000000003
 30
0.0
 40
15.578000785
100
AcDbArc
 50
348.749476575
 51
0.0
  0
LINE
  5
D6
330
1D
100
AcDbEntity
  8
1
  6
Continuous
370
    50
100
AcDbLine
 10
3.000000406
 20
-3.041381242
 30
0.0
 11
-1.19999991
 21
-3.041381242
 31
0.0
  0
ARC
  5
D7
330
1D
100
AcDbEntity
  8
1
  6
Continuous
370
    50
100
AcDbCircle
 10
6.130618427
 20
2.176640858
 30
0.0
 40
9.855946544
100
AcDbArc
 50
221.945909325
 51
232.130707671
  0
ARC
  5
D8
330
1D
100
AcDbEntity
  8
1
  6
Continuous
370
    50
100
AcDbCircle
 10
-0.104061911
 20
-5.824109533
 30
0.0
 40
0.290802869
100
AcDbArc
 50
309.914999392
 51
50.085006103
  0
ARC
  5
D9
330
1D
100
AcDbEntity
  8
1
  6
Continuous
370
    50
100
AcDbCircle
 10
-9.53472563
 20
8.022773431
 30
0.0
 40
17.042725983
100
AcDbArc
 50
299.272599248
 51
304.3538880990001
  0
ARC
  5
DA
330
1D
100
AcDbEntity
  8
1
  6
Continuous
370
    50
100
AcDbCircle
 10
5.969662158
 20
8.022773431
 30
0.0
 40
17.039518655
100
AcDbArc
 50
245.116997681
 51
247.461812867
  0
ARC
  5
DB
330
1D
100
AcDbEntity
  8
1
  6
Continuous
370
    50
100
AcDbCircle
 10
7.525364436
 20
11.771502208
 30
0.0
 40
21.096777254
100
AcDbArc
 50
247.461812867
 51
249.340848867
  0
LINE
  5
DC
330
1D
100
AcDbEntity
  8
1
  6
Continuous
370
    50
100
AcDbLine
 10
0.082531858
 20
-7.967932609
 30
0.0
 11
0.135119919
 21
-7.996270892
 31
0.0
  0
LINE
  5
DD
330
1D
100
AcDbEntity
  8
1
  6
Continuous
370
    50
100
AcDbLine
 10
0.135119919
 20
-7.996270892
 30
0.0
 11
0.168437052
 21
-8.031628553
 31
0.0
  0
LINE
  5
DE
330
1D
100
AcDbEntity
  8
1
  6
Continuous
370
    50
100
AcDbLine
 10
0.168437052
 20
-8.031628553
 30
0.0
 11
0.182497229
 21
-8.075438666
 31
0.0
  0
LINE
  5
DF
330
1D
100
AcDbEntity
  8
1
  6
Continuous
370
    50
100
AcDbLine
 10
0.182497229
 20
-8.075438666
 30
0.0
 11
0.16851249
 21
-8.122819818
 31
0.0
  0
LINE
  5
E0
330
1D
100
AcDbEntity
  8
1
  6
Continuous
370
    50
100
AcDbLine
 10
0.16851249
 20
-8.122819818
 30
0.0
 11
0.123985026
 21
-8.163571467
 31
0.0
  0
LINE
  5
E1
330
1D
100
AcDbEntity
  8
1
  6
Continuous
370
    50
100
AcDbLine
 10
0.123985026
 20
-8.163571467
 30
0.0
 11
0.082531773
 21
-8.182423287
 31
0.0
  0
ARC
  5
E2
330
1D
100
AcDbEntity
  8
1
  6
Continuous
370
    50
100
AcDbCircle
 10
-6.760300889
 20
11.771502208
 30
0.0
 40
21.094632055
100
AcDbArc
 50
285.283723999
 51
288.928464416
  0
ARC
  5
E3
330
1D
100
AcDbEntity
  8
1
  6
Continuous
370
    50
100
AcDbCircle
 10
4.712658792
 20
18.273260302
 30
0.0
 40
27.775367212
100
AcDbArc
 50
257.709159532
 51
260.40496856
  0
ARC
  5
E4
330
1D
100
AcDbEntity
  8
1
  6
Continuous
370
    50
100
AcDbCircle
 10
0.08838483
 20
-9.230716086
 30
0.0
 40
0.114727332
100
AcDbArc
 50
34.853691928
 51
92.924292107
  0
LINE
  5
E5
330
1D
100
AcDbEntity
  8
1
  6
Continuous
370
    50
100
AcDbLine
 10
0.182531688
 20
-9.165151387
 30
0.0
 11
0.178419899
 21
-9.314239193
 31
0.0
  0
LINE
  5
E6
330
1D
100
AcDbEntity
  8
1
  6
Continuous
370
    50
100
AcDbLine
 10
0.178419899
 20
-9.314239193
 30
0.0
 11
0.154204581
 21
-9.326519496
 31
0.0
  0
LINE
  5
E7
330
1D
100
AcDbEntity
  8
1
  6
Continuous
370
    50
100
AcDbLine
 10
0.154204581
 20
-9.326519496
 30
0.0
 11
0.111350704
 21
-9.33614099
 31
0.0
  0
LINE
  5
E8
330
1D
100
AcDbEntity
  8
1
  6
Continuous
370
    50
100
AcDbLine
 10
0.111350704
 20
-9.33614099
 30
0.0
 11
0.054491598
 21
-9.34240425
 31
0.0
  0
LINE
  5
E9
330
1D
100
AcDbEntity
  8
1
  6
Continuous
370
    50
100
AcDbLine
 10
0.054491598
 20
-9.34240425
 30
0.0
 11
-0.010488327
 21
-9.344842587
 31
0.0
  0
ARC
  5
EA
330
1D
100
AcDbEntity
  8
1
  6
Continuous
370
    50
100
AcDbCircle
 10
-48.976950094
 20
6864.770236415
 30
0.0
 40
6874.289478465
100
AcDbArc
 50
270.398989558
 51
270.408128772
  0
LINE
  5
EB
330
1D
100
AcDbEntity
  8
1
  6
Continuous
370
    50
100
AcDbLine
 10
-1.106980342
 20
-9.351768058
 30
0.0
 11
-1.137879763
 21
-9.352392685
 31
0.0
  0
LINE
  5
EC
330
1D
100
AcDbEntity
  8
1
  6
Continuous
370
    50
100
AcDbLine
 10
-1.137879763
 20
-9.352392685
 30
0.0
 11
-1.19999991
 21
-9.356496732
 31
0.0
  0
LINE
  5
ED
330
1D
100
AcDbEntity
  8
1
  6
Continuous
370
    50
100
AcDbLine
 10
-1.19999991
 20
-9.497894491
 30
0.0
 11
5.172082139
 21
-9.497894506
 31
0.0
  0
ARC
  5
EE
330
1D
100
AcDbEntity
  8
1
  6
Continuous
370
    50
100
AcDbCircle
 10
5.143816055
 20
-9.108152486
 30
0.0
 40
0.390765676
100
AcDbArc
 50
274.148120213
 51
288.4514468720001
  0
LINE
  5
EF
330
1D
100
AcDbEntity
  8
1
  6
Continuous
370
    50
100
AcDbLine
 10
5.265940826
 20
-9.474175452
 30
0.0
 11
5.269970193
 21
-9.435840061
 31
0.0
  0
LINE
  5
F0
330
1D
100
AcDbEntity
  8
1
  6
Continuous
370
    50
100
AcDbLine
 10
5.269970193
 20
-9.435840061
 30
0.0
 11
5.275793754
 21
-9.380435157
 31
0.0
  0
LINE
  5
F1
330
1D
100
AcDbEntity
  8
1
  6
Continuous
370
    50
100
AcDbLine
 10
5.275793754
 20
-9.380435157
 30
0.0
 11
5.283400331
 21
-9.308061032
 31
0.0
  0
LINE
  5
F2
330
1D
100
AcDbEntity
  8
1
  6
Continuous
370
    50
100
AcDbLine
 10
5.283400331
 20
-9.308061032
 30
0.0
 11
10.582156859
 21
-9.308061032
 31
0.0
  0
ARC
  5
F3
330
1D
100
AcDbEntity
  8
1
  6
Continuous
370
    50
100
AcDbCircle
 10
10.580873325
 20
-8.912599992
 30
0.0
 40
0.395463123
100
AcDbArc
 50
270.185962343
 51
354.595903356
  0
LINE
  5
F4
330
1D
100
AcDbEntity
  8
1
  6
Continuous
370
    50
100
AcDbLine
 10
10.974578706
 20
-8.949844509
 30
0.0
 11
11.506772398
 21
-3.88635997
 31
0.0
  0
LINE
  5
F5
330
1D
100
AcDbEntity
  8
1
  6
Continuous
370
    50
100
AcDbLine
 10
11.506772398
 20
-3.88635997
 30
0.0
 11
11.632195035
 21
-3.899652737
 31
0.0
  0
LINE
  5
F6
330
1D
100
AcDbEntity
  8
1
  6
Continuous
370
    50
100
AcDbLine
 10
11.632195035
 20
-3.899652737
 30
0.0
 11
11.69395249
 21
-3.814824152
 31
0.0
  0
LINE
  5
F7
330
1D
100
AcDbEntity
  8
1
  6
Continuous
370
    50
100
AcDbLine
 10
11.69395249
 20
-3.814824152
 30
0.0
 11
11.800000024
 21
-2.805849298
 31
0.0
  0
LINE
  5
F8
330
1D
100
AcDbEntity
  8
1
  6
Continuous
370
    50
100
AcDbLine
 10
11.800000024
 20
-2.805849298
 30
0.0
 11
11.800000019
 21
-2.772613637
 31
0.0
  0
ARC
  5
F9
330
1D
100
AcDbEntity
  8
1
  6
Continuous
370
    50
100
AcDbCircle
 10
14.100000019
 20
0.499999997
 30
0.0
 40
4.0
100
AcDbArc
 50
231.719854464
 51
234.900367805
  0
ARC
  5
FA
330
1D
100
AcDbEntity
  8
1
  6
Continuous
370
    50
100
AcDbCircle
 10
14.100686175
 20
0.500548203
 30
0.0
 40
4.000855516
100
AcDbArc
 50
205.566961219
 51
231.71700447
  0
LINE
  5
FB
330
1D
100
AcDbEntity
  8
1
  6
Continuous
370
    50
100
AcDbLine
 10
10.4915883
 20
-1.226083602
 30
0.0
 11
10.179668463
 21
-1.045996549
 31
0.0
  0
LINE
  5
FC
330
1D
100
AcDbEntity
  8
1
  6
Continuous
370
    50
100
AcDbLine
 10
10.179668463
 20
-1.045996549
 30
0.0
 11
9.865621485
 21
-0.864681083
 31
0.0
  0
LINE
  5
FD
330
1D
100
AcDbEntity
  8
1
  6
Continuous
370
    50
100
AcDbLine
 10
9.865621485
 20
-0.864681083
 30
0.0
 11
9.550153658
 21
-0.682546052
 31
0.0
  0
LINE
  5
FE
330
1D
100
AcDbEntity
  8
1
  6
Continuous
370
    50
100
AcDbLine
 10
9.550153658
 20
-0.682546052
 30
0.0
 11
9.233974533
 21
-0.500000308
 31
0.0
  0
LINE
  5
FF
330
1D
100
AcDbEntity
  8
1
  6
Continuous
370
    50
100
AcDbLine
 10
9.233974533
 20
-0.500000308
 30
0.0
 11
6.200000019
 21
1.251666047
 31
0.0
  0
ARC
  5
100
330
1D
100
AcDbEntity
  8
1
  6
Continuous
370
    50
100
AcDbCircle
 10
7.200000019
 20
2.983716855
 30
0.0
 40
2.0
100
AcDbArc
 50
198.194880935
 51
240.0
  0
ARC
  5
101
330
1D
100
AcDbEntity
  8
1
  6
Continuous
370
    50
100
AcDbCircle
 10
7.200026801
 20
2.98372181
 30
0.0
 40
2.000026873
100
AcDbArc
 50
180.000137157
 51
198.194776205
  0
LINE
  5
102
330
1D
100
AcDbEntity
  8
1
  6
Continuous
370
    50
100
AcDbLine
 10
-1.19999991
 20
-3.041381242
 30
0.0
 11
-1.29999974
 21
-3.024896833
 31
0.0
  0
LINE
  5
103
330
1D
100
AcDbEntity
  8
1
  6
Continuous
370
    50
100
AcDbLine
 10
-1.29999974
 20
-3.024896833
 30
0.0
 11
-1.29999974
 21
3.024896381
 31
0.0
  0
LINE
  5
104
330
1D
100
AcDbEntity
  8
1
  6
Continuous
370
    50
100
AcDbLine
 10
-1.29999974
 20
3.024896381
 30
0.0
 11
-1.19999991
 21
3.041381722
 31
0.0
  0
LINE
  5
105
330
1D
100
AcDbEntity
  8
1
  6
Continuous
370
    50
100
AcDbLine
 10
-1.19999991
 20
-6.846190423
 30
0.0
 11
-1.222211953
 21
-6.829691346
 31
0.0
  0
LINE
  5
106
330
1D
100
AcDbEntity
  8
1
  6
Continuous
370
    50
100
AcDbLine
 10
-1.222211953
 20
-6.829691346
 30
0.0
 11
-1.253887165
 21
-6.815140362
 31
0.0
  0
LINE
  5
107
330
1D
100
AcDbEntity
  8
1
  6
Continuous
370
    50
100
AcDbLine
 10
-1.253887165
 20
-6.815140362
 30
0.0
 11
-1.276574183
 21
-6.81610917
 31
0.0
  0
LINE
  5
108
330
1D
100
AcDbEntity
  8
1
  6
Continuous
370
    50
100
AcDbLine
 10
-1.276574183
 20
-6.81610917
 30
0.0
 11
-1.289657403
 21
-6.827017518
 31
0.0
  0
LINE
  5
109
330
1D
100
AcDbEntity
  8
1
  6
Continuous
370
    50
100
AcDbLine
 10
-1.289657403
 20
-6.827017518
 30
0.0
 11
-1.299197871
 21
-6.856901332
 31
0.0
  0
LINE
  5
10A
330
1D
100
AcDbEntity
  8
1
  6
Continuous
370
    50
100
AcDbLine
 10
-1.299197871
 20
-6.856901332
 30
0.0
 11
-1.29999974
 21
-6.872546387
 31
0.0
  0
LINE
  5
10B
330
1D
100
AcDbEntity
  8
1
  6
Continuous
370
    50
100
AcDbLine
 10
-1.29999974
 20
-6.872546387
 30
0.0
 11
-1.29999974
 21
-3.824328298
 31
0.0
  0
ARC
  5
10C
330
1D
100
AcDbEntity
  8
1
  6
Continuous
370
    50
100
AcDbCircle
 10
0.815185592
 20
-3.766040342
 30
0.0
 40
2.115988297
100
AcDbArc
 50
181.578494754
 51
197.756470579
  0
LINE
  5
10D
330
1D
100
AcDbEntity
  8
1
  6
Continuous
370
    50
100
AcDbLine
 10
-1.19999991
 20
7.202474174
 30
0.0
 11
-1.29999974
 21
7.100829629
 31
0.0
  0
LINE
  5
10E
330
1D
100
AcDbEntity
  8
1
  6
Continuous
370
    50
100
AcDbLine
 10
-1.29999974
 20
7.100829629
 30
0.0
 11
-1.29999974
 21
6.872545702
 31
0.0
  0
LINE
  5
10F
330
1D
100
AcDbEntity
  8
1
  6
Continuous
370
    50
100
AcDbLine
 10
-1.29999974
 20
6.872545702
 30
0.0
 11
-1.296796922
 21
6.843508926
 31
0.0
  0
LINE
  5
110
330
1D
100
AcDbEntity
  8
1
  6
Continuous
370
    50
100
AcDbLine
 10
-1.296796922
 20
6.843508926
 30
0.0
 11
-1.285706732
 21
6.822239382
 31
0.0
  0
LINE
  5
111
330
1D
100
AcDbEntity
  8
1
  6
Continuous
370
    50
100
AcDbLine
 10
-1.285706732
 20
6.822239382
 30
0.0
 11
-1.269351777
 21
6.814179716
 31
0.0
  0
LINE
  5
112
330
1D
100
AcDbEntity
  8
1
  6
Continuous
370
    50
100
AcDbLine
 10
-1.269351777
 20
6.814179716
 30
0.0
 11
-1.246882688
 21
6.817172987
 31
0.0
  0
LINE
  5
113
330
1D
100
AcDbEntity
  8
1
  6
Continuous
370
    50
100
AcDbLine
 10
-1.246882688
 20
6.817172987
 30
0.0
 11
-1.222712074
 21
6.829369587
 31
0.0
  0
LINE
  5
114
330
1D
100
AcDbEntity
  8
1
  6
Continuous
370
    50
100
AcDbLine
 10
-1.222712074
 20
6.829369587
 30
0.0
 11
-1.19999991
 21
6.846191135
 31
0.0
  0
ARC
  5
115
330
1D
100
AcDbEntity
  8
1
  6
Continuous
370
    50
100
AcDbCircle
 10
0.826160554
 20
3.764170733
 30
0.0
 40
2.127011187
100
AcDbArc
 50
162.28572655
 51
178.379293067
  0
LINE
  5
116
330
1D
100
AcDbEntity
  8
1
  6
Continuous
370
    50
100
AcDbLine
 10
-1.29999974
 20
3.824328778
 30
0.0
 11
-1.29999974
 21
3.024896381
 31
0.0
  0
ARC
  5
117
330
1D
100
AcDbEntity
  8
1
  6
Continuous
370
    50
100
AcDbCircle
 10
-0.967363894
 20
8.617198366
 30
0.0
 40
0.340243501
100
AcDbArc
 50
133.136116555
 51
167.861061969
  0
LINE
  5
118
330
1D
100
AcDbEntity
  8
1
  6
Continuous
370
    50
100
AcDbLine
 10
-1.29999974
 20
8.688745794
 30
0.0
 11
-1.29999974
 21
8.638566134
 31
0.0
  0
LINE
  5
119
330
1D
100
AcDbEntity
  8
1
  6
Continuous
370
    50
100
AcDbLine
 10
-1.19999991
 20
-8.576243294
 30
0.0
 11
-1.234147783
 21
-8.550257764
 31
0.0
  0
LINE
  5
11A
330
1D
100
AcDbEntity
  8
1
  6
Continuous
370
    50
100
AcDbLine
 10
-1.234147783
 20
-8.550257764
 30
0.0
 11
-1.265405763
 21
-8.532672648
 31
0.0
  0
LINE
  5
11B
330
1D
100
AcDbEntity
  8
1
  6
Continuous
370
    50
100
AcDbLine
 10
-1.265405763
 20
-8.532672648
 30
0.0
 11
-1.288434576
 21
-8.528540835
 31
0.0
  0
LINE
  5
11C
330
1D
100
AcDbEntity
  8
1
  6
Continuous
370
    50
100
AcDbLine
 10
-1.288434576
 20
-8.528540835
 30
0.0
 11
-1.29999974
 21
-8.546782651
 31
0.0
  0
LINE
  5
11D
330
1D
100
AcDbEntity
  8
1
  6
Continuous
370
    50
100
AcDbLine
 10
-1.29999974
 20
-8.546782651
 30
0.0
 11
-1.29999974
 21
-7.163092254
 31
0.0
  0
ARC
  5
11E
330
1D
100
AcDbEntity
  8
1
  6
Continuous
370
    50
100
AcDbCircle
 10
-0.65354689
 20
-7.079619507
 30
0.0
 40
0.65181975
100
AcDbArc
 50
187.35756446
 51
213.03371927
  0
ARC
  5
11F
330
1D
100
AcDbEntity
  8
1
  6
Continuous
370
    50
100
AcDbCircle
 10
6.138241894
 20
-2.174349663
 30
0.0
 40
9.842998787
100
AcDbArc
 50
135.465853875
 51
136.489370023
  0
LINE
  5
120
330
1D
100
AcDbEntity
  8
1
  6
Continuous
370
    50
100
AcDbLine
 10
-1.287353311
 20
4.00000043
 30
0.0
 11
-1.29999974
 21
4.00000043
 31
0.0
  0
LINE
  5
121
330
1D
100
AcDbEntity
  8
1
  6
Continuous
370
    50
100
AcDbLine
 10
-1.29999974
 20
4.00000043
 30
0.0
 11
-1.29999974
 21
4.283820053
 31
0.0
  0
LINE
  5
122
330
1D
100
AcDbEntity
  8
1
  6
Continuous
370
    50
100
AcDbLine
 10
-1.29999974
 20
6.872545702
 30
0.0
 11
-1.29999974
 21
4.408217741
 31
0.0
  0
LINE
  5
123
330
1D
100
AcDbEntity
  8
1
  6
Continuous
370
    50
100
AcDbLine
 10
-1.29999974
 20
7.115419728
 30
0.0
 11
-1.29999974
 21
7.427349461
 31
0.0
  0
LINE
  5
124
330
1D
100
AcDbEntity
  8
1
  6
Continuous
370
    50
100
AcDbLine
 10
-1.29999974
 20
7.427349461
 30
0.0
 11
-1.29999974
 21
8.638566134
 31
0.0
  0
LINE
  5
125
330
1D
100
AcDbEntity
  8
1
  6
Continuous
370
    50
100
AcDbLine
 10
-1.29999974
 20
8.638566134
 30
0.0
 11
-1.19999991
 21
8.741307778
 31
0.0
  0
LINE
  5
126
330
1D
100
AcDbEntity
  8
1
  6
Continuous
370
    50
100
AcDbLine
 10
-1.29999974
 20
-8.546782651
 30
0.0
 11
-1.29999974
 21
-8.688745082
 31
0.0
  0
ARC
  5
127
330
1D
100
AcDbEntity
  8
1
  6
Continuous
370
    50
100
AcDbCircle
 10
-0.842742264
 20
-8.546687547
 30
0.0
 40
0.47881598
100
AcDbArc
 50
197.258606937
 51
221.743988086
  0
LINE
  5
128
330
1D
100
AcDbEntity
  8
1
  6
Continuous
370
    50
100
AcDbLine
 10
-1.29999974
 20
8.688745794
 30
0.0
 11
-1.29999974
 21
9.28406581
 31
0.0
  0
ARC
  5
129
330
1D
100
AcDbEntity
  8
1
  6
Continuous
370
    50
100
AcDbCircle
 10
-1.359479997
 20
9.471432329
 30
0.0
 40
0.19658106
100
AcDbArc
 50
287.612250869
 51
324.220085776
  0
ARC
  5
12A
330
1D
100
AcDbEntity
  8
1
  6
Continuous
370
    50
100
AcDbCircle
 10
-1.385908107
 20
-9.507917953
 30
0.0
 40
0.239771232
100
AcDbArc
 50
39.16262946200002
 51
69.004596409
  0
LINE
  5
12B
330
1D
100
AcDbEntity
  8
1
  6
Continuous
370
    50
100
AcDbLine
 10
-1.29999974
 20
-9.284065331
 30
0.0
 11
-1.29999974
 21
-8.688745082
 31
0.0
  0
LINE
  5
12C
330
1D
100
AcDbEntity
  8
CUT
100
AcDbLine
 10
11.481072959
 20
-4.130874055
 30
0.0
 11
11.531171827
 21
-4.136139287
 31
0.0
  0
LINE
  5
12D
330
1D
100
AcDbEntity
  8
CUT
100
AcDbLine
 10
11.531171827
 20
-4.136139287
 30
0.0
 11
11.6
 21
-4.080403357
 31
0.0
  0
LINE
  5
12E
330
1D
100
AcDbEntity
  8
CUT
100
AcDbLine
 10
11.6
 20
-4.080403357
 30
0.0
 11
11.997808772
 21
-4.122215084
 31
0.0
  0
LINE
  5
12F
330
1D
100
AcDbEntity
  8
CUT
100
AcDbLine
 10
11.997808772
 20
-4.122215084
 30
0.0
 11
11.417675794
 21
-9.64181139
 31
0.0
  0
LINE
  5
130
330
1D
100
AcDbEntity
  8
CUT
100
AcDbLine
 10
11.417675794
 20
-9.64181139
 30
0.0
 11
11.019867061
 21
-9.599999984
 31
0.0
  0
LINE
  5
131
330
1D
100
AcDbEntity
  8
CUT
100
AcDbLine
 10
11.019867061
 20
-9.599999984
 30
0.0
 11
10.96413113
 21
-9.531171811
 31
0.0
  0
LINE
  5
132
330
1D
100
AcDbEntity
  8
CUT
100
AcDbLine
 10
10.96413113
 20
-9.531171811
 30
0.0
 11
11.531171827
 21
-4.136139287
 31
0.0
  0
ARC
  5
133
330
1D
100
AcDbEntity
  8
CUT
100
AcDbCircle
 10
11.019867043
 20
-9.599999998
 30
0.0
 40
0.4
100
AcDbArc
 50
264.0
 51
354.0
  0
ARC
  5
134
330
1D
100
AcDbEntity
  8
CUT
100
AcDbCircle
 10
11.600000014
 20
-4.080403478
 30
0.0
 40
0.4
100
AcDbArc
 50
354.0
 51
74.54964259099998
  0
ARC
  5
135
330
1D
100
AcDbEntity
  8
CUT
100
AcDbCircle
 10
5.500270523
 20
-9.019867027
 30
0.0
 40
0.4
100
AcDbArc
 50
236.36132387
 51
264.000004786
  0
LINE
  5
136
330
1D
100
AcDbEntity
  8
CUT
100
AcDbLine
 10
5.458459172
 20
-9.417675778
 30
0.0
 11
10.978055683
 21
-9.997808756
 31
0.0
  0
LINE
  5
137
330
1D
100
AcDbEntity
  8
CUT
100
AcDbLine
 10
10.978055683
 20
-9.997808756
 30
0.0
 11
11.019867061
 21
-9.599999984
 31
0.0
  0
ARC
  5
138
330
1D
100
AcDbEntity
  8
1
  6
Continuous
370
    50
100
AcDbCircle
 10
89.8877507
 20
-7.95133897
 30
0.0
 40
79.543811933
100
AcDbArc
 50
176.256855885
 51
179.330051018
  0
ARC
  5
139
330
1D
100
AcDbEntity
  8
1
  6
Continuous
370
    50
100
AcDbCircle
 10
23.0105412
 20
-7.169211572
 30
0.0
 40
12.654500932
100
AcDbArc
 50
179.330543971
 51
186.391943816
  0
ARC
  5
13A
330
1D
100
AcDbEntity
  8
1
  6
Continuous
370
    50
100
AcDbCircle
 10
13.905490005
 20
-8.18921038
 30
0.0
 40
3.492494884
100
AcDbArc
 50
186.391943816
 51
198.606588577
  0
ARC
  5
13B
330
1D
100
AcDbEntity
  8
1
  6
Continuous
370
    50
100
AcDbCircle
 10
84.013259987
 20
-7.683618616
 30
0.0
 40
73.276140878
100
AcDbArc
 50
176.315635145
 51
179.25300976
  0
ARC
  5
13C
330
1D
100
AcDbEntity
  8
1
  6
Continuous
370
    50
100
AcDbCircle
 10
22.709587887
 20
-6.884413785
 30
0.0
 40
11.9584651
100
AcDbArc
 50
179.252610435
 51
186.491905721
  0
ARC
  5
13D
330
1D
100
AcDbEntity
  8
1
  6
Continuous
370
    50
100
AcDbCircle
 10
14.168751984
 20
-7.856296897
 30
0.0
 40
3.362510545
100
AcDbArc
 50
186.491905721
 51
198.898999302
  0
LINE
  5
13E
330
1D
100
AcDbEntity
  8
1
  6
Continuous
370
    50
100
AcDbLine
 10
3.000000406
 20
3.041381722
 30
0.0
 11
3.000000406
 21
-3.041381242
 31
0.0
  0
LINE
  5
13F
330
1D
100
AcDbEntity
  8
1
  6
Continuous
370
    50
100
AcDbLine
 10
-1.29999974
 20
-3.024896833
 30
0.0
 11
-1.29999974
 21
-3.824328298
 31
0.0
  0
LINE
  5
140
330
1D
100
AcDbEntity
  8
1
  6
Continuous
370
    50
100
AcDbLine
 10
-1.29999974
 20
-6.872546387
 30
0.0
 11
-1.29999974
 21
-7.163092254
 31
0.0
  0
LINE
  5
141
330
1D
100
AcDbEntity
  8
1
  6
Continuous
370
    50
100
AcDbLine
 10
-1.29999974
 20
4.408217741
 30
0.0
 11
-1.29999974
 21
4.283820053
 31
0.0
  0
LINE
  5
142
330
1D
100
AcDbEntity
  8
1
  6
Continuous
370
    50
100
AcDbLine
 10
-1.29999974
 20
-9.284065331
 30
0.0
 11
-1.29999974
 21
-9.395211521
 31
0.0
  0
LINE
  5
143
330
1D
100
AcDbEntity
  8
1
  6
Continuous
370
    50
100
AcDbLine
 10
-1.29999974
 20
-9.395211521
 30
0.0
 11
-1.19999991
 21
-9.497894491
 31
0.0
  0
LINE
  5
144
330
1D
100
AcDbEntity
  8
1
  6
Continuous
370
    50
100
AcDbLine
 10
-1.29999974
 20
9.28406581
 30
0.0
 11
-1.29999974
 21
9.399467853
 31
0.0
  0
LINE
  5
145
330
1D
100
AcDbEntity
  8
1
  6
Continuous
370
    50
100
AcDbLine
 10
-1.29999974
 20
9.399467853
 30
0.0
 11
-1.19999991
 21
9.5000004
 31
0.0
  0
LINE
  5
146
330
1D
100
AcDbEntity
  8
CUT
100
AcDbLine
 10
8.841373639
 20
-9.308061032
 30
0.0
 11
10.96413113
 21
-9.531171811
 31
0.0
  0
LINE
  5
147
330
1D
100
AcDbEntity
  8
CUT
100
AcDbLine
 10
11.6
 20
-4.080403357
 30
0.0
 11
11.619143044
 21
-3.898269723
 31
0.0
  0
LINE
  5
148
330
1D
100
AcDbEntity
  8
CUT
100
AcDbLine
 10
5.469980098
 20
-9.308061032
 30
0.0
 11
5.458459172
 21
-9.417675778
 31
0.0
  0
LINE
  5
149
330
1D
100
AcDbEntity
  8
1
  6
Continuous
370
    50
100
AcDbLine
 10
8.367949189
 20
0.0
 30
0.0
 11
10.491588286
 21
1.226083604
 31
0.0
  0
LINE
  5
1E5
330
1D
100
AcDbEntity
  8
1
100
AcDbLine
 10
5.420034186
 20
5.956556411
 30
0.0
 11
5.102461746219533
 21
8.978055687774507
 31
0.0
  0
LINE
  5
1E6
330
1D
100
AcDbEntity
  8
1
100
AcDbLine
 10
5.102461746219533
 20
8.978055687774507
 30
0.0
 11
5.038175602088324
 21
9.359944193684347
 31
0.0
  0
LINE
  5
1E7
330
1D
100
AcDbEntity
  8
1
100
AcDbLine
 10
5.038175602088324
 20
9.359944193684347
 30
0.0
 11
5.265941012926657
 21
9.474175431127394
 31
0.0
  0
ARC
  5
1EA
330
1D
100
AcDbEntity
  8
1
100
AcDbCircle
 10
6.080403446807654
 20
3.500270394568574
 30
0.0
 40
0.399999888774995
100
AcDbArc
 50
214.0573871256503
 51
276.0000065991729
  0
LINE
  5
1EB
330
1D
100
AcDbEntity
  8
1
100
AcDbLine
 10
11.641811385
 20
3.682594723
 30
0.0
 11
11.70785032199737
 21
3.682594723
 31
0.0
  0
LINE
  5
1EC
330
1D
100
AcDbEntity
  8
1
100
AcDbLine
 10
11.641811385
 20
3.682594723
 30
0.0
 11
11.04076304628441
 21
9.483552322495655
 31
0.0
  0
LINE
  5
1ED
330
1D
100
AcDbEntity
  8
1
100
AcDbLine
 10
11.04076304628441
 20
9.483552322495655
 30
0.0
 11
10.80884503749964
 21
9.673303420592287
 31
0.0
  0
LINE
  5
1EE
330
1D
100
AcDbEntity
  8
1
100
AcDbLine
 10
10.80884503749964
 20
9.673303420592287
 30
0.0
 11
5.411480469417656
 21
9.10405012630239
 31
0.0
  0
LINE
  5
1EF
330
1D
100
AcDbEntity
  8
1
100
AcDbLine
 10
5.411480469417656
 20
9.10405012630239
 30
0.0
 11
5.278689222
 21
9.352886055
 31
0.0
  0
LINE
  5
1F1
330
1D
100
AcDbEntity
  8
CUT
100
AcDbLine
 10
11.641811385
 20
3.682594723
 30
0.0
 11
6.122215086
 21
3.10246157
 31
0.0
  0
ARC
  5
1F2
330
1D
100
AcDbEntity
  8
CUT
100
AcDbCircle
 10
6.080403481
 20
3.500270510000001
 30
0.0
 40
0.400000000000001
100
AcDbArc
 50
186.0000000000001
 51
275.9999999999999
  0
LINE
  5
1F3
330
1D
100
AcDbEntity
  8
CUT
100
AcDbLine
 10
5.682594722852691
 20
3.458459124692939
 30
0.0
 11
5.100270509
 21
9.019867029
 31
0.0
  0
CIRCLE
  5
1F4
330
1D
100
AcDbEntity
  8
CUT
100
AcDbCircle
 10
8.411296279
 20
6.378683399
 30
0.0
 40
1.800000000000001
  0
ARC
  5
1F7
330
1D
100
AcDbEntity
  8
NOCUT
100
AcDbCircle
 10
14.09999964564909
 20
-0.4999996019250066
 30
0.0
 40
3.999999471777581
100
AcDbArc
 50
125.0996312211714
 51
154.435883579366
  0
LINE
  5
1F8
330
1D
100
AcDbEntity
  8
NOCUT
100
AcDbLine
 10
10.491588286
 20
1.226083604
 30
0.0
 11
8.367949189
 21
0.0
 31
0.0
  0
LINE
  5
1F9
330
1D
100
AcDbEntity
  8
NOCUT
100
AcDbLine
 10
8.367949189
 20
0.0
 30
0.0
 11
-1.27201992738634
 21
0.0000000000000012
 31
0.0
  0
LINE
  5
1FA
330
1D
100
AcDbEntity
  8
NOCUT
100
AcDbLine
 10
-1.27201992738634
 20
0.0000000000000012
 30
0.0
 11
-1.29999974
 21
9.399467853
 31
0.0
  0
LINE
  5
1FB
330
1D
100
AcDbEntity
  8
NOCUT
100
AcDbLine
 10
-1.29999974
 20
9.399467853
 30
0.0
 11
-1.19999991
 21
9.5000004
 31
0.0
  0
LINE
  5
1FC
330
1D
100
AcDbEntity
  8
NOCUT
100
AcDbLine
 10
-1.19999991
 20
9.5000004
 30
0.0
 11
5.172082123
 21
9.5000004
 31
0.0
  0
LINE
  5
1FD
330
1D
100
AcDbEntity
  8
NOCUT
100
AcDbLine
 10
5.172082123
 20
9.5000004
 30
0.0
 11
5.265941012926657
 21
9.474175431127394
 31
0.0
  0
LINE
  5
1FE
330
1D
100
AcDbEntity
  8
NOCUT
100
AcDbLine
 10
5.265941012926657
 20
9.474175431127394
 30
0.0
 11
5.278689222
 21
9.352886055
 31
0.0
  0
LINE
  5
204
330
1D
100
AcDbEntity
  8
NOCUT
100
AcDbLine
 10
5.278689222
 20
9.352886055
 30
0.0
 11
5.458459123692939
 21
9.41767578714731
 31
0.0
  0
LINE
  5
205
330
1D
100
AcDbEntity
  8
NOCUT
100
AcDbLine
 10
5.458459123692939
 20
9.41767578714731
 30
0.0
 11
10.978055669
 21
9.997808758
 31
0.0
  0
ARC
  5
206
330
1D
100
AcDbEntity
  8
NOCUT
100
AcDbCircle
 10
11.019867029
 20
9.599999999999998
 30
0.0
 40
0.4000000000000017
100
AcDbArc
 50
6.000000000000287
 51
95.9999963529998
  0
ARC
  5
207
330
1D
100
AcDbEntity
  8
NOCUT
100
AcDbCircle
 10
11.5999995225823
 20
4.0804036500624
 30
0.0
 40
0.4000004774177315
100
AcDbArc
 50
285.4504077771277
 51
359.999975783624
  0
LINE
  5
208
330
1D
100
AcDbEntity
  8
NOCUT
100
AcDbLine
 10
12.0
 20
4.080403481
 30
0.0
 11
11.41767578714731
 21
9.641811385307061
 31
0.0
  0
LINE
  5
209
330
1D
100
AcDbEntity
  8
NOCUT
100
AcDbLine
 10
11.706561333
 20
3.69485863
 30
0.0
 11
11.80000000502248
 21
2.772613639406511
 31
0.0
  0
LWPOLYLINE
  5
20B
330
1D
100
AcDbEntity
  8
INFTOTAL
100
AcDbPolyline
 90
        4
 70
     1
 43
0.0
 10
-24.54188214453054
 20
23.87677955136261
 10
-24.54188214453054
 20
-25.68321718062026
 10
35.46419947707781
 20
-25.68321718062026
 10
35.46419947707781
 20
23.87677955136261
  0
ENDSEC
  0
SECTION
  2
OBJECTS
  0
DICTIONARY
  5
C
330
0
100
AcDbDictionary
281
     1
  3
ACAD_DETAILVIEWSTYLE
350
202
  3
ACAD_GROUP
350
D
  3
ACAD_LAYOUT
350
1A
  3
ACAD_MATERIAL
350
187
  3
ACAD_MLEADERSTYLE
350
194
  3
ACAD_MLINESTYLE
350
17
  3
ACAD_PLOTSETTINGS
350
19
  3
ACAD_PLOTSTYLENAME
350
E
  3
ACAD_SCALELIST
350
150
  3
ACAD_SECTIONVIEWSTYLE
350
203
  3
ACAD_TABLESTYLE
350
1DD
  3
ACAD_VISUALSTYLE
350
176
  3
ACDB_RECOMPOSE_DATA
350
219
  3
AcDbVariableDictionary
350
192
  3
APPDATA
350
1E0
  0
DICTIONARY
  5
1E1
330
2
100
AcDbDictionary
280
     1
281
     1
  3
ACAD_LAYERSTATES
360
1E2
  0
DICTIONARY
  5
202
102
{ACAD_REACTORS
330
C
102
}
330
C
100
AcDbDictionary
281
     1
  0
DICTIONARY
  5
D
102
{ACAD_REACTORS
330
C
102
}
330
C
100
AcDbDictionary
281
     1
  0
DICTIONARY
  5
1A
102
{ACAD_REACTORS
330
C
102
}
330
C
100
AcDbDictionary
281
     1
  3
Layout1
350
1C
  3
Model
350
1E
  0
DICTIONARY
  5
187
102
{ACAD_REACTORS
330
C
102
}
330
C
100
AcDbDictionary
281
     1
  3
ByBlock
350
189
  3
ByLayer
350
188
  3
Global
350
18A
  0
DICTIONARY
  5
194
102
{ACAD_REACTORS
330
C
102
}
330
C
100
AcDbDictionary
281
     1
  3
Standard
350
1DF
  0
DICTIONARY
  5
17
102
{ACAD_REACTORS
330
C
102
}
330
C
100
AcDbDictionary
281
     1
  3
Standard
350
18
  0
DICTIONARY
  5
19
102
{ACAD_REACTORS
330
C
102
}
330
C
100
AcDbDictionary
281
     1
  0
ACDBDICTIONARYWDFLT
  5
E
102
{ACAD_REACTORS
330
C
102
}
330
C
100
AcDbDictionary
281
     1
  3
Normal
350
F
100
AcDbDictionaryWithDefault
340
F
  0
DICTIONARY
  5
150
102
{ACAD_REACTORS
330
C
102
}
330
C
100
AcDbDictionary
281
     1
  3
A0
350
151
  3
A1
350
152
  3
A2
350
153
  3
A3
350
154
  3
A4
350
155
  3
A5
350
156
  3
A6
350
157
  3
A7
350
158
  3
A8
350
159
  3
A9
350
15A
  3
B0
350
15B
  3
B1
350
15C
  3
B2
350
15D
  3
B3
350
15E
  3
B4
350
15F
  3
B5
350
160
  3
B6
350
161
  3
B7
350
162
  3
B8
350
163
  3
B9
350
164
  3
C0
350
165
  3
C1
350
166
  3
C2
350
167
  3
C3
350
168
  3
C4
350
169
  3
C5
350
16A
  3
C6
350
16B
  3
C7
350
16C
  3
C8
350
16D
  3
C9
350
16E
  3
D0
350
16F
  3
D1
350
170
  3
D2
350
171
  0
DICTIONARY
  5
203
102
{ACAD_REACTORS
330
C
102
}
330
C
100
AcDbDictionary
281
     1
  0
DICTIONARY
  5
1DD
102
{ACAD_REACTORS
330
C
102
}
330
C
100
AcDbDictionary
281
     1
  3
Standard
350
1DE
  0
DICTIONARY
  5
176
102
{ACAD_REACTORS
330
C
102
}
330
C
100
AcDbDictionary
281
     1
  3
2dWireframe
350
17B
  3
3D Hidden
350
17D
  3
3dWireframe
350
17C
  3
Basic
350
17E
  3
Brighten
350
182
  3
ColorChange
350
186
  3
Conceptual
350
180
  3
Dim
350
181
  3
EdgeColorOff
350
1D7
  3
Facepattern
350
185
  3
Flat
350
177
  3
FlatWithEdges
350
178
  3
Gouraud
350
179
  3
GouraudWithEdges
350
17A
  3
Hidden
350
1D4
  3
JitterOff
350
1D5
  3
Linepattern
350
184
  3
OverhangOff
350
1D6
  3
Realistic
350
17F
  3
Shaded
350
1DC
  3
Shaded with edges
350
1DB
  3
Shades of Gray
350
1D8
  3
Sketchy
350
1D9
  3
Thicken
350
183
  3
Wireframe
350
1D3
  3
X-Ray
350
1DA
  0
XRECORD
  5
219
102
{ACAD_REACTORS
330
C
102
}
330
C
100
AcDbXrecord
280
     1
 90
        1
330
1DE
  0
DICTIONARY
  5
192
102
{ACAD_REACTORS
330
C
102
}
330
C
100
AcDbDictionary
281
     1
  3
CANNOSCALE
350
1FF
  3
CMLEADERSTYLE
350
201
  3
CTABLESTYLE
350
200
  3
DIMASSOC
350
196
  3
HIDETEXT
350
197
  3
MSLTSCALE
350
195
  0
DICTIONARY
  5
1E0
102
{ACAD_REACTORS
330
C
102
}
330
C
100
AcDbDictionary
281
     1
  0
DICTIONARY
  5
1E2
102
{ACAD_REACTORS
330
1E1
102
}
330
1E1
100
AcDbDictionary
281
     1
  0
LAYOUT
  5
1C
102
{ACAD_REACTORS
330
1A
102
}
330
1A
100
AcDbPlotSettings
  1

  2
none_device
  4

  6

 40
0.0
 41
0.0
 42
0.0
 43
0.0
 44
0.0
 45
0.0
 46
0.0
 47
0.0
 48
0.0
 49
0.0
140
0.0
141
0.0
142
1.0
143
1.0
 70
   688
 72
     0
 73
     0
 74
     5
  7

 75
    16
 76
     0
 77
     2
 78
   300
147
1.0
148
0.0
149
0.0
100
AcDbLayout
  1
Layout1
 70
     1
 71
     1
 10
0.0
 20
0.0
 11
12.0
 21
9.0
 12
0.0
 22
0.0
 32
0.0
 14
1.000000000000000E+20
 24
1.000000000000000E+20
 34
1.000000000000000E+20
 15
-1.000000000000000E+20
 25
-1.000000000000000E+20
 35
-1.000000000000000E+20
146
0.0
 13
0.0
 23
0.0
 33
0.0
 16
1.0
 26
0.0
 36
0.0
 17
0.0
 27
1.0
 37
0.0
 76
     0
330
1B
  0
LAYOUT
  5
1E
102
{ACAD_REACTORS
330
1A
102
}
330
1A
100
AcDbPlotSettings
  1

  2
none_device
  4

  6

 40
0.0
 41
0.0
 42
0.0
 43
0.0
 44
0.0
 45
0.0
 46
0.0
 47
0.0
 48
0.0
 49
0.0
140
0.0
141
0.0
142
1.0
143
1.0
 70
  1712
 72
     0
 73
     0
 74
     0
  7

 75
     0
 76
     0
 77
     2
 78
   300
147
1.0
148
0.0
149
0.0
100
AcDbLayout
  1
Model
 70
     1
 71
     0
 10
0.0
 20
0.0
 11
12.0
 21
9.0
 12
0.0
 22
0.0
 32
0.0
 14
-24.54188214453054
 24
-25.68321718062026
 34
0.0
 15
35.46419947707781
 25
23.87677955136261
 35
0.0
146
0.0
 13
0.0
 23
0.0
 33
0.0
 16
1.0
 26
0.0
 36
0.0
 17
0.0
 27
1.0
 37
0.0
 76
     0
330
1D
331
14A
  0
MATERIAL
  5
189
102
{ACAD_REACTORS
330
187
102
}
330
187
100
AcDbMaterial
  1
ByBlock
 72
     1
 94
      127
  0
MATERIAL
  5
188
102
{ACAD_REACTORS
330
187
102
}
330
187
100
AcDbMaterial
  1
ByLayer
 72
     1
 94
      127
  0
MATERIAL
  5
18A
102
{ACAD_REACTORS
330
187
102
}
330
187
100
AcDbMaterial
  1
Global
 72
     1
 94
      127
  0
MLEADERSTYLE
  5
1DF
102
{ACAD_REACTORS
330
194
102
}
330
194
100
AcDbMLeaderStyle
179
     2
170
     2
171
     1
172
     0
 90
        2
 40
0.0
 41
0.0
173
     1
 91
-1056964608
340
14
 92
       -2
290
     1
 42
0.09
291
     1
 43
0.36
  3
Standard
341
0
 44
0.18
300

342
11
174
     1
178
     1
175
     1
176
     0
 93
-1056964608
 45
0.18
292
     0
297
     0
 46
0.18
343
0
 94
-1056964608
 47
1.0
 49
1.0
140
1.0
293
     1
141
0.0
294
     1
177
     0
142
1.0
295
     0
296
     0
143
0.125
271
     0
272
     9
273
     9
298
     0
  0
MLINESTYLE
  5
18
102
{ACAD_REACTORS
330
17
102
}
330
17
100
AcDbMlineStyle
  2
Standard
 70
     0
  3

 62
   256
 51
90.0
 52
90.0
 71
     2
 49
0.5
 62
   256
  6
BYLAYER
 49
-0.5
 62
   256
  6
BYLAYER
  0
ACDBPLACEHOLDER
  5
F
102
{ACAD_REACTORS
330
E
102
}
330
E
  0
SCALE
  5
151
102
{ACAD_REACTORS
330
150
102
}
330
150
100
AcDbScale
 70
     0
300
1:1
140
1.0
141
1.0
290
     1
  0
SCALE
  5
152
102
{ACAD_REACTORS
330
150
102
}
330
150
100
AcDbScale
 70
     0
300
1:2
140
1.0
141
2.0
290
     0
  0
SCALE
  5
153
102
{ACAD_REACTORS
330
150
102
}
330
150
100
AcDbScale
 70
     0
300
1:4
140
1.0
141
4.0
290
     0
  0
SCALE
  5
154
102
{ACAD_REACTORS
330
150
102
}
330
150
100
AcDbScale
 70
     0
300
1:5
140
1.0
141
5.0
290
     0
  0
SCALE
  5
155
102
{ACAD_REACTORS
330
150
102
}
330
150
100
AcDbScale
 70
     0
300
1:8
140
1.0
141
8.0
290
     0
  0
SCALE
  5
156
102
{ACAD_REACTORS
330
150
102
}
330
150
100
AcDbScale
 70
     0
300
1:10
140
1.0
141
10.0
290
     0
  0
SCALE
  5
157
102
{ACAD_REACTORS
330
150
102
}
330
150
100
AcDbScale
 70
     0
300
1:16
140
1.0
141
16.0
290
     0
  0
SCALE
  5
158
102
{ACAD_REACTORS
330
150
102
}
330
150
100
AcDbScale
 70
     0
300
1:20
140
1.0
141
20.0
290
     0
  0
SCALE
  5
159
102
{ACAD_REACTORS
330
150
102
}
330
150
100
AcDbScale
 70
     0
300
1:30
140
1.0
141
30.0
290
     0
  0
SCALE
  5
15A
102
{ACAD_REACTORS
330
150
102
}
330
150
100
AcDbScale
 70
     0
300
1:40
140
1.0
141
40.0
290
     0
  0
SCALE
  5
15B
102
{ACAD_REACTORS
330
150
102
}
330
150
100
AcDbScale
 70
     0
300
1:50
140
1.0
141
50.0
290
     0
  0
SCALE
  5
15C
102
{ACAD_REACTORS
330
150
102
}
330
150
100
AcDbScale
 70
     0
300
1:100
140
1.0
141
100.0
290
     0
  0
SCALE
  5
15D
102
{ACAD_REACTORS
330
150
102
}
330
150
100
AcDbScale
 70
     0
300
2:1
140
2.0
141
1.0
290
     0
  0
SCALE
  5
15E
102
{ACAD_REACTORS
330
150
102
}
330
150
100
AcDbScale
 70
     0
300
4:1
140
4.0
141
1.0
290
     0
  0
SCALE
  5
15F
102
{ACAD_REACTORS
330
150
102
}
330
150
100
AcDbScale
 70
     0
300
8:1
140
8.0
141
1.0
290
     0
  0
SCALE
  5
160
102
{ACAD_REACTORS
330
150
102
}
330
150
100
AcDbScale
 70
     0
300
10:1
140
10.0
141
1.0
290
     0
  0
SCALE
  5
161
102
{ACAD_REACTORS
330
150
102
}
330
150
100
AcDbScale
 70
     0
300
100:1
140
100.0
141
1.0
290
     0
  0
SCALE
  5
162
102
{ACAD_REACTORS
330
150
102
}
330
150
100
AcDbScale
 70
     0
300
1/128" = 1'-0"
140
0.0078125
141
12.0
290
     0
  0
SCALE
  5
163
102
{ACAD_REACTORS
330
150
102
}
330
150
100
AcDbScale
 70
     0
300
1/64" = 1'-0"
140
0.015625
141
12.0
290
     0
  0
SCALE
  5
164
102
{ACAD_REACTORS
330
150
102
}
330
150
100
AcDbScale
 70
     0
300
1/32" = 1'-0"
140
0.03125
141
12.0
290
     0
  0
SCALE
  5
165
102
{ACAD_REACTORS
330
150
102
}
330
150
100
AcDbScale
 70
     0
300
1/16" = 1'-0"
140
0.0625
141
12.0
290
     0
  0
SCALE
  5
166
102
{ACAD_REACTORS
330
150
102
}
330
150
100
AcDbScale
 70
     0
300
3/32" = 1'-0"
140
0.09375
141
12.0
290
     0
  0
SCALE
  5
167
102
{ACAD_REACTORS
330
150
102
}
330
150
100
AcDbScale
 70
     0
300
1/8" = 1'-0"
140
0.125
141
12.0
290
     0
  0
SCALE
  5
168
102
{ACAD_REACTORS
330
150
102
}
330
150
100
AcDbScale
 70
     0
300
3/16" = 1'-0"
140
0.1875
141
12.0
290
     0
  0
SCALE
  5
169
102
{ACAD_REACTORS
330
150
102
}
330
150
100
AcDbScale
 70
     0
300
1/4" = 1'-0"
140
0.25
141
12.0
290
     0
  0
SCALE
  5
16A
102
{ACAD_REACTORS
330
150
102
}
330
150
100
AcDbScale
 70
     0
300
3/8" = 1'-0"
140
0.375
141
12.0
290
     0
  0
SCALE
  5
16B
102
{ACAD_REACTORS
330
150
102
}
330
150
100
AcDbScale
 70
     0
300
1/2" = 1'-0"
140
0.5
141
12.0
290
     0
  0
SCALE
  5
16C
102
{ACAD_REACTORS
330
150
102
}
330
150
100
AcDbScale
 70
     0
300
3/4" = 1'-0"
140
0.75
141
12.0
290
     0
  0
SCALE
  5
16D
102
{ACAD_REACTORS
330
150
102
}
330
150
100
AcDbScale
 70
     0
300
1" = 1'-0"
140
1.0
141
12.0
290
     0
  0
SCALE
  5
16E
102
{ACAD_REACTORS
330
150
102
}
330
150
100
AcDbScale
 70
     0
300
1-1/2" = 1'-0"
140
1.5
141
12.0
290
     0
  0
SCALE
  5
16F
102
{ACAD_REACTORS
330
150
102
}
330
150
100
AcDbScale
 70
     0
300
3" = 1'-0"
140
3.0
141
12.0
290
     0
  0
SCALE
  5
170
102
{ACAD_REACTORS
330
150
102
}
330
150
100
AcDbScale
 70
     0
300
6" = 1'-0"
140
6.0
141
12.0
290
     0
  0
SCALE
  5
171
102
{ACAD_REACTORS
330
150
102
}
330
150
100
AcDbScale
 70
     0
300
1'-0" = 1'-0"
140
12.0
141
12.0
290
     0
  0
TABLESTYLE
  5
1DE
102
{ACAD_REACTORS
330
1DD
102
}
102
{ACAD_XDICTIONARY
360
217
102
}
330
1DD
100
AcDbTableStyle
  3
Standard
 70
     0
 71
     0
 40
0.06
 41
0.06
280
     0
281
     0
  7
Standard
140
0.18
170
     2
 62
     0
 63
   257
283
     0
 90
        4
 91
        0
  1

274
    -2
284
     1
 64
     0
275
    -2
285
     1
 65
     0
276
    -2
286
     1
 66
     0
277
    -2
287
     1
 67
     0
278
    -2
288
     1
 68
     0
279
    -2
289
     1
 69
     0
  7
Standard
140
0.25
170
     5
 62
     0
 63
   257
283
     0
 90
        4
 91
        0
  1

274
    -2
284
     1
 64
     0
275
    -2
285
     1
 65
     0
276
    -2
286
     1
 66
     0
277
    -2
287
     1
 67
     0
278
    -2
288
     1
 68
     0
279
    -2
289
     1
 69
     0
  7
Standard
140
0.18
170
     5
 62
     0
 63
   257
283
     0
 90
        4
 91
        0
  1

274
    -2
284
     1
 64
     0
275
    -2
285
     1
 65
     0
276
    -2
286
     1
 66
     0
277
    -2
287
     1
 67
     0
278
    -2
288
     1
 68
     0
279
    -2
289
     1
 69
     0
  0
VISUALSTYLE
  5
17B
102
{ACAD_REACTORS
330
176
102
}
330
176
100
AcDbVisualStyle
  2
2dWireframe
 70
     4
177
     3
291
     0
 70
    58
 90
        0
176
     1
 90
        2
176
     1
 90
        0
176
     1
 90
        0
176
     1
 40
-0.6
176
     1
 40
-30.0
176
     1
 62
     7
176
     1
 90
        1
176
     1
 90
        4
176
     1
 62
     7
176
     1
 62
   257
176
     1
 90
        1
176
     1
 90
        1
176
     1
 40
1.0
176
     1
 90
        0
176
     1
 62
   257
176
     1
 40
1.0
176
     1
 90
        1
176
     1
 90
        6
176
     1
 90
        2
176
     1
 62
     7
176
     1
 90
        5
176
     1
 90
        0
176
     1
 90
        0
176
     1
290
     0
176
     1
 90
        1
176
     1
 40
0.0
176
     1
 90
        0
176
     1
290
     1
176
     1
290
     1
176
     1
290
     0
176
     1
290
     0
176
     1
290
     0
176
     1
290
     0
176
     1
290
     0
176
     1
290
     0
176
     1
290
     0
176
     1
 90
       50
176
     1
 40
0.0
176
     1
 40
1.0
176
     1
 90
        0
176
     1
 62
    18
420
        0
176
     1
 90
       50
176
     1
 90
        3
176
     1
 62
     5
420
      255
176
     1
290
     0
176
     1
 90
       50
176
     1
 90
       50
176
     1
 90
       50
176
     1
290
     0
176
     1
 90
       50
176
     1
 62
   256
176
     0
 40
1.0
176
     0
 90
        2
176
     1
  1
strokes_ogs.tif
176
     1
290
     0
176
     1
 40
1.0
176
     1
 40
1.0
176
     1
  0
VISUALSTYLE
  5
17D
102
{ACAD_REACTORS
330
176
102
}
330
176
100
AcDbVisualStyle
  2
3D Hidden
 70
     6
177
     3
291
     0
 70
    58
 90
        1
176
     1
 90
        2
176
     1
 90
        2
176
     1
 90
        0
176
     1
 40
-0.6
176
     1
 40
-30.0
176
     1
 62
     7
176
     1
 90
        2
176
     1
 90
        2
176
     1
 62
     7
176
     1
 62
   257
176
     1
 90
        2
176
     1
 90
        1
176
     1
 40
40.0
176
     1
 90
        0
176
     1
 62
   257
176
     1
 40
1.0
176
     1
 90
        1
176
     1
 90
        6
176
     1
 90
        2
176
     1
 62
     7
176
     1
 90
        3
176
     1
 90
        0
176
     1
 90
        0
176
     1
290
     0
176
     1
 90
        1
176
     1
 40
0.0
176
     1
 90
        0
176
     1
290
     0
176
     1
290
     1
176
     1
290
     1
176
     1
290
     0
176
     1
290
     0
176
     1
290
     0
176
     1
290
     0
176
     1
290
     0
176
     1
290
     0
176
     1
 90
       50
176
     1
 40
0.0
176
     1
 40
1.0
176
     1
 90
        0
176
     1
 62
    18
420
        0
176
     1
 90
       50
176
     1
 90
        3
176
     1
 62
     5
420
      255
176
     1
290
     0
176
     1
 90
       50
176
     1
 90
       50
176
     1
 90
       50
176
     1
290
     0
176
     1
 90
       50
176
     1
 62
   256
176
     0
 40
1.0
176
     0
 90
        2
176
     1
  1
strokes_ogs.tif
176
     1
290
     0
176
     1
 40
1.0
176
     1
 40
1.0
176
     1
  0
VISUALSTYLE
  5
17C
102
{ACAD_REACTORS
330
176
102
}
330
176
100
AcDbVisualStyle
  2
3dWireframe
 70
     5
177
     3
291
     0
 70
    58
 90
        0
176
     1
 90
        2
176
     1
 90
        0
176
     1
 90
        0
176
     1
 40
-0.6
176
     1
 40
-30.0
176
     1
 62
     7
176
     1
 90
        1
176
     1
 90
        4
176
     1
 62
     7
176
     1
 62
   257
176
     1
 90
        1
176
     1
 90
        1
176
     1
 40
1.0
176
     1
 90
        0
176
     1
 62
   257
176
     1
 40
1.0
176
     1
 90
        1
176
     1
 90
        6
176
     1
 90
        2
176
     1
 62
     7
176
     1
 90
        5
176
     1
 90
        0
176
     1
 90
        0
176
     1
290
     0
176
     1
 90
        1
176
     1
 40
0.0
176
     1
 90
        0
176
     1
290
     0
176
     1
290
     1
176
     1
290
     1
176
     1
290
     0
176
     1
290
     0
176
     1
290
     0
176
     1
290
     0
176
     1
290
     0
176
     1
290
     0
176
     1
 90
       50
176
     1
 40
0.0
176
     1
 40
1.0
176
     1
 90
        0
176
     1
 62
    18
420
        0
176
     1
 90
       50
176
     1
 90
        3
176
     1
 62
     5
420
      255
176
     1
290
     0
176
     1
 90
       50
176
     1
 90
       50
176
     1
 90
       50
176
     1
290
     0
176
     1
 90
       50
176
     1
 62
   256
176
     0
 40
1.0
176
     0
 90
        2
176
     1
  1
strokes_ogs.tif
176
     1
290
     0
176
     1
 40
1.0
176
     1
 40
1.0
176
     1
  0
VISUALSTYLE
  5
17E
102
{ACAD_REACTORS
330
176
102
}
330
176
100
AcDbVisualStyle
  2
Basic
 70
     7
177
     3
291
     1
 70
    58
 90
        1
176
     1
 90
        0
176
     1
 90
        1
176
     1
 90
        0
176
     1
 40
-0.6
176
     1
 40
-30.0
176
     1
 62
     7
176
     1
 90
        0
176
     1
 90
        4
176
     1
 62
     7
176
     1
 62
   257
176
     1
 90
        1
176
     1
 90
        1
176
     1
 40
1.0
176
     1
 90
        8
176
     1
 62
     7
176
     1
 40
1.0
176
     1
 90
        1
176
     1
 90
        6
176
     1
 90
        2
176
     1
 62
     7
176
     1
 90
        5
176
     1
 90
        0
176
     1
 90
        0
176
     1
290
     0
176
     1
 90
        1
176
     1
 40
0.0
176
     1
 90
        0
176
     1
290
     0
176
     1
290
     1
176
     1
290
     1
176
     1
290
     0
176
     1
290
     0
176
     1
290
     0
176
     1
290
     0
176
     1
290
     0
176
     1
290
     0
176
     1
 90
       50
176
     1
 40
0.0
176
     1
 40
1.0
176
     1
 90
        0
176
     1
 62
    18
420
        0
176
     1
 90
       50
176
     1
 90
        3
176
     1
 62
     5
420
      255
176
     1
290
     0
176
     1
 90
       50
176
     1
 90
       50
176
     1
 90
       50
176
     1
290
     0
176
     1
 90
       50
176
     1
 62
   256
176
     0
 40
1.0
176
     0
 90
        2
176
     1
  1
strokes_ogs.tif
176
     1
290
     0
176
     1
 40
1.0
176
     1
 40
1.0
176
     1
  0
VISUALSTYLE
  5
182
102
{ACAD_REACTORS
330
176
102
}
330
176
100
AcDbVisualStyle
  2
Brighten
 70
    12
177
     3
291
     1
 70
    58
 90
        2
176
     1
 90
        2
176
     1
 90
        0
176
     1
 90
        0
176
     1
 40
-0.6
176
     1
 40
-30.0
176
     1
 62
     7
176
     1
 90
        1
176
     1
 90
        4
176
     1
 62
     7
176
     1
 62
   257
176
     1
 90
        1
176
     1
 90
        1
176
     1
 40
1.0
176
     1
 90
        8
176
     1
 62
     7
176
     1
 40
1.0
176
     1
 90
        1
176
     1
 90
        6
176
     1
 90
        2
176
     1
 62
     7
176
     1
 90
        5
176
     1
 90
        0
176
     1
 90
        0
176
     1
290
     0
176
     1
 90
        1
176
     1
 40
50.0
176
     1
 90
        0
176
     1
290
     0
176
     1
290
     1
176
     1
290
     1
176
     1
290
     0
176
     1
290
     0
176
     1
290
     0
176
     1
290
     0
176
     1
290
     0
176
     1
290
     0
176
     1
 90
       50
176
     1
 40
0.0
176
     1
 40
1.0
176
     1
 90
        0
176
     1
 62
    18
420
        0
176
     1
 90
       50
176
     1
 90
        3
176
     1
 62
     5
420
      255
176
     1
290
     0
176
     1
 90
       50
176
     1
 90
       50
176
     1
 90
       50
176
     1
290
     0
176
     1
 90
       50
176
     1
 62
   256
176
     0
 40
1.0
176
     0
 90
        2
176
     1
  1
strokes_ogs.tif
176
     1
290
     0
176
     1
 40
1.0
176
     1
 40
1.0
176
     1
  0
VISUALSTYLE
  5
186
102
{ACAD_REACTORS
330
176
102
}
330
176
100
AcDbVisualStyle
  2
ColorChange
 70
    16
177
     3
291
     1
 70
    58
 90
        2
176
     1
 90
        2
176
     1
 90
        3
176
     1
 90
        0
176
     1
 40
-0.6
176
     1
 40
-30.0
176
     1
 62
     8
176
     1
 90
        1
176
     1
 90
        4
176
     1
 62
     7
176
     1
 62
   257
176
     1
 90
        1
176
     1
 90
        1
176
     1
 40
1.0
176
     1
 90
        8
176
     1
 62
     8
176
     1
 40
1.0
176
     1
 90
        1
176
     1
 90
        6
176
     1
 90
        2
176
     1
 62
     7
176
     1
 90
        5
176
     1
 90
        0
176
     1
 90
        0
176
     1
290
     0
176
     1
 90
        1
176
     1
 40
0.0
176
     1
 90
        0
176
     1
290
     0
176
     1
290
     1
176
     1
290
     1
176
     1
290
     0
176
     1
290
     0
176
     1
290
     0
176
     1
290
     0
176
     1
290
     0
176
     1
290
     0
176
     1
 90
       50
176
     1
 40
0.0
176
     1
 40
1.0
176
     1
 90
        0
176
     1
 62
    18
420
        0
176
     1
 90
       50
176
     1
 90
        3
176
     1
 62
     5
420
      255
176
     1
290
     0
176
     1
 90
       50
176
     1
 90
       50
176
     1
 90
       50
176
     1
290
     0
176
     1
 90
       50
176
     1
 62
   256
176
     0
 40
1.0
176
     0
 90
        2
176
     1
  1
strokes_ogs.tif
176
     1
290
     0
176
     1
 40
1.0
176
     1
 40
1.0
176
     1
  0
VISUALSTYLE
  5
180
102
{ACAD_REACTORS
330
176
102
}
330
176
100
AcDbVisualStyle
  2
Conceptual
 70
     9
177
     3
291
     0
 70
    58
 90
        3
176
     1
 90
        2
176
     1
 90
        0
176
     1
 90
        0
176
     1
 40
-0.6
176
     1
 40
-30.0
176
     1
 62
     7
176
     1
 90
        2
176
     1
 90
        2
176
     1
 62
     7
176
     1
 62
   257
176
     1
 90
        1
176
     1
 90
        1
176
     1
 40
40.0
176
     1
 90
        8
176
     1
 62
     7
176
     1
 40
1.0
176
     1
 90
        1
176
     1
 90
        6
176
     1
 90
        2
176
     1
 62
     7
176
     1
 90
        3
176
     1
 90
        0
176
     1
 90
        0
176
     1
290
     0
176
     1
 90
        1
176
     1
 40
0.0
176
     1
 90
        0
176
     1
290
     0
176
     1
290
     1
176
     1
290
     1
176
     1
290
     0
176
     1
290
     0
176
     1
290
     0
176
     1
290
     0
176
     1
290
     0
176
     1
290
     0
176
     1
 90
       50
176
     1
 40
0.0
176
     1
 40
1.0
176
     1
 90
        0
176
     1
 62
    18
420
        0
176
     1
 90
       50
176
     1
 90
        3
176
     1
 62
     5
420
      255
176
     1
290
     0
176
     1
 90
       50
176
     1
 90
       50
176
     1
 90
       50
176
     1
290
     0
176
     1
 90
       50
176
     1
 62
   256
176
     0
 40
1.0
176
     0
 90
        2
176
     1
  1
strokes_ogs.tif
176
     1
290
     0
176
     1
 40
1.0
176
     1
 40
1.0
176
     1
  0
VISUALSTYLE
  5
181
102
{ACAD_REACTORS
330
176
102
}
330
176
100
AcDbVisualStyle
  2
Dim
 70
    11
177
     3
291
     1
 70
    58
 90
        2
176
     1
 90
        2
176
     1
 90
        0
176
     1
 90
        0
176
     1
 40
-0.6
176
     1
 40
-30.0
176
     1
 62
     7
176
     1
 90
        1
176
     1
 90
        4
176
     1
 62
     7
176
     1
 62
   257
176
     1
 90
        1
176
     1
 90
        1
176
     1
 40
1.0
176
     1
 90
        8
176
     1
 62
     7
176
     1
 40
1.0
176
     1
 90
        1
176
     1
 90
        6
176
     1
 90
        2
176
     1
 62
     7
176
     1
 90
        5
176
     1
 90
        0
176
     1
 90
        0
176
     1
290
     0
176
     1
 90
        1
176
     1
 40
-50.0
176
     1
 90
        0
176
     1
290
     0
176
     1
290
     1
176
     1
290
     1
176
     1
290
     0
176
     1
290
     0
176
     1
290
     0
176
     1
290
     0
176
     1
290
     0
176
     1
290
     0
176
     1
 90
       50
176
     1
 40
0.0
176
     1
 40
1.0
176
     1
 90
        0
176
     1
 62
    18
420
        0
176
     1
 90
       50
176
     1
 90
        3
176
     1
 62
     5
420
      255
176
     1
290
     0
176
     1
 90
       50
176
     1
 90
       50
176
     1
 90
       50
176
     1
290
     0
176
     1
 90
       50
176
     1
 62
   256
176
     0
 40
1.0
176
     0
 90
        2
176
     1
  1
strokes_ogs.tif
176
     1
290
     0
176
     1
 40
1.0
176
     1
 40
1.0
176
     1
  0
VISUALSTYLE
  5
1D7
102
{ACAD_REACTORS
330
176
102
}
330
176
100
AcDbVisualStyle
  2
EdgeColorOff
 70
    22
177
     3
291
     1
 70
    58
 90
        2
176
     0
 90
        2
176
     0
 90
        0
176
     0
 90
        0
176
     0
 40
0.6
176
     0
 40
30.0
176
     0
 62
     7
420
 16777215
176
     0
 90
        1
176
     0
 90
        4
176
     0
 62
     7
176
     0
 62
   257
176
     0
 90
        1
176
     0
 90
        1
176
     0
 40
1.0
176
     0
 90
        8
176
     2
 62
     7
176
     0
 40
1.0
176
     0
 90
        1
176
     0
 90
        6
176
     0
 90
        2
176
     0
 62
     7
176
     0
 90
        5
176
     0
 90
        0
176
     0
 90
        0
176
     0
290
     0
176
     0
 90
        1
176
     0
 40
0.0
176
     0
 90
        0
176
     0
290
     0
176
     0
290
     1
176
     0
290
     1
176
     0
290
     0
176
     0
290
     0
176
     0
290
     0
176
     0
290
     0
176
     0
290
     0
176
     0
290
     0
176
     0
 90
       50
176
     0
 40
0.0
176
     0
 40
1.0
176
     0
 90
        0
176
     0
 62
    18
420
        0
176
     0
 90
       50
176
     0
 90
        3
176
     0
 62
     5
420
      255
176
     0
290
     0
176
     0
 90
       50
176
     0
 90
       50
176
     0
 90
       50
176
     0
290
     0
176
     0
 90
       50
176
     0
 62
   256
176
     0
 40
1.0
176
     0
 90
        2
176
     0
  1
strokes_ogs.tif
176
     0
290
     0
176
     0
 40
1.0
176
     0
 40
1.0
176
     0
  0
VISUALSTYLE
  5
185
102
{ACAD_REACTORS
330
176
102
}
330
176
100
AcDbVisualStyle
  2
Facepattern
 70
    15
177
     3
291
     1
 70
    58
 90
        2
176
     1
 90
        2
176
     1
 90
        0
176
     1
 90
        0
176
     1
 40
-0.6
176
     1
 40
-30.0
176
     1
 62
     7
176
     1
 90
        1
176
     1
 90
        4
176
     1
 62
     7
176
     1
 62
   257
176
     1
 90
        1
176
     1
 90
        1
176
     1
 40
1.0
176
     1
 90
        8
176
     1
 62
     7
176
     1
 40
1.0
176
     1
 90
        1
176
     1
 90
        6
176
     1
 90
        2
176
     1
 62
     7
176
     1
 90
        5
176
     1
 90
        0
176
     1
 90
        0
176
     1
290
     0
176
     1
 90
        1
176
     1
 40
0.0
176
     1
 90
        0
176
     1
290
     0
176
     1
290
     1
176
     1
290
     1
176
     1
290
     0
176
     1
290
     0
176
     1
290
     0
176
     1
290
     0
176
     1
290
     0
176
     1
290
     0
176
     1
 90
       50
176
     1
 40
0.0
176
     1
 40
1.0
176
     1
 90
        0
176
     1
 62
    18
420
        0
176
     1
 90
       50
176
     1
 90
        3
176
     1
 62
     5
420
      255
176
     1
290
     0
176
     1
 90
       50
176
     1
 90
       50
176
     1
 90
       50
176
     1
290
     0
176
     1
 90
       50
176
     1
 62
   256
176
     0
 40
1.0
176
     0
 90
        2
176
     1
  1
strokes_ogs.tif
176
     1
290
     0
176
     1
 40
1.0
176
     1
 40
1.0
176
     1
  0
VISUALSTYLE
  5
177
102
{ACAD_REACTORS
330
176
102
}
330
176
100
AcDbVisualStyle
  2
Flat
 70
     0
177
     3
291
     1
 70
    58
 90
        2
176
     1
 90
        1
176
     1
 90
        1
176
     1
 90
        2
176
     1
 40
-0.6
176
     1
 40
30.0
176
     1
 62
     7
176
     1
 90
        0
176
     1
 90
        4
176
     1
 62
     7
176
     1
 62
   257
176
     1
 90
        1
176
     1
 90
        1
176
     1
 40
1.0
176
     1
 90
        8
176
     1
 62
     7
176
     1
 40
1.0
176
     1
 90
        1
176
     1
 90
        6
176
     1
 90
        2
176
     1
 62
     7
176
     1
 90
        5
176
     1
 90
        0
176
     1
 90
        0
176
     1
290
     0
176
     1
 90
       13
176
     1
 40
0.0
176
     1
 90
        0
176
     1
290
     0
176
     1
290
     1
176
     1
290
     1
176
     1
290
     0
176
     1
290
     0
176
     1
290
     0
176
     1
290
     0
176
     1
290
     0
176
     1
290
     0
176
     1
 90
       50
176
     1
 40
0.0
176
     1
 40
1.0
176
     1
 90
        0
176
     1
 62
    18
420
        0
176
     1
 90
       50
176
     1
 90
        3
176
     1
 62
     5
420
      255
176
     1
290
     0
176
     1
 90
       50
176
     1
 90
       50
176
     1
 90
       50
176
     1
290
     0
176
     1
 90
       50
176
     1
 62
   256
176
     0
 40
1.0
176
     0
 90
        2
176
     1
  1
strokes_ogs.tif
176
     1
290
     0
176
     1
 40
1.0
176
     1
 40
1.0
176
     1
  0
VISUALSTYLE
  5
178
102
{ACAD_REACTORS
330
176
102
}
330
176
100
AcDbVisualStyle
  2
FlatWithEdges
 70
     1
177
     3
291
     1
 70
    58
 90
        2
176
     1
 90
        1
176
     1
 90
        1
176
     1
 90
        2
176
     1
 40
-0.6
176
     1
 40
30.0
176
     1
 62
     7
176
     1
 90
        1
176
     1
 90
        4
176
     1
 62
     7
176
     1
 62
   257
176
     1
 90
        1
176
     1
 90
        1
176
     1
 40
1.0
176
     1
 90
        0
176
     1
 62
   257
176
     1
 40
1.0
176
     1
 90
        1
176
     1
 90
        6
176
     1
 90
        2
176
     1
 62
     7
176
     1
 90
        5
176
     1
 90
        0
176
     1
 90
        0
176
     1
290
     0
176
     1
 90
       13
176
     1
 40
0.0
176
     1
 90
        0
176
     1
290
     0
176
     1
290
     1
176
     1
290
     1
176
     1
290
     0
176
     1
290
     0
176
     1
290
     0
176
     1
290
     0
176
     1
290
     0
176
     1
290
     0
176
     1
 90
       50
176
     1
 40
0.0
176
     1
 40
1.0
176
     1
 90
        0
176
     1
 62
    18
420
        0
176
     1
 90
       50
176
     1
 90
        3
176
     1
 62
     5
420
      255
176
     1
290
     0
176
     1
 90
       50
176
     1
 90
       50
176
     1
 90
       50
176
     1
290
     0
176
     1
 90
       50
176
     1
 62
   256
176
     0
 40
1.0
176
     0
 90
        2
176
     1
  1
strokes_ogs.tif
176
     1
290
     0
176
     1
 40
1.0
176
     1
 40
1.0
176
     1
  0
VISUALSTYLE
  5
179
102
{ACAD_REACTORS
330
176
102
}
330
176
100
AcDbVisualStyle
  2
Gouraud
 70
     2
177
     3
291
     1
 70
    58
 90
        2
176
     1
 90
        2
176
     1
 90
        1
176
     1
 90
        2
176
     1
 40
-0.6
176
     1
 40
30.0
176
     1
 62
     7
176
     1
 90
        0
176
     1
 90
        4
176
     1
 62
     7
176
     1
 62
   257
176
     1
 90
        1
176
     1
 90
        1
176
     1
 40
1.0
176
     1
 90
        0
176
     1
 62
     7
176
     1
 40
1.0
176
     1
 90
        1
176
     1
 90
        6
176
     1
 90
        2
176
     1
 62
     7
176
     1
 90
        5
176
     1
 90
        0
176
     1
 90
        0
176
     1
290
     0
176
     1
 90
       13
176
     1
 40
0.0
176
     1
 90
        0
176
     1
290
     0
176
     1
290
     1
176
     1
290
     1
176
     1
290
     0
176
     1
290
     0
176
     1
290
     0
176
     1
290
     0
176
     1
290
     0
176
     1
290
     0
176
     1
 90
       50
176
     1
 40
0.0
176
     1
 40
1.0
176
     1
 90
        0
176
     1
 62
    18
420
        0
176
     1
 90
       50
176
     1
 90
        3
176
     1
 62
     5
420
      255
176
     1
290
     0
176
     1
 90
       50
176
     1
 90
       50
176
     1
 90
       50
176
     1
290
     0
176
     1
 90
       50
176
     1
 62
   256
176
     0
 40
1.0
176
     0
 90
        2
176
     1
  1
strokes_ogs.tif
176
     1
290
     0
176
     1
 40
1.0
176
     1
 40
1.0
176
     1
  0
VISUALSTYLE
  5
17A
102
{ACAD_REACTORS
330
176
102
}
330
176
100
AcDbVisualStyle
  2
GouraudWithEdges
 70
     3
177
     3
291
     1
 70
    58
 90
        2
176
     1
 90
        2
176
     1
 90
        1
176
     1
 90
        2
176
     1
 40
-0.6
176
     1
 40
30.0
176
     1
 62
     7
176
     1
 90
        1
176
     1
 90
        4
176
     1
 62
     7
176
     1
 62
   257
176
     1
 90
        1
176
     1
 90
        1
176
     1
 40
1.0
176
     1
 90
        0
176
     1
 62
   257
176
     1
 40
1.0
176
     1
 90
        1
176
     1
 90
        6
176
     1
 90
        2
176
     1
 62
     7
176
     1
 90
        5
176
     1
 90
        0
176
     1
 90
        0
176
     1
290
     0
176
     1
 90
       13
176
     1
 40
0.0
176
     1
 90
        0
176
     1
290
     0
176
     1
290
     1
176
     1
290
     1
176
     1
290
     0
176
     1
290
     0
176
     1
290
     0
176
     1
290
     0
176
     1
290
     0
176
     1
290
     0
176
     1
 90
       50
176
     1
 40
0.0
176
     1
 40
1.0
176
     1
 90
        0
176
     1
 62
    18
420
        0
176
     1
 90
       50
176
     1
 90
        3
176
     1
 62
     5
420
      255
176
     1
290
     0
176
     1
 90
       50
176
     1
 90
       50
176
     1
 90
       50
176
     1
290
     0
176
     1
 90
       50
176
     1
 62
   256
176
     0
 40
1.0
176
     0
 90
        2
176
     1
  1
strokes_ogs.tif
176
     1
290
     0
176
     1
 40
1.0
176
     1
 40
1.0
176
     1
  0
VISUALSTYLE
  5
1D4
102
{ACAD_REACTORS
330
176
102
}
330
176
100
AcDbVisualStyle
  2
Hidden
 70
     6
177
     3
291
     0
 70
    58
 90
        1
176
     1
 90
        2
176
     1
 90
        2
176
     1
 90
        0
176
     1
 40
0.6
176
     1
 40
30.0
176
     1
 62
     7
420
 16777215
176
     1
 90
        2
176
     1
 90
        2
176
     1
 62
     7
176
     1
 62
   257
176
     1
 90
        2
176
     1
 90
        1
176
     1
 40
40.0
176
     1
 90
        0
176
     1
 62
   257
176
     1
 40
1.0
176
     1
 90
        1
176
     1
 90
        6
176
     1
 90
        2
176
     1
 62
     7
176
     1
 90
        3
176
     1
 90
        0
176
     1
 90
        0
176
     1
290
     0
176
     1
 90
        1
176
     1
 40
0.0
176
     1
 90
        0
176
     1
290
     0
176
     1
290
     1
176
     1
290
     1
176
     1
290
     0
176
     1
290
     0
176
     1
290
     0
176
     1
290
     0
176
     1
290
     0
176
     1
290
     0
176
     1
 90
       50
176
     1
 40
0.0
176
     1
 40
1.0
176
     1
 90
        0
176
     1
 62
    18
420
        0
176
     1
 90
       50
176
     1
 90
        3
176
     1
 62
     5
420
      255
176
     1
290
     0
176
     1
 90
       50
176
     1
 90
       50
176
     1
 90
       50
176
     1
290
     0
176
     1
 90
       50
176
     1
 62
   256
176
     0
 40
1.0
176
     0
 90
        2
176
     1
  1
strokes_ogs.tif
176
     1
290
     0
176
     1
 40
1.0
176
     1
 40
1.0
176
     1
  0
VISUALSTYLE
  5
1D5
102
{ACAD_REACTORS
330
176
102
}
330
176
100
AcDbVisualStyle
  2
JitterOff
 70
    20
177
     3
291
     1
 70
    58
 90
        2
176
     0
 90
        2
176
     0
 90
        0
176
     0
 90
        0
176
     0
 40
0.6
176
     0
 40
30.0
176
     0
 62
     7
420
 16777215
176
     0
 90
        1
176
     0
 90
        4
176
     0
 62
     7
176
     0
 62
   257
176
     0
 90
        1
176
     0
 90
        1
176
     0
 40
1.0
176
     0
 90
       10
176
     2
 62
     7
176
     0
 40
1.0
176
     0
 90
        1
176
     0
 90
        6
176
     0
 90
        2
176
     0
 62
     7
176
     0
 90
        5
176
     0
 90
        0
176
     0
 90
        0
176
     0
290
     0
176
     0
 90
        1
176
     0
 40
0.0
176
     0
 90
        0
176
     0
290
     0
176
     0
290
     1
176
     0
290
     1
176
     0
290
     0
176
     0
290
     0
176
     0
290
     0
176
     0
290
     0
176
     0
290
     0
176
     0
290
     0
176
     0
 90
       50
176
     0
 40
0.0
176
     0
 40
1.0
176
     0
 90
        0
176
     0
 62
    18
420
        0
176
     0
 90
       50
176
     0
 90
        3
176
     0
 62
     5
420
      255
176
     0
290
     0
176
     0
 90
       50
176
     0
 90
       50
176
     0
 90
       50
176
     0
290
     0
176
     0
 90
       50
176
     0
 62
   256
176
     0
 40
1.0
176
     0
 90
        2
176
     0
  1
strokes_ogs.tif
176
     0
290
     0
176
     0
 40
1.0
176
     0
 40
1.0
176
     0
  0
VISUALSTYLE
  5
184
102
{ACAD_REACTORS
330
176
102
}
330
176
100
AcDbVisualStyle
  2
Linepattern
 70
    14
177
     3
291
     1
 70
    58
 90
        2
176
     1
 90
        2
176
     1
 90
        0
176
     1
 90
        0
176
     1
 40
-0.6
176
     1
 40
-30.0
176
     1
 62
     7
176
     1
 90
        1
176
     1
 90
        4
176
     1
 62
     7
176
     1
 62
   257
176
     1
 90
        7
176
     1
 90
        7
176
     1
 40
1.0
176
     1
 90
        8
176
     1
 62
     7
176
     1
 40
1.0
176
     1
 90
        1
176
     1
 90
        6
176
     1
 90
        2
176
     1
 62
     7
176
     1
 90
        5
176
     1
 90
        0
176
     1
 90
        0
176
     1
290
     0
176
     1
 90
        1
176
     1
 40
0.0
176
     1
 90
        0
176
     1
290
     0
176
     1
290
     1
176
     1
290
     1
176
     1
290
     0
176
     1
290
     0
176
     1
290
     0
176
     1
290
     0
176
     1
290
     0
176
     1
290
     0
176
     1
 90
       50
176
     1
 40
0.0
176
     1
 40
1.0
176
     1
 90
        0
176
     1
 62
    18
420
        0
176
     1
 90
       50
176
     1
 90
        3
176
     1
 62
     5
420
      255
176
     1
290
     0
176
     1
 90
       50
176
     1
 90
       50
176
     1
 90
       50
176
     1
290
     0
176
     1
 90
       50
176
     1
 62
   256
176
     0
 40
1.0
176
     0
 90
        2
176
     1
  1
strokes_ogs.tif
176
     1
290
     0
176
     1
 40
1.0
176
     1
 40
1.0
176
     1
  0
VISUALSTYLE
  5
1D6
102
{ACAD_REACTORS
330
176
102
}
330
176
100
AcDbVisualStyle
  2
OverhangOff
 70
    21
177
     3
291
     1
 70
    58
 90
        2
176
     0
 90
        2
176
     0
 90
        0
176
     0
 90
        0
176
     0
 40
0.6
176
     0
 40
30.0
176
     0
 62
     7
420
 16777215
176
     0
 90
        1
176
     0
 90
        4
176
     0
 62
     7
176
     0
 62
   257
176
     0
 90
        1
176
     0
 90
        1
176
     0
 40
1.0
176
     0
 90
        9
176
     2
 62
     7
176
     0
 40
1.0
176
     0
 90
        1
176
     0
 90
        6
176
     0
 90
        2
176
     0
 62
     7
176
     0
 90
        5
176
     0
 90
        0
176
     0
 90
        0
176
     0
290
     0
176
     0
 90
        1
176
     0
 40
0.0
176
     0
 90
        0
176
     0
290
     0
176
     0
290
     1
176
     0
290
     1
176
     0
290
     0
176
     0
290
     0
176
     0
290
     0
176
     0
290
     0
176
     0
290
     0
176
     0
290
     0
176
     0
 90
       50
176
     0
 40
0.0
176
     0
 40
1.0
176
     0
 90
        0
176
     0
 62
    18
420
        0
176
     0
 90
       50
176
     0
 90
        3
176
     0
 62
     5
420
      255
176
     0
290
     0
176
     0
 90
       50
176
     0
 90
       50
176
     0
 90
       50
176
     0
290
     0
176
     0
 90
       50
176
     0
 62
   256
176
     0
 40
1.0
176
     0
 90
        2
176
     0
  1
strokes_ogs.tif
176
     0
290
     0
176
     0
 40
1.0
176
     0
 40
1.0
176
     0
  0
VISUALSTYLE
  5
17F
102
{ACAD_REACTORS
330
176
102
}
330
176
100
AcDbVisualStyle
  2
Realistic
 70
     8
177
     3
291
     0
 70
    58
 90
        2
176
     1
 90
        2
176
     1
 90
        0
176
     1
 90
        0
176
     1
 40
-0.6
176
     1
 40
-30.0
176
     1
 62
     7
176
     1
 90
        1
176
     1
 90
        0
176
     1
 62
     7
176
     1
 62
   257
176
     1
 90
        1
176
     1
 90
        1
176
     1
 40
1.0
176
     1
 90
        8
176
     1
 62
     8
176
     1
 40
1.0
176
     1
 90
        1
176
     1
 90
        6
176
     1
 90
        2
176
     1
 62
     7
176
     1
 90
        5
176
     1
 90
        0
176
     1
 90
        0
176
     1
290
     0
176
     1
 90
       13
176
     1
 40
0.0
176
     1
 90
        0
176
     1
290
     0
176
     1
290
     1
176
     1
290
     1
176
     1
290
     0
176
     1
290
     0
176
     1
290
     0
176
     1
290
     0
176
     1
290
     0
176
     1
290
     0
176
     1
 90
       50
176
     1
 40
0.0
176
     1
 40
1.0
176
     1
 90
        0
176
     1
 62
    18
420
        0
176
     1
 90
       50
176
     1
 90
        3
176
     1
 62
     5
420
      255
176
     1
290
     0
176
     1
 90
       50
176
     1
 90
       50
176
     1
 90
       50
176
     1
290
     0
176
     1
 90
       50
176
     1
 62
   256
176
     0
 40
1.0
176
     0
 90
        2
176
     1
  1
strokes_ogs.tif
176
     1
290
     0
176
     1
 40
1.0
176
     1
 40
1.0
176
     1
  0
VISUALSTYLE
  5
1DC
102
{ACAD_REACTORS
330
176
102
}
330
176
100
AcDbVisualStyle
  2
Shaded
 70
    27
177
     3
291
     0
 70
    58
 90
        2
176
     1
 90
        2
176
     1
 90
        1
176
     1
 90
        2
176
     1
 40
0.6
176
     1
 40
30.0
176
     1
 62
     7
420
 16777215
176
     1
 90
        0
176
     1
 90
        4
176
     1
 62
     7
176
     1
 62
   257
176
     1
 90
        1
176
     1
 90
        1
176
     1
 40
1.0
176
     1
 90
        8
176
     1
 62
   257
176
     1
 40
1.0
176
     1
 90
        1
176
     1
 90
        6
176
     1
 90
        2
176
     1
 62
     8
420
  7895160
176
     1
 90
        3
176
     1
 90
        0
176
     1
 90
        0
176
     1
290
     0
176
     1
 90
        5
176
     1
 40
0.0
176
     1
 90
        0
176
     1
290
     0
176
     1
290
     1
176
     1
290
     1
176
     1
290
     0
176
     1
290
     0
176
     1
290
     0
176
     1
290
     0
176
     1
290
     0
176
     1
290
     0
176
     1
 90
       50
176
     1
 40
0.0
176
     1
 40
1.0
176
     1
 90
        0
176
     1
 62
    18
420
        0
176
     1
 90
       50
176
     1
 90
        3
176
     1
 62
     5
420
      255
176
     1
290
     0
176
     1
 90
       50
176
     1
 90
       50
176
     1
 90
       50
176
     1
290
     0
176
     1
 90
       50
176
     1
 62
   256
176
     0
 40
1.0
176
     0
 90
        2
176
     1
  1
strokes_ogs.tif
176
     1
290
     0
176
     1
 40
1.0
176
     1
 40
1.0
176
     1
  0
VISUALSTYLE
  5
1DB
102
{ACAD_REACTORS
330
176
102
}
330
176
100
AcDbVisualStyle
  2
Shaded with edges
 70
    26
177
     3
291
     0
 70
    58
 90
        2
176
     1
 90
        2
176
     1
 90
        1
176
     1
 90
        2
176
     1
 40
0.6
176
     1
 40
30.0
176
     1
 62
     7
420
 16777215
176
     1
 90
        1
176
     1
 90
       10
176
     1
 62
     7
176
     1
 62
   257
176
     1
 90
        2
176
     1
 90
        1
176
     1
 40
1.0
176
     1
 90
        8
176
     1
 62
   257
176
     1
 40
1.0
176
     1
 90
        1
176
     1
 90
        6
176
     1
 90
        2
176
     1
 62
     7
176
     1
 90
        3
176
     1
 90
        0
176
     1
 90
        0
176
     1
290
     0
176
     1
 90
        5
176
     1
 40
0.0
176
     1
 90
        0
176
     1
290
     0
176
     1
290
     1
176
     1
290
     1
176
     1
290
     0
176
     1
290
     0
176
     1
290
     0
176
     1
290
     0
176
     1
290
     0
176
     1
290
     0
176
     1
 90
       50
176
     1
 40
0.0
176
     1
 40
1.0
176
     1
 90
        0
176
     1
 62
    18
420
        0
176
     1
 90
       50
176
     1
 90
        3
176
     1
 62
     5
420
      255
176
     1
290
     0
176
     1
 90
       50
176
     1
 90
       50
176
     1
 90
       50
176
     1
290
     0
176
     1
 90
       50
176
     1
 62
   256
176
     0
 40
1.0
176
     0
 90
        2
176
     1
  1
strokes_ogs.tif
176
     1
290
     0
176
     1
 40
1.0
176
     1
 40
1.0
176
     1
  0
VISUALSTYLE
  5
1D8
102
{ACAD_REACTORS
330
176
102
}
330
176
100
AcDbVisualStyle
  2
Shades of Gray
 70
    23
177
     3
291
     0
 70
    58
 90
        2
176
     1
 90
        2
176
     1
 90
        3
176
     1
 90
        0
176
     1
 40
0.6
176
     1
 40
30.0
176
     1
 62
     7
420
 16777215
176
     1
 90
        2
176
     1
 90
        2
176
     1
 62
     7
176
     1
 62
     7
176
     1
 90
        1
176
     1
 90
        1
176
     1
 40
40.0
176
     1
 90
        8
176
     1
 62
     7
176
     1
 40
1.0
176
     1
 90
        1
176
     1
 90
        6
176
     1
 90
        2
176
     1
 62
     7
176
     1
 90
        3
176
     1
 90
        0
176
     1
 90
        0
176
     1
290
     0
176
     1
 90
        1
176
     1
 40
0.0
176
     1
 90
        0
176
     1
290
     0
176
     1
290
     1
176
     1
290
     1
176
     1
290
     0
176
     1
290
     0
176
     1
290
     0
176
     1
290
     0
176
     1
290
     0
176
     1
290
     0
176
     1
 90
       50
176
     1
 40
0.0
176
     1
 40
1.0
176
     1
 90
        0
176
     1
 62
    18
420
        0
176
     1
 90
       50
176
     1
 90
        3
176
     1
 62
     5
420
      255
176
     1
290
     0
176
     1
 90
       50
176
     1
 90
       50
176
     1
 90
       50
176
     1
290
     0
176
     1
 90
       50
176
     1
 62
   256
176
     0
 40
1.0
176
     0
 90
        2
176
     1
  1
strokes_ogs.tif
176
     1
290
     0
176
     1
 40
1.0
176
     1
 40
1.0
176
     1
  0
VISUALSTYLE
  5
1D9
102
{ACAD_REACTORS
330
176
102
}
330
176
100
AcDbVisualStyle
  2
Sketchy
 70
    24
177
     3
291
     0
 70
    58
 90
        1
176
     1
 90
        2
176
     1
 90
        2
176
     1
 90
        0
176
     1
 40
0.6
176
     1
 40
30.0
176
     1
 62
     7
420
 16777215
176
     1
 90
        2
176
     1
 90
        2
176
     1
 62
     7
176
     1
 62
     7
176
     1
 90
        1
176
     1
 90
        1
176
     1
 40
40.0
176
     1
 90
       11
176
     1
 62
     7
176
     1
 40
1.0
176
     1
 90
        1
176
     1
 90
        6
176
     1
 90
        2
176
     1
 62
     7
176
     1
 90
        6
176
     1
 90
        0
176
     1
 90
        0
176
     1
290
     0
176
     1
 90
        1
176
     1
 40
0.0
176
     1
 90
        0
176
     1
290
     0
176
     1
290
     1
176
     1
290
     1
176
     1
290
     0
176
     1
290
     0
176
     1
290
     0
176
     1
290
     0
176
     1
290
     0
176
     1
290
     0
176
     1
 90
       50
176
     1
 40
0.0
176
     1
 40
1.0
176
     1
 90
        0
176
     1
 62
    18
420
        0
176
     1
 90
       50
176
     1
 90
        3
176
     1
 62
     5
420
      255
176
     1
290
     0
176
     1
 90
       50
176
     1
 90
       50
176
     1
 90
       50
176
     1
290
     0
176
     1
 90
       50
176
     1
 62
   256
176
     0
 40
1.0
176
     0
 90
        2
176
     1
  1
strokes_ogs.tif
176
     1
290
     0
176
     1
 40
1.0
176
     1
 40
1.0
176
     1
  0
VISUALSTYLE
  5
183
102
{ACAD_REACTORS
330
176
102
}
330
176
100
AcDbVisualStyle
  2
Thicken
 70
    13
177
     3
291
     1
 70
    58
 90
        2
176
     1
 90
        2
176
     1
 90
        0
176
     1
 90
        0
176
     1
 40
-0.6
176
     1
 40
-30.0
176
     1
 62
     7
176
     1
 90
        1
176
     1
 90
        4
176
     1
 62
     7
176
     1
 62
   257
176
     1
 90
        1
176
     1
 90
        1
176
     1
 40
1.0
176
     1
 90
       12
176
     1
 62
     7
176
     1
 40
1.0
176
     1
 90
        1
176
     1
 90
        6
176
     1
 90
        2
176
     1
 62
     7
176
     1
 90
        5
176
     1
 90
        0
176
     1
 90
        0
176
     1
290
     0
176
     1
 90
        1
176
     1
 40
0.0
176
     1
 90
        0
176
     1
290
     0
176
     1
290
     1
176
     1
290
     1
176
     1
290
     0
176
     1
290
     0
176
     1
290
     0
176
     1
290
     0
176
     1
290
     0
176
     1
290
     0
176
     1
 90
       50
176
     1
 40
0.0
176
     1
 40
1.0
176
     1
 90
        0
176
     1
 62
    18
420
        0
176
     1
 90
       50
176
     1
 90
        3
176
     1
 62
     5
420
      255
176
     1
290
     0
176
     1
 90
       50
176
     1
 90
       50
176
     1
 90
       50
176
     1
290
     0
176
     1
 90
       50
176
     1
 62
   256
176
     0
 40
1.0
176
     0
 90
        2
176
     1
  1
strokes_ogs.tif
176
     1
290
     0
176
     1
 40
1.0
176
     1
 40
1.0
176
     1
  0
VISUALSTYLE
  5
1D3
102
{ACAD_REACTORS
330
176
102
}
330
176
100
AcDbVisualStyle
  2
Wireframe
 70
     5
177
     3
291
     0
 70
    58
 90
        0
176
     1
 90
        2
176
     1
 90
        0
176
     1
 90
        0
176
     1
 40
0.6
176
     1
 40
30.0
176
     1
 62
     7
420
 16777215
176
     1
 90
        1
176
     1
 90
        4
176
     1
 62
     7
176
     1
 62
   257
176
     1
 90
        1
176
     1
 90
        1
176
     1
 40
1.0
176
     1
 90
        0
176
     1
 62
   257
176
     1
 40
1.0
176
     1
 90
        1
176
     1
 90
        6
176
     1
 90
        2
176
     1
 62
     7
176
     1
 90
        3
176
     1
 90
        0
176
     1
 90
        0
176
     1
290
     0
176
     1
 90
        1
176
     1
 40
0.0
176
     1
 90
        0
176
     1
290
     0
176
     1
290
     1
176
     1
290
     1
176
     1
290
     0
176
     1
290
     0
176
     1
290
     0
176
     1
290
     0
176
     1
290
     0
176
     1
290
     0
176
     1
 90
       50
176
     1
 40
0.0
176
     1
 40
1.0
176
     1
 90
        0
176
     1
 62
    18
420
        0
176
     1
 90
       50
176
     1
 90
        3
176
     1
 62
     5
420
      255
176
     1
290
     0
176
     1
 90
       50
176
     1
 90
       50
176
     1
 90
       50
176
     1
290
     0
176
     1
 90
       50
176
     1
 62
   256
176
     0
 40
1.0
176
     0
 90
        2
176
     1
  1
strokes_ogs.tif
176
     1
290
     0
176
     1
 40
1.0
176
     1
 40
1.0
176
     1
  0
VISUALSTYLE
  5
1DA
102
{ACAD_REACTORS
330
176
102
}
330
176
100
AcDbVisualStyle
  2
X-Ray
 70
    25
177
     3
291
     0
 70
    58
 90
        2
176
     1
 90
        2
176
     1
 90
        1
176
     1
 90
        1
176
     1
 40
0.5
176
     1
 40
30.0
176
     1
 62
     7
420
 16777215
176
     1
 90
        1
176
     1
 90
        0
176
     1
 62
     7
176
     1
 62
   257
176
     1
 90
        1
176
     1
 90
        1
176
     1
 40
1.0
176
     1
 90
        8
176
     1
 62
     7
176
     1
 40
1.0
176
     1
 90
        1
176
     1
 90
        6
176
     1
 90
        2
176
     1
 62
     7
176
     1
 90
        3
176
     1
 90
        0
176
     1
 90
        0
176
     1
290
     0
176
     1
 90
       13
176
     1
 40
0.0
176
     1
 90
        0
176
     1
290
     0
176
     1
290
     1
176
     1
290
     1
176
     1
290
     0
176
     1
290
     0
176
     1
290
     0
176
     1
290
     0
176
     1
290
     0
176
     1
290
     0
176
     1
 90
       50
176
     1
 40
0.0
176
     1
 40
1.0
176
     1
 90
        0
176
     1
 62
    18
420
        0
176
     1
 90
       50
176
     1
 90
        3
176
     1
 62
     5
420
      255
176
     1
290
     0
176
     1
 90
       50
176
     1
 90
       50
176
     1
 90
       50
176
     1
290
     0
176
     1
 90
       50
176
     1
 62
   256
176
     0
 40
1.0
176
     0
 90
        2
176
     1
  1
strokes_ogs.tif
176
     1
290
     0
176
     1
 40
1.0
176
     1
 40
1.0
176
     1
  0
DICTIONARYVAR
  5
1FF
102
{ACAD_REACTORS
330
192
102
}
330
192
100
DictionaryVariables
280
     0
  1
1:1
  0
DICTIONARYVAR
  5
201
102
{ACAD_REACTORS
330
192
102
}
330
192
100
DictionaryVariables
280
     0
  1
Standard
  0
DICTIONARYVAR
  5
200
102
{ACAD_REACTORS
330
192
102
}
330
192
100
DictionaryVariables
280
     0
  1
Standard
  0
DICTIONARYVAR
  5
196
102
{ACAD_REACTORS
330
192
102
}
330
192
100
DictionaryVariables
280
     0
  1
2
  0
DICTIONARYVAR
  5
197
102
{ACAD_REACTORS
330
192
102
}
330
192
100
DictionaryVariables
280
     0
  1
1
  0
DICTIONARYVAR
  5
195
102
{ACAD_REACTORS
330
192
102
}
330
192
100
DictionaryVariables
280
     0
  1
0
  0
DICTIONARY
  5
217
330
1DE
100
AcDbDictionary
280
     1
281
     1
  3
ACAD_ROUNDTRIP_2008_TABLESTYLE_CELLSTYLEMAP
360
218
  0
CELLSTYLEMAP
  5
218
102
{ACAD_REACTORS
330
217
102
}
330
217
100
AcDbCellStyleMap
 90
        3
300
CELLSTYLE
  1
TABLEFORMAT_BEGIN
 90
        5
170
     1
 91
        0
 92
    32768
 62
   257
 93
        1
300
CONTENTFORMAT
  1
CONTENTFORMAT_BEGIN
 90
        0
 91
        0
 92
        4
 93
        0
300

 40
0.0
140
1.0
 94
        5
 62
     0
340
11
144
0.25
309
CONTENTFORMAT_END
171
     1
301
MARGIN
  1
CELLMARGIN_BEGIN
 40
0.06
 40
0.06
 40
0.06
 40
0.06
 40
0.06
 40
0.06
309
CELLMARGIN_END
 94
        6
 95
        1
302
GRIDFORMAT
  1
GRIDFORMAT_BEGIN
 90
        0
 91
        1
 62
     0
 92
       -2
340
14
 93
        0
 40
0.045
309
GRIDFORMAT_END
 95
        2
302
GRIDFORMAT
  1
GRIDFORMAT_BEGIN
 90
        0
 91
        1
 62
     0
 92
       -2
340
14
 93
        0
 40
0.045
309
GRIDFORMAT_END
 95
        4
302
GRIDFORMAT
  1
GRIDFORMAT_BEGIN
 90
        0
 91
        1
 62
     0
 92
       -2
340
14
 93
        0
 40
0.045
309
GRIDFORMAT_END
 95
        8
302
GRIDFORMAT
  1
GRIDFORMAT_BEGIN
 90
        0
 91
        1
 62
     0
 92
       -2
340
14
 93
        0
 40
0.045
309
GRIDFORMAT_END
 95
       16
302
GRIDFORMAT
  1
GRIDFORMAT_BEGIN
 90
        0
 91
        1
 62
     0
 92
       -2
340
14
 93
        0
 40
0.045
309
GRIDFORMAT_END
 95
       32
302
GRIDFORMAT
  1
GRIDFORMAT_BEGIN
 90
        0
 91
        1
 62
     0
 92
       -2
340
14
 93
        0
 40
0.045
309
GRIDFORMAT_END
309
TABLEFORMAT_END
  1
CELLSTYLE_BEGIN
 90
        1
 91
        1
300
_TITLE
309
CELLSTYLE_END
300
CELLSTYLE
  1
TABLEFORMAT_BEGIN
 90
        5
170
     1
 91
        0
 92
        0
 62
   257
 93
        1
300
CONTENTFORMAT
  1
CONTENTFORMAT_BEGIN
 90
        0
 91
        0
 92
        4
 93
        0
300

 40
0.0
140
1.0
 94
        5
 62
     0
340
11
144
0.18
309
CONTENTFORMAT_END
171
     1
301
MARGIN
  1
CELLMARGIN_BEGIN
 40
0.06
 40
0.06
 40
0.06
 40
0.06
 40
0.06
 40
0.06
309
CELLMARGIN_END
 94
        6
 95
        1
302
GRIDFORMAT
  1
GRIDFORMAT_BEGIN
 90
        0
 91
        1
 62
     0
 92
       -2
340
14
 93
        0
 40
0.045
309
GRIDFORMAT_END
 95
        2
302
GRIDFORMAT
  1
GRIDFORMAT_BEGIN
 90
        0
 91
        1
 62
     0
 92
       -2
340
14
 93
        0
 40
0.045
309
GRIDFORMAT_END
 95
        4
302
GRIDFORMAT
  1
GRIDFORMAT_BEGIN
 90
        0
 91
        1
 62
     0
 92
       -2
340
14
 93
        0
 40
0.045
309
GRIDFORMAT_END
 95
        8
302
GRIDFORMAT
  1
GRIDFORMAT_BEGIN
 90
        0
 91
        1
 62
     0
 92
       -2
340
14
 93
        0
 40
0.045
309
GRIDFORMAT_END
 95
       16
302
GRIDFORMAT
  1
GRIDFORMAT_BEGIN
 90
        0
 91
        1
 62
     0
 92
       -2
340
14
 93
        0
 40
0.045
309
GRIDFORMAT_END
 95
       32
302
GRIDFORMAT
  1
GRIDFORMAT_BEGIN
 90
        0
 91
        1
 62
     0
 92
       -2
340
14
 93
        0
 40
0.045
309
GRIDFORMAT_END
309
TABLEFORMAT_END
  1
CELLSTYLE_BEGIN
 90
        2
 91
        1
300
_HEADER
309
CELLSTYLE_END
300
CELLSTYLE
  1
TABLEFORMAT_BEGIN
 90
        5
170
     1
 91
        0
 92
        0
 62
   257
 93
        1
300
CONTENTFORMAT
  1
CONTENTFORMAT_BEGIN
 90
        0
 91
        0
 92
        4
 93
        0
300

 40
0.0
140
1.0
 94
        2
 62
     0
340
11
144
0.18
309
CONTENTFORMAT_END
171
     1
301
MARGIN
  1
CELLMARGIN_BEGIN
 40
0.06
 40
0.06
 40
0.06
 40
0.06
 40
0.06
 40
0.06
309
CELLMARGIN_END
 94
        6
 95
        1
302
GRIDFORMAT
  1
GRIDFORMAT_BEGIN
 90
        0
 91
        1
 62
     0
 92
       -2
340
14
 93
        0
 40
0.045
309
GRIDFORMAT_END
 95
        2
302
GRIDFORMAT
  1
GRIDFORMAT_BEGIN
 90
        0
 91
        1
 62
     0
 92
       -2
340
14
 93
        0
 40
0.045
309
GRIDFORMAT_END
 95
        4
302
GRIDFORMAT
  1
GRIDFORMAT_BEGIN
 90
        0
 91
        1
 62
     0
 92
       -2
340
14
 93
        0
 40
0.045
309
GRIDFORMAT_END
 95
        8
302
GRIDFORMAT
  1
GRIDFORMAT_BEGIN
 90
        0
 91
        1
 62
     0
 92
       -2
340
14
 93
        0
 40
0.045
309
GRIDFORMAT_END
 95
       16
302
GRIDFORMAT
  1
GRIDFORMAT_BEGIN
 90
        0
 91
        1
 62
     0
 92
       -2
340
14
 93
        0
 40
0.045
309
GRIDFORMAT_END
 95
       32
302
GRIDFORMAT
  1
GRIDFORMAT_BEGIN
 90
        0
 91
        1
 62
     0
 92
       -2
340
14
 93
        0
 40
0.045
309
GRIDFORMAT_END
309
TABLEFORMAT_END
  1
CELLSTYLE_BEGIN
 90
        3
 91
        2
300
_DATA
309
CELLSTYLE_END
  0
ENDSEC
  0
EOF
