  0
SECTION
  2
HEADER
  9
$ACADVER
  1
AC1015
  9
$ACADMAINTVER
 70
     6
  9
$DWGCODEPAGE
  3
ANSI_1252
  9
$INSBASE
 10
0.0
 20
0.0
 30
0.0
  9
$EXTMIN
 10
-36.352590953
 20
-17.511804773
 30
0.0
  9
$EXTMAX
 10
64.096663395
 20
44.022780632
 30
0.0
  9
$LIMMIN
 10
-36.352590953
 20
-17.511804773
  9
$LIMMAX
 10
64.096663395
 20
44.022780632
  9
$ORTHOMODE
 70
     0
  9
$REGENMODE
 70
     1
  9
$FILLMODE
 70
     1
  9
$QTEXTMODE
 70
     0
  9
$MIRRTEXT
 70
     1
  9
$LTSCALE
 40
1.0
  9
$ATTMODE
 70
     1
  9
$TEXTSIZE
 40
0.2
  9
$TRACEWID
 40
0.05
  9
$TEXTSTYLE
  7
Standard
  9
$CLAYER
  8
0
  9
$CELTYPE
  6
ByBlock
  9
$CECOLOR
 62
   256
  9
$CELTSCALE
 40
1.0
  9
$DISPSILH
 70
     0
  9
$DIMSCALE
 40
1.0
  9
$DIMASZ
 40
0.18
  9
$DIMEXO
 40
0.0625
  9
$DIMDLI
 40
0.38
  9
$DIMRND
 40
0.0
  9
$DIMDLE
 40
0.0
  9
$DIMEXE
 40
0.18
  9
$DIMTP
 40
0.0
  9
$DIMTM
 40
0.0
  9
$DIMTXT
 40
0.18
  9
$DIMCEN
 40
0.09
  9
$DIMTSZ
 40
0.0
  9
$DIMTOL
 70
     0
  9
$DIMLIM
 70
     0
  9
$DIMTIH
 70
     1
  9
$DIMTOH
 70
     1
  9
$DIMSE1
 70
     0
  9
$DIMSE2
 70
     0
  9
$DIMTAD
 70
     0
  9
$DIMZIN
 70
     0
  9
$DIMBLK
  1

  9
$DIMASO
 70
     1
  9
$DIMSHO
 70
     1
  9
$DIMPOST
  1

  9
$DIMAPOST
  1

  9
$DIMALT
 70
     0
  9
$DIMALTD
 70
     2
  9
$DIMALTF
 40
25.4
  9
$DIMLFAC
 40
1.0
  9
$DIMTOFL
 70
     0
  9
$DIMTVP
 40
0.0
  9
$DIMTIX
 70
     0
  9
$DIMSOXD
 70
     0
  9
$DIMSAH
 70
     0
  9
$DIMBLK1
  1

  9
$DIMBLK2
  1

  9
$DIMSTYLE
  2
Standard
  9
$DIMCLRD
 70
     0
  9
$DIMCLRE
 70
     0
  9
$DIMCLRT
 70
     0
  9
$DIMTFAC
 40
1.0
  9
$DIMGAP
 40
0.09
  9
$DIMJUST
 70
     0
  9
$DIMSD1
 70
     0
  9
$DIMSD2
 70
     0
  9
$DIMTOLJ
 70
     1
  9
$DIMTZIN
 70
     0
  9
$DIMALTZ
 70
     0
  9
$DIMALTTZ
 70
     0
  9
$DIMUPT
 70
     0
  9
$DIMDEC
 70
     4
  9
$DIMTDEC
 70
     4
  9
$DIMALTU
 70
     2
  9
$DIMALTTD
 70
     2
  9
$DIMTXSTY
  7
Standard
  9
$DIMAUNIT
 70
     0
  9
$DIMADEC
 70
     0
  9
$DIMALTRND
 40
0.0
  9
$DIMAZIN
 70
     0
  9
$DIMDSEP
 70
    46
  9
$DIMATFIT
 70
     3
  9
$DIMFRAC
 70
     0
  9
$DIMLDRBLK
  1

  9
$DIMLUNIT
 70
     2
  9
$DIMLWD
 70
    -2
  9
$DIMLWE
 70
    -2
  9
$DIMTMOVE
 70
     2
  9
$LUNITS
 70
     2
  9
$LUPREC
 70
     4
  9
$SKETCHINC
 40
0.1
  9
$FILLETRAD
 40
0.5
  9
$AUNITS
 70
     2
  9
$AUPREC
 70
     0
  9
$MENU
  1
.
  9
$ELEVATION
 40
0.0
  9
$PELEVATION
 40
0.0
  9
$THICKNESS
 40
0.0
  9
$LIMCHECK
 70
     0
  9
$CHAMFERA
 40
0.5
  9
$CHAMFERB
 40
0.5
  9
$CHAMFERC
 40
1.0
  9
$CHAMFERD
 40
0.0
  9
$SKPOLY
 70
     0
  9
$TDCREATE
 40
2458327.544478912
  9
$TDUCREATE
 40
2458327.461145579
  9
$TDUPDATE
 40
2458327.544479109
  9
$TDUUPDATE
 40
2458327.461145775
  9
$TDINDWG
 40
0.0000000116
  9
$TDUSRTIMER
 40
0.0000000116
  9
$USRTIMER
 70
     1
  9
$ANGBASE
 50
0.0
  9
$ANGDIR
 70
     0
  9
$PDMODE
 70
     0
  9
$PDSIZE
 40
0.0
  9
$PLINEWID
 40
0.0
  9
$SPLFRAME
 70
     0
  9
$SPLINETYPE
 70
     6
  9
$SPLINESEGS
 70
     8
  9
$HANDSEED
  5
16F
  9
$SURFTAB1
 70
     6
  9
$SURFTAB2
 70
     6
  9
$SURFTYPE
 70
     6
  9
$SURFU
 70
     6
  9
$SURFV
 70
     6
  9
$UCSBASE
  2

  9
$UCSNAME
  2

  9
$UCSORG
 10
0.0
 20
0.0
 30
0.0
  9
$UCSXDIR
 10
1.0
 20
0.0
 30
0.0
  9
$UCSYDIR
 10
0.0
 20
1.0
 30
0.0
  9
$UCSORTHOREF
  2

  9
$UCSORTHOVIEW
 70
     0
  9
$UCSORGTOP
 10
0.0
 20
0.0
 30
0.0
  9
$UCSORGBOTTOM
 10
0.0
 20
0.0
 30
0.0
  9
$UCSORGLEFT
 10
0.0
 20
0.0
 30
0.0
  9
$UCSORGRIGHT
 10
0.0
 20
0.0
 30
0.0
  9
$UCSORGFRONT
 10
0.0
 20
0.0
 30
0.0
  9
$UCSORGBACK
 10
0.0
 20
0.0
 30
0.0
  9
$PUCSBASE
  2

  9
$PUCSNAME
  2

  9
$PUCSORG
 10
0.0
 20
0.0
 30
0.0
  9
$PUCSXDIR
 10
1.0
 20
0.0
 30
0.0
  9
$PUCSYDIR
 10
0.0
 20
1.0
 30
0.0
  9
$PUCSORTHOREF
  2

  9
$PUCSORTHOVIEW
 70
     0
  9
$PUCSORGTOP
 10
0.0
 20
0.0
 30
0.0
  9
$PUCSORGBOTTOM
 10
0.0
 20
0.0
 30
0.0
  9
$PUCSORGLEFT
 10
0.0
 20
0.0
 30
0.0
  9
$PUCSORGRIGHT
 10
0.0
 20
0.0
 30
0.0
  9
$PUCSORGFRONT
 10
0.0
 20
0.0
 30
0.0
  9
$PUCSORGBACK
 10
0.0
 20
0.0
 30
0.0
  9
$USERI1
 70
     0
  9
$USERI2
 70
     0
  9
$USERI3
 70
     0
  9
$USERI4
 70
     0
  9
$USERI5
 70
     0
  9
$USERR1
 40
0.0
  9
$USERR2
 40
0.0
  9
$USERR3
 40
0.0
  9
$USERR4
 40
0.0
  9
$USERR5
 40
0.0
  9
$WORLDVIEW
 70
     1
  9
$SHADEDGE
 70
     3
  9
$SHADEDIF
 70
    70
  9
$TILEMODE
 70
     1
  9
$MAXACTVP
 70
    64
  9
$PINSBASE
 10
0.0
 20
0.0
 30
0.0
  9
$PLIMCHECK
 70
     0
  9
$PEXTMIN
 10
1.000000000000000E+20
 20
1.000000000000000E+20
 30
1.000000000000000E+20
  9
$PEXTMAX
 10
-1.000000000000000E+20
 20
-1.000000000000000E+20
 30
-1.000000000000000E+20
  9
$PLIMMIN
 10
0.0
 20
0.0
  9
$PLIMMAX
 10
12.0
 20
9.0
  9
$UNITMODE
 70
     0
  9
$VISRETAIN
 70
     1
  9
$PLINEGEN
 70
     0
  9
$PSLTSCALE
 70
     1
  9
$TREEDEPTH
 70
  3020
  9
$CMLSTYLE
  2
Standard
  9
$CMLJUST
 70
     0
  9
$CMLSCALE
 40
1.0
  9
$PROXYGRAPHICS
 70
     1
  9
$MEASUREMENT
 70
     0
  9
$CELWEIGHT
370
    -1
  9
$ENDCAPS
280
     0
  9
$JOINSTYLE
280
     0
  9
$LWDISPLAY
290
     0
  9
$INSUNITS
 70
     0
  9
$HYPERLINKBASE
  1

  9
$STYLESHEET
  1

  9
$XEDIT
290
     1
  9
$CEPSNTYPE
380
     0
  9
$PSTYLEMODE
290
     1
  9
$FINGERPRINTGUID
  2
{A0180E1B-0F6E-40B6-B2C5-4915E42FC0BE}
  9
$VERSIONGUID
  2
{FAEB1C32-E019-11D5-929B-00C0DF256EC4}
  9
$EXTNAMES
290
     1
  9
$PSVPSCALE
 40
0.0
  9
$OLESTARTUP
290
     0
  0
ENDSEC
  0
SECTION
  2
CLASSES
  0
CLASS
  1
ACDBDICTIONARYWDFLT
  2
AcDbDictionaryWithDefault
  3
ObjectDBX Classes
 90
        0
280
     0
281
     0
  0
CLASS
  1
SCALE
  2
AcDbScale
  3
ObjectDBX Classes
 90
     1153
280
     0
281
     0
  0
CLASS
  1
VISUALSTYLE
  2
AcDbVisualStyle
  3
ObjectDBX Classes
 90
     4095
280
     0
281
     0
  0
CLASS
  1
MATERIAL
  2
AcDbMaterial
  3
ObjectDBX Classes
 90
     1153
280
     0
281
     0
  0
CLASS
  1
DICTIONARYVAR
  2
AcDbDictionaryVar
  3
ObjectDBX Classes
 90
        0
280
     0
281
     0
  0
CLASS
  1
ACDBPLACEHOLDER
  2
AcDbPlaceHolder
  3
ObjectDBX Classes
 90
        0
280
     0
281
     0
  0
CLASS
  1
LAYOUT
  2
AcDbLayout
  3
ObjectDBX Classes
 90
        0
280
     0
281
     0
  0
ENDSEC
  0
SECTION
  2
TABLES
  0
TABLE
  2
VPORT
  5
8
102
{ACAD_XDICTIONARY
360
134
102
}
330
0
100
AcDbSymbolTable
 70
     1
  0
VPORT
  5
E6
330
8
100
AcDbSymbolTableRecord
100
AcDbViewportTableRecord
  2
*Active
 70
     0
 10
0.0
 20
0.0
 11
1.0
 21
1.0
 12
10.42990654205607
 22
4.5
 13
0.0
 23
0.0
 14
0.5
 24
0.5
 15
0.5
 25
0.5
 16
0.0
 26
0.0
 36
1.0
 17
0.0
 27
0.0
 37
0.0
 40
9.0
 41
1.972972972850329
 42
50.0
 43
0.0
 44
0.0
 50
0.0
 51
0.0
 71
     0
 72
   100
 73
     1
 74
     3
 75
     0
 76
     0
 77
     0
 78
     0
281
     0
 65
     1
110
0.0
120
0.0
130
0.0
111
1.0
121
0.0
131
0.0
112
0.0
122
1.0
132
0.0
 79
     0
146
0.0
  0
ENDTAB
  0
TABLE
  2
LTYPE
  5
5
330
0
100
AcDbSymbolTable
 70
     5
  0
LTYPE
  5
14
330
5
100
AcDbSymbolTableRecord
100
AcDbLinetypeTableRecord
  2
ByBlock
 70
     0
  3

 72
    65
 73
     0
 40
0.0
  0
LTYPE
  5
15
330
5
100
AcDbSymbolTableRecord
100
AcDbLinetypeTableRecord
  2
ByLayer
 70
     0
  3

 72
    65
 73
     0
 40
0.0
  0
LTYPE
  5
16
330
5
100
AcDbSymbolTableRecord
100
AcDbLinetypeTableRecord
  2
Continuous
 70
     0
  3
Solid line
 72
    65
 73
     0
 40
0.0
  0
LTYPE
  5
20
330
5
100
AcDbSymbolTableRecord
100
AcDbLinetypeTableRecord
  2
PUNKT
 70
     0
  3
..............
 72
    65
 73
     2
 40
1.5
 49
0.7
 74
     0
 49
-0.8
 74
     0
  0
LTYPE
  5
21
330
5
100
AcDbSymbolTableRecord
100
AcDbLinetypeTableRecord
  2
GESTRICHELT
 70
     0
  3
-- -- -- -- --
 72
    65
 73
     7
 40
2.8
 49
0.9
 74
     0
 49
0.0
 74
     0
 49
0.9
 74
     0
 49
0.0
 74
     0
 49
0.2
 74
     0
 49
0.0
 74
     0
 49
-0.8
 74
     0
  0
LTYPE
  5
22
330
5
100
AcDbSymbolTableRecord
100
AcDbLinetypeTableRecord
  2
STRICHPUNKT
 70
     0
  3
--.--.--.--.--
 72
    65
 73
     4
 40
8.8
 49
5.5
 74
     0
 49
-1.3
 74
     0
 49
0.7
 74
     0
 49
-1.3
 74
     0
  0
LTYPE
  5
25
330
5
100
AcDbSymbolTableRecord
100
AcDbLinetypeTableRecord
  2
PHANTOM
 70
     0
  3
--..--..--..--
 72
    65
 73
     6
 40
14.2
 49
7.0
 74
     0
 49
-1.8
 74
     0
 49
0.9
 74
     0
 49
-1.8
 74
     0
 49
0.9
 74
     0
 49
-1.8
 74
     0
  0
LTYPE
  5
15E
330
5
100
AcDbSymbolTableRecord
100
AcDbLinetypeTableRecord
  2
DASH
 70
     0
  3
DASH _ _ _ _ _
 72
    65
 73
     2
 40
0.75
 49
0.40
 74
     0
 49
-0.35
 74
     0
  0
LTYPE
  5
15F
330
5
100
AcDbSymbolTableRecord
100
AcDbLinetypeTableRecord
  2
LONGDASH_DASH
 70
     0
  3
LONGDASH_DASH __ . __ . __
 72
    65
 73
     4
 40
0.85
 49
0.40
 74
     0
 49
-0.20
 74
     0
 49
0.05
 74
     0
 49
-0.20
 74
     0
  0
LTYPE
  5
160
330
5
100
AcDbSymbolTableRecord
100
AcDbLinetypeTableRecord
  2
LONGDASH_DASH_DASH
 70
     0
  3
LONGDASH_DASH_DASH __ . . __ . . __
 72
    65
 73
     6
 40
1.10
 49
0.40
 74
     0
 49
-0.20
 74
     0
 49
0.05
 74
     0
 49
-0.20
 74
     0
 49
0.05
 74
     0
 49
-0.20
 74
     0
  0
ENDTAB
  0
TABLE
  2
LAYER
  5
2
330
0
100
AcDbSymbolTable
 70
    12
  0
LAYER
  5
128
330
2
100
AcDbSymbolTableRecord
100
AcDbLayerTableRecord
  2
200
 70
     0
 62
     2
  6
Continuous
370
    50
390
F
  0
LAYER
  5
161
330
2
100
AcDbSymbolTableRecord
100
AcDbLayerTableRecord
  2
0
 70
     0
 62
     -1
  6
CONTINUOUS
370
    -3
390
F
  0
LAYER
  5
162
330
2
100
AcDbSymbolTableRecord
100
AcDbLayerTableRecord
  2
1
 70
     0
 62
     4
  6
CONTINUOUS
370
    50
390
F
  0
LAYER
  5
163
330
2
100
AcDbSymbolTableRecord
100
AcDbLayerTableRecord
  2
2
 70
     0
 62
     7
  6
CONTINUOUS
370
    25
390
F
  0
LAYER
  5
164
330
2
100
AcDbSymbolTableRecord
100
AcDbLayerTableRecord
  2
3
 70
     0
 62
     1
  6
DASH
370
    35
390
F
  0
LAYER
  5
165
330
2
100
AcDbSymbolTableRecord
100
AcDbLayerTableRecord
  2
4
 70
     0
 62
     2
  6
LONGDASH_DASH
370
    25
390
F
  0
LAYER
  5
166
330
2
100
AcDbSymbolTableRecord
100
AcDbLayerTableRecord
  2
6
 70
     0
 62
     5
  6
CONTINUOUS
370
    -3
390
F
  0
LAYER
  5
167
330
2
100
AcDbSymbolTableRecord
100
AcDbLayerTableRecord
  2
CUT
 70
     0
 62
     1
  6
CONTINUOUS
370
    25
390
F
  0
LAYER
  5
168
330
2
100
AcDbSymbolTableRecord
100
AcDbLayerTableRecord
  2
NOCUT
 70
     0
 62
     7
  6
CONTINUOUS
370
    25
390
F
  0
LAYER
  5
169
330
2
100
AcDbSymbolTableRecord
100
AcDbLayerTableRecord
  2
SK1
 70
     0
 62
     4
  6
CONTINUOUS
370
    50
390
F
  0
LAYER
  5
16A
330
2
100
AcDbSymbolTableRecord
100
AcDbLayerTableRecord
  2
SK2
 70
     0
 62
     7
  6
CONTINUOUS
370
    25
390
F
  0
LAYER
  5
16B
330
2
100
AcDbSymbolTableRecord
100
AcDbLayerTableRecord
  2
SK3
 70
     0
 62
     1
  6
DASH
370
    35
390
F
  0
LAYER
  5
16C
330
2
100
AcDbSymbolTableRecord
100
AcDbLayerTableRecord
  2
SK4
 70
     0
 62
     2
  6
LONGDASH_DASH
370
    25
390
F
  0
LAYER
  5
16D
330
2
100
AcDbSymbolTableRecord
100
AcDbLayerTableRecord
  2
SK6
 70
     0
 62
     5
  6
CONTINUOUS
370
    -3
390
F
  0
LAYER
  5
16E
330
2
100
AcDbSymbolTableRecord
100
AcDbLayerTableRecord
  2
INFTOTAL
 70
     0
 62
     9
  6
CONTINUOUS
370
    18
390
F
  0
ENDTAB
  0
TABLE
  2
STYLE
  5
3
330
0
100
AcDbSymbolTable
 70
     2
  0
STYLE
  5
11
330
3
100
AcDbSymbolTableRecord
100
AcDbTextStyleTableRecord
  2
Standard
 70
     0
 40
0.0
 41
1.0
 50
0.0
 71
     0
 42
0.2
  3
txt
  4

  0
STYLE
  5
127
330
3
100
AcDbSymbolTableRecord
100
AcDbTextStyleTableRecord
  2
BMG_Text
 70
     0
 40
3.5
 41
1.0
 50
0.0
 71
     0
 42
0.2
  3
monos.ttf
  4

1001
ACAD
1000
Monospac821 BT
1071
       49
  0
ENDTAB
  0
TABLE
  2
VIEW
  5
6
330
0
100
AcDbSymbolTable
 70
     0
  0
ENDTAB
  0
TABLE
  2
UCS
  5
7
330
0
100
AcDbSymbolTable
 70
     0
  0
ENDTAB
  0
TABLE
  2
APPID
  5
9
330
0
100
AcDbSymbolTable
 70
     1
  0
APPID
  5
12
330
9
100
AcDbSymbolTableRecord
100
AcDbRegAppTableRecord
  2
ACAD
 70
     0
  0
ENDTAB
  0
TABLE
  2
DIMSTYLE
  5
A
330
0
100
AcDbSymbolTable
 70
     1
100
AcDbDimStyleTable
  0
DIMSTYLE
105
28
330
A
100
AcDbSymbolTableRecord
100
AcDbDimStyleTableRecord
  2
Standard
 70
     0
178
     0
340
11
  0
ENDTAB
  0
TABLE
  2
BLOCK_RECORD
  5
1
330
0
100
AcDbSymbolTable
 70
     0
  0
BLOCK_RECORD
  5
1D
330
1
100
AcDbSymbolTableRecord
100
AcDbBlockTableRecord
  2
*Model_Space
340
1E
  0
BLOCK_RECORD
  5
1B
330
1
100
AcDbSymbolTableRecord
100
AcDbBlockTableRecord
  2
*Paper_Space
340
1C
  0
ENDTAB
  0
ENDSEC
  0
SECTION
  2
BLOCKS
  0
BLOCK
  5
110
330
1D
100
AcDbEntity
  8
0
100
AcDbBlockBegin
  2
*Model_Space
 70
     0
 10
0.0
 20
0.0
 30
0.0
  3
*Model_Space
  1

  0
ENDBLK
  5
111
330
1D
100
AcDbEntity
  8
0
100
AcDbBlockEnd
  0
BLOCK
  5
10E
330
1B
100
AcDbEntity
 67
     1
  8
0
100
AcDbBlockBegin
  2
*Paper_Space
 70
     0
 10
0.0
 20
0.0
 30
0.0
  3
*Paper_Space
  1

  0
ENDBLK
  5
10F
330
1B
100
AcDbEntity
 67
     1
  8
0
100
AcDbBlockEnd
  0
ENDSEC
  0
SECTION
  2
ENTITIES
  0
LINE
  5
29
330
1D
100
AcDbEntity
  8
1
  6
CONTINUOUS
370
    50
100
AcDbLine
 10
7.895565443
 20
14.057351994
 30
0.0
 11
3.5
 21
14.057351994
 31
0.0
  0
LINE
  5
2A
330
1D
100
AcDbEntity
  8
1
  6
CONTINUOUS
370
    50
100
AcDbLine
 10
3.5
 20
14.057351994
 30
0.0
 11
3.5
 21
-14.787194107
 31
0.0
  0
LINE
  5
2B
330
1D
100
AcDbEntity
  8
1
  6
CONTINUOUS
370
    50
100
AcDbLine
 10
3.5
 20
-14.787194107
 30
0.0
 11
5.0
 21
-14.787194107
 31
0.0
  0
LINE
  5
2C
330
1D
100
AcDbEntity
  8
1
  6
CONTINUOUS
370
    50
100
AcDbLine
 10
5.0
 20
-14.787194107
 30
0.0
 11
5.0
 21
-11.487194107
 31
0.0
  0
ARC
  5
2D
330
1D
100
AcDbEntity
  8
1
  6
CONTINUOUS
370
    50
100
AcDbCircle
 10
10.0
 20
-11.487194107
 30
0.0
 40
5.0
100
AcDbArc
 50
0.0
 51
180.0
  0
LINE
  5
2E
330
1D
100
AcDbEntity
  8
1
  6
CONTINUOUS
370
    50
100
AcDbLine
 10
15.0
 20
-11.487194107
 30
0.0
 11
15.0
 21
-14.231740208
 31
0.0
  0
LINE
  5
2F
330
1D
100
AcDbEntity
  8
1
  6
CONTINUOUS
370
    50
100
AcDbLine
 10
15.0
 20
-14.231740208
 30
0.0
 11
15.169524222
 21
-14.231740208
 31
0.0
  0
LINE
  5
30
330
1D
100
AcDbEntity
  8
1
  6
CONTINUOUS
370
    50
100
AcDbLine
 10
15.169524222
 20
-14.231740208
 30
0.0
 11
16.123118008
 21
-12.838761348
 31
0.0
  0
LINE
  5
31
330
1D
100
AcDbEntity
  8
1
  6
CONTINUOUS
370
    50
100
AcDbLine
 10
16.123118008
 20
-12.838761348
 30
0.0
 11
17.026938624
 21
-11.412581223
 31
0.0
  0
LINE
  5
32
330
1D
100
AcDbEntity
  8
1
  6
CONTINUOUS
370
    50
100
AcDbLine
 10
17.026938624
 20
-11.412581223
 30
0.0
 11
17.865100379
 21
-9.948117868
 31
0.0
  0
LINE
  5
33
330
1D
100
AcDbEntity
  8
1
  6
CONTINUOUS
370
    50
100
AcDbLine
 10
17.865100379
 20
-9.948117868
 30
0.0
 11
18.455976498
 21
-8.787232987
 31
0.0
  0
LINE
  5
34
330
1D
100
AcDbEntity
  8
1
  6
CONTINUOUS
370
    50
100
AcDbLine
 10
18.455976498
 20
-8.787232987
 30
0.0
 11
18.984948917
 21
-7.594072773
 31
0.0
  0
LINE
  5
35
330
1D
100
AcDbEntity
  8
1
  6
CONTINUOUS
370
    50
100
AcDbLine
 10
18.984948917
 20
-7.594072773
 30
0.0
 11
19.435125087
 21
-6.370899481
 31
0.0
  0
LINE
  5
36
330
1D
100
AcDbEntity
  8
1
  6
CONTINUOUS
370
    50
100
AcDbLine
 10
19.435125087
 20
-6.370899481
 30
0.0
 11
19.789612459
 21
-5.119975367
 31
0.0
  0
LINE
  5
37
330
1D
100
AcDbEntity
  8
1
  6
CONTINUOUS
370
    50
100
AcDbLine
 10
19.789612459
 20
-5.119975367
 30
0.0
 11
20.018971533
 21
-1.93079523
 31
0.0
  0
LINE
  5
38
330
1D
100
AcDbEntity
  8
1
  6
CONTINUOUS
370
    50
100
AcDbLine
 10
20.018971533
 20
-1.93079523
 30
0.0
 11
20.139334441
 21
-0.725962869
 31
0.0
  0
LINE
  5
39
330
1D
100
AcDbEntity
  8
1
  6
CONTINUOUS
370
    50
100
AcDbLine
 10
20.139334441
 20
-0.725962869
 30
0.0
 11
20.139945688
 21
0.530429383
 31
0.0
  0
LINE
  5
3A
330
1D
100
AcDbEntity
  8
1
  6
CONTINUOUS
370
    50
100
AcDbLine
 10
20.139945688
 20
0.530429383
 30
0.0
 11
20.015662781
 21
3.780780724
 31
0.0
  0
LINE
  5
3B
330
1D
100
AcDbEntity
  8
1
  6
CONTINUOUS
370
    50
100
AcDbLine
 10
20.015662781
 20
3.780780724
 30
0.0
 11
19.858490795
 21
4.641630147
 31
0.0
  0
LINE
  5
3C
330
1D
100
AcDbEntity
  8
1
  6
CONTINUOUS
370
    50
100
AcDbLine
 10
19.858490795
 20
4.641630147
 30
0.0
 11
19.648723774
 21
5.491288504
 31
0.0
  0
LINE
  5
3D
330
1D
100
AcDbEntity
  8
1
  6
CONTINUOUS
370
    50
100
AcDbLine
 10
19.648723774
 20
5.491288504
 30
0.0
 11
19.387697109
 21
6.338945803
 31
0.0
  0
LINE
  5
3E
330
1D
100
AcDbEntity
  8
1
  6
CONTINUOUS
370
    50
100
AcDbLine
 10
19.387697109
 20
6.338945803
 30
0.0
 11
18.813376358
 21
7.912805893
 31
0.0
  0
LINE
  5
3F
330
1D
100
AcDbEntity
  8
1
  6
CONTINUOUS
370
    50
100
AcDbLine
 10
7.0
 20
19.75
 30
0.0
 11
7.0
 21
17.942597181
 31
0.0
  0
LINE
  5
40
330
1D
100
AcDbEntity
  8
1
  6
CONTINUOUS
370
    50
100
AcDbLine
 10
7.0
 20
17.942597181
 30
0.0
 11
7.0
 21
16.912805893
 31
0.0
  0
ARC
  5
41
330
1D
100
AcDbEntity
  8
1
  6
CONTINUOUS
370
    50
100
AcDbCircle
 10
12.0
 20
16.912805893
 30
0.0
 40
5.0
100
AcDbArc
 50
180.0
 51
225.0
  0
LINE
  5
42
330
1D
100
AcDbEntity
  8
1
  6
CONTINUOUS
370
    50
100
AcDbLine
 10
8.464466094
 20
13.377271987
 30
0.0
 11
12.464466094
 21
9.377271987
 31
0.0
  0
ARC
  5
43
330
1D
100
AcDbEntity
  8
1
  6
CONTINUOUS
370
    50
100
AcDbCircle
 10
16.0
 20
12.912805893
 30
0.0
 40
5.0
100
AcDbArc
 50
225.0
 51
270.0
  0
LINE
  5
44
330
1D
100
AcDbEntity
  8
1
  6
CONTINUOUS
370
    50
100
AcDbLine
 10
16.0
 20
7.912805893
 30
0.0
 11
22.576093185
 21
7.912805893
 31
0.0
  0
LINE
  5
45
330
1D
100
AcDbEntity
  8
1
  6
CONTINUOUS
370
    50
100
AcDbLine
 10
22.576093185
 20
7.912805893
 30
0.0
 11
25.6
 21
5.14809109
 31
0.0
  0
LINE
  5
46
330
1D
100
AcDbEntity
  8
1
  6
CONTINUOUS
370
    50
100
AcDbLine
 10
25.6
 20
5.14809109
 30
0.0
 11
25.6
 21
5.083247481
 31
0.0
  0
LINE
  5
47
330
1D
100
AcDbEntity
  8
1
  6
CONTINUOUS
370
    50
100
AcDbLine
 10
25.6
 20
5.083247481
 30
0.0
 11
25.6
 21
-9.228622536
 31
0.0
  0
LINE
  5
48
330
1D
100
AcDbEntity
  8
1
  6
CONTINUOUS
370
    50
100
AcDbLine
 10
25.6
 20
-9.228622536
 30
0.0
 11
24.915719323
 21
-9.910401085
 31
0.0
  0
LINE
  5
49
330
1D
100
AcDbEntity
  8
1
  6
CONTINUOUS
370
    50
100
AcDbLine
 10
24.915719323
 20
-9.910401085
 30
0.0
 11
19.181190159
 21
-15.587194107
 31
0.0
  0
LINE
  5
4A
330
1D
100
AcDbEntity
  8
1
  6
CONTINUOUS
370
    50
100
AcDbLine
 10
19.181190159
 20
-15.587194107
 30
0.0
 11
18.620280694
 21
-16.087194107
 31
0.0
  0
LINE
  5
4B
330
1D
100
AcDbEntity
  8
1
  6
CONTINUOUS
370
    50
100
AcDbLine
 10
18.620280694
 20
-16.087194107
 30
0.0
 11
15.169524222
 21
-16.087194107
 31
0.0
  0
LINE
  5
4C
330
1D
100
AcDbEntity
  8
1
  6
CONTINUOUS
370
    50
100
AcDbLine
 10
15.169524222
 20
-16.087194107
 30
0.0
 11
15.169524222
 21
-14.231740208
 31
0.0
  0
LINE
  5
4D
330
1D
100
AcDbEntity
  8
1
  6
CONTINUOUS
370
    50
100
AcDbLine
 10
16.315782432
 20
9.887269464
 30
0.0
 11
16.621341635
 21
9.58171026
 31
0.0
  0
ARC
  5
4E
330
1D
100
AcDbEntity
  8
1
  6
CONTINUOUS
370
    50
100
AcDbCircle
 10
17.449490624
 20
10.330503696
 30
0.0
 40
1.116477656
100
AcDbArc
 50
222.119168034
 51
260.495688886
  0
ARC
  5
4F
330
1D
100
AcDbEntity
  8
1
  6
CONTINUOUS
370
    50
100
AcDbCircle
 10
17.751672787
 20
10.434873094
 30
0.0
 40
1.3
100
AcDbArc
 50
248.021464693
 51
259.999999998
  0
LINE
  5
50
330
1D
100
AcDbEntity
  8
1
  6
CONTINUOUS
370
    50
100
AcDbLine
 10
17.525930156
 20
9.154623015
 30
0.0
 11
18.897343207
 21
8.912805893
 31
0.0
  0
LINE
  5
51
330
1D
100
AcDbEntity
  8
1
  6
CONTINUOUS
370
    50
100
AcDbLine
 10
18.897343207
 20
8.912805893
 30
0.0
 11
22.1
 21
8.34809109
 31
0.0
  0
LINE
  5
52
330
1D
100
AcDbEntity
  8
1
  6
CONTINUOUS
370
    50
100
AcDbLine
 10
22.1
 20
8.34809109
 30
0.0
 11
22.576093185
 21
7.912805893
 31
0.0
  0
LINE
  5
53
330
1D
100
AcDbEntity
  8
1
  6
CONTINUOUS
370
    50
100
AcDbLine
 10
12.687830017
 20
16.974934345
 30
0.0
 11
10.091771365
 21
18.32635694
 31
0.0
  0
ARC
  5
54
330
1D
100
AcDbEntity
  8
1
  6
CONTINUOUS
370
    50
100
AcDbCircle
 10
9.491498168
 20
17.173242857
 30
0.0
 40
1.3
100
AcDbArc
 50
62.5
 51
242.5
  0
LINE
  5
55
330
1D
100
AcDbEntity
  8
1
  6
CONTINUOUS
370
    50
100
AcDbLine
 10
8.891224971
 20
16.020128774
 30
0.0
 11
11.484033719
 21
14.670397971
 31
0.0
  0
LINE
  5
56
330
1D
100
AcDbEntity
  8
1
  6
CONTINUOUS
370
    50
100
AcDbLine
 10
12.0
 20
-10.332493569
 30
0.0
 11
10.0
 21
-9.177793031
 31
0.0
  0
LINE
  5
57
330
1D
100
AcDbEntity
  8
1
  6
CONTINUOUS
370
    50
100
AcDbLine
 10
10.0
 20
-9.177793031
 30
0.0
 11
8.0
 21
-10.332493569
 31
0.0
  0
LINE
  5
58
330
1D
100
AcDbEntity
  8
1
  6
CONTINUOUS
370
    50
100
AcDbLine
 10
8.0
 20
-10.332493569
 30
0.0
 11
8.0
 21
-12.641894646
 31
0.0
  0
LINE
  5
59
330
1D
100
AcDbEntity
  8
1
  6
CONTINUOUS
370
    50
100
AcDbLine
 10
8.0
 20
-12.641894646
 30
0.0
 11
10.0
 21
-13.796595184
 31
0.0
  0
LINE
  5
5A
330
1D
100
AcDbEntity
  8
1
  6
CONTINUOUS
370
    50
100
AcDbLine
 10
10.0
 20
-13.796595184
 30
0.0
 11
12.0
 21
-12.641894646
 31
0.0
  0
LINE
  5
5B
330
1D
100
AcDbEntity
  8
1
  6
CONTINUOUS
370
    50
100
AcDbLine
 10
12.0
 20
-12.641894646
 30
0.0
 11
12.0
 21
-10.332493569
 31
0.0
  0
LINE
  5
5C
330
1D
100
AcDbEntity
  8
1
  6
CONTINUOUS
370
    50
100
AcDbLine
 10
26.935183785
 20
8.199504026
 30
0.0
 11
19.331150025
 21
15.803537786
 31
0.0
  0
LINE
  5
5D
330
1D
100
AcDbEntity
  8
1
  6
CONTINUOUS
370
    50
100
AcDbLine
 10
19.331150025
 20
15.803537786
 30
0.0
 11
8.740621992
 21
17.669918191
 31
0.0
  0
ARC
  5
5E
330
1D
100
AcDbEntity
  8
1
  6
CONTINUOUS
370
    50
100
AcDbCircle
 10
8.723430822
 20
17.572422224
 30
0.0
 40
0.099
100
AcDbArc
 50
80.0
 51
225.0
  0
LINE
  5
5F
330
1D
100
AcDbEntity
  8
1
  6
CONTINUOUS
370
    50
100
AcDbLine
 10
8.653427251
 20
17.502418653
 30
0.0
 11
16.256753904
 21
9.897677786
 31
0.0
  0
LINE
  5
60
330
1D
100
AcDbEntity
  8
1
  6
CONTINUOUS
370
    50
100
AcDbLine
 10
16.256753904
 20
9.897677786
 30
0.0
 11
26.847281937
 21
8.03129738
 31
0.0
  0
ARC
  5
61
330
1D
100
AcDbEntity
  8
1
  6
CONTINUOUS
370
    50
100
AcDbCircle
 10
26.864473107
 20
8.128793348
 30
0.0
 40
0.099
100
AcDbArc
 50
260.0
 51
45.0
  0
ARC
  5
62
330
1D
100
AcDbEntity
  8
1
  6
CONTINUOUS
370
    50
100
AcDbCircle
 10
26.864473107
 20
8.128793348
 30
0.0
 40
0.1
100
AcDbArc
 50
260.0
 51
45.0
  0
LINE
  5
63
330
1D
100
AcDbEntity
  8
1
  6
CONTINUOUS
370
    50
100
AcDbLine
 10
18.735455726
 20
15.908574763
 30
0.0
 11
14.826393005
 21
19.75
 31
0.0
  0
LINE
  5
64
330
1D
100
AcDbEntity
  8
1
  6
CONTINUOUS
370
    50
100
AcDbLine
 10
14.826393005
 20
19.75
 30
0.0
 11
3.5
 21
19.75
 31
0.0
  0
LINE
  5
65
330
1D
100
AcDbEntity
  8
1
  6
CONTINUOUS
370
    50
100
AcDbLine
 10
3.5
 20
19.75
 30
0.0
 11
3.0
 21
19.25
 31
0.0
  0
LINE
  5
66
330
1D
100
AcDbEntity
  8
1
  6
CONTINUOUS
370
    50
100
AcDbLine
 10
3.0
 20
19.25
 30
0.0
 11
3.0
 21
-15.587194107
 31
0.0
  0
LINE
  5
67
330
1D
100
AcDbEntity
  8
1
  6
CONTINUOUS
370
    50
100
AcDbLine
 10
3.0
 20
-15.587194107
 30
0.0
 11
3.5
 21
-16.087194107
 31
0.0
  0
LINE
  5
68
330
1D
100
AcDbEntity
  8
1
  6
CONTINUOUS
370
    50
100
AcDbLine
 10
3.5
 20
-16.087194107
 30
0.0
 11
5.0
 21
-16.087194107
 31
0.0
  0
LINE
  5
69
330
1D
100
AcDbEntity
  8
1
  6
CONTINUOUS
370
    50
100
AcDbLine
 10
5.0
 20
-16.087194107
 30
0.0
 11
5.0
 21
-14.787194107
 31
0.0
  0
LINE
  5
6A
330
1D
100
AcDbEntity
  8
1
  6
CONTINUOUS
370
    50
100
AcDbLine
 10
15.169524222
 20
-15.278100066
 30
0.0
 11
15.189462012
 21
-15.252095758
 31
0.0
  0
LINE
  5
6B
330
1D
100
AcDbEntity
  8
1
  6
CONTINUOUS
370
    50
100
AcDbLine
 10
15.169524222
 20
19.397988191
 30
0.0
 11
15.169524222
 21
19.412805893
 31
0.0
  0
LINE
  5
6C
330
1D
100
AcDbEntity
  8
1
  6
CONTINUOUS
370
    50
100
AcDbLine
 10
3.5
 20
19.75
 30
0.0
 11
3.5
 21
14.057351994
 31
0.0
  0
LINE
  5
6D
330
1D
100
AcDbEntity
  8
1
  6
CONTINUOUS
370
    50
100
AcDbLine
 10
3.5
 20
14.057351994
 30
0.0
 11
3.0
 21
13.853911369
 31
0.0
  0
LINE
  5
6E
330
1D
100
AcDbEntity
  8
1
  6
CONTINUOUS
370
    50
100
AcDbLine
 10
3.0
 20
-14.580087326
 30
0.0
 11
3.5
 21
-14.787194107
 31
0.0
  0
LINE
  5
6F
330
1D
100
AcDbEntity
  8
1
  6
CONTINUOUS
370
    50
100
AcDbLine
 10
3.5
 20
-14.787194107
 30
0.0
 11
3.5
 21
-16.087194107
 31
0.0
  0
LINE
  5
70
330
1D
100
AcDbEntity
  8
1
  6
CONTINUOUS
370
    50
100
AcDbLine
 10
15.0
 20
-14.231740208
 30
0.0
 11
15.0
 21
-16.087194107
 31
0.0
  0
LINE
  5
71
330
1D
100
AcDbEntity
  8
1
  6
CONTINUOUS
370
    50
100
AcDbLine
 10
15.0
 20
-16.087194107
 30
0.0
 11
15.169524222
 21
-16.087194107
 31
0.0
  0
LINE
  5
72
330
1D
100
AcDbEntity
  8
1
  6
CONTINUOUS
370
    50
100
AcDbLine
 10
23.0245796
 20
7.50276117
 30
0.0
 11
25.6
 21
7.50276117
 31
0.0
  0
LINE
  5
73
330
1D
100
AcDbEntity
  8
1
  6
CONTINUOUS
370
    50
100
AcDbLine
 10
15.0
 20
-16.087194107
 30
0.0
 11
5.0
 21
-16.087194107
 31
0.0
  0
LINE
  5
74
330
1D
100
AcDbEntity
  8
1
  6
CONTINUOUS
370
    50
100
AcDbLine
 10
25.6
 20
8.250211412
 30
0.0
 11
25.6
 21
7.71690789
 31
0.0
  0
LINE
  5
75
330
1D
100
AcDbEntity
  8
1
  6
CONTINUOUS
370
    50
100
AcDbLine
 10
25.6
 20
7.71690789
 30
0.0
 11
25.6
 21
5.14809109
 31
0.0
  0
CIRCLE
  5
76
330
1D
100
AcDbEntity
  8
1
  6
CONTINUOUS
370
    50
100
AcDbCircle
 10
17.793951965
 20
12.850607786
 30
0.0
 40
1.875
  0
CIRCLE
  5
77
330
1D
100
AcDbEntity
  8
1
  6
CONTINUOUS
370
    50
100
AcDbCircle
 10
10.0
 20
-11.487194107
 30
0.0
 40
4.6
  0
LINE
  5
78
330
1D
100
AcDbEntity
  8
SK1
  6
CONTINUOUS
370
    50
100
AcDbLine
 10
1.35857895
 20
0.0
 30
0.0
 11
26.953747037
 21
0.0
 31
0.0
  0
LINE
  5
79
330
1D
100
AcDbEntity
  8
SK1
  6
CONTINUOUS
370
    50
100
AcDbLine
 10
14.981451965
 20
12.850607786
 30
0.0
 11
20.606451965
 21
12.850607786
 31
0.0
  0
LINE
  5
7A
330
1D
100
AcDbEntity
  8
SK1
  6
CONTINUOUS
370
    50
100
AcDbLine
 10
17.793951965
 20
10.038107786
 30
0.0
 11
17.793951965
 21
15.663107786
 31
0.0
  0
LINE
  5
7B
330
1D
100
AcDbEntity
  8
SK1
  6
CONTINUOUS
370
    50
100
AcDbLine
 10
4.353365925
 20
-11.487194107
 30
0.0
 11
15.833244005
 21
-11.487194107
 31
0.0
  0
LINE
  5
7C
330
1D
100
AcDbEntity
  8
SK1
  6
CONTINUOUS
370
    50
100
AcDbLine
 10
10.0
 20
-16.908524524
 30
0.0
 11
10.0
 21
-5.209864562
 31
0.0
  0
LINE
  5
7D
330
1D
100
AcDbEntity
  8
2
  6
CONTINUOUS
370
    25
100
AcDbLine
 10
3.0
 20
40.419500686
 30
0.0
 11
3.0
 21
18.912805893
 31
0.0
  0
LINE
  5
7E
330
1D
100
AcDbEntity
  8
2
  6
CONTINUOUS
370
    25
100
AcDbLine
 10
3.0
 20
38.419500686
 30
0.0
 11
6.500000013
 21
38.869500583
 31
0.0
  0
LINE
  5
7F
330
1D
100
AcDbEntity
  8
2
  6
CONTINUOUS
370
    25
100
AcDbLine
 10
6.500000013
 20
38.869500583
 30
0.0
 11
6.499999987
 21
37.969500583
 31
0.0
  0
LINE
  5
80
330
1D
100
AcDbEntity
  8
2
  6
CONTINUOUS
370
    25
100
AcDbLine
 10
6.499999987
 20
37.969500583
 30
0.0
 11
3.0
 21
38.419500686
 31
0.0
  0
LINE
  5
81
330
1D
100
AcDbEntity
  8
2
  6
CONTINUOUS
370
    25
100
AcDbLine
 10
6.4
 20
38.419500586
 30
0.0
 11
3.1
 21
38.419500683
 31
0.0
  0
LINE
  5
82
330
1D
100
AcDbEntity
  8
2
  6
CONTINUOUS
370
    25
100
AcDbLine
 10
6.399999994
 20
38.219500586
 30
0.0
 11
4.65555555
 21
38.219500638
 31
0.0
  0
LINE
  5
83
330
1D
100
AcDbEntity
  8
2
  6
CONTINUOUS
370
    25
100
AcDbLine
 10
6.400000006
 20
38.619500586
 30
0.0
 11
4.655555561
 21
38.619500638
 31
0.0
  0
LINE
  5
84
330
1D
100
AcDbEntity
  8
2
  6
CONTINUOUS
370
    25
100
AcDbLine
 10
6.399999988
 20
38.019500586
 30
0.0
 11
6.211111099
 21
38.019500592
 31
0.0
  0
LINE
  5
85
330
1D
100
AcDbEntity
  8
2
  6
CONTINUOUS
370
    25
100
AcDbLine
 10
6.400000012
 20
38.819500586
 30
0.0
 11
6.211111123
 21
38.819500592
 31
0.0
  0
LINE
  5
86
330
1D
100
AcDbEntity
  8
2
  6
CONTINUOUS
370
    25
100
AcDbLine
 10
26.963473107
 20
40.419499982
 30
0.0
 11
26.963473107
 21
8.128793348
 31
0.0
  0
LINE
  5
87
330
1D
100
AcDbEntity
  8
2
  6
CONTINUOUS
370
    25
100
AcDbLine
 10
26.963473107
 20
38.419499982
 30
0.0
 11
23.463473094
 21
37.969500085
 31
0.0
  0
LINE
  5
88
330
1D
100
AcDbEntity
  8
2
  6
CONTINUOUS
370
    25
100
AcDbLine
 10
23.463473094
 20
37.969500085
 30
0.0
 11
23.46347312
 21
38.869500085
 31
0.0
  0
LINE
  5
89
330
1D
100
AcDbEntity
  8
2
  6
CONTINUOUS
370
    25
100
AcDbLine
 10
23.46347312
 20
38.869500085
 30
0.0
 11
26.963473107
 21
38.419499982
 31
0.0
  0
LINE
  5
8A
330
1D
100
AcDbEntity
  8
2
  6
CONTINUOUS
370
    25
100
AcDbLine
 10
23.563473107
 20
38.419500082
 30
0.0
 11
26.863473107
 21
38.419499985
 31
0.0
  0
LINE
  5
8B
330
1D
100
AcDbEntity
  8
2
  6
CONTINUOUS
370
    25
100
AcDbLine
 10
23.563473113
 20
38.619500082
 30
0.0
 11
25.307917557
 21
38.619500031
 31
0.0
  0
LINE
  5
8C
330
1D
100
AcDbEntity
  8
2
  6
CONTINUOUS
370
    25
100
AcDbLine
 10
23.563473101
 20
38.219500082
 30
0.0
 11
25.307917545
 21
38.219500031
 31
0.0
  0
LINE
  5
8D
330
1D
100
AcDbEntity
  8
2
  6
CONTINUOUS
370
    25
100
AcDbLine
 10
23.563473119
 20
38.819500082
 30
0.0
 11
23.752362008
 21
38.819500077
 31
0.0
  0
LINE
  5
8E
330
1D
100
AcDbEntity
  8
2
  6
CONTINUOUS
370
    25
100
AcDbLine
 10
23.563473095
 20
38.019500082
 30
0.0
 11
23.752361984
 21
38.019500077
 31
0.0
  0
LINE
  5
8F
330
1D
100
AcDbEntity
  8
2
  6
CONTINUOUS
370
    25
100
AcDbLine
 10
6.5
 20
38.419500583
 30
0.0
 11
23.463473107
 21
38.419500085
 31
0.0
  0
TEXT
  5
90
330
1D
100
AcDbEntity
  8
2
  6
CONTINUOUS
370
    25
100
AcDbText
 10
13.31704883
 20
39.919500383
 30
0.0
 40
3.5
  1
24
 50
359.999998317
  7
BMG_Text
100
AcDbText
  0
LINE
  5
91
330
1D
100
AcDbEntity
  8
SK1
  6
CONTINUOUS
370
    50
100
AcDbLine
 10
26.963473107
 20
8.128793348
 30
0.0
 11
26.963473107
 21
19.412805893
 31
0.0
  0
LINE
  5
92
330
1D
100
AcDbEntity
  8
2
  6
CONTINUOUS
370
    25
100
AcDbLine
 10
9.217077915
 20
25.917609897
 30
0.0
 11
26.963473107
 21
8.171214704
 31
0.0
  0
LINE
  5
93
330
1D
100
AcDbEntity
  8
2
  6
CONTINUOUS
370
    25
100
AcDbLine
 10
10.631291477
 20
24.503396334
 30
0.0
 11
12.992820621
 21
27.125548142
 31
0.0
  0
LINE
  5
94
330
1D
100
AcDbEntity
  8
2
  6
CONTINUOUS
370
    25
100
AcDbLine
 10
12.992820621
 20
27.125548142
 30
0.0
 11
13.579318022
 21
26.442890982
 31
0.0
  0
LINE
  5
95
330
1D
100
AcDbEntity
  8
2
  6
CONTINUOUS
370
    25
100
AcDbLine
 10
13.579318022
 20
26.442890982
 30
0.0
 11
10.631291477
 21
24.503396334
 31
0.0
  0
LINE
  5
96
330
1D
100
AcDbEntity
  8
2
  6
CONTINUOUS
370
    25
100
AcDbLine
 10
13.210218526
 20
26.719053184
 30
0.0
 11
10.707142273
 21
24.568562712
 31
0.0
  0
LINE
  5
97
330
1D
100
AcDbEntity
  8
2
  6
CONTINUOUS
370
    25
100
AcDbLine
 10
13.340551282
 20
26.567351593
 30
0.0
 11
12.017376293
 21
25.430560333
 31
0.0
  0
LINE
  5
98
330
1D
100
AcDbEntity
  8
2
  6
CONTINUOUS
370
    25
100
AcDbLine
 10
13.07988577
 20
26.870754775
 30
0.0
 11
11.756710781
 21
25.733963515
 31
0.0
  0
LINE
  5
99
330
1D
100
AcDbEntity
  8
2
  6
CONTINUOUS
370
    25
100
AcDbLine
 10
13.470884038
 20
26.415650002
 30
0.0
 11
13.327610313
 21
26.292557954
 31
0.0
  0
LINE
  5
9A
330
1D
100
AcDbEntity
  8
2
  6
CONTINUOUS
370
    25
100
AcDbLine
 10
12.949553014
 20
27.022456366
 30
0.0
 11
12.806279289
 21
26.899364319
 31
0.0
  0
LINE
  5
9B
330
1D
100
AcDbEntity
  8
2
  6
CONTINUOUS
370
    25
100
AcDbLine
 10
26.963473107
 20
33.268407468
 30
0.0
 11
26.963473107
 21
8.171214704
 31
0.0
  0
LINE
  5
9C
330
1D
100
AcDbEntity
  8
2
  6
CONTINUOUS
370
    25
100
AcDbLine
 10
26.963473107
 20
31.268407468
 30
0.0
 11
23.507473728
 21
30.555267724
 31
0.0
  0
LINE
  5
9D
330
1D
100
AcDbEntity
  8
2
  6
CONTINUOUS
370
    25
100
AcDbLine
 10
23.507473728
 20
30.555267724
 30
0.0
 11
23.439478511
 21
31.452695521
 31
0.0
  0
LINE
  5
9E
330
1D
100
AcDbEntity
  8
2
  6
CONTINUOUS
370
    25
100
AcDbLine
 10
23.439478511
 20
31.452695521
 30
0.0
 11
26.963473107
 21
31.268407468
 31
0.0
  0
LINE
  5
9F
330
1D
100
AcDbEntity
  8
2
  6
CONTINUOUS
370
    25
100
AcDbLine
 10
23.573190319
 20
31.011536647
 30
0.0
 11
26.863758907
 21
31.260852444
 31
0.0
  0
LINE
  5
A0
330
1D
100
AcDbEntity
  8
2
  6
CONTINUOUS
370
    25
100
AcDbLine
 10
23.558080271
 20
31.210965046
 30
0.0
 11
25.297539087
 21
31.342758245
 31
0.0
  0
LINE
  5
A1
330
1D
100
AcDbEntity
  8
2
  6
CONTINUOUS
370
    25
100
AcDbLine
 10
23.588300367
 20
30.812108248
 30
0.0
 11
25.327759183
 21
30.943901447
 31
0.0
  0
LINE
  5
A2
330
1D
100
AcDbEntity
  8
2
  6
CONTINUOUS
370
    25
100
AcDbLine
 10
23.542970222
 20
31.410393445
 30
0.0
 11
23.731319266
 21
31.424664047
 31
0.0
  0
LINE
  5
A3
330
1D
100
AcDbEntity
  8
2
  6
CONTINUOUS
370
    25
100
AcDbLine
 10
23.603410416
 20
30.612679848
 30
0.0
 11
23.79175946
 21
30.62695045
 31
0.0
  0
ARC
  5
A4
330
1D
100
AcDbEntity
  8
2
  6
CONTINUOUS
370
    25
100
AcDbCircle
 10
26.963473107
 20
8.171214704
 30
0.0
 40
23.097950648
100
AcDbArc
 50
98.69041918300003
 51
126.309580817
  0
TEXT
  5
A5
330
1D
100
AcDbEntity
  8
2
  6
CONTINUOUS
370
    25
100
AcDbText
 10
15.178907131
 20
29.913697223
 30
0.0
 40
3.5
  1
45°
 50
22.500000503
  7
BMG_Text
100
AcDbText
  0
LINE
  5
A6
330
1D
100
AcDbEntity
  8
2
  6
CONTINUOUS
370
    25
100
AcDbLine
 10
37.058000447
 20
8.199504468
 30
0.0
 11
26.935183785
 21
8.199504026
 31
0.0
  0
LINE
  5
A7
330
1D
100
AcDbEntity
  8
2
  6
CONTINUOUS
370
    25
100
AcDbLine
 10
35.058000447
 20
8.199504381
 30
0.0
 11
35.5080006
 21
4.699504401
 31
0.0
  0
LINE
  5
A8
330
1D
100
AcDbEntity
  8
2
  6
CONTINUOUS
370
    25
100
AcDbLine
 10
35.5080006
 20
4.699504401
 30
0.0
 11
34.6080006
 21
4.699504361
 31
0.0
  0
LINE
  5
A9
330
1D
100
AcDbEntity
  8
2
  6
CONTINUOUS
370
    25
100
AcDbLine
 10
34.6080006
 20
4.699504361
 30
0.0
 11
35.058000447
 21
8.199504381
 31
0.0
  0
LINE
  5
AA
330
1D
100
AcDbEntity
  8
2
  6
CONTINUOUS
370
    25
100
AcDbLine
 10
35.058000596
 20
4.799504381
 30
0.0
 11
35.058000451
 21
8.099504381
 31
0.0
  0
LINE
  5
AB
330
1D
100
AcDbEntity
  8
2
  6
CONTINUOUS
370
    25
100
AcDbLine
 10
34.858000596
 20
4.799504372
 30
0.0
 11
34.858000519
 21
6.543948817
 31
0.0
  0
LINE
  5
AC
330
1D
100
AcDbEntity
  8
2
  6
CONTINUOUS
370
    25
100
AcDbLine
 10
35.258000596
 20
4.79950439
 30
0.0
 11
35.258000519
 21
6.543948834
 31
0.0
  0
LINE
  5
AD
330
1D
100
AcDbEntity
  8
2
  6
CONTINUOUS
370
    25
100
AcDbLine
 10
34.658000596
 20
4.799504364
 30
0.0
 11
34.658000587
 21
4.988393252
 31
0.0
  0
LINE
  5
AE
330
1D
100
AcDbEntity
  8
2
  6
CONTINUOUS
370
    25
100
AcDbLine
 10
35.458000596
 20
4.799504398
 30
0.0
 11
35.458000587
 21
4.988393287
 31
0.0
  0
LINE
  5
AF
330
1D
100
AcDbEntity
  8
2
  6
CONTINUOUS
370
    25
100
AcDbLine
 10
35.058000883
 20
-1.779214369
 30
0.0
 11
35.0580006
 21
4.699504381
 31
0.0
  0
TEXT
  5
B0
330
1D
100
AcDbEntity
  8
2
  6
CONTINUOUS
370
    25
100
AcDbText
 10
33.480246786
 20
-0.037035383
 30
0.0
 40
3.5
  1
16.6
 50
90.00000250400001
  7
BMG_Text
100
AcDbText
  0
CIRCLE
  5
B1
330
1D
100
AcDbEntity
  8
2
  6
CONTINUOUS
370
    25
100
AcDbCircle
 10
32.230246885
 20
-2.287035437
 30
0.0
 40
1.25
  0
LINE
  5
B2
330
1D
100
AcDbEntity
  8
2
  6
CONTINUOUS
370
    25
100
AcDbLine
 10
33.480246939
 20
-3.537035383
 30
0.0
 11
30.98024683
 21
-1.037035492
 31
0.0
  0
LINE
  5
B3
330
1D
100
AcDbEntity
  8
2
  6
CONTINUOUS
370
    25
100
AcDbLine
 10
47.084100273
 20
15.803538999
 30
0.0
 11
19.331150025
 21
15.803537786
 31
0.0
  0
LINE
  5
B4
330
1D
100
AcDbEntity
  8
2
  6
CONTINUOUS
370
    25
100
AcDbLine
 10
45.084100273
 20
15.803538912
 30
0.0
 11
45.534100426
 21
12.303538931
 31
0.0
  0
LINE
  5
B5
330
1D
100
AcDbEntity
  8
2
  6
CONTINUOUS
370
    25
100
AcDbLine
 10
45.534100426
 20
12.303538931
 30
0.0
 11
44.634100426
 21
12.303538892
 31
0.0
  0
LINE
  5
B6
330
1D
100
AcDbEntity
  8
2
  6
CONTINUOUS
370
    25
100
AcDbLine
 10
44.634100426
 20
12.303538892
 30
0.0
 11
45.084100273
 21
15.803538912
 31
0.0
  0
LINE
  5
B7
330
1D
100
AcDbEntity
  8
2
  6
CONTINUOUS
370
    25
100
AcDbLine
 10
45.084100422
 20
12.403538912
 30
0.0
 11
45.084100278
 21
15.703538912
 31
0.0
  0
LINE
  5
B8
330
1D
100
AcDbEntity
  8
2
  6
CONTINUOUS
370
    25
100
AcDbLine
 10
44.884100422
 20
12.403538903
 30
0.0
 11
44.884100346
 21
14.147983347
 31
0.0
  0
LINE
  5
B9
330
1D
100
AcDbEntity
  8
2
  6
CONTINUOUS
370
    25
100
AcDbLine
 10
45.284100422
 20
12.40353892
 30
0.0
 11
45.284100346
 21
14.147983365
 31
0.0
  0
LINE
  5
BA
330
1D
100
AcDbEntity
  8
2
  6
CONTINUOUS
370
    25
100
AcDbLine
 10
44.684100422
 20
12.403538894
 30
0.0
 11
44.684100414
 21
12.592427783
 31
0.0
  0
LINE
  5
BB
330
1D
100
AcDbEntity
  8
2
  6
CONTINUOUS
370
    25
100
AcDbLine
 10
45.484100422
 20
12.403538929
 30
0.0
 11
45.484100414
 21
12.592427818
 31
0.0
  0
LINE
  5
BC
330
1D
100
AcDbEntity
  8
2
  6
CONTINUOUS
370
    25
100
AcDbLine
 10
45.084101033
 20
-1.580353019
 30
0.0
 11
45.084100426
 21
12.303538912
 31
0.0
  0
TEXT
  5
BD
330
1D
100
AcDbEntity
  8
2
  6
CONTINUOUS
370
    25
100
AcDbText
 10
44.05470443
 20
0.000265066
 30
0.0
 40
3.5
  1
31.7
 50
90.00000250400001
  7
BMG_Text
100
AcDbText
  0
CIRCLE
  5
BE
330
1D
100
AcDbEntity
  8
2
  6
CONTINUOUS
370
    25
100
AcDbCircle
 10
42.804704529
 20
-2.249734989
 30
0.0
 40
1.25
  0
LINE
  5
BF
330
1D
100
AcDbEntity
  8
2
  6
CONTINUOUS
370
    25
100
AcDbLine
 10
44.054704583
 20
-3.499734934
 30
0.0
 11
41.554704474
 21
-0.999735043
 31
0.0
  0
TEXT
  5
C0
330
1D
100
AcDbEntity
  8
SK6
  6
CONTINUOUS
370
    35
100
AcDbText
 10
5.698135627
 20
2.304883699
 30
0.0
 40
3.5
  1
615.395
  7
BMG_Text
100
AcDbText
  0
LINE
  5
C1
330
1D
100
AcDbEntity
  8
SK3
  6
DASH
370
    35
100
AcDbLine
 10
3.0
 20
8.0
 30
0.0
 11
15.070302059
 21
8.0
 31
0.0
  0
LINE
  5
C2
330
1D
100
AcDbEntity
  8
SK3
  6
DASH
370
    35
100
AcDbLine
 10
3.0
 20
-8.0
 30
0.0
 11
25.6
 21
-8.0
 31
0.0
  0
LINE
  5
C3
330
1D
100
AcDbEntity
  8
2
  6
CONTINUOUS
370
    25
100
AcDbLine
 10
-6.800786495
 20
-8.0
 30
0.0
 11
3.0
 21
-8.0
 31
0.0
  0
LINE
  5
C4
330
1D
100
AcDbEntity
  8
2
  6
CONTINUOUS
370
    25
100
AcDbLine
 10
-4.800786495
 20
-8.0
 30
0.0
 11
-5.250786495
 21
-4.5
 31
0.0
  0
LINE
  5
C5
330
1D
100
AcDbEntity
  8
2
  6
CONTINUOUS
370
    25
100
AcDbLine
 10
-5.250786495
 20
-4.5
 30
0.0
 11
-4.350786495
 21
-4.5
 31
0.0
  0
LINE
  5
C6
330
1D
100
AcDbEntity
  8
2
  6
CONTINUOUS
370
    25
100
AcDbLine
 10
-4.350786495
 20
-4.5
 30
0.0
 11
-4.800786495
 21
-8.0
 31
0.0
  0
LINE
  5
C7
330
1D
100
AcDbEntity
  8
2
  6
CONTINUOUS
370
    25
100
AcDbLine
 10
-4.800786495
 20
-4.6
 30
0.0
 11
-4.800786495
 21
-7.9
 31
0.0
  0
LINE
  5
C8
330
1D
100
AcDbEntity
  8
2
  6
CONTINUOUS
370
    25
100
AcDbLine
 10
-4.600786495
 20
-4.6
 30
0.0
 11
-4.600786495
 21
-6.344444444
 31
0.0
  0
LINE
  5
C9
330
1D
100
AcDbEntity
  8
2
  6
CONTINUOUS
370
    25
100
AcDbLine
 10
-5.000786495
 20
-4.6
 30
0.0
 11
-5.000786495
 21
-6.344444444
 31
0.0
  0
LINE
  5
CA
330
1D
100
AcDbEntity
  8
2
  6
CONTINUOUS
370
    25
100
AcDbLine
 10
-4.400786495
 20
-4.6
 30
0.0
 11
-4.400786495
 21
-4.788888889
 31
0.0
  0
LINE
  5
CB
330
1D
100
AcDbEntity
  8
2
  6
CONTINUOUS
370
    25
100
AcDbLine
 10
-5.200786495
 20
-4.6
 30
0.0
 11
-5.200786495
 21
-4.788888889
 31
0.0
  0
LINE
  5
CC
330
1D
100
AcDbEntity
  8
2
  6
CONTINUOUS
370
    25
100
AcDbLine
 10
-6.800786495
 20
8.0
 30
0.0
 11
3.0
 21
8.0
 31
0.0
  0
LINE
  5
CD
330
1D
100
AcDbEntity
  8
2
  6
CONTINUOUS
370
    25
100
AcDbLine
 10
-4.800786495
 20
8.0
 30
0.0
 11
-4.350786495
 21
4.5
 31
0.0
  0
LINE
  5
CE
330
1D
100
AcDbEntity
  8
2
  6
CONTINUOUS
370
    25
100
AcDbLine
 10
-4.350786495
 20
4.5
 30
0.0
 11
-5.250786495
 21
4.5
 31
0.0
  0
LINE
  5
CF
330
1D
100
AcDbEntity
  8
2
  6
CONTINUOUS
370
    25
100
AcDbLine
 10
-5.250786495
 20
4.5
 30
0.0
 11
-4.800786495
 21
8.0
 31
0.0
  0
LINE
  5
D0
330
1D
100
AcDbEntity
  8
2
  6
CONTINUOUS
370
    25
100
AcDbLine
 10
-4.800786495
 20
4.6
 30
0.0
 11
-4.800786495
 21
7.9
 31
0.0
  0
LINE
  5
D1
330
1D
100
AcDbEntity
  8
2
  6
CONTINUOUS
370
    25
100
AcDbLine
 10
-5.000786495
 20
4.6
 30
0.0
 11
-5.000786495
 21
6.344444444
 31
0.0
  0
LINE
  5
D2
330
1D
100
AcDbEntity
  8
2
  6
CONTINUOUS
370
    25
100
AcDbLine
 10
-4.600786495
 20
4.6
 30
0.0
 11
-4.600786495
 21
6.344444444
 31
0.0
  0
LINE
  5
D3
330
1D
100
AcDbEntity
  8
2
  6
CONTINUOUS
370
    25
100
AcDbLine
 10
-5.200786495
 20
4.6
 30
0.0
 11
-5.200786495
 21
4.788888889
 31
0.0
  0
LINE
  5
D4
330
1D
100
AcDbEntity
  8
2
  6
CONTINUOUS
370
    25
100
AcDbLine
 10
-4.400786495
 20
4.6
 30
0.0
 11
-4.400786495
 21
4.788888889
 31
0.0
  0
LINE
  5
D5
330
1D
100
AcDbEntity
  8
2
  6
CONTINUOUS
370
    25
100
AcDbLine
 10
-4.800786495
 20
-4.5
 30
0.0
 11
-4.800786495
 21
4.5
 31
0.0
  0
TEXT
  5
D6
330
1D
100
AcDbEntity
  8
2
  6
CONTINUOUS
370
    25
100
AcDbText
 10
-6.300786495
 20
0.522812321
 30
0.0
 40
3.5
  1
16
 50
90.0
  7
BMG_Text
100
AcDbText
  0
CIRCLE
  5
D7
330
1D
100
AcDbEntity
  8
2
  6
CONTINUOUS
370
    25
100
AcDbCircle
 10
-7.550786495
 20
-1.727187679
 30
0.0
 40
1.25
  0
LINE
  5
D8
330
1D
100
AcDbEntity
  8
2
  6
CONTINUOUS
370
    25
100
AcDbLine
 10
-6.300786495
 20
-2.977187679
 30
0.0
 11
-8.800786495
 21
-0.477187679
 31
0.0
  0
LINE
  5
D9
330
1D
100
AcDbEntity
  8
2
  6
CONTINUOUS
370
    25
100
AcDbLine
 10
-14.381444573
 20
19.749999218
 30
0.0
 11
3.5
 21
19.75
 31
0.0
  0
LINE
  5
DA
330
1D
100
AcDbEntity
  8
2
  6
CONTINUOUS
370
    25
100
AcDbLine
 10
-12.381444573
 20
19.749999306
 30
0.0
 11
-11.93144442
 21
16.249999325
 31
0.0
  0
LINE
  5
DB
330
1D
100
AcDbEntity
  8
2
  6
CONTINUOUS
370
    25
100
AcDbLine
 10
-11.93144442
 20
16.249999325
 30
0.0
 11
-12.83144442
 21
16.249999286
 31
0.0
  0
LINE
  5
DC
330
1D
100
AcDbEntity
  8
2
  6
CONTINUOUS
370
    25
100
AcDbLine
 10
-12.83144442
 20
16.249999286
 30
0.0
 11
-12.381444573
 21
19.749999306
 31
0.0
  0
LINE
  5
DD
330
1D
100
AcDbEntity
  8
2
  6
CONTINUOUS
370
    25
100
AcDbLine
 10
-12.381444424
 20
16.349999306
 30
0.0
 11
-12.381444568
 21
19.649999306
 31
0.0
  0
LINE
  5
DE
330
1D
100
AcDbEntity
  8
2
  6
CONTINUOUS
370
    25
100
AcDbLine
 10
-12.581444424
 20
16.349999297
 30
0.0
 11
-12.5814445
 21
18.094443742
 31
0.0
  0
LINE
  5
DF
330
1D
100
AcDbEntity
  8
2
  6
CONTINUOUS
370
    25
100
AcDbLine
 10
-12.181444424
 20
16.349999315
 30
0.0
 11
-12.1814445
 21
18.094443759
 31
0.0
  0
LINE
  5
E0
330
1D
100
AcDbEntity
  8
2
  6
CONTINUOUS
370
    25
100
AcDbLine
 10
-12.781444424
 20
16.349999288
 30
0.0
 11
-12.781444432
 21
16.538888177
 31
0.0
  0
LINE
  5
E1
330
1D
100
AcDbEntity
  8
2
  6
CONTINUOUS
370
    25
100
AcDbLine
 10
-11.981444424
 20
16.349999323
 30
0.0
 11
-11.981444432
 21
16.538888212
 31
0.0
  0
LINE
  5
E2
330
1D
100
AcDbEntity
  8
2
  6
CONTINUOUS
370
    25
100
AcDbLine
 10
-12.381443623
 20
-1.975000591
 30
0.0
 11
-12.38144442
 21
16.249999306
 31
0.0
  0
TEXT
  5
E3
330
1D
100
AcDbEntity
  8
2
  6
CONTINUOUS
370
    25
100
AcDbText
 10
-13.840028336
 20
-0.911256803
 30
0.0
 40
3.5
  1
39.5
 50
90.00000250400001
  7
BMG_Text
100
AcDbText
  0
CIRCLE
  5
E4
330
1D
100
AcDbEntity
  8
2
  6
CONTINUOUS
370
    25
100
AcDbCircle
 10
-15.090028237
 20
-3.161256857
 30
0.0
 40
1.25
  0
LINE
  5
E5
330
1D
100
AcDbEntity
  8
2
  6
CONTINUOUS
370
    25
100
AcDbLine
 10
-13.840028183
 20
-4.411256803
 30
0.0
 11
-16.340028292
 21
-1.911256912
 31
0.0
  0
ENDSEC
  0
SECTION
  2
OBJECTS
  0
DICTIONARY
  5
C
330
0
100
AcDbDictionary
281
     1
  3
ACAD_GROUP
350
D
  3
ACAD_LAYOUT
350
1A
  3
ACAD_MATERIAL
350
123
  3
ACAD_MLEADERSTYLE
350
130
  3
ACAD_MLINESTYLE
350
17
  3
ACAD_PLOTSETTINGS
350
19
  3
ACAD_PLOTSTYLENAME
350
E
  3
ACAD_SCALELIST
350
EC
  3
ACAD_VISUALSTYLE
350
112
  3
ACDB_RECOMPOSE_DATA
350
15D
  3
AcDbVariableDictionary
350
12E
  0
DICTIONARY
  5
134
330
8
100
AcDbDictionary
280
     1
281
     1
  3
ACAD_XREC_ROUNDTRIP
360
135
  0
DICTIONARY
  5
D
102
{ACAD_REACTORS
330
C
102
}
330
C
100
AcDbDictionary
281
     1
  0
DICTIONARY
  5
1A
102
{ACAD_REACTORS
330
C
102
}
330
C
100
AcDbDictionary
281
     1
  3
Layout1
350
1C
  3
Model
350
1E
  0
DICTIONARY
  5
123
102
{ACAD_REACTORS
330
C
102
}
330
C
100
AcDbDictionary
281
     1
  3
ByBlock
350
125
  3
ByLayer
350
124
  3
Global
350
126
  0
DICTIONARY
  5
130
102
{ACAD_REACTORS
330
C
102
}
330
C
100
AcDbDictionary
281
     1
  0
DICTIONARY
  5
17
102
{ACAD_REACTORS
330
C
102
}
330
C
100
AcDbDictionary
281
     1
  3
Standard
350
18
  0
DICTIONARY
  5
19
102
{ACAD_REACTORS
330
C
102
}
330
C
100
AcDbDictionary
281
     1
  0
ACDBDICTIONARYWDFLT
  5
E
102
{ACAD_REACTORS
330
C
102
}
330
C
100
AcDbDictionary
281
     1
  3
Normal
350
F
100
AcDbDictionaryWithDefault
340
F
  0
DICTIONARY
  5
EC
102
{ACAD_REACTORS
330
C
102
}
330
C
100
AcDbDictionary
281
     1
  3
A0
350
ED
  3
A1
350
EE
  3
A2
350
EF
  3
A3
350
F0
  3
A4
350
F1
  3
A5
350
F2
  3
A6
350
F3
  3
A7
350
F4
  3
A8
350
F5
  3
A9
350
F6
  3
B0
350
F7
  3
B1
350
F8
  3
B2
350
F9
  3
B3
350
FA
  3
B4
350
FB
  3
B5
350
FC
  3
B6
350
FD
  3
B7
350
FE
  3
B8
350
FF
  3
B9
350
100
  3
C0
350
101
  3
C1
350
102
  3
C2
350
103
  3
C3
350
104
  3
C4
350
105
  3
C5
350
106
  3
C6
350
107
  3
C7
350
108
  3
C8
350
109
  3
C9
350
10A
  3
D0
350
10B
  3
D1
350
10C
  3
D2
350
10D
  0
DICTIONARY
  5
112
102
{ACAD_REACTORS
330
C
102
}
330
C
100
AcDbDictionary
281
     1
  3
2dWireframe
350
117
  3
3D Hidden
350
119
  3
3dWireframe
350
118
  3
Basic
350
11A
  3
Brighten
350
11E
  3
ColorChange
350
122
  3
Conceptual
350
11C
  3
Dim
350
11D
  3
Facepattern
350
121
  3
Flat
350
113
  3
FlatWithEdges
350
114
  3
Gouraud
350
115
  3
GouraudWithEdges
350
116
  3
Linepattern
350
120
  3
Realistic
350
11B
  3
Thicken
350
11F
  0
XRECORD
  5
15D
102
{ACAD_REACTORS
330
C
102
}
330
C
100
AcDbXrecord
280
     1
  0
DICTIONARY
  5
12E
102
{ACAD_REACTORS
330
C
102
}
330
C
100
AcDbDictionary
281
     1
  3
CANNOSCALE
350
136
  3
DIMASSOC
350
132
  3
HIDETEXT
350
133
  3
MSLTSCALE
350
131
  0
XRECORD
  5
135
102
{ACAD_REACTORS
330
134
102
}
330
134
100
AcDbXrecord
280
     1
102
VTR_0.000_0.000_1.000_1.000_VISUALSTYLE
340
117
102
VTR_0.000_0.000_1.000_1.000_GRIDDISPLAY
 70
     3
102
VTR_0.000_0.000_1.000_1.000_GRIDMAJOR
 70
     5
102
VTR_0.000_0.000_1.000_1.000_DEFAULTLIGHTING
280
     1
102
VTR_0.000_0.000_1.000_1.000_DEFAULTLIGHTINGTYPE
 70
     1
102
VTR_0.000_0.000_1.000_1.000_BRIGHTNESS
141
0.0
102
VTR_0.000_0.000_1.000_1.000_CONTRAST
142
0.0
  0
LAYOUT
  5
1C
102
{ACAD_REACTORS
330
1A
102
}
330
1A
100
AcDbPlotSettings
  1

  2
none_device
  4

  6

 40
0.0
 41
0.0
 42
0.0
 43
0.0
 44
0.0
 45
0.0
 46
0.0
 47
0.0
 48
0.0
 49
0.0
140
0.0
141
0.0
142
1.0
143
1.0
 70
   688
 72
     0
 73
     0
 74
     5
  7

 75
    16
147
1.0
148
0.0
149
0.0
100
AcDbLayout
  1
Layout1
 70
     1
 71
     1
 10
0.0
 20
0.0
 11
12.0
 21
9.0
 12
0.0
 22
0.0
 32
0.0
 14
1.000000000000000E+20
 24
1.000000000000000E+20
 34
1.000000000000000E+20
 15
-1.000000000000000E+20
 25
-1.000000000000000E+20
 35
-1.000000000000000E+20
146
0.0
 13
0.0
 23
0.0
 33
0.0
 16
1.0
 26
0.0
 36
0.0
 17
0.0
 27
1.0
 37
0.0
 76
     0
330
1B
  0
LAYOUT
  5
1E
102
{ACAD_REACTORS
330
1A
102
}
330
1A
100
AcDbPlotSettings
  1

  2
none_device
  4

  6

 40
0.0
 41
0.0
 42
0.0
 43
0.0
 44
0.0
 45
0.0
 46
0.0
 47
0.0
 48
0.0
 49
0.0
140
0.0
141
0.0
142
1.0
143
1.0
 70
  1712
 72
     0
 73
     0
 74
     0
  7

 75
     0
147
1.0
148
0.0
149
0.0
100
AcDbLayout
  1
Model
 70
     1
 71
     0
 10
0.0
 20
0.0
 11
12.0
 21
9.0
 12
0.0
 22
0.0
 32
0.0
 14
-36.352590953
 24
-17.511804773
 34
0.0
 15
64.096663395
 25
44.022780632
 35
0.0
146
0.0
 13
0.0
 23
0.0
 33
0.0
 16
1.0
 26
0.0
 36
0.0
 17
0.0
 27
1.0
 37
0.0
 76
     0
330
1D
331
E6
  0
MATERIAL
  5
125
102
{ACAD_REACTORS
330
123
102
}
102
{ACAD_XDICTIONARY
360
159
102
}
330
123
100
AcDbMaterial
  1
ByBlock
  0
MATERIAL
  5
124
102
{ACAD_REACTORS
330
123
102
}
102
{ACAD_XDICTIONARY
360
157
102
}
330
123
100
AcDbMaterial
  1
ByLayer
  0
MATERIAL
  5
126
102
{ACAD_REACTORS
330
123
102
}
102
{ACAD_XDICTIONARY
360
15B
102
}
330
123
100
AcDbMaterial
  1
Global
  0
MLINESTYLE
  5
18
102
{ACAD_REACTORS
330
17
102
}
330
17
100
AcDbMlineStyle
  2
Standard
 70
     0
  3

 62
   256
 51
90.0
 52
90.0
 71
     2
 49
0.5
 62
   256
  6
BYLAYER
 49
-0.5
 62
   256
  6
BYLAYER
  0
ACDBPLACEHOLDER
  5
F
102
{ACAD_REACTORS
330
E
102
}
330
E
  0
SCALE
  5
ED
102
{ACAD_REACTORS
330
EC
102
}
330
EC
100
AcDbScale
 70
     0
300
1:1
140
1.0
141
1.0
290
     1
  0
SCALE
  5
EE
102
{ACAD_REACTORS
330
EC
102
}
330
EC
100
AcDbScale
 70
     0
300
1:2
140
1.0
141
2.0
290
     0
  0
SCALE
  5
EF
102
{ACAD_REACTORS
330
EC
102
}
330
EC
100
AcDbScale
 70
     0
300
1:4
140
1.0
141
4.0
290
     0
  0
SCALE
  5
F0
102
{ACAD_REACTORS
330
EC
102
}
330
EC
100
AcDbScale
 70
     0
300
1:5
140
1.0
141
5.0
290
     0
  0
SCALE
  5
F1
102
{ACAD_REACTORS
330
EC
102
}
330
EC
100
AcDbScale
 70
     0
300
1:8
140
1.0
141
8.0
290
     0
  0
SCALE
  5
F2
102
{ACAD_REACTORS
330
EC
102
}
330
EC
100
AcDbScale
 70
     0
300
1:10
140
1.0
141
10.0
290
     0
  0
SCALE
  5
F3
102
{ACAD_REACTORS
330
EC
102
}
330
EC
100
AcDbScale
 70
     0
300
1:16
140
1.0
141
16.0
290
     0
  0
SCALE
  5
F4
102
{ACAD_REACTORS
330
EC
102
}
330
EC
100
AcDbScale
 70
     0
300
1:20
140
1.0
141
20.0
290
     0
  0
SCALE
  5
F5
102
{ACAD_REACTORS
330
EC
102
}
330
EC
100
AcDbScale
 70
     0
300
1:30
140
1.0
141
30.0
290
     0
  0
SCALE
  5
F6
102
{ACAD_REACTORS
330
EC
102
}
330
EC
100
AcDbScale
 70
     0
300
1:40
140
1.0
141
40.0
290
     0
  0
SCALE
  5
F7
102
{ACAD_REACTORS
330
EC
102
}
330
EC
100
AcDbScale
 70
     0
300
1:50
140
1.0
141
50.0
290
     0
  0
SCALE
  5
F8
102
{ACAD_REACTORS
330
EC
102
}
330
EC
100
AcDbScale
 70
     0
300
1:100
140
1.0
141
100.0
290
     0
  0
SCALE
  5
F9
102
{ACAD_REACTORS
330
EC
102
}
330
EC
100
AcDbScale
 70
     0
300
2:1
140
2.0
141
1.0
290
     0
  0
SCALE
  5
FA
102
{ACAD_REACTORS
330
EC
102
}
330
EC
100
AcDbScale
 70
     0
300
4:1
140
4.0
141
1.0
290
     0
  0
SCALE
  5
FB
102
{ACAD_REACTORS
330
EC
102
}
330
EC
100
AcDbScale
 70
     0
300
8:1
140
8.0
141
1.0
290
     0
  0
SCALE
  5
FC
102
{ACAD_REACTORS
330
EC
102
}
330
EC
100
AcDbScale
 70
     0
300
10:1
140
10.0
141
1.0
290
     0
  0
SCALE
  5
FD
102
{ACAD_REACTORS
330
EC
102
}
330
EC
100
AcDbScale
 70
     0
300
100:1
140
100.0
141
1.0
290
     0
  0
SCALE
  5
FE
102
{ACAD_REACTORS
330
EC
102
}
330
EC
100
AcDbScale
 70
     0
300
1/128" = 1'-0"
140
0.0078125
141
12.0
290
     0
  0
SCALE
  5
FF
102
{ACAD_REACTORS
330
EC
102
}
330
EC
100
AcDbScale
 70
     0
300
1/64" = 1'-0"
140
0.015625
141
12.0
290
     0
  0
SCALE
  5
100
102
{ACAD_REACTORS
330
EC
102
}
330
EC
100
AcDbScale
 70
     0
300
1/32" = 1'-0"
140
0.03125
141
12.0
290
     0
  0
SCALE
  5
101
102
{ACAD_REACTORS
330
EC
102
}
330
EC
100
AcDbScale
 70
     0
300
1/16" = 1'-0"
140
0.0625
141
12.0
290
     0
  0
SCALE
  5
102
102
{ACAD_REACTORS
330
EC
102
}
330
EC
100
AcDbScale
 70
     0
300
3/32" = 1'-0"
140
0.09375
141
12.0
290
     0
  0
SCALE
  5
103
102
{ACAD_REACTORS
330
EC
102
}
330
EC
100
AcDbScale
 70
     0
300
1/8" = 1'-0"
140
0.125
141
12.0
290
     0
  0
SCALE
  5
104
102
{ACAD_REACTORS
330
EC
102
}
330
EC
100
AcDbScale
 70
     0
300
3/16" = 1'-0"
140
0.1875
141
12.0
290
     0
  0
SCALE
  5
105
102
{ACAD_REACTORS
330
EC
102
}
330
EC
100
AcDbScale
 70
     0
300
1/4" = 1'-0"
140
0.25
141
12.0
290
     0
  0
SCALE
  5
106
102
{ACAD_REACTORS
330
EC
102
}
330
EC
100
AcDbScale
 70
     0
300
3/8" = 1'-0"
140
0.375
141
12.0
290
     0
  0
SCALE
  5
107
102
{ACAD_REACTORS
330
EC
102
}
330
EC
100
AcDbScale
 70
     0
300
1/2" = 1'-0"
140
0.5
141
12.0
290
     0
  0
SCALE
  5
108
102
{ACAD_REACTORS
330
EC
102
}
330
EC
100
AcDbScale
 70
     0
300
3/4" = 1'-0"
140
0.75
141
12.0
290
     0
  0
SCALE
  5
109
102
{ACAD_REACTORS
330
EC
102
}
330
EC
100
AcDbScale
 70
     0
300
1" = 1'-0"
140
1.0
141
12.0
290
     0
  0
SCALE
  5
10A
102
{ACAD_REACTORS
330
EC
102
}
330
EC
100
AcDbScale
 70
     0
300
1-1/2" = 1'-0"
140
1.5
141
12.0
290
     0
  0
SCALE
  5
10B
102
{ACAD_REACTORS
330
EC
102
}
330
EC
100
AcDbScale
 70
     0
300
3" = 1'-0"
140
3.0
141
12.0
290
     0
  0
SCALE
  5
10C
102
{ACAD_REACTORS
330
EC
102
}
330
EC
100
AcDbScale
 70
     0
300
6" = 1'-0"
140
6.0
141
12.0
290
     0
  0
SCALE
  5
10D
102
{ACAD_REACTORS
330
EC
102
}
330
EC
100
AcDbScale
 70
     0
300
1'-0" = 1'-0"
140
12.0
141
12.0
290
     0
  0
VISUALSTYLE
  5
117
102
{ACAD_REACTORS
330
112
102
}
102
{ACAD_XDICTIONARY
360
13F
102
}
330
112
100
AcDbVisualStyle
  2
2dWireframe
 70
     4
 71
     0
 72
     2
 73
     0
 90
        0
 40
-0.6
 41
-30.0
 62
     5
 63
     7
 74
     1
 91
        4
 64
     7
 65
   257
 75
     1
175
     1
 42
1.0
 92
        0
 66
   257
 43
1.0
 76
     1
 77
     6
 78
     2
 67
     7
 79
     5
170
     0
171
     0
290
     0
174
     0
 93
        1
 44
0.0
173
     0
291
     0
 45
0.0
1001
ACAD
1000
AcDbSavedByObjectVersion
1070
     0
  0
VISUALSTYLE
  5
119
102
{ACAD_REACTORS
330
112
102
}
102
{ACAD_XDICTIONARY
360
143
102
}
330
112
100
AcDbVisualStyle
  2
3D Hidden
 70
     6
 71
     1
 72
     2
 73
     2
 90
        0
 40
-0.6
 41
-30.0
 62
     5
 63
     7
 74
     2
 91
        2
 64
     7
 65
   257
 75
     2
175
     1
 42
40.0
 92
        0
 66
   257
 43
1.0
 76
     1
 77
     6
 78
     2
 67
     7
 79
     3
170
     0
171
     0
290
     0
174
     0
 93
        1
 44
0.0
173
     0
291
     0
 45
0.0
1001
ACAD
1000
AcDbSavedByObjectVersion
1070
     0
  0
VISUALSTYLE
  5
118
102
{ACAD_REACTORS
330
112
102
}
102
{ACAD_XDICTIONARY
360
141
102
}
330
112
100
AcDbVisualStyle
  2
3dWireframe
 70
     5
 71
     0
 72
     2
 73
     0
 90
        0
 40
-0.6
 41
-30.0
 62
     5
 63
     7
 74
     1
 91
        4
 64
     7
 65
   257
 75
     1
175
     1
 42
1.0
 92
        0
 66
   257
 43
1.0
 76
     1
 77
     6
 78
     2
 67
     7
 79
     5
170
     0
171
     0
290
     0
174
     0
 93
        1
 44
0.0
173
     0
291
     0
 45
0.0
1001
ACAD
1000
AcDbSavedByObjectVersion
1070
     0
  0
VISUALSTYLE
  5
11A
102
{ACAD_REACTORS
330
112
102
}
102
{ACAD_XDICTIONARY
360
145
102
}
330
112
100
AcDbVisualStyle
  2
Basic
 70
     7
 71
     1
 72
     0
 73
     1
 90
        0
 40
-0.6
 41
-30.0
 62
     5
 63
     7
 74
     0
 91
        4
 64
     7
 65
   257
 75
     1
175
     1
 42
1.0
 92
        8
 66
     7
 43
1.0
 76
     1
 77
     6
 78
     2
 67
     7
 79
     5
170
     0
171
     0
290
     0
174
     0
 93
        1
 44
0.0
173
     0
291
     1
 45
0.0
1001
ACAD
1000
AcDbSavedByObjectVersion
1070
     0
  0
VISUALSTYLE
  5
11E
102
{ACAD_REACTORS
330
112
102
}
102
{ACAD_XDICTIONARY
360
14D
102
}
330
112
100
AcDbVisualStyle
  2
Brighten
 70
    12
 71
     2
 72
     2
 73
     0
 90
        0
 40
-0.6
 41
-30.0
 62
     5
 63
     7
 74
     1
 91
        4
 64
     7
 65
   257
 75
     1
175
     1
 42
1.0
 92
        8
 66
     7
 43
1.0
 76
     1
 77
     6
 78
     2
 67
     7
 79
     5
170
     0
171
     0
290
     0
174
     0
 93
        1
 44
50.0
173
     0
291
     1
 45
0.0
1001
ACAD
1000
AcDbSavedByObjectVersion
1070
     0
  0
VISUALSTYLE
  5
122
102
{ACAD_REACTORS
330
112
102
}
102
{ACAD_XDICTIONARY
360
155
102
}
330
112
100
AcDbVisualStyle
  2
ColorChange
 70
    16
 71
     2
 72
     2
 73
     3
 90
        0
 40
-0.6
 41
-30.0
 62
     5
 63
     8
 74
     1
 91
        4
 64
     7
 65
   257
 75
     1
175
     1
 42
1.0
 92
        8
 66
     8
 43
1.0
 76
     1
 77
     6
 78
     2
 67
     7
 79
     5
170
     0
171
     0
290
     0
174
     0
 93
        1
 44
0.0
173
     0
291
     1
 45
0.0
1001
ACAD
1000
AcDbSavedByObjectVersion
1070
     0
  0
VISUALSTYLE
  5
11C
102
{ACAD_REACTORS
330
112
102
}
102
{ACAD_XDICTIONARY
360
149
102
}
330
112
100
AcDbVisualStyle
  2
Conceptual
 70
     9
 71
     3
 72
     2
 73
     0
 90
        0
 40
-0.6
 41
-30.0
 62
     5
 63
     7
 74
     2
 91
        2
 64
     7
 65
   257
 75
     1
175
     1
 42
40.0
 92
        8
 66
     7
 43
1.0
 76
     1
 77
     6
 78
     2
 67
     7
 79
     3
170
     0
171
     0
290
     0
174
     0
 93
        1
 44
0.0
173
     0
291
     0
 45
0.0
1001
ACAD
1000
AcDbSavedByObjectVersion
1070
     0
  0
VISUALSTYLE
  5
11D
102
{ACAD_REACTORS
330
112
102
}
102
{ACAD_XDICTIONARY
360
14B
102
}
330
112
100
AcDbVisualStyle
  2
Dim
 70
    11
 71
     2
 72
     2
 73
     0
 90
        0
 40
-0.6
 41
-30.0
 62
     5
 63
     7
 74
     1
 91
        4
 64
     7
 65
   257
 75
     1
175
     1
 42
1.0
 92
        8
 66
     7
 43
1.0
 76
     1
 77
     6
 78
     2
 67
     7
 79
     5
170
     0
171
     0
290
     0
174
     0
 93
        1
 44
-50.0
173
     0
291
     1
 45
0.0
1001
ACAD
1000
AcDbSavedByObjectVersion
1070
     0
  0
VISUALSTYLE
  5
121
102
{ACAD_REACTORS
330
112
102
}
102
{ACAD_XDICTIONARY
360
153
102
}
330
112
100
AcDbVisualStyle
  2
Facepattern
 70
    15
 71
     2
 72
     2
 73
     0
 90
        0
 40
-0.6
 41
-30.0
 62
     5
 63
     7
 74
     1
 91
        4
 64
     7
 65
   257
 75
     1
175
     1
 42
1.0
 92
        8
 66
     7
 43
1.0
 76
     1
 77
     6
 78
     2
 67
     7
 79
     5
170
     0
171
     0
290
     0
174
     0
 93
        1
 44
0.0
173
     0
291
     1
 45
0.0
1001
ACAD
1000
AcDbSavedByObjectVersion
1070
     0
  0
VISUALSTYLE
  5
113
102
{ACAD_REACTORS
330
112
102
}
102
{ACAD_XDICTIONARY
360
137
102
}
330
112
100
AcDbVisualStyle
  2
Flat
 70
     0
 71
     2
 72
     1
 73
     1
 90
        2
 40
-0.6
 41
30.0
 62
     5
 63
     7
 74
     0
 91
        4
 64
     7
 65
   257
 75
     1
175
     1
 42
1.0
 92
        8
 66
     7
 43
1.0
 76
     1
 77
     6
 78
     2
 67
     7
 79
     5
170
     0
171
     0
290
     0
174
     0
 93
       13
 44
0.0
173
     0
291
     1
 45
0.0
1001
ACAD
1000
AcDbSavedByObjectVersion
1070
     0
  0
VISUALSTYLE
  5
114
102
{ACAD_REACTORS
330
112
102
}
102
{ACAD_XDICTIONARY
360
139
102
}
330
112
100
AcDbVisualStyle
  2
FlatWithEdges
 70
     1
 71
     2
 72
     1
 73
     1
 90
        2
 40
-0.6
 41
30.0
 62
     5
 63
     7
 74
     1
 91
        4
 64
     7
 65
   257
 75
     1
175
     1
 42
1.0
 92
        0
 66
   257
 43
1.0
 76
     1
 77
     6
 78
     2
 67
     7
 79
     5
170
     0
171
     0
290
     0
174
     0
 93
       13
 44
0.0
173
     0
291
     1
 45
0.0
1001
ACAD
1000
AcDbSavedByObjectVersion
1070
     0
  0
VISUALSTYLE
  5
115
102
{ACAD_REACTORS
330
112
102
}
102
{ACAD_XDICTIONARY
360
13B
102
}
330
112
100
AcDbVisualStyle
  2
Gouraud
 70
     2
 71
     2
 72
     2
 73
     1
 90
        2
 40
-0.6
 41
30.0
 62
     5
 63
     7
 74
     0
 91
        4
 64
     7
 65
   257
 75
     1
175
     1
 42
1.0
 92
        0
 66
     7
 43
1.0
 76
     1
 77
     6
 78
     2
 67
     7
 79
     5
170
     0
171
     0
290
     0
174
     0
 93
       13
 44
0.0
173
     0
291
     1
 45
0.0
1001
ACAD
1000
AcDbSavedByObjectVersion
1070
     0
  0
VISUALSTYLE
  5
116
102
{ACAD_REACTORS
330
112
102
}
102
{ACAD_XDICTIONARY
360
13D
102
}
330
112
100
AcDbVisualStyle
  2
GouraudWithEdges
 70
     3
 71
     2
 72
     2
 73
     1
 90
        2
 40
-0.6
 41
30.0
 62
     5
 63
     7
 74
     1
 91
        4
 64
     7
 65
   257
 75
     1
175
     1
 42
1.0
 92
        0
 66
   257
 43
1.0
 76
     1
 77
     6
 78
     2
 67
     7
 79
     5
170
     0
171
     0
290
     0
174
     0
 93
       13
 44
0.0
173
     0
291
     1
 45
0.0
1001
ACAD
1000
AcDbSavedByObjectVersion
1070
     0
  0
VISUALSTYLE
  5
120
102
{ACAD_REACTORS
330
112
102
}
102
{ACAD_XDICTIONARY
360
151
102
}
330
112
100
AcDbVisualStyle
  2
Linepattern
 70
    14
 71
     2
 72
     2
 73
     0
 90
        0
 40
-0.6
 41
-30.0
 62
     5
 63
     7
 74
     1
 91
        4
 64
     7
 65
   257
 75
     7
175
     7
 42
1.0
 92
        8
 66
     7
 43
1.0
 76
     1
 77
     6
 78
     2
 67
     7
 79
     5
170
     0
171
     0
290
     0
174
     0
 93
        1
 44
0.0
173
     0
291
     1
 45
0.0
1001
ACAD
1000
AcDbSavedByObjectVersion
1070
     0
  0
VISUALSTYLE
  5
11B
102
{ACAD_REACTORS
330
112
102
}
102
{ACAD_XDICTIONARY
360
147
102
}
330
112
100
AcDbVisualStyle
  2
Realistic
 70
     8
 71
     2
 72
     2
 73
     0
 90
        0
 40
-0.6
 41
-30.0
 62
     5
 63
     7
 74
     1
 91
        0
 64
     7
 65
   257
 75
     1
175
     1
 42
1.0
 92
        8
 66
     8
 43
1.0
 76
     1
 77
     6
 78
     2
 67
     7
 79
     5
170
     0
171
     0
290
     0
174
     0
 93
       13
 44
0.0
173
     0
291
     0
 45
0.0
1001
ACAD
1000
AcDbSavedByObjectVersion
1070
     0
  0
VISUALSTYLE
  5
11F
102
{ACAD_REACTORS
330
112
102
}
102
{ACAD_XDICTIONARY
360
14F
102
}
330
112
100
AcDbVisualStyle
  2
Thicken
 70
    13
 71
     2
 72
     2
 73
     0
 90
        0
 40
-0.6
 41
-30.0
 62
     5
 63
     7
 74
     1
 91
        4
 64
     7
 65
   257
 75
     1
175
     1
 42
1.0
 92
       12
 66
     7
 43
1.0
 76
     1
 77
     6
 78
     2
 67
     7
 79
     5
170
     0
171
     0
290
     0
174
     0
 93
        1
 44
0.0
173
     0
291
     1
 45
0.0
1001
ACAD
1000
AcDbSavedByObjectVersion
1070
     0
  0
DICTIONARYVAR
  5
136
102
{ACAD_REACTORS
330
12E
102
}
330
12E
100
DictionaryVariables
280
     0
  1
1:1
  0
DICTIONARYVAR
  5
132
102
{ACAD_REACTORS
330
12E
102
}
330
12E
100
DictionaryVariables
280
     0
  1
2
  0
DICTIONARYVAR
  5
133
102
{ACAD_REACTORS
330
12E
102
}
330
12E
100
DictionaryVariables
280
     0
  1
1
  0
DICTIONARYVAR
  5
131
102
{ACAD_REACTORS
330
12E
102
}
330
12E
100
DictionaryVariables
280
     0
  1
0
  0
DICTIONARY
  5
159
330
125
100
AcDbDictionary
280
     1
281
     1
  3
ACAD_XREC_ROUNDTRIP
360
15A
  0
DICTIONARY
  5
157
330
124
100
AcDbDictionary
280
     1
281
     1
  3
ACAD_XREC_ROUNDTRIP
360
158
  0
DICTIONARY
  5
15B
330
126
100
AcDbDictionary
280
     1
281
     1
  3
ACAD_XREC_ROUNDTRIP
360
15C
  0
DICTIONARY
  5
13F
330
117
100
AcDbDictionary
280
     1
281
     1
  3
ACAD_XREC_ROUNDTRIP
360
140
  0
DICTIONARY
  5
143
330
119
100
AcDbDictionary
280
     1
281
     1
  3
ACAD_XREC_ROUNDTRIP
360
144
  0
DICTIONARY
  5
141
330
118
100
AcDbDictionary
280
     1
281
     1
  3
ACAD_XREC_ROUNDTRIP
360
142
  0
DICTIONARY
  5
145
330
11A
100
AcDbDictionary
280
     1
281
     1
  3
ACAD_XREC_ROUNDTRIP
360
146
  0
DICTIONARY
  5
14D
330
11E
100
AcDbDictionary
280
     1
281
     1
  3
ACAD_XREC_ROUNDTRIP
360
14E
  0
DICTIONARY
  5
155
330
122
100
AcDbDictionary
280
     1
281
     1
  3
ACAD_XREC_ROUNDTRIP
360
156
  0
DICTIONARY
  5
149
330
11C
100
AcDbDictionary
280
     1
281
     1
  3
ACAD_XREC_ROUNDTRIP
360
14A
  0
DICTIONARY
  5
14B
330
11D
100
AcDbDictionary
280
     1
281
     1
  3
ACAD_XREC_ROUNDTRIP
360
14C
  0
DICTIONARY
  5
153
330
121
100
AcDbDictionary
280
     1
281
     1
  3
ACAD_XREC_ROUNDTRIP
360
154
  0
DICTIONARY
  5
137
330
113
100
AcDbDictionary
280
     1
281
     1
  3
ACAD_XREC_ROUNDTRIP
360
138
  0
DICTIONARY
  5
139
330
114
100
AcDbDictionary
280
     1
281
     1
  3
ACAD_XREC_ROUNDTRIP
360
13A
  0
DICTIONARY
  5
13B
330
115
100
AcDbDictionary
280
     1
281
     1
  3
ACAD_XREC_ROUNDTRIP
360
13C
  0
DICTIONARY
  5
13D
330
116
100
AcDbDictionary
280
     1
281
     1
  3
ACAD_XREC_ROUNDTRIP
360
13E
  0
DICTIONARY
  5
151
330
120
100
AcDbDictionary
280
     1
281
     1
  3
ACAD_XREC_ROUNDTRIP
360
152
  0
DICTIONARY
  5
147
330
11B
100
AcDbDictionary
280
     1
281
     1
  3
ACAD_XREC_ROUNDTRIP
360
148
  0
DICTIONARY
  5
14F
330
11F
100
AcDbDictionary
280
     1
281
     1
  3
ACAD_XREC_ROUNDTRIP
360
150
  0
XRECORD
  5
15A
102
{ACAD_REACTORS
330
159
102
}
330
159
100
AcDbXrecord
280
     1
102
MATERIAL
148
0.0
149
0.0
149
0.0
 93
        0
 94
      127
282
     0
 72
     1
 77
     1
171
     1
175
     1
179
     1
273
     0
  0
XRECORD
  5
158
102
{ACAD_REACTORS
330
157
102
}
330
157
100
AcDbXrecord
280
     1
102
MATERIAL
148
0.0
149
0.0
149
0.0
 93
        0
 94
      127
282
     0
 72
     1
 77
     1
171
     1
175
     1
179
     1
273
     0
  0
XRECORD
  5
15C
102
{ACAD_REACTORS
330
15B
102
}
330
15B
100
AcDbXrecord
280
     1
102
MATERIAL
148
0.0
149
0.0
149
0.0
 93
        0
 94
      127
282
     0
 72
     1
 77
     1
171
     1
175
     1
179
     1
273
     0
  0
XRECORD
  5
140
102
{ACAD_REACTORS
330
13F
102
}
330
13F
100
AcDbXrecord
280
     1
102
RTVSPropertyOp0
 70
     1
102
RTVSPropertyOp1
 70
     1
102
RTVSPropertyOp2
 70
     1
102
RTVSPropertyOp3
 70
     1
102
RTVSPropertyOp4
 70
     1
102
RTVSPropertyOp5
 70
     1
102
RTVSPropertyOp6
 70
     1
102
RTVSPropertyOp7
 70
     1
102
RTVSPropertyOp8
 70
     1
102
RTVSPropertyOp9
 70
     1
102
RTVSPropertyOp10
 70
     1
102
RTVSPropertyOp11
 70
     1
102
RTVSPropertyOp12
 70
     1
102
RTVSPropertyOp13
 70
     1
102
RTVSPropertyOp14
 70
     1
102
RTVSPropertyOp15
 70
     1
102
RTVSPropertyOp16
 70
     1
102
RTVSPropertyOp17
 70
     1
102
RTVSPropertyOp18
 70
     1
102
RTVSPropertyOp19
 70
     1
102
RTVSPropertyOp20
 70
     1
102
RTVSPropertyOp21
 70
     1
102
RTVSPropertyOp22
 70
     1
102
RTVSPropertyOp23
 70
     1
102
RTVSPropertyOp24
 70
     1
102
RTVSPropertyOp25
 70
     1
102
RTVSPropertyOp26
 70
     1
102
RTVSPropertyOp27
 70
     1
102
RTVSPropertyOp28
 70
     1
102
RTVSPropertyOp29
 70
     1
102
RTVSPropertyOp30
 70
     1
102
RTVSPropertyOp31
 70
     1
102
RTVSPropertyOp32
 70
     1
  0
XRECORD
  5
144
102
{ACAD_REACTORS
330
143
102
}
330
143
100
AcDbXrecord
280
     1
102
RTVSPropertyOp0
 70
     1
102
RTVSPropertyOp1
 70
     1
102
RTVSPropertyOp2
 70
     1
102
RTVSPropertyOp3
 70
     1
102
RTVSPropertyOp4
 70
     1
102
RTVSPropertyOp5
 70
     1
102
RTVSPropertyOp6
 70
     1
102
RTVSPropertyOp7
 70
     1
102
RTVSPropertyOp8
 70
     1
102
RTVSPropertyOp9
 70
     1
102
RTVSPropertyOp10
 70
     1
102
RTVSPropertyOp11
 70
     1
102
RTVSPropertyOp12
 70
     1
102
RTVSPropertyOp13
 70
     1
102
RTVSPropertyOp14
 70
     1
102
RTVSPropertyOp15
 70
     1
102
RTVSPropertyOp16
 70
     1
102
RTVSPropertyOp17
 70
     1
102
RTVSPropertyOp18
 70
     1
102
RTVSPropertyOp19
 70
     1
102
RTVSPropertyOp20
 70
     1
102
RTVSPropertyOp21
 70
     1
102
RTVSPropertyOp22
 70
     1
102
RTVSPropertyOp23
 70
     1
102
RTVSPropertyOp24
 70
     1
102
RTVSPropertyOp25
 70
     1
102
RTVSPropertyOp26
 70
     1
102
RTVSPropertyOp27
 70
     1
102
RTVSPropertyOp28
 70
     1
102
RTVSPropertyOp29
 70
     1
102
RTVSPropertyOp30
 70
     1
102
RTVSPropertyOp31
 70
     1
102
RTVSPropertyOp32
 70
     1
  0
XRECORD
  5
142
102
{ACAD_REACTORS
330
141
102
}
330
141
100
AcDbXrecord
280
     1
102
RTVSPropertyOp0
 70
     1
102
RTVSPropertyOp1
 70
     1
102
RTVSPropertyOp2
 70
     1
102
RTVSPropertyOp3
 70
     1
102
RTVSPropertyOp4
 70
     1
102
RTVSPropertyOp5
 70
     1
102
RTVSPropertyOp6
 70
     1
102
RTVSPropertyOp7
 70
     1
102
RTVSPropertyOp8
 70
     1
102
RTVSPropertyOp9
 70
     1
102
RTVSPropertyOp10
 70
     1
102
RTVSPropertyOp11
 70
     1
102
RTVSPropertyOp12
 70
     1
102
RTVSPropertyOp13
 70
     1
102
RTVSPropertyOp14
 70
     1
102
RTVSPropertyOp15
 70
     1
102
RTVSPropertyOp16
 70
     1
102
RTVSPropertyOp17
 70
     1
102
RTVSPropertyOp18
 70
     1
102
RTVSPropertyOp19
 70
     1
102
RTVSPropertyOp20
 70
     1
102
RTVSPropertyOp21
 70
     1
102
RTVSPropertyOp22
 70
     1
102
RTVSPropertyOp23
 70
     1
102
RTVSPropertyOp24
 70
     1
102
RTVSPropertyOp25
 70
     1
102
RTVSPropertyOp26
 70
     1
102
RTVSPropertyOp27
 70
     1
102
RTVSPropertyOp28
 70
     1
102
RTVSPropertyOp29
 70
     1
102
RTVSPropertyOp30
 70
     1
102
RTVSPropertyOp31
 70
     1
102
RTVSPropertyOp32
 70
     1
  0
XRECORD
  5
146
102
{ACAD_REACTORS
330
145
102
}
330
145
100
AcDbXrecord
280
     1
102
RTVSPropertyOp0
 70
     1
102
RTVSPropertyOp1
 70
     1
102
RTVSPropertyOp2
 70
     1
102
RTVSPropertyOp3
 70
     1
102
RTVSPropertyOp4
 70
     1
102
RTVSPropertyOp5
 70
     1
102
RTVSPropertyOp6
 70
     1
102
RTVSPropertyOp7
 70
     1
102
RTVSPropertyOp8
 70
     1
102
RTVSPropertyOp9
 70
     1
102
RTVSPropertyOp10
 70
     1
102
RTVSPropertyOp11
 70
     1
102
RTVSPropertyOp12
 70
     1
102
RTVSPropertyOp13
 70
     1
102
RTVSPropertyOp14
 70
     1
102
RTVSPropertyOp15
 70
     1
102
RTVSPropertyOp16
 70
     1
102
RTVSPropertyOp17
 70
     1
102
RTVSPropertyOp18
 70
     1
102
RTVSPropertyOp19
 70
     1
102
RTVSPropertyOp20
 70
     1
102
RTVSPropertyOp21
 70
     1
102
RTVSPropertyOp22
 70
     1
102
RTVSPropertyOp23
 70
     1
102
RTVSPropertyOp24
 70
     1
102
RTVSPropertyOp25
 70
     1
102
RTVSPropertyOp26
 70
     1
102
RTVSPropertyOp27
 70
     1
102
RTVSPropertyOp28
 70
     1
102
RTVSPropertyOp29
 70
     1
102
RTVSPropertyOp30
 70
     1
102
RTVSPropertyOp31
 70
     1
102
RTVSPropertyOp32
 70
     1
  0
XRECORD
  5
14E
102
{ACAD_REACTORS
330
14D
102
}
330
14D
100
AcDbXrecord
280
     1
102
RTVSPropertyOp0
 70
     1
102
RTVSPropertyOp1
 70
     1
102
RTVSPropertyOp2
 70
     1
102
RTVSPropertyOp3
 70
     1
102
RTVSPropertyOp4
 70
     1
102
RTVSPropertyOp5
 70
     1
102
RTVSPropertyOp6
 70
     1
102
RTVSPropertyOp7
 70
     1
102
RTVSPropertyOp8
 70
     1
102
RTVSPropertyOp9
 70
     1
102
RTVSPropertyOp10
 70
     1
102
RTVSPropertyOp11
 70
     1
102
RTVSPropertyOp12
 70
     1
102
RTVSPropertyOp13
 70
     1
102
RTVSPropertyOp14
 70
     1
102
RTVSPropertyOp15
 70
     1
102
RTVSPropertyOp16
 70
     1
102
RTVSPropertyOp17
 70
     1
102
RTVSPropertyOp18
 70
     1
102
RTVSPropertyOp19
 70
     1
102
RTVSPropertyOp20
 70
     1
102
RTVSPropertyOp21
 70
     1
102
RTVSPropertyOp22
 70
     1
102
RTVSPropertyOp23
 70
     1
102
RTVSPropertyOp24
 70
     1
102
RTVSPropertyOp25
 70
     1
102
RTVSPropertyOp26
 70
     1
102
RTVSPropertyOp27
 70
     1
102
RTVSPropertyOp28
 70
     1
102
RTVSPropertyOp29
 70
     1
102
RTVSPropertyOp30
 70
     1
102
RTVSPropertyOp31
 70
     1
102
RTVSPropertyOp32
 70
     1
  0
XRECORD
  5
156
102
{ACAD_REACTORS
330
155
102
}
330
155
100
AcDbXrecord
280
     1
102
RTVSPropertyOp0
 70
     1
102
RTVSPropertyOp1
 70
     1
102
RTVSPropertyOp2
 70
     1
102
RTVSPropertyOp3
 70
     1
102
RTVSPropertyOp4
 70
     1
102
RTVSPropertyOp5
 70
     1
102
RTVSPropertyOp6
 70
     1
102
RTVSPropertyOp7
 70
     1
102
RTVSPropertyOp8
 70
     1
102
RTVSPropertyOp9
 70
     1
102
RTVSPropertyOp10
 70
     1
102
RTVSPropertyOp11
 70
     1
102
RTVSPropertyOp12
 70
     1
102
RTVSPropertyOp13
 70
     1
102
RTVSPropertyOp14
 70
     1
102
RTVSPropertyOp15
 70
     1
102
RTVSPropertyOp16
 70
     1
102
RTVSPropertyOp17
 70
     1
102
RTVSPropertyOp18
 70
     1
102
RTVSPropertyOp19
 70
     1
102
RTVSPropertyOp20
 70
     1
102
RTVSPropertyOp21
 70
     1
102
RTVSPropertyOp22
 70
     1
102
RTVSPropertyOp23
 70
     1
102
RTVSPropertyOp24
 70
     1
102
RTVSPropertyOp25
 70
     1
102
RTVSPropertyOp26
 70
     1
102
RTVSPropertyOp27
 70
     1
102
RTVSPropertyOp28
 70
     1
102
RTVSPropertyOp29
 70
     1
102
RTVSPropertyOp30
 70
     1
102
RTVSPropertyOp31
 70
     1
102
RTVSPropertyOp32
 70
     1
  0
XRECORD
  5
14A
102
{ACAD_REACTORS
330
149
102
}
330
149
100
AcDbXrecord
280
     1
102
RTVSPropertyOp0
 70
     1
102
RTVSPropertyOp1
 70
     1
102
RTVSPropertyOp2
 70
     1
102
RTVSPropertyOp3
 70
     1
102
RTVSPropertyOp4
 70
     1
102
RTVSPropertyOp5
 70
     1
102
RTVSPropertyOp6
 70
     1
102
RTVSPropertyOp7
 70
     1
102
RTVSPropertyOp8
 70
     1
102
RTVSPropertyOp9
 70
     1
102
RTVSPropertyOp10
 70
     1
102
RTVSPropertyOp11
 70
     1
102
RTVSPropertyOp12
 70
     1
102
RTVSPropertyOp13
 70
     1
102
RTVSPropertyOp14
 70
     1
102
RTVSPropertyOp15
 70
     1
102
RTVSPropertyOp16
 70
     1
102
RTVSPropertyOp17
 70
     1
102
RTVSPropertyOp18
 70
     1
102
RTVSPropertyOp19
 70
     1
102
RTVSPropertyOp20
 70
     1
102
RTVSPropertyOp21
 70
     1
102
RTVSPropertyOp22
 70
     1
102
RTVSPropertyOp23
 70
     1
102
RTVSPropertyOp24
 70
     1
102
RTVSPropertyOp25
 70
     1
102
RTVSPropertyOp26
 70
     1
102
RTVSPropertyOp27
 70
     1
102
RTVSPropertyOp28
 70
     1
102
RTVSPropertyOp29
 70
     1
102
RTVSPropertyOp30
 70
     1
102
RTVSPropertyOp31
 70
     1
102
RTVSPropertyOp32
 70
     1
  0
XRECORD
  5
14C
102
{ACAD_REACTORS
330
14B
102
}
330
14B
100
AcDbXrecord
280
     1
102
RTVSPropertyOp0
 70
     1
102
RTVSPropertyOp1
 70
     1
102
RTVSPropertyOp2
 70
     1
102
RTVSPropertyOp3
 70
     1
102
RTVSPropertyOp4
 70
     1
102
RTVSPropertyOp5
 70
     1
102
RTVSPropertyOp6
 70
     1
102
RTVSPropertyOp7
 70
     1
102
RTVSPropertyOp8
 70
     1
102
RTVSPropertyOp9
 70
     1
102
RTVSPropertyOp10
 70
     1
102
RTVSPropertyOp11
 70
     1
102
RTVSPropertyOp12
 70
     1
102
RTVSPropertyOp13
 70
     1
102
RTVSPropertyOp14
 70
     1
102
RTVSPropertyOp15
 70
     1
102
RTVSPropertyOp16
 70
     1
102
RTVSPropertyOp17
 70
     1
102
RTVSPropertyOp18
 70
     1
102
RTVSPropertyOp19
 70
     1
102
RTVSPropertyOp20
 70
     1
102
RTVSPropertyOp21
 70
     1
102
RTVSPropertyOp22
 70
     1
102
RTVSPropertyOp23
 70
     1
102
RTVSPropertyOp24
 70
     1
102
RTVSPropertyOp25
 70
     1
102
RTVSPropertyOp26
 70
     1
102
RTVSPropertyOp27
 70
     1
102
RTVSPropertyOp28
 70
     1
102
RTVSPropertyOp29
 70
     1
102
RTVSPropertyOp30
 70
     1
102
RTVSPropertyOp31
 70
     1
102
RTVSPropertyOp32
 70
     1
  0
XRECORD
  5
154
102
{ACAD_REACTORS
330
153
102
}
330
153
100
AcDbXrecord
280
     1
102
RTVSPropertyOp0
 70
     1
102
RTVSPropertyOp1
 70
     1
102
RTVSPropertyOp2
 70
     1
102
RTVSPropertyOp3
 70
     1
102
RTVSPropertyOp4
 70
     1
102
RTVSPropertyOp5
 70
     1
102
RTVSPropertyOp6
 70
     1
102
RTVSPropertyOp7
 70
     1
102
RTVSPropertyOp8
 70
     1
102
RTVSPropertyOp9
 70
     1
102
RTVSPropertyOp10
 70
     1
102
RTVSPropertyOp11
 70
     1
102
RTVSPropertyOp12
 70
     1
102
RTVSPropertyOp13
 70
     1
102
RTVSPropertyOp14
 70
     1
102
RTVSPropertyOp15
 70
     1
102
RTVSPropertyOp16
 70
     1
102
RTVSPropertyOp17
 70
     1
102
RTVSPropertyOp18
 70
     1
102
RTVSPropertyOp19
 70
     1
102
RTVSPropertyOp20
 70
     1
102
RTVSPropertyOp21
 70
     1
102
RTVSPropertyOp22
 70
     1
102
RTVSPropertyOp23
 70
     1
102
RTVSPropertyOp24
 70
     1
102
RTVSPropertyOp25
 70
     1
102
RTVSPropertyOp26
 70
     1
102
RTVSPropertyOp27
 70
     1
102
RTVSPropertyOp28
 70
     1
102
RTVSPropertyOp29
 70
     1
102
RTVSPropertyOp30
 70
     1
102
RTVSPropertyOp31
 70
     1
102
RTVSPropertyOp32
 70
     1
  0
XRECORD
  5
138
102
{ACAD_REACTORS
330
137
102
}
330
137
100
AcDbXrecord
280
     1
102
RTVSPropertyOp0
 70
     1
102
RTVSPropertyOp1
 70
     1
102
RTVSPropertyOp2
 70
     1
102
RTVSPropertyOp3
 70
     1
102
RTVSPropertyOp4
 70
     1
102
RTVSPropertyOp5
 70
     1
102
RTVSPropertyOp6
 70
     1
102
RTVSPropertyOp7
 70
     1
102
RTVSPropertyOp8
 70
     1
102
RTVSPropertyOp9
 70
     1
102
RTVSPropertyOp10
 70
     1
102
RTVSPropertyOp11
 70
     1
102
RTVSPropertyOp12
 70
     1
102
RTVSPropertyOp13
 70
     1
102
RTVSPropertyOp14
 70
     1
102
RTVSPropertyOp15
 70
     1
102
RTVSPropertyOp16
 70
     1
102
RTVSPropertyOp17
 70
     1
102
RTVSPropertyOp18
 70
     1
102
RTVSPropertyOp19
 70
     1
102
RTVSPropertyOp20
 70
     1
102
RTVSPropertyOp21
 70
     1
102
RTVSPropertyOp22
 70
     1
102
RTVSPropertyOp23
 70
     1
102
RTVSPropertyOp24
 70
     1
102
RTVSPropertyOp25
 70
     1
102
RTVSPropertyOp26
 70
     1
102
RTVSPropertyOp27
 70
     1
102
RTVSPropertyOp28
 70
     1
102
RTVSPropertyOp29
 70
     1
102
RTVSPropertyOp30
 70
     1
102
RTVSPropertyOp31
 70
     1
102
RTVSPropertyOp32
 70
     1
  0
XRECORD
  5
13A
102
{ACAD_REACTORS
330
139
102
}
330
139
100
AcDbXrecord
280
     1
102
RTVSPropertyOp0
 70
     1
102
RTVSPropertyOp1
 70
     1
102
RTVSPropertyOp2
 70
     1
102
RTVSPropertyOp3
 70
     1
102
RTVSPropertyOp4
 70
     1
102
RTVSPropertyOp5
 70
     1
102
RTVSPropertyOp6
 70
     1
102
RTVSPropertyOp7
 70
     1
102
RTVSPropertyOp8
 70
     1
102
RTVSPropertyOp9
 70
     1
102
RTVSPropertyOp10
 70
     1
102
RTVSPropertyOp11
 70
     1
102
RTVSPropertyOp12
 70
     1
102
RTVSPropertyOp13
 70
     1
102
RTVSPropertyOp14
 70
     1
102
RTVSPropertyOp15
 70
     1
102
RTVSPropertyOp16
 70
     1
102
RTVSPropertyOp17
 70
     1
102
RTVSPropertyOp18
 70
     1
102
RTVSPropertyOp19
 70
     1
102
RTVSPropertyOp20
 70
     1
102
RTVSPropertyOp21
 70
     1
102
RTVSPropertyOp22
 70
     1
102
RTVSPropertyOp23
 70
     1
102
RTVSPropertyOp24
 70
     1
102
RTVSPropertyOp25
 70
     1
102
RTVSPropertyOp26
 70
     1
102
RTVSPropertyOp27
 70
     1
102
RTVSPropertyOp28
 70
     1
102
RTVSPropertyOp29
 70
     1
102
RTVSPropertyOp30
 70
     1
102
RTVSPropertyOp31
 70
     1
102
RTVSPropertyOp32
 70
     1
  0
XRECORD
  5
13C
102
{ACAD_REACTORS
330
13B
102
}
330
13B
100
AcDbXrecord
280
     1
102
RTVSPropertyOp0
 70
     1
102
RTVSPropertyOp1
 70
     1
102
RTVSPropertyOp2
 70
     1
102
RTVSPropertyOp3
 70
     1
102
RTVSPropertyOp4
 70
     1
102
RTVSPropertyOp5
 70
     1
102
RTVSPropertyOp6
 70
     1
102
RTVSPropertyOp7
 70
     1
102
RTVSPropertyOp8
 70
     1
102
RTVSPropertyOp9
 70
     1
102
RTVSPropertyOp10
 70
     1
102
RTVSPropertyOp11
 70
     1
102
RTVSPropertyOp12
 70
     1
102
RTVSPropertyOp13
 70
     1
102
RTVSPropertyOp14
 70
     1
102
RTVSPropertyOp15
 70
     1
102
RTVSPropertyOp16
 70
     1
102
RTVSPropertyOp17
 70
     1
102
RTVSPropertyOp18
 70
     1
102
RTVSPropertyOp19
 70
     1
102
RTVSPropertyOp20
 70
     1
102
RTVSPropertyOp21
 70
     1
102
RTVSPropertyOp22
 70
     1
102
RTVSPropertyOp23
 70
     1
102
RTVSPropertyOp24
 70
     1
102
RTVSPropertyOp25
 70
     1
102
RTVSPropertyOp26
 70
     1
102
RTVSPropertyOp27
 70
     1
102
RTVSPropertyOp28
 70
     1
102
RTVSPropertyOp29
 70
     1
102
RTVSPropertyOp30
 70
     1
102
RTVSPropertyOp31
 70
     1
102
RTVSPropertyOp32
 70
     1
  0
XRECORD
  5
13E
102
{ACAD_REACTORS
330
13D
102
}
330
13D
100
AcDbXrecord
280
     1
102
RTVSPropertyOp0
 70
     1
102
RTVSPropertyOp1
 70
     1
102
RTVSPropertyOp2
 70
     1
102
RTVSPropertyOp3
 70
     1
102
RTVSPropertyOp4
 70
     1
102
RTVSPropertyOp5
 70
     1
102
RTVSPropertyOp6
 70
     1
102
RTVSPropertyOp7
 70
     1
102
RTVSPropertyOp8
 70
     1
102
RTVSPropertyOp9
 70
     1
102
RTVSPropertyOp10
 70
     1
102
RTVSPropertyOp11
 70
     1
102
RTVSPropertyOp12
 70
     1
102
RTVSPropertyOp13
 70
     1
102
RTVSPropertyOp14
 70
     1
102
RTVSPropertyOp15
 70
     1
102
RTVSPropertyOp16
 70
     1
102
RTVSPropertyOp17
 70
     1
102
RTVSPropertyOp18
 70
     1
102
RTVSPropertyOp19
 70
     1
102
RTVSPropertyOp20
 70
     1
102
RTVSPropertyOp21
 70
     1
102
RTVSPropertyOp22
 70
     1
102
RTVSPropertyOp23
 70
     1
102
RTVSPropertyOp24
 70
     1
102
RTVSPropertyOp25
 70
     1
102
RTVSPropertyOp26
 70
     1
102
RTVSPropertyOp27
 70
     1
102
RTVSPropertyOp28
 70
     1
102
RTVSPropertyOp29
 70
     1
102
RTVSPropertyOp30
 70
     1
102
RTVSPropertyOp31
 70
     1
102
RTVSPropertyOp32
 70
     1
  0
XRECORD
  5
152
102
{ACAD_REACTORS
330
151
102
}
330
151
100
AcDbXrecord
280
     1
102
RTVSPropertyOp0
 70
     1
102
RTVSPropertyOp1
 70
     1
102
RTVSPropertyOp2
 70
     1
102
RTVSPropertyOp3
 70
     1
102
RTVSPropertyOp4
 70
     1
102
RTVSPropertyOp5
 70
     1
102
RTVSPropertyOp6
 70
     1
102
RTVSPropertyOp7
 70
     1
102
RTVSPropertyOp8
 70
     1
102
RTVSPropertyOp9
 70
     1
102
RTVSPropertyOp10
 70
     1
102
RTVSPropertyOp11
 70
     1
102
RTVSPropertyOp12
 70
     1
102
RTVSPropertyOp13
 70
     1
102
RTVSPropertyOp14
 70
     1
102
RTVSPropertyOp15
 70
     1
102
RTVSPropertyOp16
 70
     1
102
RTVSPropertyOp17
 70
     1
102
RTVSPropertyOp18
 70
     1
102
RTVSPropertyOp19
 70
     1
102
RTVSPropertyOp20
 70
     1
102
RTVSPropertyOp21
 70
     1
102
RTVSPropertyOp22
 70
     1
102
RTVSPropertyOp23
 70
     1
102
RTVSPropertyOp24
 70
     1
102
RTVSPropertyOp25
 70
     1
102
RTVSPropertyOp26
 70
     1
102
RTVSPropertyOp27
 70
     1
102
RTVSPropertyOp28
 70
     1
102
RTVSPropertyOp29
 70
     1
102
RTVSPropertyOp30
 70
     1
102
RTVSPropertyOp31
 70
     1
102
RTVSPropertyOp32
 70
     1
  0
XRECORD
  5
148
102
{ACAD_REACTORS
330
147
102
}
330
147
100
AcDbXrecord
280
     1
102
RTVSPropertyOp0
 70
     1
102
RTVSPropertyOp1
 70
     1
102
RTVSPropertyOp2
 70
     1
102
RTVSPropertyOp3
 70
     1
102
RTVSPropertyOp4
 70
     1
102
RTVSPropertyOp5
 70
     1
102
RTVSPropertyOp6
 70
     1
102
RTVSPropertyOp7
 70
     1
102
RTVSPropertyOp8
 70
     1
102
RTVSPropertyOp9
 70
     1
102
RTVSPropertyOp10
 70
     1
102
RTVSPropertyOp11
 70
     1
102
RTVSPropertyOp12
 70
     1
102
RTVSPropertyOp13
 70
     1
102
RTVSPropertyOp14
 70
     1
102
RTVSPropertyOp15
 70
     1
102
RTVSPropertyOp16
 70
     1
102
RTVSPropertyOp17
 70
     1
102
RTVSPropertyOp18
 70
     1
102
RTVSPropertyOp19
 70
     1
102
RTVSPropertyOp20
 70
     1
102
RTVSPropertyOp21
 70
     1
102
RTVSPropertyOp22
 70
     1
102
RTVSPropertyOp23
 70
     1
102
RTVSPropertyOp24
 70
     1
102
RTVSPropertyOp25
 70
     1
102
RTVSPropertyOp26
 70
     1
102
RTVSPropertyOp27
 70
     1
102
RTVSPropertyOp28
 70
     1
102
RTVSPropertyOp29
 70
     1
102
RTVSPropertyOp30
 70
     1
102
RTVSPropertyOp31
 70
     1
102
RTVSPropertyOp32
 70
     1
  0
XRECORD
  5
150
102
{ACAD_REACTORS
330
14F
102
}
330
14F
100
AcDbXrecord
280
     1
102
RTVSPropertyOp0
 70
     1
102
RTVSPropertyOp1
 70
     1
102
RTVSPropertyOp2
 70
     1
102
RTVSPropertyOp3
 70
     1
102
RTVSPropertyOp4
 70
     1
102
RTVSPropertyOp5
 70
     1
102
RTVSPropertyOp6
 70
     1
102
RTVSPropertyOp7
 70
     1
102
RTVSPropertyOp8
 70
     1
102
RTVSPropertyOp9
 70
     1
102
RTVSPropertyOp10
 70
     1
102
RTVSPropertyOp11
 70
     1
102
RTVSPropertyOp12
 70
     1
102
RTVSPropertyOp13
 70
     1
102
RTVSPropertyOp14
 70
     1
102
RTVSPropertyOp15
 70
     1
102
RTVSPropertyOp16
 70
     1
102
RTVSPropertyOp17
 70
     1
102
RTVSPropertyOp18
 70
     1
102
RTVSPropertyOp19
 70
     1
102
RTVSPropertyOp20
 70
     1
102
RTVSPropertyOp21
 70
     1
102
RTVSPropertyOp22
 70
     1
102
RTVSPropertyOp23
 70
     1
102
RTVSPropertyOp24
 70
     1
102
RTVSPropertyOp25
 70
     1
102
RTVSPropertyOp26
 70
     1
102
RTVSPropertyOp27
 70
     1
102
RTVSPropertyOp28
 70
     1
102
RTVSPropertyOp29
 70
     1
102
RTVSPropertyOp30
 70
     1
102
RTVSPropertyOp31
 70
     1
102
RTVSPropertyOp32
 70
     1
  0
ENDSEC
  0
EOF
