  0
SECTION
  2
HEADER
  9
$ACADVER
  1
AC1015
  9
$ACADMAINTVER
 70
     6
  9
$DWGCODEPAGE
  3
ANSI_1252
  9
$INSBASE
 10
0.0
 20
0.0
 30
0.0
  9
$EXTMIN
 10
-48.797737991
 20
-44.217959459
 30
0.0
  9
$EXTMAX
 10
100.672443498
 20
47.346539533
 30
0.0
  9
$LIMMIN
 10
-48.797737991
 20
-44.217959459
  9
$LIMMAX
 10
100.672443498
 20
47.346539533
  9
$ORTHOMODE
 70
     0
  9
$REGENMODE
 70
     1
  9
$FILLMODE
 70
     1
  9
$QTEXTMODE
 70
     0
  9
$MIRRTEXT
 70
     1
  9
$LTSCALE
 40
1.0
  9
$ATTMODE
 70
     1
  9
$TEXTSIZE
 40
0.2
  9
$TRACEWID
 40
0.05
  9
$TEXTSTYLE
  7
Standard
  9
$CLAYER
  8
0
  9
$CELTYPE
  6
ByBlock
  9
$CECOLOR
 62
   256
  9
$CELTSCALE
 40
1.0
  9
$DISPSILH
 70
     0
  9
$DIMSCALE
 40
1.0
  9
$DIMASZ
 40
0.18
  9
$DIMEXO
 40
0.0625
  9
$DIMDLI
 40
0.38
  9
$DIMRND
 40
0.0
  9
$DIMDLE
 40
0.0
  9
$DIMEXE
 40
0.18
  9
$DIMTP
 40
0.0
  9
$DIMTM
 40
0.0
  9
$DIMTXT
 40
0.18
  9
$DIMCEN
 40
0.09
  9
$DIMTSZ
 40
0.0
  9
$DIMTOL
 70
     0
  9
$DIMLIM
 70
     0
  9
$DIMTIH
 70
     1
  9
$DIMTOH
 70
     1
  9
$DIMSE1
 70
     0
  9
$DIMSE2
 70
     0
  9
$DIMTAD
 70
     0
  9
$DIMZIN
 70
     0
  9
$DIMBLK
  1

  9
$DIMASO
 70
     1
  9
$DIMSHO
 70
     1
  9
$DIMPOST
  1

  9
$DIMAPOST
  1

  9
$DIMALT
 70
     0
  9
$DIMALTD
 70
     2
  9
$DIMALTF
 40
25.4
  9
$DIMLFAC
 40
1.0
  9
$DIMTOFL
 70
     0
  9
$DIMTVP
 40
0.0
  9
$DIMTIX
 70
     0
  9
$DIMSOXD
 70
     0
  9
$DIMSAH
 70
     0
  9
$DIMBLK1
  1

  9
$DIMBLK2
  1

  9
$DIMSTYLE
  2
Standard
  9
$DIMCLRD
 70
     0
  9
$DIMCLRE
 70
     0
  9
$DIMCLRT
 70
     0
  9
$DIMTFAC
 40
1.0
  9
$DIMGAP
 40
0.09
  9
$DIMJUST
 70
     0
  9
$DIMSD1
 70
     0
  9
$DIMSD2
 70
     0
  9
$DIMTOLJ
 70
     1
  9
$DIMTZIN
 70
     0
  9
$DIMALTZ
 70
     0
  9
$DIMALTTZ
 70
     0
  9
$DIMUPT
 70
     0
  9
$DIMDEC
 70
     4
  9
$DIMTDEC
 70
     4
  9
$DIMALTU
 70
     2
  9
$DIMALTTD
 70
     2
  9
$DIMTXSTY
  7
Standard
  9
$DIMAUNIT
 70
     0
  9
$DIMADEC
 70
     0
  9
$DIMALTRND
 40
0.0
  9
$DIMAZIN
 70
     0
  9
$DIMDSEP
 70
    46
  9
$DIMATFIT
 70
     3
  9
$DIMFRAC
 70
     0
  9
$DIMLDRBLK
  1

  9
$DIMLUNIT
 70
     2
  9
$DIMLWD
 70
    -2
  9
$DIMLWE
 70
    -2
  9
$DIMTMOVE
 70
     2
  9
$LUNITS
 70
     2
  9
$LUPREC
 70
     4
  9
$SKETCHINC
 40
0.1
  9
$FILLETRAD
 40
0.5
  9
$AUNITS
 70
     2
  9
$AUPREC
 70
     0
  9
$MENU
  1
.
  9
$ELEVATION
 40
0.0
  9
$PELEVATION
 40
0.0
  9
$THICKNESS
 40
0.0
  9
$LIMCHECK
 70
     0
  9
$CHAMFERA
 40
0.5
  9
$CHAMFERB
 40
0.5
  9
$CHAMFERC
 40
1.0
  9
$CHAMFERD
 40
0.0
  9
$SKPOLY
 70
     0
  9
$TDCREATE
 40
2458327.54447125
  9
$TDUCREATE
 40
2458327.461137917
  9
$TDUPDATE
 40
2458327.544471493
  9
$TDUUPDATE
 40
2458327.46113816
  9
$TDINDWG
 40
0.0000000116
  9
$TDUSRTIMER
 40
0.0000000116
  9
$USRTIMER
 70
     1
  9
$ANGBASE
 50
0.0
  9
$ANGDIR
 70
     0
  9
$PDMODE
 70
     0
  9
$PDSIZE
 40
0.0
  9
$PLINEWID
 40
0.0
  9
$SPLFRAME
 70
     0
  9
$SPLINETYPE
 70
     6
  9
$SPLINESEGS
 70
     8
  9
$HANDSEED
  5
1EF
  9
$SURFTAB1
 70
     6
  9
$SURFTAB2
 70
     6
  9
$SURFTYPE
 70
     6
  9
$SURFU
 70
     6
  9
$SURFV
 70
     6
  9
$UCSBASE
  2

  9
$UCSNAME
  2

  9
$UCSORG
 10
0.0
 20
0.0
 30
0.0
  9
$UCSXDIR
 10
1.0
 20
0.0
 30
0.0
  9
$UCSYDIR
 10
0.0
 20
1.0
 30
0.0
  9
$UCSORTHOREF
  2

  9
$UCSORTHOVIEW
 70
     0
  9
$UCSORGTOP
 10
0.0
 20
0.0
 30
0.0
  9
$UCSORGBOTTOM
 10
0.0
 20
0.0
 30
0.0
  9
$UCSORGLEFT
 10
0.0
 20
0.0
 30
0.0
  9
$UCSORGRIGHT
 10
0.0
 20
0.0
 30
0.0
  9
$UCSORGFRONT
 10
0.0
 20
0.0
 30
0.0
  9
$UCSORGBACK
 10
0.0
 20
0.0
 30
0.0
  9
$PUCSBASE
  2

  9
$PUCSNAME
  2

  9
$PUCSORG
 10
0.0
 20
0.0
 30
0.0
  9
$PUCSXDIR
 10
1.0
 20
0.0
 30
0.0
  9
$PUCSYDIR
 10
0.0
 20
1.0
 30
0.0
  9
$PUCSORTHOREF
  2

  9
$PUCSORTHOVIEW
 70
     0
  9
$PUCSORGTOP
 10
0.0
 20
0.0
 30
0.0
  9
$PUCSORGBOTTOM
 10
0.0
 20
0.0
 30
0.0
  9
$PUCSORGLEFT
 10
0.0
 20
0.0
 30
0.0
  9
$PUCSORGRIGHT
 10
0.0
 20
0.0
 30
0.0
  9
$PUCSORGFRONT
 10
0.0
 20
0.0
 30
0.0
  9
$PUCSORGBACK
 10
0.0
 20
0.0
 30
0.0
  9
$USERI1
 70
     0
  9
$USERI2
 70
     0
  9
$USERI3
 70
     0
  9
$USERI4
 70
     0
  9
$USERI5
 70
     0
  9
$USERR1
 40
0.0
  9
$USERR2
 40
0.0
  9
$USERR3
 40
0.0
  9
$USERR4
 40
0.0
  9
$USERR5
 40
0.0
  9
$WORLDVIEW
 70
     1
  9
$SHADEDGE
 70
     3
  9
$SHADEDIF
 70
    70
  9
$TILEMODE
 70
     1
  9
$MAXACTVP
 70
    64
  9
$PINSBASE
 10
0.0
 20
0.0
 30
0.0
  9
$PLIMCHECK
 70
     0
  9
$PEXTMIN
 10
1.000000000000000E+20
 20
1.000000000000000E+20
 30
1.000000000000000E+20
  9
$PEXTMAX
 10
-1.000000000000000E+20
 20
-1.000000000000000E+20
 30
-1.000000000000000E+20
  9
$PLIMMIN
 10
0.0
 20
0.0
  9
$PLIMMAX
 10
12.0
 20
9.0
  9
$UNITMODE
 70
     0
  9
$VISRETAIN
 70
     1
  9
$PLINEGEN
 70
     0
  9
$PSLTSCALE
 70
     1
  9
$TREEDEPTH
 70
  3020
  9
$CMLSTYLE
  2
Standard
  9
$CMLJUST
 70
     0
  9
$CMLSCALE
 40
1.0
  9
$PROXYGRAPHICS
 70
     1
  9
$MEASUREMENT
 70
     0
  9
$CELWEIGHT
370
    -1
  9
$ENDCAPS
280
     0
  9
$JOINSTYLE
280
     0
  9
$LWDISPLAY
290
     0
  9
$INSUNITS
 70
     0
  9
$HYPERLINKBASE
  1

  9
$STYLESHEET
  1

  9
$XEDIT
290
     1
  9
$CEPSNTYPE
380
     0
  9
$PSTYLEMODE
290
     1
  9
$FINGERPRINTGUID
  2
{7A15E6A5-027E-4141-B8E9-D75D5E9B7924}
  9
$VERSIONGUID
  2
{FAEB1C32-E019-11D5-929B-00C0DF256EC4}
  9
$EXTNAMES
290
     1
  9
$PSVPSCALE
 40
0.0
  9
$OLESTARTUP
290
     0
  0
ENDSEC
  0
SECTION
  2
CLASSES
  0
CLASS
  1
ACDBDICTIONARYWDFLT
  2
AcDbDictionaryWithDefault
  3
ObjectDBX Classes
 90
        0
280
     0
281
     0
  0
CLASS
  1
SCALE
  2
AcDbScale
  3
ObjectDBX Classes
 90
     1153
280
     0
281
     0
  0
CLASS
  1
VISUALSTYLE
  2
AcDbVisualStyle
  3
ObjectDBX Classes
 90
     4095
280
     0
281
     0
  0
CLASS
  1
MATERIAL
  2
AcDbMaterial
  3
ObjectDBX Classes
 90
     1153
280
     0
281
     0
  0
CLASS
  1
DICTIONARYVAR
  2
AcDbDictionaryVar
  3
ObjectDBX Classes
 90
        0
280
     0
281
     0
  0
CLASS
  1
ACDBPLACEHOLDER
  2
AcDbPlaceHolder
  3
ObjectDBX Classes
 90
        0
280
     0
281
     0
  0
CLASS
  1
LAYOUT
  2
AcDbLayout
  3
ObjectDBX Classes
 90
        0
280
     0
281
     0
  0
ENDSEC
  0
SECTION
  2
TABLES
  0
TABLE
  2
VPORT
  5
8
102
{ACAD_XDICTIONARY
360
1B4
102
}
330
0
100
AcDbSymbolTable
 70
     1
  0
VPORT
  5
164
330
8
100
AcDbSymbolTableRecord
100
AcDbViewportTableRecord
  2
*Active
 70
     0
 10
0.0
 20
0.0
 11
1.0
 21
1.0
 12
10.42990654205607
 22
4.5
 13
0.0
 23
0.0
 14
0.5
 24
0.5
 15
0.5
 25
0.5
 16
0.0
 26
0.0
 36
1.0
 17
0.0
 27
0.0
 37
0.0
 40
9.0
 41
1.972972972850329
 42
50.0
 43
0.0
 44
0.0
 50
0.0
 51
0.0
 71
     0
 72
   100
 73
     1
 74
     3
 75
     0
 76
     0
 77
     0
 78
     0
281
     0
 65
     1
110
0.0
120
0.0
130
0.0
111
1.0
121
0.0
131
0.0
112
0.0
122
1.0
132
0.0
 79
     0
146
0.0
  0
ENDTAB
  0
TABLE
  2
LTYPE
  5
5
330
0
100
AcDbSymbolTable
 70
     5
  0
LTYPE
  5
14
330
5
100
AcDbSymbolTableRecord
100
AcDbLinetypeTableRecord
  2
ByBlock
 70
     0
  3

 72
    65
 73
     0
 40
0.0
  0
LTYPE
  5
15
330
5
100
AcDbSymbolTableRecord
100
AcDbLinetypeTableRecord
  2
ByLayer
 70
     0
  3

 72
    65
 73
     0
 40
0.0
  0
LTYPE
  5
16
330
5
100
AcDbSymbolTableRecord
100
AcDbLinetypeTableRecord
  2
Continuous
 70
     0
  3
Solid line
 72
    65
 73
     0
 40
0.0
  0
LTYPE
  5
20
330
5
100
AcDbSymbolTableRecord
100
AcDbLinetypeTableRecord
  2
PUNKT
 70
     0
  3
..............
 72
    65
 73
     2
 40
1.5
 49
0.7
 74
     0
 49
-0.8
 74
     0
  0
LTYPE
  5
21
330
5
100
AcDbSymbolTableRecord
100
AcDbLinetypeTableRecord
  2
GESTRICHELT
 70
     0
  3
-- -- -- -- --
 72
    65
 73
     7
 40
2.8
 49
0.9
 74
     0
 49
0.0
 74
     0
 49
0.9
 74
     0
 49
0.0
 74
     0
 49
0.2
 74
     0
 49
0.0
 74
     0
 49
-0.8
 74
     0
  0
LTYPE
  5
22
330
5
100
AcDbSymbolTableRecord
100
AcDbLinetypeTableRecord
  2
STRICHPUNKT
 70
     0
  3
--.--.--.--.--
 72
    65
 73
     4
 40
8.8
 49
5.5
 74
     0
 49
-1.3
 74
     0
 49
0.7
 74
     0
 49
-1.3
 74
     0
  0
LTYPE
  5
25
330
5
100
AcDbSymbolTableRecord
100
AcDbLinetypeTableRecord
  2
PHANTOM
 70
     0
  3
--..--..--..--
 72
    65
 73
     6
 40
14.2
 49
7.0
 74
     0
 49
-1.8
 74
     0
 49
0.9
 74
     0
 49
-1.8
 74
     0
 49
0.9
 74
     0
 49
-1.8
 74
     0
  0
LTYPE
  5
1DE
330
5
100
AcDbSymbolTableRecord
100
AcDbLinetypeTableRecord
  2
DASH
 70
     0
  3
DASH _ _ _ _ _
 72
    65
 73
     2
 40
0.75
 49
0.40
 74
     0
 49
-0.35
 74
     0
  0
LTYPE
  5
1DF
330
5
100
AcDbSymbolTableRecord
100
AcDbLinetypeTableRecord
  2
LONGDASH_DASH
 70
     0
  3
LONGDASH_DASH __ . __ . __
 72
    65
 73
     4
 40
0.85
 49
0.40
 74
     0
 49
-0.20
 74
     0
 49
0.05
 74
     0
 49
-0.20
 74
     0
  0
LTYPE
  5
1E0
330
5
100
AcDbSymbolTableRecord
100
AcDbLinetypeTableRecord
  2
LONGDASH_DASH_DASH
 70
     0
  3
LONGDASH_DASH_DASH __ . . __ . . __
 72
    65
 73
     6
 40
1.10
 49
0.40
 74
     0
 49
-0.20
 74
     0
 49
0.05
 74
     0
 49
-0.20
 74
     0
 49
0.05
 74
     0
 49
-0.20
 74
     0
  0
ENDTAB
  0
TABLE
  2
LAYER
  5
2
330
0
100
AcDbSymbolTable
 70
    14
  0
LAYER
  5
1A7
330
2
100
AcDbSymbolTableRecord
100
AcDbLayerTableRecord
  2
200
 70
     0
 62
     2
  6
Continuous
370
    50
390
F
  0
LAYER
  5
1E1
330
2
100
AcDbSymbolTableRecord
100
AcDbLayerTableRecord
  2
0
 70
     0
 62
     -1
  6
CONTINUOUS
370
    -3
390
F
  0
LAYER
  5
1E2
330
2
100
AcDbSymbolTableRecord
100
AcDbLayerTableRecord
  2
1
 70
     0
 62
     4
  6
CONTINUOUS
370
    50
390
F
  0
LAYER
  5
1E3
330
2
100
AcDbSymbolTableRecord
100
AcDbLayerTableRecord
  2
2
 70
     0
 62
     7
  6
CONTINUOUS
370
    25
390
F
  0
LAYER
  5
1E4
330
2
100
AcDbSymbolTableRecord
100
AcDbLayerTableRecord
  2
3
 70
     0
 62
     1
  6
DASH
370
    35
390
F
  0
LAYER
  5
1E5
330
2
100
AcDbSymbolTableRecord
100
AcDbLayerTableRecord
  2
4
 70
     0
 62
     2
  6
LONGDASH_DASH
370
    25
390
F
  0
LAYER
  5
1E6
330
2
100
AcDbSymbolTableRecord
100
AcDbLayerTableRecord
  2
6
 70
     0
 62
     5
  6
CONTINUOUS
370
    -3
390
F
  0
LAYER
  5
1E7
330
2
100
AcDbSymbolTableRecord
100
AcDbLayerTableRecord
  2
CUT
 70
     0
 62
     1
  6
CONTINUOUS
370
    25
390
F
  0
LAYER
  5
1E8
330
2
100
AcDbSymbolTableRecord
100
AcDbLayerTableRecord
  2
NOCUT
 70
     0
 62
     7
  6
CONTINUOUS
370
    25
390
F
  0
LAYER
  5
1E9
330
2
100
AcDbSymbolTableRecord
100
AcDbLayerTableRecord
  2
SK1
 70
     0
 62
     4
  6
CONTINUOUS
370
    50
390
F
  0
LAYER
  5
1EA
330
2
100
AcDbSymbolTableRecord
100
AcDbLayerTableRecord
  2
SK2
 70
     0
 62
     7
  6
CONTINUOUS
370
    25
390
F
  0
LAYER
  5
1EB
330
2
100
AcDbSymbolTableRecord
100
AcDbLayerTableRecord
  2
SK3
 70
     0
 62
     1
  6
DASH
370
    35
390
F
  0
LAYER
  5
1EC
330
2
100
AcDbSymbolTableRecord
100
AcDbLayerTableRecord
  2
SK4
 70
     0
 62
     2
  6
LONGDASH_DASH
370
    25
390
F
  0
LAYER
  5
1ED
330
2
100
AcDbSymbolTableRecord
100
AcDbLayerTableRecord
  2
SK6
 70
     0
 62
     5
  6
CONTINUOUS
370
    -3
390
F
  0
LAYER
  5
1EE
330
2
100
AcDbSymbolTableRecord
100
AcDbLayerTableRecord
  2
INFTOTAL
 70
     0
 62
     9
  6
CONTINUOUS
370
    18
390
F
  0
ENDTAB
  0
TABLE
  2
STYLE
  5
3
330
0
100
AcDbSymbolTable
 70
     2
  0
STYLE
  5
11
330
3
100
AcDbSymbolTableRecord
100
AcDbTextStyleTableRecord
  2
Standard
 70
     0
 40
0.0
 41
1.0
 50
0.0
 71
     0
 42
0.2
  3
txt
  4

  0
STYLE
  5
1A6
330
3
100
AcDbSymbolTableRecord
100
AcDbTextStyleTableRecord
  2
BMG_Text
 70
     0
 40
3.5
 41
1.0
 50
0.0
 71
     0
 42
0.2
  3
monos.ttf
  4

1001
ACAD
1000
Monospac821 BT
1071
       49
  0
ENDTAB
  0
TABLE
  2
VIEW
  5
6
330
0
100
AcDbSymbolTable
 70
     0
  0
ENDTAB
  0
TABLE
  2
UCS
  5
7
330
0
100
AcDbSymbolTable
 70
     0
  0
ENDTAB
  0
TABLE
  2
APPID
  5
9
330
0
100
AcDbSymbolTable
 70
     1
  0
APPID
  5
12
330
9
100
AcDbSymbolTableRecord
100
AcDbRegAppTableRecord
  2
ACAD
 70
     0
  0
ENDTAB
  0
TABLE
  2
DIMSTYLE
  5
A
330
0
100
AcDbSymbolTable
 70
     1
100
AcDbDimStyleTable
  0
DIMSTYLE
105
28
330
A
100
AcDbSymbolTableRecord
100
AcDbDimStyleTableRecord
  2
Standard
 70
     0
178
     0
340
11
  0
ENDTAB
  0
TABLE
  2
BLOCK_RECORD
  5
1
330
0
100
AcDbSymbolTable
 70
     0
  0
BLOCK_RECORD
  5
1D
330
1
100
AcDbSymbolTableRecord
100
AcDbBlockTableRecord
  2
*Model_Space
340
1E
  0
BLOCK_RECORD
  5
1B
330
1
100
AcDbSymbolTableRecord
100
AcDbBlockTableRecord
  2
*Paper_Space
340
1C
  0
ENDTAB
  0
ENDSEC
  0
SECTION
  2
BLOCKS
  0
BLOCK
  5
18F
330
1D
100
AcDbEntity
  8
0
100
AcDbBlockBegin
  2
*Model_Space
 70
     0
 10
0.0
 20
0.0
 30
0.0
  3
*Model_Space
  1

  0
ENDBLK
  5
190
330
1D
100
AcDbEntity
  8
0
100
AcDbBlockEnd
  0
BLOCK
  5
18D
330
1B
100
AcDbEntity
 67
     1
  8
0
100
AcDbBlockBegin
  2
*Paper_Space
 70
     0
 10
0.0
 20
0.0
 30
0.0
  3
*Paper_Space
  1

  0
ENDBLK
  5
18E
330
1B
100
AcDbEntity
 67
     1
  8
0
100
AcDbBlockEnd
  0
ENDSEC
  0
SECTION
  2
ENTITIES
  0
LINE
  5
29
330
1D
100
AcDbEntity
  8
SK3
  6
DASH
370
    35
100
AcDbLine
 10
66.956466539
 20
8.842830462
 30
0.0
 11
64.04557936
 21
9.568596148
 31
0.0
  0
LINE
  5
2A
330
1D
100
AcDbEntity
  8
SK3
  6
DASH
370
    35
100
AcDbLine
 10
64.04557936
 20
9.568596148
 30
0.0
 11
60.295789978
 21
-5.470987609
 31
0.0
  0
LINE
  5
2B
330
1D
100
AcDbEntity
  8
1
  6
CONTINUOUS
370
    50
100
AcDbLine
 10
46.0
 20
0.0
 30
0.0
 11
46.029039448
 21
-0.852542957
 31
0.0
  0
LINE
  5
2C
330
1D
100
AcDbEntity
  8
1
  6
CONTINUOUS
370
    50
100
AcDbLine
 10
46.029039448
 20
-0.852542957
 30
0.0
 11
46.197213441
 21
-2.229176793
 31
0.0
  0
LINE
  5
2D
330
1D
100
AcDbEntity
  8
1
  6
CONTINUOUS
370
    50
100
AcDbLine
 10
46.197213441
 20
-2.229176793
 30
0.0
 11
46.507015938
 21
-3.596173468
 31
0.0
  0
LINE
  5
2E
330
1D
100
AcDbEntity
  8
1
  6
CONTINUOUS
370
    50
100
AcDbLine
 10
46.507015938
 20
-3.596173468
 30
0.0
 11
46.950044299
 21
-4.965248397
 31
0.0
  0
LINE
  5
2F
330
1D
100
AcDbEntity
  8
1
  6
CONTINUOUS
370
    50
100
AcDbLine
 10
46.950044299
 20
-4.965248397
 30
0.0
 11
47.5
 21
-6.304760106
 31
0.0
  0
LINE
  5
30
330
1D
100
AcDbEntity
  8
1
  6
CONTINUOUS
370
    50
100
AcDbLine
 10
47.5
 20
-6.304760106
 30
0.0
 11
63.179748034
 21
-6.304760106
 31
0.0
  0
LINE
  5
31
330
1D
100
AcDbEntity
  8
1
  6
CONTINUOUS
370
    50
100
AcDbLine
 10
63.179748034
 20
-6.304760106
 30
0.0
 11
66.323654526
 21
6.304760106
 31
0.0
  0
LINE
  5
32
330
1D
100
AcDbEntity
  8
1
  6
CONTINUOUS
370
    50
100
AcDbLine
 10
66.323654526
 20
6.304760106
 30
0.0
 11
47.5
 21
6.304760106
 31
0.0
  0
LINE
  5
33
330
1D
100
AcDbEntity
  8
1
  6
CONTINUOUS
370
    50
100
AcDbLine
 10
47.5
 20
6.304760106
 30
0.0
 11
46.988846345
 21
5.069415719
 31
0.0
  0
LINE
  5
34
330
1D
100
AcDbEntity
  8
1
  6
CONTINUOUS
370
    50
100
AcDbLine
 10
46.988846345
 20
5.069415719
 30
0.0
 11
46.563508395
 21
3.795425087
 31
0.0
  0
LINE
  5
35
330
1D
100
AcDbEntity
  8
1
  6
CONTINUOUS
370
    50
100
AcDbLine
 10
46.563508395
 20
3.795425087
 30
0.0
 11
46.149075268
 21
1.936260606
 31
0.0
  0
LINE
  5
36
330
1D
100
AcDbEntity
  8
1
  6
CONTINUOUS
370
    50
100
AcDbLine
 10
46.149075268
 20
1.936260606
 30
0.0
 11
46.037806636
 21
0.970925328
 31
0.0
  0
LINE
  5
37
330
1D
100
AcDbEntity
  8
1
  6
CONTINUOUS
370
    50
100
AcDbLine
 10
46.037806636
 20
0.970925328
 30
0.0
 11
46.0
 21
0.0
 31
0.0
  0
LINE
  5
38
330
1D
100
AcDbEntity
  8
1
  6
CONTINUOUS
370
    50
100
AcDbLine
 10
33.0
 20
8.0
 30
0.0
 11
0.0
 21
8.0
 31
0.0
  0
LINE
  5
39
330
1D
100
AcDbEntity
  8
SK1
  6
CONTINUOUS
370
    50
100
AcDbLine
 10
0.0
 20
8.0
 30
0.0
 11
-34.0
 21
8.0
 31
0.0
  0
LINE
  5
3A
330
1D
100
AcDbEntity
  8
SK1
  6
CONTINUOUS
370
    50
100
AcDbLine
 10
-34.0
 20
8.0
 30
0.0
 11
-35.0
 21
7.0
 31
0.0
  0
LINE
  5
3B
330
1D
100
AcDbEntity
  8
SK1
  6
CONTINUOUS
370
    50
100
AcDbLine
 10
-35.0
 20
7.0
 30
0.0
 11
-35.0
 21
0.0
 31
0.0
  0
LINE
  5
3C
330
1D
100
AcDbEntity
  8
SK1
  6
CONTINUOUS
370
    50
100
AcDbLine
 10
-35.0
 20
0.0
 30
0.0
 11
-35.0
 21
-7.0
 31
0.0
  0
LINE
  5
3D
330
1D
100
AcDbEntity
  8
SK1
  6
CONTINUOUS
370
    50
100
AcDbLine
 10
-35.0
 20
-7.0
 30
0.0
 11
-34.0
 21
-8.0
 31
0.0
  0
LINE
  5
3E
330
1D
100
AcDbEntity
  8
SK1
  6
CONTINUOUS
370
    50
100
AcDbLine
 10
-34.0
 20
-8.0
 30
0.0
 11
0.0
 21
-8.0
 31
0.0
  0
LINE
  5
3F
330
1D
100
AcDbEntity
  8
1
  6
CONTINUOUS
370
    50
100
AcDbLine
 10
0.0
 20
-8.0
 30
0.0
 11
33.0
 21
-8.0
 31
0.0
  0
LINE
  5
40
330
1D
100
AcDbEntity
  8
1
  6
CONTINUOUS
370
    50
100
AcDbLine
 10
66.323654526
 20
6.304760106
 30
0.0
 11
68.0
 21
13.028214572
 31
0.0
  0
LINE
  5
41
330
1D
100
AcDbEntity
  8
1
  6
CONTINUOUS
370
    50
100
AcDbLine
 10
68.0
 20
13.028214572
 30
0.0
 11
68.0
 21
13.076696831
 31
0.0
  0
LINE
  5
42
330
1D
100
AcDbEntity
  8
1
  6
CONTINUOUS
370
    50
100
AcDbLine
 10
68.0
 20
13.076696831
 30
0.0
 11
66.414636859
 21
13.076696831
 31
0.0
  0
LINE
  5
43
330
1D
100
AcDbEntity
  8
1
  6
CONTINUOUS
370
    50
100
AcDbLine
 10
66.414636859
 20
13.076696831
 30
0.0
 11
66.644842195
 21
14.0
 31
0.0
  0
LINE
  5
44
330
1D
100
AcDbEntity
  8
1
  6
CONTINUOUS
370
    50
100
AcDbLine
 10
66.644842195
 20
14.0
 30
0.0
 11
47.5
 21
14.0
 31
0.0
  0
LINE
  5
45
330
1D
100
AcDbEntity
  8
1
  6
CONTINUOUS
370
    50
100
AcDbLine
 10
47.5
 20
14.0
 30
0.0
 11
46.0
 21
12.5
 31
0.0
  0
LINE
  5
46
330
1D
100
AcDbEntity
  8
1
  6
CONTINUOUS
370
    50
100
AcDbLine
 10
46.0
 20
12.5
 30
0.0
 11
39.92820323
 21
12.5
 31
0.0
  0
LINE
  5
47
330
1D
100
AcDbEntity
  8
1
  6
CONTINUOUS
370
    50
100
AcDbLine
 10
39.92820323
 20
12.5
 30
0.0
 11
33.0
 21
8.5
 31
0.0
  0
LINE
  5
48
330
1D
100
AcDbEntity
  8
1
  6
CONTINUOUS
370
    50
100
AcDbLine
 10
33.0
 20
8.5
 30
0.0
 11
33.0
 21
0.0
 31
0.0
  0
LINE
  5
49
330
1D
100
AcDbEntity
  8
1
  6
CONTINUOUS
370
    50
100
AcDbLine
 10
33.0
 20
0.0
 30
0.0
 11
33.0
 21
-8.5
 31
0.0
  0
LINE
  5
4A
330
1D
100
AcDbEntity
  8
1
  6
CONTINUOUS
370
    50
100
AcDbLine
 10
33.0
 20
-8.5
 30
0.0
 11
39.92820323
 21
-12.5
 31
0.0
  0
LINE
  5
4B
330
1D
100
AcDbEntity
  8
1
  6
CONTINUOUS
370
    50
100
AcDbLine
 10
39.92820323
 20
-12.5
 30
0.0
 11
46.0
 21
-12.5
 31
0.0
  0
LINE
  5
4C
330
1D
100
AcDbEntity
  8
1
  6
CONTINUOUS
370
    50
100
AcDbLine
 10
46.0
 20
-12.5
 30
0.0
 11
47.5
 21
-14.0
 31
0.0
  0
LINE
  5
4D
330
1D
100
AcDbEntity
  8
1
  6
CONTINUOUS
370
    50
100
AcDbLine
 10
47.5
 20
-14.0
 30
0.0
 11
59.663658115
 21
-14.0
 31
0.0
  0
LINE
  5
4E
330
1D
100
AcDbEntity
  8
1
  6
CONTINUOUS
370
    50
100
AcDbLine
 10
59.663658115
 20
-14.0
 30
0.0
 11
59.89386345
 21
-13.076696831
 31
0.0
  0
LINE
  5
4F
330
1D
100
AcDbEntity
  8
1
  6
CONTINUOUS
370
    50
100
AcDbLine
 10
59.89386345
 20
-13.076696831
 30
0.0
 11
61.491314576
 21
-13.076696831
 31
0.0
  0
LINE
  5
50
330
1D
100
AcDbEntity
  8
1
  6
CONTINUOUS
370
    50
100
AcDbLine
 10
61.491314576
 20
-13.076696831
 30
0.0
 11
63.179748034
 21
-6.304760106
 31
0.0
  0
LINE
  5
51
330
1D
100
AcDbEntity
  8
1
  6
CONTINUOUS
370
    50
100
AcDbLine
 10
46.0
 20
0.0
 30
0.0
 11
46.0
 21
12.5
 31
0.0
  0
LINE
  5
52
330
1D
100
AcDbEntity
  8
SK3
  6
DASH
370
    35
100
AcDbLine
 10
50.925655045
 20
7.583631165
 30
0.0
 11
52.135264523
 21
12.435109797
 31
0.0
  0
LINE
  5
53
330
1D
100
AcDbEntity
  8
SK3
  6
DASH
370
    35
100
AcDbLine
 10
52.135264523
 20
12.435109797
 30
0.0
 11
50.129958537
 21
10.35855466
 31
0.0
  0
LINE
  5
54
330
1D
100
AcDbEntity
  8
SK3
  6
DASH
370
    35
100
AcDbLine
 10
50.129958537
 20
10.35855466
 30
0.0
 11
50.925655045
 21
7.583631165
 31
0.0
  0
LINE
  5
55
330
1D
100
AcDbEntity
  8
SK3
  6
DASH
370
    35
100
AcDbLine
 10
48.409667331
 20
-2.507444388
 30
0.0
 11
49.619276809
 21
2.344034244
 31
0.0
  0
LINE
  5
56
330
1D
100
AcDbEntity
  8
SK3
  6
DASH
370
    35
100
AcDbLine
 10
49.619276809
 20
2.344034244
 30
0.0
 11
47.613970823
 21
0.267479107
 31
0.0
  0
LINE
  5
57
330
1D
100
AcDbEntity
  8
SK3
  6
DASH
370
    35
100
AcDbLine
 10
47.613970823
 20
0.267479107
 30
0.0
 11
48.409667331
 21
-2.507444388
 31
0.0
  0
LINE
  5
58
330
1D
100
AcDbEntity
  8
SK1
  6
CONTINUOUS
370
    50
100
AcDbLine
 10
-34.0
 20
-8.0
 30
0.0
 11
-34.0
 21
0.0
 31
0.0
  0
LINE
  5
59
330
1D
100
AcDbEntity
  8
SK1
  6
CONTINUOUS
370
    50
100
AcDbLine
 10
-34.0
 20
0.0
 30
0.0
 11
-34.0
 21
8.0
 31
0.0
  0
LINE
  5
5A
330
1D
100
AcDbEntity
  8
1
  6
CONTINUOUS
370
    50
100
AcDbLine
 10
47.5
 20
6.304760106
 30
0.0
 11
47.5
 21
14.0
 31
0.0
  0
LINE
  5
5B
330
1D
100
AcDbEntity
  8
1
  6
CONTINUOUS
370
    50
100
AcDbLine
 10
47.5
 20
-14.0
 30
0.0
 11
47.5
 21
-6.304760106
 31
0.0
  0
LINE
  5
5C
330
1D
100
AcDbEntity
  8
1
  6
CONTINUOUS
370
    50
100
AcDbLine
 10
39.92820323
 20
-12.5
 30
0.0
 11
39.92820323
 21
12.5
 31
0.0
  0
LINE
  5
5D
330
1D
100
AcDbEntity
  8
SK3
  6
DASH
370
    35
100
AcDbLine
 10
66.414636859
 20
13.076696831
 30
0.0
 11
59.89386345
 21
-13.076696831
 31
0.0
  0
LINE
  5
5E
330
1D
100
AcDbEntity
  8
SK3
  6
DASH
370
    35
100
AcDbLine
 10
55.36112328
 20
12.14611969
 30
0.0
 11
53.909591907
 21
6.324345332
 31
0.0
  0
LINE
  5
5F
330
1D
100
AcDbEntity
  8
SK3
  6
DASH
370
    35
100
AcDbLine
 10
52.845135566
 20
2.055044137
 30
0.0
 11
51.393604193
 21
-3.766730221
 31
0.0
  0
LINE
  5
60
330
1D
100
AcDbEntity
  8
SK3
  6
DASH
370
    35
100
AcDbLine
 10
-35.0
 20
-2.0
 30
0.0
 11
39.92820323
 21
-2.0
 31
0.0
  0
LINE
  5
61
330
1D
100
AcDbEntity
  8
SK3
  6
DASH
370
    35
100
AcDbLine
 10
39.92820323
 20
2.0
 30
0.0
 11
-35.0
 21
2.0
 31
0.0
  0
LINE
  5
62
330
1D
100
AcDbEntity
  8
SK3
  6
DASH
370
    35
100
AcDbLine
 10
62.033852396
 20
1.5
 30
0.0
 11
40.0
 21
1.5
 31
0.0
  0
LINE
  5
63
330
1D
100
AcDbEntity
  8
SK3
  6
DASH
370
    35
100
AcDbLine
 10
40.0
 20
-1.5
 30
0.0
 11
61.285868388
 21
-1.5
 31
0.0
  0
LINE
  5
64
330
1D
100
AcDbEntity
  8
SK3
  6
DASH
370
    35
100
AcDbLine
 10
65.428315973
 20
9.120779827
 30
0.0
 11
55.240162333
 21
11.660971827
 31
0.0
  0
LINE
  5
65
330
1D
100
AcDbEntity
  8
SK3
  6
DASH
370
    35
100
AcDbLine
 10
55.240162333
 20
11.660971827
 30
0.0
 11
52.135264523
 21
12.435109797
 31
0.0
  0
LINE
  5
66
330
1D
100
AcDbEntity
  8
SK3
  6
DASH
370
    35
100
AcDbLine
 10
50.925655045
 20
7.583631165
 30
0.0
 11
54.030649884
 21
6.809469003
 31
0.0
  0
LINE
  5
67
330
1D
100
AcDbEntity
  8
SK3
  6
DASH
370
    35
100
AcDbLine
 10
54.030649884
 20
6.809469003
 30
0.0
 11
64.218706495
 21
4.269301196
 31
0.0
  0
LINE
  5
68
330
1D
100
AcDbEntity
  8
SK3
  6
DASH
370
    35
100
AcDbLine
 10
62.912328259
 20
-0.970295726
 30
0.0
 11
52.724174618
 21
1.569896274
 31
0.0
  0
LINE
  5
69
330
1D
100
AcDbEntity
  8
SK3
  6
DASH
370
    35
100
AcDbLine
 10
52.724174618
 20
1.569896274
 30
0.0
 11
49.619276809
 21
2.344034244
 31
0.0
  0
LINE
  5
6A
330
1D
100
AcDbEntity
  8
SK3
  6
DASH
370
    35
100
AcDbLine
 10
48.409667331
 20
-2.507444388
 30
0.0
 11
51.51466217
 21
-3.28160655
 31
0.0
  0
LINE
  5
6B
330
1D
100
AcDbEntity
  8
SK3
  6
DASH
370
    35
100
AcDbLine
 10
51.51466217
 20
-3.28160655
 30
0.0
 11
61.702718781
 21
-5.821774358
 31
0.0
  0
LINE
  5
6C
330
1D
100
AcDbEntity
  8
SK3
  6
DASH
370
    35
100
AcDbLine
 10
61.702718781
 20
-5.821774358
 30
0.0
 11
63.206677157
 21
-6.196753296
 31
0.0
  0
LINE
  5
6D
330
1D
100
AcDbEntity
  8
SK1
  6
CONTINUOUS
370
    50
100
AcDbLine
 10
49.313525066
 20
10.562114387
 30
0.0
 11
67.054482462
 21
6.138796911
 31
0.0
  0
LINE
  5
6E
330
1D
100
AcDbEntity
  8
SK1
  6
CONTINUOUS
370
    50
100
AcDbLine
 10
46.976638395
 20
0.426383928
 30
0.0
 11
64.656691306
 21
-3.981748354
 31
0.0
  0
LINE
  5
6F
330
1D
100
AcDbEntity
  8
SK3
  6
DASH
370
    35
100
AcDbLine
 10
55.36112328
 20
12.14611969
 30
0.0
 11
65.549276921
 21
9.60592769
 31
0.0
  0
LINE
  5
70
330
1D
100
AcDbEntity
  8
SK3
  6
DASH
370
    35
100
AcDbLine
 10
53.909591907
 20
6.324345332
 30
0.0
 11
64.097745548
 21
3.784153332
 31
0.0
  0
LINE
  5
71
330
1D
100
AcDbEntity
  8
SK3
  6
DASH
370
    35
100
AcDbLine
 10
52.845135566
 20
2.055044137
 30
0.0
 11
63.033289207
 21
-0.485147863
 31
0.0
  0
LINE
  5
72
330
1D
100
AcDbEntity
  8
SK3
  6
DASH
370
    35
100
AcDbLine
 10
51.393604193
 20
-3.766730221
 30
0.0
 11
61.581757833
 21
-6.306922221
 31
0.0
  0
LINE
  5
73
330
1D
100
AcDbEntity
  8
SK1
  6
CONTINUOUS
370
    50
100
AcDbLine
 10
-36.199753591
 20
0.0
 30
0.0
 11
84.069416899
 21
0.0
 31
0.0
  0
LINE
  5
74
330
1D
100
AcDbEntity
  8
2
  6
CONTINUOUS
370
    25
100
AcDbLine
 10
-44.332344055
 20
-8.0
 30
0.0
 11
-34.0
 21
-8.0
 31
0.0
  0
LINE
  5
75
330
1D
100
AcDbEntity
  8
2
  6
CONTINUOUS
370
    25
100
AcDbLine
 10
-42.332344055
 20
-8.0
 30
0.0
 11
-42.782344055
 21
-4.5
 31
0.0
  0
LINE
  5
76
330
1D
100
AcDbEntity
  8
2
  6
CONTINUOUS
370
    25
100
AcDbLine
 10
-42.782344055
 20
-4.5
 30
0.0
 11
-41.882344055
 21
-4.5
 31
0.0
  0
LINE
  5
77
330
1D
100
AcDbEntity
  8
2
  6
CONTINUOUS
370
    25
100
AcDbLine
 10
-41.882344055
 20
-4.5
 30
0.0
 11
-42.332344055
 21
-8.0
 31
0.0
  0
LINE
  5
78
330
1D
100
AcDbEntity
  8
2
  6
CONTINUOUS
370
    25
100
AcDbLine
 10
-42.332344055
 20
-4.6
 30
0.0
 11
-42.332344055
 21
-7.9
 31
0.0
  0
LINE
  5
79
330
1D
100
AcDbEntity
  8
2
  6
CONTINUOUS
370
    25
100
AcDbLine
 10
-42.132344055
 20
-4.6
 30
0.0
 11
-42.132344055
 21
-6.344444444
 31
0.0
  0
LINE
  5
7A
330
1D
100
AcDbEntity
  8
2
  6
CONTINUOUS
370
    25
100
AcDbLine
 10
-42.532344055
 20
-4.6
 30
0.0
 11
-42.532344055
 21
-6.344444444
 31
0.0
  0
LINE
  5
7B
330
1D
100
AcDbEntity
  8
2
  6
CONTINUOUS
370
    25
100
AcDbLine
 10
-41.932344055
 20
-4.6
 30
0.0
 11
-41.932344055
 21
-4.788888889
 31
0.0
  0
LINE
  5
7C
330
1D
100
AcDbEntity
  8
2
  6
CONTINUOUS
370
    25
100
AcDbLine
 10
-42.732344055
 20
-4.6
 30
0.0
 11
-42.732344055
 21
-4.788888889
 31
0.0
  0
LINE
  5
7D
330
1D
100
AcDbEntity
  8
2
  6
CONTINUOUS
370
    25
100
AcDbLine
 10
-44.332344055
 20
8.0
 30
0.0
 11
-34.0
 21
8.0
 31
0.0
  0
LINE
  5
7E
330
1D
100
AcDbEntity
  8
2
  6
CONTINUOUS
370
    25
100
AcDbLine
 10
-42.332344055
 20
8.0
 30
0.0
 11
-41.882344055
 21
4.5
 31
0.0
  0
LINE
  5
7F
330
1D
100
AcDbEntity
  8
2
  6
CONTINUOUS
370
    25
100
AcDbLine
 10
-41.882344055
 20
4.5
 30
0.0
 11
-42.782344055
 21
4.5
 31
0.0
  0
LINE
  5
80
330
1D
100
AcDbEntity
  8
2
  6
CONTINUOUS
370
    25
100
AcDbLine
 10
-42.782344055
 20
4.5
 30
0.0
 11
-42.332344055
 21
8.0
 31
0.0
  0
LINE
  5
81
330
1D
100
AcDbEntity
  8
2
  6
CONTINUOUS
370
    25
100
AcDbLine
 10
-42.332344055
 20
4.6
 30
0.0
 11
-42.332344055
 21
7.9
 31
0.0
  0
LINE
  5
82
330
1D
100
AcDbEntity
  8
2
  6
CONTINUOUS
370
    25
100
AcDbLine
 10
-42.532344055
 20
4.6
 30
0.0
 11
-42.532344055
 21
6.344444444
 31
0.0
  0
LINE
  5
83
330
1D
100
AcDbEntity
  8
2
  6
CONTINUOUS
370
    25
100
AcDbLine
 10
-42.132344055
 20
4.6
 30
0.0
 11
-42.132344055
 21
6.344444444
 31
0.0
  0
LINE
  5
84
330
1D
100
AcDbEntity
  8
2
  6
CONTINUOUS
370
    25
100
AcDbLine
 10
-42.732344055
 20
4.6
 30
0.0
 11
-42.732344055
 21
4.788888889
 31
0.0
  0
LINE
  5
85
330
1D
100
AcDbEntity
  8
2
  6
CONTINUOUS
370
    25
100
AcDbLine
 10
-41.932344055
 20
4.6
 30
0.0
 11
-41.932344055
 21
4.788888889
 31
0.0
  0
LINE
  5
86
330
1D
100
AcDbEntity
  8
2
  6
CONTINUOUS
370
    25
100
AcDbLine
 10
-42.332344055
 20
-4.5
 30
0.0
 11
-42.332344055
 21
4.5
 31
0.0
  0
TEXT
  5
87
330
1D
100
AcDbEntity
  8
2
  6
CONTINUOUS
370
    25
100
AcDbText
 10
-43.832344055
 20
0.522812321
 30
0.0
 40
3.5
  1
16
 50
90.0
  7
BMG_Text
100
AcDbText
  0
CIRCLE
  5
88
330
1D
100
AcDbEntity
  8
2
  6
CONTINUOUS
370
    25
100
AcDbCircle
 10
-45.082344055
 20
-1.727187679
 30
0.0
 40
1.25
  0
LINE
  5
89
330
1D
100
AcDbEntity
  8
2
  6
CONTINUOUS
370
    25
100
AcDbLine
 10
-43.832344055
 20
-2.977187679
 30
0.0
 11
-46.332344055
 21
-0.477187679
 31
0.0
  0
LINE
  5
8A
330
1D
100
AcDbEntity
  8
2
  6
CONTINUOUS
370
    25
100
AcDbLine
 10
-35.0
 20
22.337133408
 30
0.0
 11
-35.0
 21
7.0
 31
0.0
  0
LINE
  5
8B
330
1D
100
AcDbEntity
  8
2
  6
CONTINUOUS
370
    25
100
AcDbLine
 10
-35.0
 20
20.337133408
 30
0.0
 11
-31.5
 21
20.787133406
 31
0.0
  0
LINE
  5
8C
330
1D
100
AcDbEntity
  8
2
  6
CONTINUOUS
370
    25
100
AcDbLine
 10
-31.5
 20
20.787133406
 30
0.0
 11
-31.5
 21
19.887133406
 31
0.0
  0
LINE
  5
8D
330
1D
100
AcDbEntity
  8
2
  6
CONTINUOUS
370
    25
100
AcDbLine
 10
-31.5
 20
19.887133406
 30
0.0
 11
-35.0
 21
20.337133408
 31
0.0
  0
LINE
  5
8E
330
1D
100
AcDbEntity
  8
2
  6
CONTINUOUS
370
    25
100
AcDbLine
 10
-31.6
 20
20.337133406
 30
0.0
 11
-34.9
 21
20.337133408
 31
0.0
  0
LINE
  5
8F
330
1D
100
AcDbEntity
  8
2
  6
CONTINUOUS
370
    25
100
AcDbLine
 10
-31.6
 20
20.137133406
 30
0.0
 11
-33.344444445
 21
20.137133407
 31
0.0
  0
LINE
  5
90
330
1D
100
AcDbEntity
  8
2
  6
CONTINUOUS
370
    25
100
AcDbLine
 10
-31.6
 20
20.537133406
 30
0.0
 11
-33.344444444
 21
20.537133407
 31
0.0
  0
LINE
  5
91
330
1D
100
AcDbEntity
  8
2
  6
CONTINUOUS
370
    25
100
AcDbLine
 10
-31.6
 20
19.937133406
 30
0.0
 11
-31.788888889
 21
19.937133406
 31
0.0
  0
LINE
  5
92
330
1D
100
AcDbEntity
  8
2
  6
CONTINUOUS
370
    25
100
AcDbLine
 10
-31.6
 20
20.737133406
 30
0.0
 11
-31.788888889
 21
20.737133406
 31
0.0
  0
LINE
  5
93
330
1D
100
AcDbEntity
  8
2
  6
CONTINUOUS
370
    25
100
AcDbLine
 10
68.0
 20
22.337133365
 30
0.0
 11
68.0
 21
13.076696831
 31
0.0
  0
LINE
  5
94
330
1D
100
AcDbEntity
  8
2
  6
CONTINUOUS
370
    25
100
AcDbLine
 10
68.0
 20
20.337133365
 30
0.0
 11
64.5
 21
19.887133367
 31
0.0
  0
LINE
  5
95
330
1D
100
AcDbEntity
  8
2
  6
CONTINUOUS
370
    25
100
AcDbLine
 10
64.5
 20
19.887133367
 30
0.0
 11
64.5
 21
20.787133367
 31
0.0
  0
LINE
  5
96
330
1D
100
AcDbEntity
  8
2
  6
CONTINUOUS
370
    25
100
AcDbLine
 10
64.5
 20
20.787133367
 30
0.0
 11
68.0
 21
20.337133365
 31
0.0
  0
LINE
  5
97
330
1D
100
AcDbEntity
  8
2
  6
CONTINUOUS
370
    25
100
AcDbLine
 10
64.6
 20
20.337133367
 30
0.0
 11
67.9
 21
20.337133366
 31
0.0
  0
LINE
  5
98
330
1D
100
AcDbEntity
  8
2
  6
CONTINUOUS
370
    25
100
AcDbLine
 10
64.6
 20
20.537133367
 30
0.0
 11
66.344444445
 21
20.537133366
 31
0.0
  0
LINE
  5
99
330
1D
100
AcDbEntity
  8
2
  6
CONTINUOUS
370
    25
100
AcDbLine
 10
64.6
 20
20.137133367
 30
0.0
 11
66.344444444
 21
20.137133366
 31
0.0
  0
LINE
  5
9A
330
1D
100
AcDbEntity
  8
2
  6
CONTINUOUS
370
    25
100
AcDbLine
 10
64.6
 20
20.737133367
 30
0.0
 11
64.788888889
 21
20.737133367
 31
0.0
  0
LINE
  5
9B
330
1D
100
AcDbEntity
  8
2
  6
CONTINUOUS
370
    25
100
AcDbLine
 10
64.6
 20
19.937133367
 30
0.0
 11
64.788888889
 21
19.937133367
 31
0.0
  0
LINE
  5
9C
330
1D
100
AcDbEntity
  8
2
  6
CONTINUOUS
370
    25
100
AcDbLine
 10
-31.5
 20
20.337133406
 30
0.0
 11
64.5
 21
20.337133367
 31
0.0
  0
TEXT
  5
9D
330
1D
100
AcDbEntity
  8
2
  6
CONTINUOUS
370
    25
100
AcDbText
 10
14.288436349
 20
21.837133387
 30
0.0
 40
3.5
  1
103
 50
359.999999977
  7
BMG_Text
100
AcDbText
  0
LINE
  5
9E
330
1D
100
AcDbEntity
  8
2
  6
CONTINUOUS
370
    25
100
AcDbLine
 10
-35.0
 20
-24.208553314
 30
0.0
 11
-35.0
 21
-7.0
 31
0.0
  0
LINE
  5
9F
330
1D
100
AcDbEntity
  8
2
  6
CONTINUOUS
370
    25
100
AcDbLine
 10
-35.0
 20
-22.208553314
 30
0.0
 11
-31.5
 21
-21.758553314
 31
0.0
  0
LINE
  5
A0
330
1D
100
AcDbEntity
  8
2
  6
CONTINUOUS
370
    25
100
AcDbLine
 10
-31.5
 20
-21.758553314
 30
0.0
 11
-31.5
 21
-22.658553314
 31
0.0
  0
LINE
  5
A1
330
1D
100
AcDbEntity
  8
2
  6
CONTINUOUS
370
    25
100
AcDbLine
 10
-31.5
 20
-22.658553314
 30
0.0
 11
-35.0
 21
-22.208553314
 31
0.0
  0
LINE
  5
A2
330
1D
100
AcDbEntity
  8
2
  6
CONTINUOUS
370
    25
100
AcDbLine
 10
-31.6
 20
-22.208553314
 30
0.0
 11
-34.9
 21
-22.208553314
 31
0.0
  0
LINE
  5
A3
330
1D
100
AcDbEntity
  8
2
  6
CONTINUOUS
370
    25
100
AcDbLine
 10
-31.6
 20
-22.408553314
 30
0.0
 11
-33.344444444
 21
-22.408553314
 31
0.0
  0
LINE
  5
A4
330
1D
100
AcDbEntity
  8
2
  6
CONTINUOUS
370
    25
100
AcDbLine
 10
-31.6
 20
-22.008553314
 30
0.0
 11
-33.344444444
 21
-22.008553314
 31
0.0
  0
LINE
  5
A5
330
1D
100
AcDbEntity
  8
2
  6
CONTINUOUS
370
    25
100
AcDbLine
 10
-31.6
 20
-22.608553314
 30
0.0
 11
-31.788888889
 21
-22.608553314
 31
0.0
  0
LINE
  5
A6
330
1D
100
AcDbEntity
  8
2
  6
CONTINUOUS
370
    25
100
AcDbLine
 10
-31.6
 20
-21.808553314
 30
0.0
 11
-31.788888889
 21
-21.808553314
 31
0.0
  0
LINE
  5
A7
330
1D
100
AcDbEntity
  8
2
  6
CONTINUOUS
370
    25
100
AcDbLine
 10
0.0
 20
-24.208553314
 30
0.0
 11
0.0
 21
-8.0
 31
0.0
  0
LINE
  5
A8
330
1D
100
AcDbEntity
  8
2
  6
CONTINUOUS
370
    25
100
AcDbLine
 10
0.0
 20
-22.208553314
 30
0.0
 11
-3.5
 21
-22.658553314
 31
0.0
  0
LINE
  5
A9
330
1D
100
AcDbEntity
  8
2
  6
CONTINUOUS
370
    25
100
AcDbLine
 10
-3.5
 20
-22.658553314
 30
0.0
 11
-3.5
 21
-21.758553314
 31
0.0
  0
LINE
  5
AA
330
1D
100
AcDbEntity
  8
2
  6
CONTINUOUS
370
    25
100
AcDbLine
 10
-3.5
 20
-21.758553314
 30
0.0
 11
0.0
 21
-22.208553314
 31
0.0
  0
LINE
  5
AB
330
1D
100
AcDbEntity
  8
2
  6
CONTINUOUS
370
    25
100
AcDbLine
 10
-3.4
 20
-22.208553314
 30
0.0
 11
-0.1
 21
-22.208553314
 31
0.0
  0
LINE
  5
AC
330
1D
100
AcDbEntity
  8
2
  6
CONTINUOUS
370
    25
100
AcDbLine
 10
-3.4
 20
-22.008553314
 30
0.0
 11
-1.655555556
 21
-22.008553314
 31
0.0
  0
LINE
  5
AD
330
1D
100
AcDbEntity
  8
2
  6
CONTINUOUS
370
    25
100
AcDbLine
 10
-3.4
 20
-22.408553314
 30
0.0
 11
-1.655555556
 21
-22.408553314
 31
0.0
  0
LINE
  5
AE
330
1D
100
AcDbEntity
  8
2
  6
CONTINUOUS
370
    25
100
AcDbLine
 10
-3.4
 20
-21.808553314
 30
0.0
 11
-3.211111111
 21
-21.808553314
 31
0.0
  0
LINE
  5
AF
330
1D
100
AcDbEntity
  8
2
  6
CONTINUOUS
370
    25
100
AcDbLine
 10
-3.4
 20
-22.608553314
 30
0.0
 11
-3.211111111
 21
-22.608553314
 31
0.0
  0
LINE
  5
B0
330
1D
100
AcDbEntity
  8
2
  6
CONTINUOUS
370
    25
100
AcDbLine
 10
-31.5
 20
-22.208553314
 30
0.0
 11
-3.5
 21
-22.208553314
 31
0.0
  0
TEXT
  5
B1
330
1D
100
AcDbEntity
  8
2
  6
CONTINUOUS
370
    25
100
AcDbText
 10
-15.437500391
 20
-20.708553314
 30
0.0
 40
3.5
  1
35
  7
BMG_Text
100
AcDbText
  0
TEXT
  5
B2
330
1D
100
AcDbEntity
  8
2
  6
CONTINUOUS
370
    25
100
AcDbText
 10
-22.290312891
 20
-20.708553314
 30
0.0
 40
3.5
  1
min.
  7
BMG_Text
100
AcDbText
  0
TEXT
  5
B3
330
1D
100
AcDbEntity
  8
SK6
  6
CONTINUOUS
370
    35
100
AcDbText
 10
14.695177051
 20
-6.892059936
 30
0.0
 40
3.5
  1
615.264
  7
BMG_Text
100
AcDbText
  0
LINE
  5
B4
330
1D
100
AcDbEntity
  8
1
  6
CONTINUOUS
370
    50
100
AcDbLine
 10
46.0
 20
-12.5
 30
0.0
 11
46.0
 21
0.0
 31
0.0
  0
LINE
  5
B5
330
1D
100
AcDbEntity
  8
CUT
  6
CONTINUOUS
370
    25
100
AcDbLine
 10
78.573722907
 20
9.65212801
 30
0.0
 11
78.611340734
 21
9.600519041
 31
0.0
  0
LINE
  5
B6
330
1D
100
AcDbEntity
  8
CUT
  6
CONTINUOUS
370
    25
100
AcDbLine
 10
78.611340734
 20
9.600519041
 30
0.0
 11
78.672434617
 21
9.535110592
 31
0.0
  0
LINE
  5
B7
330
1D
100
AcDbEntity
  8
CUT
  6
CONTINUOUS
370
    25
100
AcDbLine
 10
78.672434617
 20
9.535110592
 30
0.0
 11
78.755959223
 21
9.45702182
 31
0.0
  0
LINE
  5
B8
330
1D
100
AcDbEntity
  8
CUT
  6
CONTINUOUS
370
    25
100
AcDbLine
 10
78.755959223
 20
9.45702182
 30
0.0
 11
78.860485424
 21
9.367588846
 31
0.0
  0
LINE
  5
B9
330
1D
100
AcDbEntity
  8
CUT
  6
CONTINUOUS
370
    25
100
AcDbLine
 10
78.860485424
 20
9.367588846
 30
0.0
 11
78.984224746
 21
9.268341892
 31
0.0
  0
LINE
  5
BA
330
1D
100
AcDbEntity
  8
CUT
  6
CONTINUOUS
370
    25
100
AcDbLine
 10
78.984224746
 20
9.268341892
 30
0.0
 11
79.125059975
 21
9.160979102
 31
0.0
  0
LINE
  5
BB
330
1D
100
AcDbEntity
  8
CUT
  6
CONTINUOUS
370
    25
100
AcDbLine
 10
79.125059975
 20
9.160979102
 30
0.0
 11
79.280581382
 21
9.047337483
 31
0.0
  0
LINE
  5
BC
330
1D
100
AcDbEntity
  8
CUT
  6
CONTINUOUS
370
    25
100
AcDbLine
 10
79.280581382
 20
9.047337483
 30
0.0
 11
79.448127953
 21
8.929361473
 31
0.0
  0
LINE
  5
BD
330
1D
100
AcDbEntity
  8
CUT
  6
CONTINUOUS
370
    25
100
AcDbLine
 10
79.448127953
 20
8.929361473
 30
0.0
 11
79.624832918
 21
8.809069677
 31
0.0
  0
LINE
  5
BE
330
1D
100
AcDbEntity
  8
CUT
  6
CONTINUOUS
370
    25
100
AcDbLine
 10
79.624832918
 20
8.809069677
 30
0.0
 11
79.807672808
 21
8.688520318
 31
0.0
  0
LINE
  5
BF
330
1D
100
AcDbEntity
  8
CUT
  6
CONTINUOUS
370
    25
100
AcDbLine
 10
79.807672808
 20
8.688520318
 30
0.0
 11
79.99351918
 21
8.569776031
 31
0.0
  0
LINE
  5
C0
330
1D
100
AcDbEntity
  8
CUT
  6
CONTINUOUS
370
    25
100
AcDbLine
 10
79.99351918
 20
8.569776031
 30
0.0
 11
80.179192153
 21
8.454868564
 31
0.0
  0
LINE
  5
C1
330
1D
100
AcDbEntity
  8
CUT
  6
CONTINUOUS
370
    25
100
AcDbLine
 10
80.179192153
 20
8.454868564
 30
0.0
 11
80.361514809
 21
8.345764014
 31
0.0
  0
LINE
  5
C2
330
1D
100
AcDbEntity
  8
CUT
  6
CONTINUOUS
370
    25
100
AcDbLine
 10
80.361514809
 20
8.345764014
 30
0.0
 11
80.537367558
 21
8.24432919
 31
0.0
  0
LINE
  5
C3
330
1D
100
AcDbEntity
  8
CUT
  6
CONTINUOUS
370
    25
100
AcDbLine
 10
80.537367558
 20
8.24432919
 30
0.0
 11
80.703741511
 21
8.152299672
 31
0.0
  0
LINE
  5
C4
330
1D
100
AcDbEntity
  8
CUT
  6
CONTINUOUS
370
    25
100
AcDbLine
 10
80.703741511
 20
8.152299672
 30
0.0
 11
80.857789962
 21
8.071250109
 31
0.0
  0
LINE
  5
C5
330
1D
100
AcDbEntity
  8
CUT
  6
CONTINUOUS
370
    25
100
AcDbLine
 10
80.857789962
 20
8.071250109
 30
0.0
 11
80.996877101
 21
8.002567281
 31
0.0
  0
LINE
  5
C6
330
1D
100
AcDbEntity
  8
CUT
  6
CONTINUOUS
370
    25
100
AcDbLine
 10
80.996877101
 20
8.002567281
 30
0.0
 11
81.118623107
 21
7.947426372
 31
0.0
  0
LINE
  5
C7
330
1D
100
AcDbEntity
  8
CUT
  6
CONTINUOUS
370
    25
100
AcDbLine
 10
81.118623107
 20
7.947426372
 30
0.0
 11
81.220944874
 21
7.906770857
 31
0.0
  0
LINE
  5
C8
330
1D
100
AcDbEntity
  8
CUT
  6
CONTINUOUS
370
    25
100
AcDbLine
 10
81.220944874
 20
7.906770857
 30
0.0
 11
81.302091646
 21
7.881296364
 31
0.0
  0
LINE
  5
C9
330
1D
100
AcDbEntity
  8
CUT
  6
CONTINUOUS
370
    25
100
AcDbLine
 10
81.302091646
 20
7.881296364
 30
0.0
 11
81.36067498
 21
7.871438767
 31
0.0
  0
LINE
  5
CA
330
1D
100
AcDbEntity
  8
CUT
  6
CONTINUOUS
370
    25
100
AcDbLine
 10
81.36067498
 20
7.871438767
 30
0.0
 11
81.3956925
 21
7.877366734
 31
0.0
  0
LINE
  5
CB
330
1D
100
AcDbEntity
  8
CUT
  6
CONTINUOUS
370
    25
100
AcDbLine
 10
81.3956925
 20
7.877366734
 30
0.0
 11
81.406545045
 21
7.898978835
 31
0.0
  0
LINE
  5
CC
330
1D
100
AcDbEntity
  8
CUT
  6
CONTINUOUS
370
    25
100
AcDbLine
 10
81.406545045
 20
7.898978835
 30
0.0
 11
81.393046926
 21
7.935905281
 31
0.0
  0
LINE
  5
CD
330
1D
100
AcDbEntity
  8
CUT
  6
CONTINUOUS
370
    25
100
AcDbLine
 10
81.393046926
 20
7.935905281
 30
0.0
 11
81.355429099
 21
7.987514251
 31
0.0
  0
LINE
  5
CE
330
1D
100
AcDbEntity
  8
CUT
  6
CONTINUOUS
370
    25
100
AcDbLine
 10
81.355429099
 20
7.987514251
 30
0.0
 11
81.294335216
 21
8.0529227
 31
0.0
  0
LINE
  5
CF
330
1D
100
AcDbEntity
  8
CUT
  6
CONTINUOUS
370
    25
100
AcDbLine
 10
81.294335216
 20
8.0529227
 30
0.0
 11
81.21081061
 21
8.131011472
 31
0.0
  0
LINE
  5
D0
330
1D
100
AcDbEntity
  8
CUT
  6
CONTINUOUS
370
    25
100
AcDbLine
 10
81.21081061
 20
8.131011472
 30
0.0
 11
81.106284409
 21
8.220444446
 31
0.0
  0
LINE
  5
D1
330
1D
100
AcDbEntity
  8
CUT
  6
CONTINUOUS
370
    25
100
AcDbLine
 10
81.106284409
 20
8.220444446
 30
0.0
 11
80.982545087
 21
8.319691399
 31
0.0
  0
LINE
  5
D2
330
1D
100
AcDbEntity
  8
CUT
  6
CONTINUOUS
370
    25
100
AcDbLine
 10
80.982545087
 20
8.319691399
 30
0.0
 11
80.841709858
 21
8.42705419
 31
0.0
  0
LINE
  5
D3
330
1D
100
AcDbEntity
  8
CUT
  6
CONTINUOUS
370
    25
100
AcDbLine
 10
80.841709858
 20
8.42705419
 30
0.0
 11
80.686188451
 21
8.540695809
 31
0.0
  0
LINE
  5
D4
330
1D
100
AcDbEntity
  8
CUT
  6
CONTINUOUS
370
    25
100
AcDbLine
 10
80.686188451
 20
8.540695809
 30
0.0
 11
80.51864188
 21
8.658671818
 31
0.0
  0
LINE
  5
D5
330
1D
100
AcDbEntity
  8
CUT
  6
CONTINUOUS
370
    25
100
AcDbLine
 10
80.51864188
 20
8.658671818
 30
0.0
 11
80.341936915
 21
8.778963615
 31
0.0
  0
LINE
  5
D6
330
1D
100
AcDbEntity
  8
CUT
  6
CONTINUOUS
370
    25
100
AcDbLine
 10
80.341936915
 20
8.778963615
 30
0.0
 11
80.159097025
 21
8.899512973
 31
0.0
  0
LINE
  5
D7
330
1D
100
AcDbEntity
  8
CUT
  6
CONTINUOUS
370
    25
100
AcDbLine
 10
80.159097025
 20
8.899512973
 30
0.0
 11
79.973250652
 21
9.01825726
 31
0.0
  0
LINE
  5
D8
330
1D
100
AcDbEntity
  8
CUT
  6
CONTINUOUS
370
    25
100
AcDbLine
 10
79.973250652
 20
9.01825726
 30
0.0
 11
79.78757768
 21
9.133164728
 31
0.0
  0
LINE
  5
D9
330
1D
100
AcDbEntity
  8
CUT
  6
CONTINUOUS
370
    25
100
AcDbLine
 10
79.78757768
 20
9.133164728
 30
0.0
 11
79.605255024
 21
9.242269278
 31
0.0
  0
LINE
  5
DA
330
1D
100
AcDbEntity
  8
CUT
  6
CONTINUOUS
370
    25
100
AcDbLine
 10
79.605255024
 20
9.242269278
 30
0.0
 11
79.429402274
 21
9.343704101
 31
0.0
  0
LINE
  5
DB
330
1D
100
AcDbEntity
  8
CUT
  6
CONTINUOUS
370
    25
100
AcDbLine
 10
79.429402274
 20
9.343704101
 30
0.0
 11
79.263028322
 21
9.43573362
 31
0.0
  0
LINE
  5
DC
330
1D
100
AcDbEntity
  8
CUT
  6
CONTINUOUS
370
    25
100
AcDbLine
 10
79.263028322
 20
9.43573362
 30
0.0
 11
79.108979871
 21
9.516783183
 31
0.0
  0
LINE
  5
DD
330
1D
100
AcDbEntity
  8
CUT
  6
CONTINUOUS
370
    25
100
AcDbLine
 10
79.108979871
 20
9.516783183
 30
0.0
 11
78.969892732
 21
9.58546601
 31
0.0
  0
LINE
  5
DE
330
1D
100
AcDbEntity
  8
CUT
  6
CONTINUOUS
370
    25
100
AcDbLine
 10
78.969892732
 20
9.58546601
 30
0.0
 11
78.848146725
 21
9.640606919
 31
0.0
  0
LINE
  5
DF
330
1D
100
AcDbEntity
  8
CUT
  6
CONTINUOUS
370
    25
100
AcDbLine
 10
78.848146725
 20
9.640606919
 30
0.0
 11
78.745824959
 21
9.681262434
 31
0.0
  0
LINE
  5
E0
330
1D
100
AcDbEntity
  8
CUT
  6
CONTINUOUS
370
    25
100
AcDbLine
 10
78.745824959
 20
9.681262434
 30
0.0
 11
78.664678187
 21
9.706736928
 31
0.0
  0
LINE
  5
E1
330
1D
100
AcDbEntity
  8
CUT
  6
CONTINUOUS
370
    25
100
AcDbLine
 10
78.664678187
 20
9.706736928
 30
0.0
 11
78.606094853
 21
9.716594524
 31
0.0
  0
LINE
  5
E2
330
1D
100
AcDbEntity
  8
CUT
  6
CONTINUOUS
370
    25
100
AcDbLine
 10
78.606094853
 20
9.716594524
 30
0.0
 11
78.571077333
 21
9.710666557
 31
0.0
  0
LINE
  5
E3
330
1D
100
AcDbEntity
  8
CUT
  6
CONTINUOUS
370
    25
100
AcDbLine
 10
78.571077333
 20
9.710666557
 30
0.0
 11
78.560224788
 21
9.689054456
 31
0.0
  0
LINE
  5
E4
330
1D
100
AcDbEntity
  8
CUT
  6
CONTINUOUS
370
    25
100
AcDbLine
 10
78.560224788
 20
9.689054456
 30
0.0
 11
78.573722907
 21
9.65212801
 31
0.0
  0
LINE
  5
E5
330
1D
100
AcDbEntity
  8
CUT
  6
CONTINUOUS
370
    25
100
AcDbLine
 10
74.877747645
 20
6.304760104
 30
0.0
 11
71.241717249
 21
-8.278561283
 31
0.0
  0
LINE
  5
E6
330
1D
100
AcDbEntity
  8
CUT
  6
CONTINUOUS
370
    25
100
AcDbLine
 10
71.241717249
 20
-8.278561283
 30
0.0
 11
71.221983519
 21
-8.291561978
 31
0.0
  0
LINE
  5
E7
330
1D
100
AcDbEntity
  8
CUT
  6
CONTINUOUS
370
    25
100
AcDbLine
 10
71.221983519
 20
-8.291561978
 30
0.0
 11
62.684382692
 21
-8.291561978
 31
0.0
  0
LINE
  5
E8
330
1D
100
AcDbEntity
  8
CUT
  6
CONTINUOUS
370
    25
100
AcDbLine
 10
66.323654525
 20
6.304760104
 30
0.0
 11
74.877747645
 21
6.304760104
 31
0.0
  0
LINE
  5
E9
330
1D
100
AcDbEntity
  8
CUT
  6
CONTINUOUS
370
    25
100
AcDbLine
 10
74.877747645
 20
6.304760104
 30
0.0
 11
75.651587157
 21
6.6477042
 31
0.0
  0
LINE
  5
EA
330
1D
100
AcDbEntity
  8
CUT
  6
CONTINUOUS
370
    25
100
AcDbLine
 10
75.651587157
 20
6.6477042
 30
0.0
 11
76.460341777
 21
6.985573069
 31
0.0
  0
LINE
  5
EB
330
1D
100
AcDbEntity
  8
CUT
  6
CONTINUOUS
370
    25
100
AcDbLine
 10
76.460341777
 20
6.985573069
 30
0.0
 11
77.303394055
 21
7.318108763
 31
0.0
  0
LINE
  5
EC
330
1D
100
AcDbEntity
  8
CUT
  6
CONTINUOUS
370
    25
100
AcDbLine
 10
77.303394055
 20
7.318108763
 30
0.0
 11
78.180100358
 21
7.645057405
 31
0.0
  0
LINE
  5
ED
330
1D
100
AcDbEntity
  8
CUT
  6
CONTINUOUS
370
    25
100
AcDbLine
 10
78.180100358
 20
7.645057405
 30
0.0
 11
79.08979136
 21
7.966169385
 31
0.0
  0
LINE
  5
EE
330
1D
100
AcDbEntity
  8
CUT
  6
CONTINUOUS
370
    25
100
AcDbLine
 10
79.08979136
 20
7.966169385
 30
0.0
 11
80.031772553
 21
8.281199549
 31
0.0
  0
LINE
  5
EF
330
1D
100
AcDbEntity
  8
CUT
  6
CONTINUOUS
370
    25
100
AcDbLine
 10
80.031772553
 20
8.281199549
 30
0.0
 11
79.515229979
 21
8.658642935
 31
0.0
  0
LINE
  5
F0
330
1D
100
AcDbEntity
  8
CUT
  6
CONTINUOUS
370
    25
100
AcDbLine
 10
79.515229979
 20
8.658642935
 30
0.0
 11
79.016820206
 21
9.026157618
 31
0.0
  0
LINE
  5
F1
330
1D
100
AcDbEntity
  8
CUT
  6
CONTINUOUS
370
    25
100
AcDbLine
 10
79.016820206
 20
9.026157618
 30
0.0
 11
78.537114751
 21
9.383322176
 31
0.0
  0
LINE
  5
F2
330
1D
100
AcDbEntity
  8
CUT
  6
CONTINUOUS
370
    25
100
AcDbLine
 10
78.537114751
 20
9.383322176
 30
0.0
 11
78.076663684
 21
9.729727055
 31
0.0
  0
LINE
  5
F3
330
1D
100
AcDbEntity
  8
CUT
  6
CONTINUOUS
370
    25
100
AcDbLine
 10
78.076663684
 20
9.729727055
 30
0.0
 11
77.635994995
 21
10.06497504
 31
0.0
  0
LINE
  5
F4
330
1D
100
AcDbEntity
  8
CUT
  6
CONTINUOUS
370
    25
100
AcDbLine
 10
77.635994995
 20
10.06497504
 30
0.0
 11
77.215613991
 21
10.388681708
 31
0.0
  0
LINE
  5
F5
330
1D
100
AcDbEntity
  8
CUT
  6
CONTINUOUS
370
    25
100
AcDbLine
 10
77.215613991
 20
10.388681708
 30
0.0
 11
76.816002715
 21
10.70047587
 31
0.0
  0
LINE
  5
F6
330
1D
100
AcDbEntity
  8
CUT
  6
CONTINUOUS
370
    25
100
AcDbLine
 10
76.816002715
 20
10.70047587
 30
0.0
 11
76.437619393
 21
10.999999998
 31
0.0
  0
LINE
  5
F7
330
1D
100
AcDbEntity
  8
CUT
  6
CONTINUOUS
370
    25
100
AcDbLine
 10
76.437619393
 20
10.999999998
 30
0.0
 11
67.494309311
 21
10.999999998
 31
0.0
  0
LINE
  5
F8
330
1D
100
AcDbEntity
  8
CUT
  6
CONTINUOUS
370
    25
100
AcDbLine
 10
80.031772553
 20
8.281199549
 30
0.0
 11
84.906541289
 21
5.329055304
 31
0.0
  0
LINE
  5
F9
330
1D
100
AcDbEntity
  8
CUT
  6
CONTINUOUS
370
    25
100
AcDbLine
 10
84.906541289
 20
5.329055304
 30
0.0
 11
85.537328243
 21
6.229912436
 31
0.0
  0
LINE
  5
FA
330
1D
100
AcDbEntity
  8
CUT
  6
CONTINUOUS
370
    25
100
AcDbLine
 10
85.537328243
 20
6.229912436
 30
0.0
 11
81.701766077
 21
8.720755631
 31
0.0
  0
LINE
  5
FB
330
1D
100
AcDbEntity
  8
CUT
  6
CONTINUOUS
370
    25
100
AcDbLine
 10
81.701766077
 20
8.720755631
 30
0.0
 11
81.284614703
 21
8.996438074
 31
0.0
  0
LINE
  5
FC
330
1D
100
AcDbEntity
  8
CUT
  6
CONTINUOUS
370
    25
100
AcDbLine
 10
81.284614703
 20
8.996438074
 30
0.0
 11
80.872653637
 21
9.280112892
 31
0.0
  0
LINE
  5
FD
330
1D
100
AcDbEntity
  8
CUT
  6
CONTINUOUS
370
    25
100
AcDbLine
 10
80.872653637
 20
9.280112892
 30
0.0
 11
80.704522995
 21
9.400704735
 31
0.0
  0
LINE
  5
FE
330
1D
100
AcDbEntity
  8
CUT
  6
CONTINUOUS
370
    25
100
AcDbLine
 10
80.704522995
 20
9.400704735
 30
0.0
 11
80.483267459
 21
9.560576397
 31
0.0
  0
LINE
  5
FF
330
1D
100
AcDbEntity
  8
CUT
  6
CONTINUOUS
370
    25
100
AcDbLine
 10
80.483267459
 20
9.560576397
 30
0.0
 11
80.299115629
 21
9.685579539
 31
0.0
  0
LINE
  5
100
330
1D
100
AcDbEntity
  8
CUT
  6
CONTINUOUS
370
    25
100
AcDbLine
 10
80.299115629
 20
9.685579539
 30
0.0
 11
80.109584646
 21
9.802420008
 31
0.0
  0
LINE
  5
101
330
1D
100
AcDbEntity
  8
CUT
  6
CONTINUOUS
370
    25
100
AcDbLine
 10
80.109584646
 20
9.802420008
 30
0.0
 11
79.850516661
 21
9.953591318
 31
0.0
  0
LINE
  5
102
330
1D
100
AcDbEntity
  8
CUT
  6
CONTINUOUS
370
    25
100
AcDbLine
 10
79.850516661
 20
9.953591318
 30
0.0
 11
79.591672525
 21
10.104470241
 31
0.0
  0
LINE
  5
103
330
1D
100
AcDbEntity
  8
CUT
  6
CONTINUOUS
370
    25
100
AcDbLine
 10
79.591672525
 20
10.104470241
 30
0.0
 11
79.327376014
 21
10.264779931
 31
0.0
  0
LINE
  5
104
330
1D
100
AcDbEntity
  8
CUT
  6
CONTINUOUS
370
    25
100
AcDbLine
 10
79.327376014
 20
10.264779931
 30
0.0
 11
79.155456024
 21
10.374348714
 31
0.0
  0
LINE
  5
105
330
1D
100
AcDbEntity
  8
CUT
  6
CONTINUOUS
370
    25
100
AcDbLine
 10
79.155456024
 20
10.374348714
 30
0.0
 11
78.180559612
 21
11.007453846
 31
0.0
  0
LINE
  5
106
330
1D
100
AcDbEntity
  8
CUT
  6
CONTINUOUS
370
    25
100
AcDbLine
 10
80.516388699
 20
6.598860447
 30
0.0
 11
85.010994148
 21
5.478229447
 31
0.0
  0
LINE
  5
107
330
1D
100
AcDbEntity
  8
CUT
  6
CONTINUOUS
370
    25
100
AcDbLine
 10
85.010994148
 20
5.478229447
 30
0.0
 11
88.056670887
 21
4.718856948
 31
0.0
  0
LINE
  5
108
330
1D
100
AcDbEntity
  8
CUT
  6
CONTINUOUS
370
    25
100
AcDbLine
 10
88.056670887
 20
4.718856948
 30
0.0
 11
86.484582532
 21
1.995920042
 31
0.0
  0
ARC
  5
109
330
1D
100
AcDbEntity
  8
CUT
  6
CONTINUOUS
370
    25
100
AcDbCircle
 10
86.740413561
 20
-6.00108888
 30
0.0
 40
8.001100001
100
AcDbArc
 50
91.83231518699999
 51
125.27690589
  0
ARC
  5
10A
330
1D
100
AcDbEntity
  8
CUT
  6
CONTINUOUS
370
    25
100
AcDbCircle
 10
86.740048073
 20
-6.000000002
 30
0.0
 40
8.0
100
AcDbArc
 50
125.279272814
 51
145.0
  0
LINE
  5
10B
330
1D
100
AcDbEntity
  8
CUT
  6
CONTINUOUS
370
    25
100
AcDbLine
 10
82.759160211
 20
12.730481269
 30
0.0
 11
81.379771916
 21
12.802771946
 31
0.0
  0
ARC
  5
10C
330
1D
100
AcDbEntity
  8
CUT
  6
CONTINUOUS
370
    25
100
AcDbCircle
 10
81.296034386
 20
11.204964691
 30
0.0
 40
1.6
100
AcDbArc
 50
87.0
 51
179.935425223
  0
ARC
  5
10D
330
1D
100
AcDbEntity
  8
CUT
  6
CONTINUOUS
370
    25
100
AcDbCircle
 10
81.296034386
 20
11.204964691
 30
0.0
 40
1.6
100
AcDbArc
 50
179.935425223
 51
267.0000000009999
  0
LINE
  5
10E
330
1D
100
AcDbEntity
  8
CUT
  6
CONTINUOUS
370
    25
100
AcDbLine
 10
81.212296857
 20
9.607157435
 30
0.0
 11
82.242345455
 21
9.553174876
 31
0.0
  0
LINE
  5
10F
330
1D
100
AcDbEntity
  8
CUT
  6
CONTINUOUS
370
    25
100
AcDbLine
 10
82.242345455
 20
9.553174876
 30
0.0
 11
82.591685151
 21
9.534866758
 31
0.0
  0
LINE
  5
110
330
1D
100
AcDbEntity
  8
CUT
  6
CONTINUOUS
370
    25
100
AcDbLine
 10
88.056670887
 20
4.718856948
 30
0.0
 11
88.589959926
 21
5.642540659
 31
0.0
  0
LINE
  5
111
330
1D
100
AcDbEntity
  8
CUT
  6
CONTINUOUS
370
    25
100
AcDbLine
 10
88.589959926
 20
5.642540659
 30
0.0
 11
88.605914007
 21
5.670173937
 31
0.0
  0
LINE
  5
112
330
1D
100
AcDbEntity
  8
CUT
  6
CONTINUOUS
370
    25
100
AcDbLine
 10
88.605914007
 20
5.670173937
 30
0.0
 11
88.657255392
 21
5.759099825
 31
0.0
  0
LINE
  5
113
330
1D
100
AcDbEntity
  8
CUT
  6
CONTINUOUS
370
    25
100
AcDbLine
 10
88.657255392
 20
5.759099825
 30
0.0
 11
88.77713978
 21
5.966745676
 31
0.0
  0
LINE
  5
114
330
1D
100
AcDbEntity
  8
CUT
  6
CONTINUOUS
370
    25
100
AcDbLine
 10
88.77713978
 20
5.966745676
 30
0.0
 11
89.252423493
 21
15.035699163
 31
0.0
  0
LINE
  5
115
330
1D
100
AcDbEntity
  8
CUT
  6
CONTINUOUS
370
    25
100
AcDbLine
 10
89.252423493
 20
15.035699163
 30
0.0
 11
89.233152569
 21
15.202344383
 31
0.0
  0
LINE
  5
116
330
1D
100
AcDbEntity
  8
CUT
  6
CONTINUOUS
370
    25
100
AcDbLine
 10
89.233152569
 20
15.202344383
 30
0.0
 11
89.159580362
 21
15.35319249
 31
0.0
  0
LINE
  5
117
330
1D
100
AcDbEntity
  8
CUT
  6
CONTINUOUS
370
    25
100
AcDbLine
 10
89.159580362
 20
15.35319249
 30
0.0
 11
89.041097851
 21
15.469590913
 31
0.0
  0
LINE
  5
118
330
1D
100
AcDbEntity
  8
CUT
  6
CONTINUOUS
370
    25
100
AcDbLine
 10
89.041097851
 20
15.469590913
 30
0.0
 11
88.891627199
 21
15.539733092
 31
0.0
  0
LINE
  5
119
330
1D
100
AcDbEntity
  8
CUT
  6
CONTINUOUS
370
    25
100
AcDbLine
 10
88.891627199
 20
15.539733092
 30
0.0
 11
88.75760404
 21
15.557982656
 31
0.0
  0
LINE
  5
11A
330
1D
100
AcDbEntity
  8
CUT
  6
CONTINUOUS
370
    25
100
AcDbLine
 10
88.75760404
 20
15.557982656
 30
0.0
 11
88.308444137
 21
15.557982656
 31
0.0
  0
LINE
  5
11B
330
1D
100
AcDbEntity
  8
CUT
  6
CONTINUOUS
370
    25
100
AcDbLine
 10
88.308444137
 20
15.557982656
 30
0.0
 11
87.532894109
 21
15.557982656
 31
0.0
  0
LINE
  5
11C
330
1D
100
AcDbEntity
  8
CUT
  6
CONTINUOUS
370
    25
100
AcDbLine
 10
71.241717249
 20
-8.278561283
 30
0.0
 11
76.483794032
 21
-6.699874402
 31
0.0
  0
LINE
  5
11D
330
1D
100
AcDbEntity
  8
CUT
  6
CONTINUOUS
370
    25
100
AcDbLine
 10
76.483794032
 20
-6.699874402
 30
0.0
 11
71.472028536
 21
-13.857417306
 31
0.0
  0
LINE
  5
11E
330
1D
100
AcDbEntity
  8
CUT
  6
CONTINUOUS
370
    25
100
AcDbLine
 10
71.472028536
 20
-13.857417306
 30
0.0
 11
71.221983519
 21
-13.955285739
 31
0.0
  0
LINE
  5
11F
330
1D
100
AcDbEntity
  8
CUT
  6
CONTINUOUS
370
    25
100
AcDbLine
 10
71.221983519
 20
-13.955285739
 30
0.0
 11
71.221983519
 21
-8.291561978
 31
0.0
  0
LINE
  5
120
330
1D
100
AcDbEntity
  8
CUT
  6
CONTINUOUS
370
    25
100
AcDbLine
 10
71.221983519
 20
-13.955285739
 30
0.0
 11
66.116141816
 21
-13.955285739
 31
0.0
  0
LINE
  5
121
330
1D
100
AcDbEntity
  8
CUT
  6
CONTINUOUS
370
    25
100
AcDbLine
 10
66.116141816
 20
-13.955285739
 30
0.0
 11
65.855665295
 21
-15.000000002
 31
0.0
  0
LINE
  5
122
330
1D
100
AcDbEntity
  8
CUT
  6
CONTINUOUS
370
    25
100
AcDbLine
 10
65.855665295
 20
-15.000000002
 30
0.0
 11
59.671983519
 21
-15.000000002
 31
0.0
  0
LINE
  5
123
330
1D
100
AcDbEntity
  8
CUT
  6
CONTINUOUS
370
    25
100
AcDbLine
 10
59.671983519
 20
-15.000000002
 30
0.0
 11
59.885873131
 21
-14.142135626
 31
0.0
  0
LINE
  5
124
330
1D
100
AcDbEntity
  8
CUT
  6
CONTINUOUS
370
    25
100
AcDbLine
 10
59.885873131
 20
-14.142135626
 30
0.0
 11
61.225670849
 21
-14.142135626
 31
0.0
  0
LINE
  5
125
330
1D
100
AcDbEntity
  8
CUT
  6
CONTINUOUS
370
    25
100
AcDbLine
 10
61.225670849
 20
-14.142135626
 30
0.0
 11
67.494309311
 21
10.999999998
 31
0.0
  0
LINE
  5
126
330
1D
100
AcDbEntity
  8
CUT
  6
CONTINUOUS
370
    25
100
AcDbLine
 10
89.090387323
 20
15.95640261
 30
0.0
 11
80.525246761
 21
11.592245515
 31
0.0
  0
ARC
  5
127
330
1D
100
AcDbEntity
  8
CUT
  6
CONTINUOUS
370
    25
100
AcDbCircle
 10
80.706842961
 20
11.235842905
 30
0.0
 40
0.4
100
AcDbArc
 50
117.0
 51
236.999999994
  0
LINE
  5
128
330
1D
100
AcDbEntity
  8
CUT
  6
CONTINUOUS
370
    25
100
AcDbLine
 10
80.488987347
 20
10.900374678
 30
0.0
 11
88.551028538
 21
5.664823912
 31
0.0
  0
ARC
  5
129
330
1D
100
AcDbEntity
  8
CUT
  6
CONTINUOUS
370
    25
100
AcDbCircle
 10
88.768884152
 20
6.000292139
 30
0.0
 40
0.4
100
AcDbArc
 50
237.0
 51
356.9999999969999
  0
LINE
  5
12A
330
1D
100
AcDbEntity
  8
CUT
  6
CONTINUOUS
370
    25
100
AcDbLine
 10
89.168335966
 20
5.979357756
 30
0.0
 11
89.671435337
 21
15.579065618
 31
0.0
  0
ARC
  5
12B
330
1D
100
AcDbEntity
  8
CUT
  6
CONTINUOUS
370
    25
100
AcDbCircle
 10
89.271983523
 20
15.6
 30
0.0
 40
0.4
100
AcDbArc
 50
356.9999999999999
 51
117.0
  0
LINE
  5
12C
330
1D
100
AcDbEntity
  8
CUT
  6
CONTINUOUS
370
    25
100
AcDbLine
 10
59.885873131
 20
-14.142135626
 30
0.0
 11
66.154511593
 21
10.999999998
 31
0.0
  0
LINE
  5
12D
330
1D
100
AcDbEntity
  8
CUT
  6
CONTINUOUS
370
    25
100
AcDbLine
 10
66.154511593
 20
10.999999998
 30
0.0
 11
66.403839596
 21
11.999999998
 31
0.0
  0
LINE
  5
12E
330
1D
100
AcDbEntity
  8
CUT
  6
CONTINUOUS
370
    25
100
AcDbLine
 10
76.483794032
 20
-6.699874402
 30
0.0
 11
84.906541289
 21
5.329055304
 31
0.0
  0
LINE
  5
12F
330
1D
100
AcDbEntity
  8
CUT
  6
CONTINUOUS
370
    25
100
AcDbLine
 10
76.437619393
 20
10.999999998
 30
0.0
 11
78.164563053
 21
10.999999998
 31
0.0
  0
LINE
  5
130
330
1D
100
AcDbEntity
  8
CUT
  6
CONTINUOUS
370
    25
100
AcDbLine
 10
67.122293165
 20
14.881559876
 30
0.0
 11
68.462090883
 21
14.881559876
 31
0.0
  0
LINE
  5
131
330
1D
100
AcDbEntity
  8
CUT
  6
CONTINUOUS
370
    25
100
AcDbLine
 10
68.462090883
 20
14.881559876
 30
0.0
 11
67.494309311
 21
10.999999998
 31
0.0
  0
LINE
  5
132
330
1D
100
AcDbEntity
  8
CUT
  6
CONTINUOUS
370
    25
100
AcDbLine
 10
67.494309311
 20
10.999999998
 30
0.0
 11
66.154511593
 21
10.999999998
 31
0.0
  0
LINE
  5
133
330
1D
100
AcDbEntity
  8
CUT
  6
CONTINUOUS
370
    25
100
AcDbLine
 10
86.207361494
 20
7.186819086
 30
0.0
 11
85.537328243
 21
6.229912436
 31
0.0
  0
LINE
  5
134
330
1D
100
AcDbEntity
  8
CUT
  6
CONTINUOUS
370
    25
100
AcDbLine
 10
87.692740689
 20
15.24426608
 30
0.0
 11
87.461006104
 21
15.699070811
 31
0.0
  0
LINE
  5
135
330
1D
100
AcDbEntity
  8
CUT
  6
CONTINUOUS
370
    25
100
AcDbLine
 10
87.461006104
 20
15.699070811
 30
0.0
 11
67.326121534
 21
15.699070811
 31
0.0
  0
LINE
  5
136
330
1D
100
AcDbEntity
  8
CUT
  6
CONTINUOUS
370
    25
100
AcDbLine
 10
67.326121534
 20
15.699070811
 30
0.0
 11
66.403839596
 21
11.999999998
 31
0.0
  0
LINE
  5
137
330
1D
100
AcDbEntity
  8
CUT
  6
CONTINUOUS
370
    25
100
AcDbLine
 10
79.185818273
 20
1.262233953
 30
0.0
 11
81.00023249
 21
8.5394519
 31
0.0
  0
LINE
  5
138
330
1D
100
AcDbEntity
  8
CUT
  6
CONTINUOUS
370
    25
100
AcDbLine
 10
81.00023249
 20
8.5394519
 30
0.0
 11
72.267570953
 21
10.71674896
 31
0.0
  0
LINE
  5
139
330
1D
100
AcDbEntity
  8
CUT
  6
CONTINUOUS
370
    25
100
AcDbLine
 10
72.267570953
 20
10.71674896
 30
0.0
 11
70.937000527
 21
5.380122466
 31
0.0
  0
LINE
  5
13A
330
1D
100
AcDbEntity
  8
CUT
  6
CONTINUOUS
370
    25
100
AcDbLine
 10
70.937000527
 20
5.380122466
 30
0.0
 11
66.116141816
 21
-13.955285739
 31
0.0
  0
LINE
  5
13B
330
1D
100
AcDbEntity
  8
CUT
  6
CONTINUOUS
370
    25
100
AcDbLine
 10
64.247234763
 20
-2.023304689
 30
0.0
 11
81.395277891
 21
7.877122627
 31
0.0
  0
LINE
  5
13C
330
1D
100
AcDbEntity
  8
CUT
  6
CONTINUOUS
370
    25
100
AcDbLine
 10
78.571491942
 20
9.710910664
 30
0.0
 11
65.256167796
 21
2.023304685
 31
0.0
  0
LINE
  5
13D
330
1D
100
AcDbEntity
  8
CUT
  6
CONTINUOUS
370
    25
100
AcDbLine
 10
60.72481245
 20
-10.7773338
 30
0.0
 11
66.546586807
 21
-12.228865174
 31
0.0
  0
LINE
  5
13E
330
1D
100
AcDbEntity
  8
CUT
  6
CONTINUOUS
370
    25
100
AcDbLine
 10
71.699523184
 20
8.438433796
 30
0.0
 11
65.877748826
 21
9.88996517
 31
0.0
  0
CIRCLE
  5
13F
330
1D
100
AcDbEntity
  8
CUT
  6
CONTINUOUS
370
    25
100
AcDbCircle
 10
86.249236879
 20
10.945378348
 30
0.0
 40
1.8999736
  0
LINE
  5
140
330
1D
100
AcDbEntity
  8
SK1
  6
CONTINUOUS
370
    50
100
AcDbLine
 10
83.39927648
 20
10.945378348
 30
0.0
 11
89.099197278
 21
10.945378348
 31
0.0
  0
LINE
  5
141
330
1D
100
AcDbEntity
  8
SK1
  6
CONTINUOUS
370
    50
100
AcDbLine
 10
86.249236879
 20
8.095417948
 30
0.0
 11
86.249236879
 21
13.795338747
 31
0.0
  0
LINE
  5
142
330
1D
100
AcDbEntity
  8
2
  6
CONTINUOUS
370
    25
100
AcDbLine
 10
0.0
 20
-24.194391251
 30
0.0
 11
0.0
 21
-8.0
 31
0.0
  0
LINE
  5
143
330
1D
100
AcDbEntity
  8
2
  6
CONTINUOUS
370
    25
100
AcDbLine
 10
0.0
 20
-22.194391251
 30
0.0
 11
3.500000002
 21
-21.744391265
 31
0.0
  0
LINE
  5
144
330
1D
100
AcDbEntity
  8
2
  6
CONTINUOUS
370
    25
100
AcDbLine
 10
3.500000002
 20
-21.744391265
 30
0.0
 11
3.499999998
 21
-22.644391265
 31
0.0
  0
LINE
  5
145
330
1D
100
AcDbEntity
  8
2
  6
CONTINUOUS
370
    25
100
AcDbLine
 10
3.499999998
 20
-22.644391265
 30
0.0
 11
0.0
 21
-22.194391251
 31
0.0
  0
LINE
  5
146
330
1D
100
AcDbEntity
  8
2
  6
CONTINUOUS
370
    25
100
AcDbLine
 10
3.4
 20
-22.194391265
 30
0.0
 11
0.1
 21
-22.194391251
 31
0.0
  0
LINE
  5
147
330
1D
100
AcDbEntity
  8
2
  6
CONTINUOUS
370
    25
100
AcDbLine
 10
3.399999999
 20
-22.394391265
 30
0.0
 11
1.655555555
 21
-22.394391258
 31
0.0
  0
LINE
  5
148
330
1D
100
AcDbEntity
  8
2
  6
CONTINUOUS
370
    25
100
AcDbLine
 10
3.400000001
 20
-21.994391265
 30
0.0
 11
1.655555556
 21
-21.994391258
 31
0.0
  0
LINE
  5
149
330
1D
100
AcDbEntity
  8
2
  6
CONTINUOUS
370
    25
100
AcDbLine
 10
3.399999998
 20
-22.594391265
 30
0.0
 11
3.211111109
 21
-22.594391264
 31
0.0
  0
LINE
  5
14A
330
1D
100
AcDbEntity
  8
2
  6
CONTINUOUS
370
    25
100
AcDbLine
 10
3.400000002
 20
-21.794391265
 30
0.0
 11
3.211111113
 21
-21.794391264
 31
0.0
  0
LINE
  5
14B
330
1D
100
AcDbEntity
  8
2
  6
CONTINUOUS
370
    25
100
AcDbLine
 10
89.671983523
 20
-24.194391632
 30
0.0
 11
89.671983523
 21
15.6
 31
0.0
  0
LINE
  5
14C
330
1D
100
AcDbEntity
  8
2
  6
CONTINUOUS
370
    25
100
AcDbLine
 10
89.671983523
 20
-22.194391632
 30
0.0
 11
86.171983521
 21
-22.644391617
 31
0.0
  0
LINE
  5
14D
330
1D
100
AcDbEntity
  8
2
  6
CONTINUOUS
370
    25
100
AcDbLine
 10
86.171983521
 20
-22.644391617
 30
0.0
 11
86.171983525
 21
-21.744391617
 31
0.0
  0
LINE
  5
14E
330
1D
100
AcDbEntity
  8
2
  6
CONTINUOUS
370
    25
100
AcDbLine
 10
86.171983525
 20
-21.744391617
 30
0.0
 11
89.671983523
 21
-22.194391632
 31
0.0
  0
LINE
  5
14F
330
1D
100
AcDbEntity
  8
2
  6
CONTINUOUS
370
    25
100
AcDbLine
 10
86.271983523
 20
-22.194391618
 30
0.0
 11
89.571983523
 21
-22.194391632
 31
0.0
  0
LINE
  5
150
330
1D
100
AcDbEntity
  8
2
  6
CONTINUOUS
370
    25
100
AcDbLine
 10
86.271983524
 20
-21.994391618
 30
0.0
 11
88.016427968
 21
-21.994391625
 31
0.0
  0
LINE
  5
151
330
1D
100
AcDbEntity
  8
2
  6
CONTINUOUS
370
    25
100
AcDbLine
 10
86.271983522
 20
-22.394391618
 30
0.0
 11
88.016427967
 21
-22.394391625
 31
0.0
  0
LINE
  5
152
330
1D
100
AcDbEntity
  8
2
  6
CONTINUOUS
370
    25
100
AcDbLine
 10
86.271983525
 20
-21.794391618
 30
0.0
 11
86.460872414
 21
-21.794391618
 31
0.0
  0
LINE
  5
153
330
1D
100
AcDbEntity
  8
2
  6
CONTINUOUS
370
    25
100
AcDbLine
 10
86.271983521
 20
-22.594391618
 30
0.0
 11
86.46087241
 21
-22.594391618
 31
0.0
  0
LINE
  5
154
330
1D
100
AcDbEntity
  8
2
  6
CONTINUOUS
370
    25
100
AcDbLine
 10
3.5
 20
-22.194391265
 30
0.0
 11
86.171983523
 21
-22.194391617
 31
0.0
  0
TEXT
  5
155
330
1D
100
AcDbEntity
  8
2
  6
CONTINUOUS
370
    25
100
AcDbText
 10
40.081459516
 20
-20.694391421
 30
0.0
 40
3.5
  1
57-90
 50
359.9999997560001
  7
BMG_Text
100
AcDbText
  0
LINE
  5
156
330
1D
100
AcDbEntity
  8
2
  6
CONTINUOUS
370
    25
100
AcDbLine
 10
101.207048793
 20
16.000000522
 30
0.0
 11
89.271983523
 21
16.0
 31
0.0
  0
LINE
  5
157
330
1D
100
AcDbEntity
  8
2
  6
CONTINUOUS
370
    25
100
AcDbLine
 10
99.207048793
 20
16.000000434
 30
0.0
 11
99.657048946
 21
12.500000454
 31
0.0
  0
LINE
  5
158
330
1D
100
AcDbEntity
  8
2
  6
CONTINUOUS
370
    25
100
AcDbLine
 10
99.657048946
 20
12.500000454
 30
0.0
 11
98.757048946
 21
12.500000415
 31
0.0
  0
LINE
  5
159
330
1D
100
AcDbEntity
  8
2
  6
CONTINUOUS
370
    25
100
AcDbLine
 10
98.757048946
 20
12.500000415
 30
0.0
 11
99.207048793
 21
16.000000434
 31
0.0
  0
LINE
  5
15A
330
1D
100
AcDbEntity
  8
2
  6
CONTINUOUS
370
    25
100
AcDbLine
 10
99.207048941
 20
12.600000434
 30
0.0
 11
99.207048797
 21
15.900000434
 31
0.0
  0
LINE
  5
15B
330
1D
100
AcDbEntity
  8
2
  6
CONTINUOUS
370
    25
100
AcDbLine
 10
99.007048941
 20
12.600000426
 30
0.0
 11
99.007048865
 21
14.34444487
 31
0.0
  0
LINE
  5
15C
330
1D
100
AcDbEntity
  8
2
  6
CONTINUOUS
370
    25
100
AcDbLine
 10
99.407048941
 20
12.600000443
 30
0.0
 11
99.407048865
 21
14.344444887
 31
0.0
  0
LINE
  5
15D
330
1D
100
AcDbEntity
  8
2
  6
CONTINUOUS
370
    25
100
AcDbLine
 10
98.807048941
 20
12.600000417
 30
0.0
 11
98.807048933
 21
12.788889306
 31
0.0
  0
LINE
  5
15E
330
1D
100
AcDbEntity
  8
2
  6
CONTINUOUS
370
    25
100
AcDbLine
 10
99.607048941
 20
12.600000452
 30
0.0
 11
99.607048933
 21
12.788889341
 31
0.0
  0
LINE
  5
15F
330
1D
100
AcDbEntity
  8
2
  6
CONTINUOUS
370
    25
100
AcDbLine
 10
99.207049562
 20
-1.599999316
 30
0.0
 11
99.207048946
 21
12.500000434
 31
0.0
  0
TEXT
  5
160
330
1D
100
AcDbEntity
  8
2
  6
CONTINUOUS
370
    25
100
AcDbText
 10
97.869971303
 20
-3.300484894
 30
0.0
 40
3.5
  1
32
 50
90.00000250400001
  7
BMG_Text
100
AcDbText
  0
CIRCLE
  5
161
330
1D
100
AcDbEntity
  8
2
  6
CONTINUOUS
370
    25
100
AcDbCircle
 10
96.619971402
 20
-5.550484948
 30
0.0
 40
1.25
  0
LINE
  5
162
330
1D
100
AcDbEntity
  8
2
  6
CONTINUOUS
370
    25
100
AcDbLine
 10
97.869971456
 20
-6.800484894
 30
0.0
 11
95.369971347
 21
-4.300485003
 31
0.0
  0
TEXT
  5
163
330
1D
100
AcDbEntity
  8
2
  6
CONTINUOUS
370
    25
100
AcDbText
 10
97.869971109
 20
1.146077606
 30
0.0
 40
3.5
  1
-40
 50
90.00000250400001
  7
BMG_Text
100
AcDbText
  0
ENDSEC
  0
SECTION
  2
OBJECTS
  0
DICTIONARY
  5
C
330
0
100
AcDbDictionary
281
     1
  3
ACAD_GROUP
350
D
  3
ACAD_LAYOUT
350
1A
  3
ACAD_MATERIAL
350
1A2
  3
ACAD_MLEADERSTYLE
350
1B0
  3
ACAD_MLINESTYLE
350
17
  3
ACAD_PLOTSETTINGS
350
19
  3
ACAD_PLOTSTYLENAME
350
E
  3
ACAD_SCALELIST
350
16B
  3
ACAD_VISUALSTYLE
350
191
  3
ACDB_RECOMPOSE_DATA
350
1DD
  3
AcDbVariableDictionary
350
1AE
  0
DICTIONARY
  5
1B4
330
8
100
AcDbDictionary
280
     1
281
     1
  3
ACAD_XREC_ROUNDTRIP
360
1B5
  0
DICTIONARY
  5
D
102
{ACAD_REACTORS
330
C
102
}
330
C
100
AcDbDictionary
281
     1
  0
DICTIONARY
  5
1A
102
{ACAD_REACTORS
330
C
102
}
330
C
100
AcDbDictionary
281
     1
  3
Layout1
350
1C
  3
Model
350
1E
  0
DICTIONARY
  5
1A2
102
{ACAD_REACTORS
330
C
102
}
330
C
100
AcDbDictionary
281
     1
  3
ByBlock
350
1A4
  3
ByLayer
350
1A3
  3
Global
350
1A5
  0
DICTIONARY
  5
1B0
102
{ACAD_REACTORS
330
C
102
}
330
C
100
AcDbDictionary
281
     1
  0
DICTIONARY
  5
17
102
{ACAD_REACTORS
330
C
102
}
330
C
100
AcDbDictionary
281
     1
  3
Standard
350
18
  0
DICTIONARY
  5
19
102
{ACAD_REACTORS
330
C
102
}
330
C
100
AcDbDictionary
281
     1
  0
ACDBDICTIONARYWDFLT
  5
E
102
{ACAD_REACTORS
330
C
102
}
330
C
100
AcDbDictionary
281
     1
  3
Normal
350
F
100
AcDbDictionaryWithDefault
340
F
  0
DICTIONARY
  5
16B
102
{ACAD_REACTORS
330
C
102
}
330
C
100
AcDbDictionary
281
     1
  3
A0
350
16C
  3
A1
350
16D
  3
A2
350
16E
  3
A3
350
16F
  3
A4
350
170
  3
A5
350
171
  3
A6
350
172
  3
A7
350
173
  3
A8
350
174
  3
A9
350
175
  3
B0
350
176
  3
B1
350
177
  3
B2
350
178
  3
B3
350
179
  3
B4
350
17A
  3
B5
350
17B
  3
B6
350
17C
  3
B7
350
17D
  3
B8
350
17E
  3
B9
350
17F
  3
C0
350
180
  3
C1
350
181
  3
C2
350
182
  3
C3
350
183
  3
C4
350
184
  3
C5
350
185
  3
C6
350
186
  3
C7
350
187
  3
C8
350
188
  3
C9
350
189
  3
D0
350
18A
  3
D1
350
18B
  3
D2
350
18C
  0
DICTIONARY
  5
191
102
{ACAD_REACTORS
330
C
102
}
330
C
100
AcDbDictionary
281
     1
  3
2dWireframe
350
196
  3
3D Hidden
350
198
  3
3dWireframe
350
197
  3
Basic
350
199
  3
Brighten
350
19D
  3
ColorChange
350
1A1
  3
Conceptual
350
19B
  3
Dim
350
19C
  3
Facepattern
350
1A0
  3
Flat
350
192
  3
FlatWithEdges
350
193
  3
Gouraud
350
194
  3
GouraudWithEdges
350
195
  3
Linepattern
350
19F
  3
Realistic
350
19A
  3
Thicken
350
19E
  0
XRECORD
  5
1DD
102
{ACAD_REACTORS
330
C
102
}
330
C
100
AcDbXrecord
280
     1
  0
DICTIONARY
  5
1AE
102
{ACAD_REACTORS
330
C
102
}
330
C
100
AcDbDictionary
281
     1
  3
CANNOSCALE
350
1B6
  3
DIMASSOC
350
1B2
  3
HIDETEXT
350
1B3
  3
MSLTSCALE
350
1B1
  0
XRECORD
  5
1B5
102
{ACAD_REACTORS
330
1B4
102
}
330
1B4
100
AcDbXrecord
280
     1
102
VTR_0.000_0.000_1.000_1.000_VISUALSTYLE
340
196
102
VTR_0.000_0.000_1.000_1.000_GRIDDISPLAY
 70
     3
102
VTR_0.000_0.000_1.000_1.000_GRIDMAJOR
 70
     5
102
VTR_0.000_0.000_1.000_1.000_DEFAULTLIGHTING
280
     1
102
VTR_0.000_0.000_1.000_1.000_DEFAULTLIGHTINGTYPE
 70
     1
102
VTR_0.000_0.000_1.000_1.000_BRIGHTNESS
141
0.0
102
VTR_0.000_0.000_1.000_1.000_CONTRAST
142
0.0
  0
LAYOUT
  5
1C
102
{ACAD_REACTORS
330
1A
102
}
330
1A
100
AcDbPlotSettings
  1

  2
none_device
  4

  6

 40
0.0
 41
0.0
 42
0.0
 43
0.0
 44
0.0
 45
0.0
 46
0.0
 47
0.0
 48
0.0
 49
0.0
140
0.0
141
0.0
142
1.0
143
1.0
 70
   688
 72
     0
 73
     0
 74
     5
  7

 75
    16
147
1.0
148
0.0
149
0.0
100
AcDbLayout
  1
Layout1
 70
     1
 71
     1
 10
0.0
 20
0.0
 11
12.0
 21
9.0
 12
0.0
 22
0.0
 32
0.0
 14
1.000000000000000E+20
 24
1.000000000000000E+20
 34
1.000000000000000E+20
 15
-1.000000000000000E+20
 25
-1.000000000000000E+20
 35
-1.000000000000000E+20
146
0.0
 13
0.0
 23
0.0
 33
0.0
 16
1.0
 26
0.0
 36
0.0
 17
0.0
 27
1.0
 37
0.0
 76
     0
330
1B
  0
LAYOUT
  5
1E
102
{ACAD_REACTORS
330
1A
102
}
330
1A
100
AcDbPlotSettings
  1

  2
none_device
  4

  6

 40
0.0
 41
0.0
 42
0.0
 43
0.0
 44
0.0
 45
0.0
 46
0.0
 47
0.0
 48
0.0
 49
0.0
140
0.0
141
0.0
142
1.0
143
1.0
 70
  1712
 72
     0
 73
     0
 74
     0
  7

 75
     0
147
1.0
148
0.0
149
0.0
100
AcDbLayout
  1
Model
 70
     1
 71
     0
 10
0.0
 20
0.0
 11
12.0
 21
9.0
 12
0.0
 22
0.0
 32
0.0
 14
-48.797737991
 24
-44.217959459
 34
0.0
 15
100.672443498
 25
47.346539533
 35
0.0
146
0.0
 13
0.0
 23
0.0
 33
0.0
 16
1.0
 26
0.0
 36
0.0
 17
0.0
 27
1.0
 37
0.0
 76
     0
330
1D
331
164
  0
MATERIAL
  5
1A4
102
{ACAD_REACTORS
330
1A2
102
}
102
{ACAD_XDICTIONARY
360
1D9
102
}
330
1A2
100
AcDbMaterial
  1
ByBlock
  0
MATERIAL
  5
1A3
102
{ACAD_REACTORS
330
1A2
102
}
102
{ACAD_XDICTIONARY
360
1D7
102
}
330
1A2
100
AcDbMaterial
  1
ByLayer
  0
MATERIAL
  5
1A5
102
{ACAD_REACTORS
330
1A2
102
}
102
{ACAD_XDICTIONARY
360
1DB
102
}
330
1A2
100
AcDbMaterial
  1
Global
  0
MLINESTYLE
  5
18
102
{ACAD_REACTORS
330
17
102
}
330
17
100
AcDbMlineStyle
  2
Standard
 70
     0
  3

 62
   256
 51
90.0
 52
90.0
 71
     2
 49
0.5
 62
   256
  6
BYLAYER
 49
-0.5
 62
   256
  6
BYLAYER
  0
ACDBPLACEHOLDER
  5
F
102
{ACAD_REACTORS
330
E
102
}
330
E
  0
SCALE
  5
16C
102
{ACAD_REACTORS
330
16B
102
}
330
16B
100
AcDbScale
 70
     0
300
1:1
140
1.0
141
1.0
290
     1
  0
SCALE
  5
16D
102
{ACAD_REACTORS
330
16B
102
}
330
16B
100
AcDbScale
 70
     0
300
1:2
140
1.0
141
2.0
290
     0
  0
SCALE
  5
16E
102
{ACAD_REACTORS
330
16B
102
}
330
16B
100
AcDbScale
 70
     0
300
1:4
140
1.0
141
4.0
290
     0
  0
SCALE
  5
16F
102
{ACAD_REACTORS
330
16B
102
}
330
16B
100
AcDbScale
 70
     0
300
1:5
140
1.0
141
5.0
290
     0
  0
SCALE
  5
170
102
{ACAD_REACTORS
330
16B
102
}
330
16B
100
AcDbScale
 70
     0
300
1:8
140
1.0
141
8.0
290
     0
  0
SCALE
  5
171
102
{ACAD_REACTORS
330
16B
102
}
330
16B
100
AcDbScale
 70
     0
300
1:10
140
1.0
141
10.0
290
     0
  0
SCALE
  5
172
102
{ACAD_REACTORS
330
16B
102
}
330
16B
100
AcDbScale
 70
     0
300
1:16
140
1.0
141
16.0
290
     0
  0
SCALE
  5
173
102
{ACAD_REACTORS
330
16B
102
}
330
16B
100
AcDbScale
 70
     0
300
1:20
140
1.0
141
20.0
290
     0
  0
SCALE
  5
174
102
{ACAD_REACTORS
330
16B
102
}
330
16B
100
AcDbScale
 70
     0
300
1:30
140
1.0
141
30.0
290
     0
  0
SCALE
  5
175
102
{ACAD_REACTORS
330
16B
102
}
330
16B
100
AcDbScale
 70
     0
300
1:40
140
1.0
141
40.0
290
     0
  0
SCALE
  5
176
102
{ACAD_REACTORS
330
16B
102
}
330
16B
100
AcDbScale
 70
     0
300
1:50
140
1.0
141
50.0
290
     0
  0
SCALE
  5
177
102
{ACAD_REACTORS
330
16B
102
}
330
16B
100
AcDbScale
 70
     0
300
1:100
140
1.0
141
100.0
290
     0
  0
SCALE
  5
178
102
{ACAD_REACTORS
330
16B
102
}
330
16B
100
AcDbScale
 70
     0
300
2:1
140
2.0
141
1.0
290
     0
  0
SCALE
  5
179
102
{ACAD_REACTORS
330
16B
102
}
330
16B
100
AcDbScale
 70
     0
300
4:1
140
4.0
141
1.0
290
     0
  0
SCALE
  5
17A
102
{ACAD_REACTORS
330
16B
102
}
330
16B
100
AcDbScale
 70
     0
300
8:1
140
8.0
141
1.0
290
     0
  0
SCALE
  5
17B
102
{ACAD_REACTORS
330
16B
102
}
330
16B
100
AcDbScale
 70
     0
300
10:1
140
10.0
141
1.0
290
     0
  0
SCALE
  5
17C
102
{ACAD_REACTORS
330
16B
102
}
330
16B
100
AcDbScale
 70
     0
300
100:1
140
100.0
141
1.0
290
     0
  0
SCALE
  5
17D
102
{ACAD_REACTORS
330
16B
102
}
330
16B
100
AcDbScale
 70
     0
300
1/128" = 1'-0"
140
0.0078125
141
12.0
290
     0
  0
SCALE
  5
17E
102
{ACAD_REACTORS
330
16B
102
}
330
16B
100
AcDbScale
 70
     0
300
1/64" = 1'-0"
140
0.015625
141
12.0
290
     0
  0
SCALE
  5
17F
102
{ACAD_REACTORS
330
16B
102
}
330
16B
100
AcDbScale
 70
     0
300
1/32" = 1'-0"
140
0.03125
141
12.0
290
     0
  0
SCALE
  5
180
102
{ACAD_REACTORS
330
16B
102
}
330
16B
100
AcDbScale
 70
     0
300
1/16" = 1'-0"
140
0.0625
141
12.0
290
     0
  0
SCALE
  5
181
102
{ACAD_REACTORS
330
16B
102
}
330
16B
100
AcDbScale
 70
     0
300
3/32" = 1'-0"
140
0.09375
141
12.0
290
     0
  0
SCALE
  5
182
102
{ACAD_REACTORS
330
16B
102
}
330
16B
100
AcDbScale
 70
     0
300
1/8" = 1'-0"
140
0.125
141
12.0
290
     0
  0
SCALE
  5
183
102
{ACAD_REACTORS
330
16B
102
}
330
16B
100
AcDbScale
 70
     0
300
3/16" = 1'-0"
140
0.1875
141
12.0
290
     0
  0
SCALE
  5
184
102
{ACAD_REACTORS
330
16B
102
}
330
16B
100
AcDbScale
 70
     0
300
1/4" = 1'-0"
140
0.25
141
12.0
290
     0
  0
SCALE
  5
185
102
{ACAD_REACTORS
330
16B
102
}
330
16B
100
AcDbScale
 70
     0
300
3/8" = 1'-0"
140
0.375
141
12.0
290
     0
  0
SCALE
  5
186
102
{ACAD_REACTORS
330
16B
102
}
330
16B
100
AcDbScale
 70
     0
300
1/2" = 1'-0"
140
0.5
141
12.0
290
     0
  0
SCALE
  5
187
102
{ACAD_REACTORS
330
16B
102
}
330
16B
100
AcDbScale
 70
     0
300
3/4" = 1'-0"
140
0.75
141
12.0
290
     0
  0
SCALE
  5
188
102
{ACAD_REACTORS
330
16B
102
}
330
16B
100
AcDbScale
 70
     0
300
1" = 1'-0"
140
1.0
141
12.0
290
     0
  0
SCALE
  5
189
102
{ACAD_REACTORS
330
16B
102
}
330
16B
100
AcDbScale
 70
     0
300
1-1/2" = 1'-0"
140
1.5
141
12.0
290
     0
  0
SCALE
  5
18A
102
{ACAD_REACTORS
330
16B
102
}
330
16B
100
AcDbScale
 70
     0
300
3" = 1'-0"
140
3.0
141
12.0
290
     0
  0
SCALE
  5
18B
102
{ACAD_REACTORS
330
16B
102
}
330
16B
100
AcDbScale
 70
     0
300
6" = 1'-0"
140
6.0
141
12.0
290
     0
  0
SCALE
  5
18C
102
{ACAD_REACTORS
330
16B
102
}
330
16B
100
AcDbScale
 70
     0
300
1'-0" = 1'-0"
140
12.0
141
12.0
290
     0
  0
VISUALSTYLE
  5
196
102
{ACAD_REACTORS
330
191
102
}
102
{ACAD_XDICTIONARY
360
1BF
102
}
330
191
100
AcDbVisualStyle
  2
2dWireframe
 70
     4
 71
     0
 72
     2
 73
     0
 90
        0
 40
-0.6
 41
-30.0
 62
     5
 63
     7
 74
     1
 91
        4
 64
     7
 65
   257
 75
     1
175
     1
 42
1.0
 92
        0
 66
   257
 43
1.0
 76
     1
 77
     6
 78
     2
 67
     7
 79
     5
170
     0
171
     0
290
     0
174
     0
 93
        1
 44
0.0
173
     0
291
     0
 45
0.0
1001
ACAD
1000
AcDbSavedByObjectVersion
1070
     0
  0
VISUALSTYLE
  5
198
102
{ACAD_REACTORS
330
191
102
}
102
{ACAD_XDICTIONARY
360
1C3
102
}
330
191
100
AcDbVisualStyle
  2
3D Hidden
 70
     6
 71
     1
 72
     2
 73
     2
 90
        0
 40
-0.6
 41
-30.0
 62
     5
 63
     7
 74
     2
 91
        2
 64
     7
 65
   257
 75
     2
175
     1
 42
40.0
 92
        0
 66
   257
 43
1.0
 76
     1
 77
     6
 78
     2
 67
     7
 79
     3
170
     0
171
     0
290
     0
174
     0
 93
        1
 44
0.0
173
     0
291
     0
 45
0.0
1001
ACAD
1000
AcDbSavedByObjectVersion
1070
     0
  0
VISUALSTYLE
  5
197
102
{ACAD_REACTORS
330
191
102
}
102
{ACAD_XDICTIONARY
360
1C1
102
}
330
191
100
AcDbVisualStyle
  2
3dWireframe
 70
     5
 71
     0
 72
     2
 73
     0
 90
        0
 40
-0.6
 41
-30.0
 62
     5
 63
     7
 74
     1
 91
        4
 64
     7
 65
   257
 75
     1
175
     1
 42
1.0
 92
        0
 66
   257
 43
1.0
 76
     1
 77
     6
 78
     2
 67
     7
 79
     5
170
     0
171
     0
290
     0
174
     0
 93
        1
 44
0.0
173
     0
291
     0
 45
0.0
1001
ACAD
1000
AcDbSavedByObjectVersion
1070
     0
  0
VISUALSTYLE
  5
199
102
{ACAD_REACTORS
330
191
102
}
102
{ACAD_XDICTIONARY
360
1C5
102
}
330
191
100
AcDbVisualStyle
  2
Basic
 70
     7
 71
     1
 72
     0
 73
     1
 90
        0
 40
-0.6
 41
-30.0
 62
     5
 63
     7
 74
     0
 91
        4
 64
     7
 65
   257
 75
     1
175
     1
 42
1.0
 92
        8
 66
     7
 43
1.0
 76
     1
 77
     6
 78
     2
 67
     7
 79
     5
170
     0
171
     0
290
     0
174
     0
 93
        1
 44
0.0
173
     0
291
     1
 45
0.0
1001
ACAD
1000
AcDbSavedByObjectVersion
1070
     0
  0
VISUALSTYLE
  5
19D
102
{ACAD_REACTORS
330
191
102
}
102
{ACAD_XDICTIONARY
360
1CD
102
}
330
191
100
AcDbVisualStyle
  2
Brighten
 70
    12
 71
     2
 72
     2
 73
     0
 90
        0
 40
-0.6
 41
-30.0
 62
     5
 63
     7
 74
     1
 91
        4
 64
     7
 65
   257
 75
     1
175
     1
 42
1.0
 92
        8
 66
     7
 43
1.0
 76
     1
 77
     6
 78
     2
 67
     7
 79
     5
170
     0
171
     0
290
     0
174
     0
 93
        1
 44
50.0
173
     0
291
     1
 45
0.0
1001
ACAD
1000
AcDbSavedByObjectVersion
1070
     0
  0
VISUALSTYLE
  5
1A1
102
{ACAD_REACTORS
330
191
102
}
102
{ACAD_XDICTIONARY
360
1D5
102
}
330
191
100
AcDbVisualStyle
  2
ColorChange
 70
    16
 71
     2
 72
     2
 73
     3
 90
        0
 40
-0.6
 41
-30.0
 62
     5
 63
     8
 74
     1
 91
        4
 64
     7
 65
   257
 75
     1
175
     1
 42
1.0
 92
        8
 66
     8
 43
1.0
 76
     1
 77
     6
 78
     2
 67
     7
 79
     5
170
     0
171
     0
290
     0
174
     0
 93
        1
 44
0.0
173
     0
291
     1
 45
0.0
1001
ACAD
1000
AcDbSavedByObjectVersion
1070
     0
  0
VISUALSTYLE
  5
19B
102
{ACAD_REACTORS
330
191
102
}
102
{ACAD_XDICTIONARY
360
1C9
102
}
330
191
100
AcDbVisualStyle
  2
Conceptual
 70
     9
 71
     3
 72
     2
 73
     0
 90
        0
 40
-0.6
 41
-30.0
 62
     5
 63
     7
 74
     2
 91
        2
 64
     7
 65
   257
 75
     1
175
     1
 42
40.0
 92
        8
 66
     7
 43
1.0
 76
     1
 77
     6
 78
     2
 67
     7
 79
     3
170
     0
171
     0
290
     0
174
     0
 93
        1
 44
0.0
173
     0
291
     0
 45
0.0
1001
ACAD
1000
AcDbSavedByObjectVersion
1070
     0
  0
VISUALSTYLE
  5
19C
102
{ACAD_REACTORS
330
191
102
}
102
{ACAD_XDICTIONARY
360
1CB
102
}
330
191
100
AcDbVisualStyle
  2
Dim
 70
    11
 71
     2
 72
     2
 73
     0
 90
        0
 40
-0.6
 41
-30.0
 62
     5
 63
     7
 74
     1
 91
        4
 64
     7
 65
   257
 75
     1
175
     1
 42
1.0
 92
        8
 66
     7
 43
1.0
 76
     1
 77
     6
 78
     2
 67
     7
 79
     5
170
     0
171
     0
290
     0
174
     0
 93
        1
 44
-50.0
173
     0
291
     1
 45
0.0
1001
ACAD
1000
AcDbSavedByObjectVersion
1070
     0
  0
VISUALSTYLE
  5
1A0
102
{ACAD_REACTORS
330
191
102
}
102
{ACAD_XDICTIONARY
360
1D3
102
}
330
191
100
AcDbVisualStyle
  2
Facepattern
 70
    15
 71
     2
 72
     2
 73
     0
 90
        0
 40
-0.6
 41
-30.0
 62
     5
 63
     7
 74
     1
 91
        4
 64
     7
 65
   257
 75
     1
175
     1
 42
1.0
 92
        8
 66
     7
 43
1.0
 76
     1
 77
     6
 78
     2
 67
     7
 79
     5
170
     0
171
     0
290
     0
174
     0
 93
        1
 44
0.0
173
     0
291
     1
 45
0.0
1001
ACAD
1000
AcDbSavedByObjectVersion
1070
     0
  0
VISUALSTYLE
  5
192
102
{ACAD_REACTORS
330
191
102
}
102
{ACAD_XDICTIONARY
360
1B7
102
}
330
191
100
AcDbVisualStyle
  2
Flat
 70
     0
 71
     2
 72
     1
 73
     1
 90
        2
 40
-0.6
 41
30.0
 62
     5
 63
     7
 74
     0
 91
        4
 64
     7
 65
   257
 75
     1
175
     1
 42
1.0
 92
        8
 66
     7
 43
1.0
 76
     1
 77
     6
 78
     2
 67
     7
 79
     5
170
     0
171
     0
290
     0
174
     0
 93
       13
 44
0.0
173
     0
291
     1
 45
0.0
1001
ACAD
1000
AcDbSavedByObjectVersion
1070
     0
  0
VISUALSTYLE
  5
193
102
{ACAD_REACTORS
330
191
102
}
102
{ACAD_XDICTIONARY
360
1B9
102
}
330
191
100
AcDbVisualStyle
  2
FlatWithEdges
 70
     1
 71
     2
 72
     1
 73
     1
 90
        2
 40
-0.6
 41
30.0
 62
     5
 63
     7
 74
     1
 91
        4
 64
     7
 65
   257
 75
     1
175
     1
 42
1.0
 92
        0
 66
   257
 43
1.0
 76
     1
 77
     6
 78
     2
 67
     7
 79
     5
170
     0
171
     0
290
     0
174
     0
 93
       13
 44
0.0
173
     0
291
     1
 45
0.0
1001
ACAD
1000
AcDbSavedByObjectVersion
1070
     0
  0
VISUALSTYLE
  5
194
102
{ACAD_REACTORS
330
191
102
}
102
{ACAD_XDICTIONARY
360
1BB
102
}
330
191
100
AcDbVisualStyle
  2
Gouraud
 70
     2
 71
     2
 72
     2
 73
     1
 90
        2
 40
-0.6
 41
30.0
 62
     5
 63
     7
 74
     0
 91
        4
 64
     7
 65
   257
 75
     1
175
     1
 42
1.0
 92
        0
 66
     7
 43
1.0
 76
     1
 77
     6
 78
     2
 67
     7
 79
     5
170
     0
171
     0
290
     0
174
     0
 93
       13
 44
0.0
173
     0
291
     1
 45
0.0
1001
ACAD
1000
AcDbSavedByObjectVersion
1070
     0
  0
VISUALSTYLE
  5
195
102
{ACAD_REACTORS
330
191
102
}
102
{ACAD_XDICTIONARY
360
1BD
102
}
330
191
100
AcDbVisualStyle
  2
GouraudWithEdges
 70
     3
 71
     2
 72
     2
 73
     1
 90
        2
 40
-0.6
 41
30.0
 62
     5
 63
     7
 74
     1
 91
        4
 64
     7
 65
   257
 75
     1
175
     1
 42
1.0
 92
        0
 66
   257
 43
1.0
 76
     1
 77
     6
 78
     2
 67
     7
 79
     5
170
     0
171
     0
290
     0
174
     0
 93
       13
 44
0.0
173
     0
291
     1
 45
0.0
1001
ACAD
1000
AcDbSavedByObjectVersion
1070
     0
  0
VISUALSTYLE
  5
19F
102
{ACAD_REACTORS
330
191
102
}
102
{ACAD_XDICTIONARY
360
1D1
102
}
330
191
100
AcDbVisualStyle
  2
Linepattern
 70
    14
 71
     2
 72
     2
 73
     0
 90
        0
 40
-0.6
 41
-30.0
 62
     5
 63
     7
 74
     1
 91
        4
 64
     7
 65
   257
 75
     7
175
     7
 42
1.0
 92
        8
 66
     7
 43
1.0
 76
     1
 77
     6
 78
     2
 67
     7
 79
     5
170
     0
171
     0
290
     0
174
     0
 93
        1
 44
0.0
173
     0
291
     1
 45
0.0
1001
ACAD
1000
AcDbSavedByObjectVersion
1070
     0
  0
VISUALSTYLE
  5
19A
102
{ACAD_REACTORS
330
191
102
}
102
{ACAD_XDICTIONARY
360
1C7
102
}
330
191
100
AcDbVisualStyle
  2
Realistic
 70
     8
 71
     2
 72
     2
 73
     0
 90
        0
 40
-0.6
 41
-30.0
 62
     5
 63
     7
 74
     1
 91
        0
 64
     7
 65
   257
 75
     1
175
     1
 42
1.0
 92
        8
 66
     8
 43
1.0
 76
     1
 77
     6
 78
     2
 67
     7
 79
     5
170
     0
171
     0
290
     0
174
     0
 93
       13
 44
0.0
173
     0
291
     0
 45
0.0
1001
ACAD
1000
AcDbSavedByObjectVersion
1070
     0
  0
VISUALSTYLE
  5
19E
102
{ACAD_REACTORS
330
191
102
}
102
{ACAD_XDICTIONARY
360
1CF
102
}
330
191
100
AcDbVisualStyle
  2
Thicken
 70
    13
 71
     2
 72
     2
 73
     0
 90
        0
 40
-0.6
 41
-30.0
 62
     5
 63
     7
 74
     1
 91
        4
 64
     7
 65
   257
 75
     1
175
     1
 42
1.0
 92
       12
 66
     7
 43
1.0
 76
     1
 77
     6
 78
     2
 67
     7
 79
     5
170
     0
171
     0
290
     0
174
     0
 93
        1
 44
0.0
173
     0
291
     1
 45
0.0
1001
ACAD
1000
AcDbSavedByObjectVersion
1070
     0
  0
DICTIONARYVAR
  5
1B6
102
{ACAD_REACTORS
330
1AE
102
}
330
1AE
100
DictionaryVariables
280
     0
  1
1:1
  0
DICTIONARYVAR
  5
1B2
102
{ACAD_REACTORS
330
1AE
102
}
330
1AE
100
DictionaryVariables
280
     0
  1
2
  0
DICTIONARYVAR
  5
1B3
102
{ACAD_REACTORS
330
1AE
102
}
330
1AE
100
DictionaryVariables
280
     0
  1
1
  0
DICTIONARYVAR
  5
1B1
102
{ACAD_REACTORS
330
1AE
102
}
330
1AE
100
DictionaryVariables
280
     0
  1
0
  0
DICTIONARY
  5
1D9
330
1A4
100
AcDbDictionary
280
     1
281
     1
  3
ACAD_XREC_ROUNDTRIP
360
1DA
  0
DICTIONARY
  5
1D7
330
1A3
100
AcDbDictionary
280
     1
281
     1
  3
ACAD_XREC_ROUNDTRIP
360
1D8
  0
DICTIONARY
  5
1DB
330
1A5
100
AcDbDictionary
280
     1
281
     1
  3
ACAD_XREC_ROUNDTRIP
360
1DC
  0
DICTIONARY
  5
1BF
330
196
100
AcDbDictionary
280
     1
281
     1
  3
ACAD_XREC_ROUNDTRIP
360
1C0
  0
DICTIONARY
  5
1C3
330
198
100
AcDbDictionary
280
     1
281
     1
  3
ACAD_XREC_ROUNDTRIP
360
1C4
  0
DICTIONARY
  5
1C1
330
197
100
AcDbDictionary
280
     1
281
     1
  3
ACAD_XREC_ROUNDTRIP
360
1C2
  0
DICTIONARY
  5
1C5
330
199
100
AcDbDictionary
280
     1
281
     1
  3
ACAD_XREC_ROUNDTRIP
360
1C6
  0
DICTIONARY
  5
1CD
330
19D
100
AcDbDictionary
280
     1
281
     1
  3
ACAD_XREC_ROUNDTRIP
360
1CE
  0
DICTIONARY
  5
1D5
330
1A1
100
AcDbDictionary
280
     1
281
     1
  3
ACAD_XREC_ROUNDTRIP
360
1D6
  0
DICTIONARY
  5
1C9
330
19B
100
AcDbDictionary
280
     1
281
     1
  3
ACAD_XREC_ROUNDTRIP
360
1CA
  0
DICTIONARY
  5
1CB
330
19C
100
AcDbDictionary
280
     1
281
     1
  3
ACAD_XREC_ROUNDTRIP
360
1CC
  0
DICTIONARY
  5
1D3
330
1A0
100
AcDbDictionary
280
     1
281
     1
  3
ACAD_XREC_ROUNDTRIP
360
1D4
  0
DICTIONARY
  5
1B7
330
192
100
AcDbDictionary
280
     1
281
     1
  3
ACAD_XREC_ROUNDTRIP
360
1B8
  0
DICTIONARY
  5
1B9
330
193
100
AcDbDictionary
280
     1
281
     1
  3
ACAD_XREC_ROUNDTRIP
360
1BA
  0
DICTIONARY
  5
1BB
330
194
100
AcDbDictionary
280
     1
281
     1
  3
ACAD_XREC_ROUNDTRIP
360
1BC
  0
DICTIONARY
  5
1BD
330
195
100
AcDbDictionary
280
     1
281
     1
  3
ACAD_XREC_ROUNDTRIP
360
1BE
  0
DICTIONARY
  5
1D1
330
19F
100
AcDbDictionary
280
     1
281
     1
  3
ACAD_XREC_ROUNDTRIP
360
1D2
  0
DICTIONARY
  5
1C7
330
19A
100
AcDbDictionary
280
     1
281
     1
  3
ACAD_XREC_ROUNDTRIP
360
1C8
  0
DICTIONARY
  5
1CF
330
19E
100
AcDbDictionary
280
     1
281
     1
  3
ACAD_XREC_ROUNDTRIP
360
1D0
  0
XRECORD
  5
1DA
102
{ACAD_REACTORS
330
1D9
102
}
330
1D9
100
AcDbXrecord
280
     1
102
MATERIAL
148
0.0
149
0.0
149
0.0
 93
        0
 94
      127
282
     0
 72
     1
 77
     1
171
     1
175
     1
179
     1
273
     0
  0
XRECORD
  5
1D8
102
{ACAD_REACTORS
330
1D7
102
}
330
1D7
100
AcDbXrecord
280
     1
102
MATERIAL
148
0.0
149
0.0
149
0.0
 93
        0
 94
      127
282
     0
 72
     1
 77
     1
171
     1
175
     1
179
     1
273
     0
  0
XRECORD
  5
1DC
102
{ACAD_REACTORS
330
1DB
102
}
330
1DB
100
AcDbXrecord
280
     1
102
MATERIAL
148
0.0
149
0.0
149
0.0
 93
        0
 94
      127
282
     0
 72
     1
 77
     1
171
     1
175
     1
179
     1
273
     0
  0
XRECORD
  5
1C0
102
{ACAD_REACTORS
330
1BF
102
}
330
1BF
100
AcDbXrecord
280
     1
102
RTVSPropertyOp0
 70
     1
102
RTVSPropertyOp1
 70
     1
102
RTVSPropertyOp2
 70
     1
102
RTVSPropertyOp3
 70
     1
102
RTVSPropertyOp4
 70
     1
102
RTVSPropertyOp5
 70
     1
102
RTVSPropertyOp6
 70
     1
102
RTVSPropertyOp7
 70
     1
102
RTVSPropertyOp8
 70
     1
102
RTVSPropertyOp9
 70
     1
102
RTVSPropertyOp10
 70
     1
102
RTVSPropertyOp11
 70
     1
102
RTVSPropertyOp12
 70
     1
102
RTVSPropertyOp13
 70
     1
102
RTVSPropertyOp14
 70
     1
102
RTVSPropertyOp15
 70
     1
102
RTVSPropertyOp16
 70
     1
102
RTVSPropertyOp17
 70
     1
102
RTVSPropertyOp18
 70
     1
102
RTVSPropertyOp19
 70
     1
102
RTVSPropertyOp20
 70
     1
102
RTVSPropertyOp21
 70
     1
102
RTVSPropertyOp22
 70
     1
102
RTVSPropertyOp23
 70
     1
102
RTVSPropertyOp24
 70
     1
102
RTVSPropertyOp25
 70
     1
102
RTVSPropertyOp26
 70
     1
102
RTVSPropertyOp27
 70
     1
102
RTVSPropertyOp28
 70
     1
102
RTVSPropertyOp29
 70
     1
102
RTVSPropertyOp30
 70
     1
102
RTVSPropertyOp31
 70
     1
102
RTVSPropertyOp32
 70
     1
  0
XRECORD
  5
1C4
102
{ACAD_REACTORS
330
1C3
102
}
330
1C3
100
AcDbXrecord
280
     1
102
RTVSPropertyOp0
 70
     1
102
RTVSPropertyOp1
 70
     1
102
RTVSPropertyOp2
 70
     1
102
RTVSPropertyOp3
 70
     1
102
RTVSPropertyOp4
 70
     1
102
RTVSPropertyOp5
 70
     1
102
RTVSPropertyOp6
 70
     1
102
RTVSPropertyOp7
 70
     1
102
RTVSPropertyOp8
 70
     1
102
RTVSPropertyOp9
 70
     1
102
RTVSPropertyOp10
 70
     1
102
RTVSPropertyOp11
 70
     1
102
RTVSPropertyOp12
 70
     1
102
RTVSPropertyOp13
 70
     1
102
RTVSPropertyOp14
 70
     1
102
RTVSPropertyOp15
 70
     1
102
RTVSPropertyOp16
 70
     1
102
RTVSPropertyOp17
 70
     1
102
RTVSPropertyOp18
 70
     1
102
RTVSPropertyOp19
 70
     1
102
RTVSPropertyOp20
 70
     1
102
RTVSPropertyOp21
 70
     1
102
RTVSPropertyOp22
 70
     1
102
RTVSPropertyOp23
 70
     1
102
RTVSPropertyOp24
 70
     1
102
RTVSPropertyOp25
 70
     1
102
RTVSPropertyOp26
 70
     1
102
RTVSPropertyOp27
 70
     1
102
RTVSPropertyOp28
 70
     1
102
RTVSPropertyOp29
 70
     1
102
RTVSPropertyOp30
 70
     1
102
RTVSPropertyOp31
 70
     1
102
RTVSPropertyOp32
 70
     1
  0
XRECORD
  5
1C2
102
{ACAD_REACTORS
330
1C1
102
}
330
1C1
100
AcDbXrecord
280
     1
102
RTVSPropertyOp0
 70
     1
102
RTVSPropertyOp1
 70
     1
102
RTVSPropertyOp2
 70
     1
102
RTVSPropertyOp3
 70
     1
102
RTVSPropertyOp4
 70
     1
102
RTVSPropertyOp5
 70
     1
102
RTVSPropertyOp6
 70
     1
102
RTVSPropertyOp7
 70
     1
102
RTVSPropertyOp8
 70
     1
102
RTVSPropertyOp9
 70
     1
102
RTVSPropertyOp10
 70
     1
102
RTVSPropertyOp11
 70
     1
102
RTVSPropertyOp12
 70
     1
102
RTVSPropertyOp13
 70
     1
102
RTVSPropertyOp14
 70
     1
102
RTVSPropertyOp15
 70
     1
102
RTVSPropertyOp16
 70
     1
102
RTVSPropertyOp17
 70
     1
102
RTVSPropertyOp18
 70
     1
102
RTVSPropertyOp19
 70
     1
102
RTVSPropertyOp20
 70
     1
102
RTVSPropertyOp21
 70
     1
102
RTVSPropertyOp22
 70
     1
102
RTVSPropertyOp23
 70
     1
102
RTVSPropertyOp24
 70
     1
102
RTVSPropertyOp25
 70
     1
102
RTVSPropertyOp26
 70
     1
102
RTVSPropertyOp27
 70
     1
102
RTVSPropertyOp28
 70
     1
102
RTVSPropertyOp29
 70
     1
102
RTVSPropertyOp30
 70
     1
102
RTVSPropertyOp31
 70
     1
102
RTVSPropertyOp32
 70
     1
  0
XRECORD
  5
1C6
102
{ACAD_REACTORS
330
1C5
102
}
330
1C5
100
AcDbXrecord
280
     1
102
RTVSPropertyOp0
 70
     1
102
RTVSPropertyOp1
 70
     1
102
RTVSPropertyOp2
 70
     1
102
RTVSPropertyOp3
 70
     1
102
RTVSPropertyOp4
 70
     1
102
RTVSPropertyOp5
 70
     1
102
RTVSPropertyOp6
 70
     1
102
RTVSPropertyOp7
 70
     1
102
RTVSPropertyOp8
 70
     1
102
RTVSPropertyOp9
 70
     1
102
RTVSPropertyOp10
 70
     1
102
RTVSPropertyOp11
 70
     1
102
RTVSPropertyOp12
 70
     1
102
RTVSPropertyOp13
 70
     1
102
RTVSPropertyOp14
 70
     1
102
RTVSPropertyOp15
 70
     1
102
RTVSPropertyOp16
 70
     1
102
RTVSPropertyOp17
 70
     1
102
RTVSPropertyOp18
 70
     1
102
RTVSPropertyOp19
 70
     1
102
RTVSPropertyOp20
 70
     1
102
RTVSPropertyOp21
 70
     1
102
RTVSPropertyOp22
 70
     1
102
RTVSPropertyOp23
 70
     1
102
RTVSPropertyOp24
 70
     1
102
RTVSPropertyOp25
 70
     1
102
RTVSPropertyOp26
 70
     1
102
RTVSPropertyOp27
 70
     1
102
RTVSPropertyOp28
 70
     1
102
RTVSPropertyOp29
 70
     1
102
RTVSPropertyOp30
 70
     1
102
RTVSPropertyOp31
 70
     1
102
RTVSPropertyOp32
 70
     1
  0
XRECORD
  5
1CE
102
{ACAD_REACTORS
330
1CD
102
}
330
1CD
100
AcDbXrecord
280
     1
102
RTVSPropertyOp0
 70
     1
102
RTVSPropertyOp1
 70
     1
102
RTVSPropertyOp2
 70
     1
102
RTVSPropertyOp3
 70
     1
102
RTVSPropertyOp4
 70
     1
102
RTVSPropertyOp5
 70
     1
102
RTVSPropertyOp6
 70
     1
102
RTVSPropertyOp7
 70
     1
102
RTVSPropertyOp8
 70
     1
102
RTVSPropertyOp9
 70
     1
102
RTVSPropertyOp10
 70
     1
102
RTVSPropertyOp11
 70
     1
102
RTVSPropertyOp12
 70
     1
102
RTVSPropertyOp13
 70
     1
102
RTVSPropertyOp14
 70
     1
102
RTVSPropertyOp15
 70
     1
102
RTVSPropertyOp16
 70
     1
102
RTVSPropertyOp17
 70
     1
102
RTVSPropertyOp18
 70
     1
102
RTVSPropertyOp19
 70
     1
102
RTVSPropertyOp20
 70
     1
102
RTVSPropertyOp21
 70
     1
102
RTVSPropertyOp22
 70
     1
102
RTVSPropertyOp23
 70
     1
102
RTVSPropertyOp24
 70
     1
102
RTVSPropertyOp25
 70
     1
102
RTVSPropertyOp26
 70
     1
102
RTVSPropertyOp27
 70
     1
102
RTVSPropertyOp28
 70
     1
102
RTVSPropertyOp29
 70
     1
102
RTVSPropertyOp30
 70
     1
102
RTVSPropertyOp31
 70
     1
102
RTVSPropertyOp32
 70
     1
  0
XRECORD
  5
1D6
102
{ACAD_REACTORS
330
1D5
102
}
330
1D5
100
AcDbXrecord
280
     1
102
RTVSPropertyOp0
 70
     1
102
RTVSPropertyOp1
 70
     1
102
RTVSPropertyOp2
 70
     1
102
RTVSPropertyOp3
 70
     1
102
RTVSPropertyOp4
 70
     1
102
RTVSPropertyOp5
 70
     1
102
RTVSPropertyOp6
 70
     1
102
RTVSPropertyOp7
 70
     1
102
RTVSPropertyOp8
 70
     1
102
RTVSPropertyOp9
 70
     1
102
RTVSPropertyOp10
 70
     1
102
RTVSPropertyOp11
 70
     1
102
RTVSPropertyOp12
 70
     1
102
RTVSPropertyOp13
 70
     1
102
RTVSPropertyOp14
 70
     1
102
RTVSPropertyOp15
 70
     1
102
RTVSPropertyOp16
 70
     1
102
RTVSPropertyOp17
 70
     1
102
RTVSPropertyOp18
 70
     1
102
RTVSPropertyOp19
 70
     1
102
RTVSPropertyOp20
 70
     1
102
RTVSPropertyOp21
 70
     1
102
RTVSPropertyOp22
 70
     1
102
RTVSPropertyOp23
 70
     1
102
RTVSPropertyOp24
 70
     1
102
RTVSPropertyOp25
 70
     1
102
RTVSPropertyOp26
 70
     1
102
RTVSPropertyOp27
 70
     1
102
RTVSPropertyOp28
 70
     1
102
RTVSPropertyOp29
 70
     1
102
RTVSPropertyOp30
 70
     1
102
RTVSPropertyOp31
 70
     1
102
RTVSPropertyOp32
 70
     1
  0
XRECORD
  5
1CA
102
{ACAD_REACTORS
330
1C9
102
}
330
1C9
100
AcDbXrecord
280
     1
102
RTVSPropertyOp0
 70
     1
102
RTVSPropertyOp1
 70
     1
102
RTVSPropertyOp2
 70
     1
102
RTVSPropertyOp3
 70
     1
102
RTVSPropertyOp4
 70
     1
102
RTVSPropertyOp5
 70
     1
102
RTVSPropertyOp6
 70
     1
102
RTVSPropertyOp7
 70
     1
102
RTVSPropertyOp8
 70
     1
102
RTVSPropertyOp9
 70
     1
102
RTVSPropertyOp10
 70
     1
102
RTVSPropertyOp11
 70
     1
102
RTVSPropertyOp12
 70
     1
102
RTVSPropertyOp13
 70
     1
102
RTVSPropertyOp14
 70
     1
102
RTVSPropertyOp15
 70
     1
102
RTVSPropertyOp16
 70
     1
102
RTVSPropertyOp17
 70
     1
102
RTVSPropertyOp18
 70
     1
102
RTVSPropertyOp19
 70
     1
102
RTVSPropertyOp20
 70
     1
102
RTVSPropertyOp21
 70
     1
102
RTVSPropertyOp22
 70
     1
102
RTVSPropertyOp23
 70
     1
102
RTVSPropertyOp24
 70
     1
102
RTVSPropertyOp25
 70
     1
102
RTVSPropertyOp26
 70
     1
102
RTVSPropertyOp27
 70
     1
102
RTVSPropertyOp28
 70
     1
102
RTVSPropertyOp29
 70
     1
102
RTVSPropertyOp30
 70
     1
102
RTVSPropertyOp31
 70
     1
102
RTVSPropertyOp32
 70
     1
  0
XRECORD
  5
1CC
102
{ACAD_REACTORS
330
1CB
102
}
330
1CB
100
AcDbXrecord
280
     1
102
RTVSPropertyOp0
 70
     1
102
RTVSPropertyOp1
 70
     1
102
RTVSPropertyOp2
 70
     1
102
RTVSPropertyOp3
 70
     1
102
RTVSPropertyOp4
 70
     1
102
RTVSPropertyOp5
 70
     1
102
RTVSPropertyOp6
 70
     1
102
RTVSPropertyOp7
 70
     1
102
RTVSPropertyOp8
 70
     1
102
RTVSPropertyOp9
 70
     1
102
RTVSPropertyOp10
 70
     1
102
RTVSPropertyOp11
 70
     1
102
RTVSPropertyOp12
 70
     1
102
RTVSPropertyOp13
 70
     1
102
RTVSPropertyOp14
 70
     1
102
RTVSPropertyOp15
 70
     1
102
RTVSPropertyOp16
 70
     1
102
RTVSPropertyOp17
 70
     1
102
RTVSPropertyOp18
 70
     1
102
RTVSPropertyOp19
 70
     1
102
RTVSPropertyOp20
 70
     1
102
RTVSPropertyOp21
 70
     1
102
RTVSPropertyOp22
 70
     1
102
RTVSPropertyOp23
 70
     1
102
RTVSPropertyOp24
 70
     1
102
RTVSPropertyOp25
 70
     1
102
RTVSPropertyOp26
 70
     1
102
RTVSPropertyOp27
 70
     1
102
RTVSPropertyOp28
 70
     1
102
RTVSPropertyOp29
 70
     1
102
RTVSPropertyOp30
 70
     1
102
RTVSPropertyOp31
 70
     1
102
RTVSPropertyOp32
 70
     1
  0
XRECORD
  5
1D4
102
{ACAD_REACTORS
330
1D3
102
}
330
1D3
100
AcDbXrecord
280
     1
102
RTVSPropertyOp0
 70
     1
102
RTVSPropertyOp1
 70
     1
102
RTVSPropertyOp2
 70
     1
102
RTVSPropertyOp3
 70
     1
102
RTVSPropertyOp4
 70
     1
102
RTVSPropertyOp5
 70
     1
102
RTVSPropertyOp6
 70
     1
102
RTVSPropertyOp7
 70
     1
102
RTVSPropertyOp8
 70
     1
102
RTVSPropertyOp9
 70
     1
102
RTVSPropertyOp10
 70
     1
102
RTVSPropertyOp11
 70
     1
102
RTVSPropertyOp12
 70
     1
102
RTVSPropertyOp13
 70
     1
102
RTVSPropertyOp14
 70
     1
102
RTVSPropertyOp15
 70
     1
102
RTVSPropertyOp16
 70
     1
102
RTVSPropertyOp17
 70
     1
102
RTVSPropertyOp18
 70
     1
102
RTVSPropertyOp19
 70
     1
102
RTVSPropertyOp20
 70
     1
102
RTVSPropertyOp21
 70
     1
102
RTVSPropertyOp22
 70
     1
102
RTVSPropertyOp23
 70
     1
102
RTVSPropertyOp24
 70
     1
102
RTVSPropertyOp25
 70
     1
102
RTVSPropertyOp26
 70
     1
102
RTVSPropertyOp27
 70
     1
102
RTVSPropertyOp28
 70
     1
102
RTVSPropertyOp29
 70
     1
102
RTVSPropertyOp30
 70
     1
102
RTVSPropertyOp31
 70
     1
102
RTVSPropertyOp32
 70
     1
  0
XRECORD
  5
1B8
102
{ACAD_REACTORS
330
1B7
102
}
330
1B7
100
AcDbXrecord
280
     1
102
RTVSPropertyOp0
 70
     1
102
RTVSPropertyOp1
 70
     1
102
RTVSPropertyOp2
 70
     1
102
RTVSPropertyOp3
 70
     1
102
RTVSPropertyOp4
 70
     1
102
RTVSPropertyOp5
 70
     1
102
RTVSPropertyOp6
 70
     1
102
RTVSPropertyOp7
 70
     1
102
RTVSPropertyOp8
 70
     1
102
RTVSPropertyOp9
 70
     1
102
RTVSPropertyOp10
 70
     1
102
RTVSPropertyOp11
 70
     1
102
RTVSPropertyOp12
 70
     1
102
RTVSPropertyOp13
 70
     1
102
RTVSPropertyOp14
 70
     1
102
RTVSPropertyOp15
 70
     1
102
RTVSPropertyOp16
 70
     1
102
RTVSPropertyOp17
 70
     1
102
RTVSPropertyOp18
 70
     1
102
RTVSPropertyOp19
 70
     1
102
RTVSPropertyOp20
 70
     1
102
RTVSPropertyOp21
 70
     1
102
RTVSPropertyOp22
 70
     1
102
RTVSPropertyOp23
 70
     1
102
RTVSPropertyOp24
 70
     1
102
RTVSPropertyOp25
 70
     1
102
RTVSPropertyOp26
 70
     1
102
RTVSPropertyOp27
 70
     1
102
RTVSPropertyOp28
 70
     1
102
RTVSPropertyOp29
 70
     1
102
RTVSPropertyOp30
 70
     1
102
RTVSPropertyOp31
 70
     1
102
RTVSPropertyOp32
 70
     1
  0
XRECORD
  5
1BA
102
{ACAD_REACTORS
330
1B9
102
}
330
1B9
100
AcDbXrecord
280
     1
102
RTVSPropertyOp0
 70
     1
102
RTVSPropertyOp1
 70
     1
102
RTVSPropertyOp2
 70
     1
102
RTVSPropertyOp3
 70
     1
102
RTVSPropertyOp4
 70
     1
102
RTVSPropertyOp5
 70
     1
102
RTVSPropertyOp6
 70
     1
102
RTVSPropertyOp7
 70
     1
102
RTVSPropertyOp8
 70
     1
102
RTVSPropertyOp9
 70
     1
102
RTVSPropertyOp10
 70
     1
102
RTVSPropertyOp11
 70
     1
102
RTVSPropertyOp12
 70
     1
102
RTVSPropertyOp13
 70
     1
102
RTVSPropertyOp14
 70
     1
102
RTVSPropertyOp15
 70
     1
102
RTVSPropertyOp16
 70
     1
102
RTVSPropertyOp17
 70
     1
102
RTVSPropertyOp18
 70
     1
102
RTVSPropertyOp19
 70
     1
102
RTVSPropertyOp20
 70
     1
102
RTVSPropertyOp21
 70
     1
102
RTVSPropertyOp22
 70
     1
102
RTVSPropertyOp23
 70
     1
102
RTVSPropertyOp24
 70
     1
102
RTVSPropertyOp25
 70
     1
102
RTVSPropertyOp26
 70
     1
102
RTVSPropertyOp27
 70
     1
102
RTVSPropertyOp28
 70
     1
102
RTVSPropertyOp29
 70
     1
102
RTVSPropertyOp30
 70
     1
102
RTVSPropertyOp31
 70
     1
102
RTVSPropertyOp32
 70
     1
  0
XRECORD
  5
1BC
102
{ACAD_REACTORS
330
1BB
102
}
330
1BB
100
AcDbXrecord
280
     1
102
RTVSPropertyOp0
 70
     1
102
RTVSPropertyOp1
 70
     1
102
RTVSPropertyOp2
 70
     1
102
RTVSPropertyOp3
 70
     1
102
RTVSPropertyOp4
 70
     1
102
RTVSPropertyOp5
 70
     1
102
RTVSPropertyOp6
 70
     1
102
RTVSPropertyOp7
 70
     1
102
RTVSPropertyOp8
 70
     1
102
RTVSPropertyOp9
 70
     1
102
RTVSPropertyOp10
 70
     1
102
RTVSPropertyOp11
 70
     1
102
RTVSPropertyOp12
 70
     1
102
RTVSPropertyOp13
 70
     1
102
RTVSPropertyOp14
 70
     1
102
RTVSPropertyOp15
 70
     1
102
RTVSPropertyOp16
 70
     1
102
RTVSPropertyOp17
 70
     1
102
RTVSPropertyOp18
 70
     1
102
RTVSPropertyOp19
 70
     1
102
RTVSPropertyOp20
 70
     1
102
RTVSPropertyOp21
 70
     1
102
RTVSPropertyOp22
 70
     1
102
RTVSPropertyOp23
 70
     1
102
RTVSPropertyOp24
 70
     1
102
RTVSPropertyOp25
 70
     1
102
RTVSPropertyOp26
 70
     1
102
RTVSPropertyOp27
 70
     1
102
RTVSPropertyOp28
 70
     1
102
RTVSPropertyOp29
 70
     1
102
RTVSPropertyOp30
 70
     1
102
RTVSPropertyOp31
 70
     1
102
RTVSPropertyOp32
 70
     1
  0
XRECORD
  5
1BE
102
{ACAD_REACTORS
330
1BD
102
}
330
1BD
100
AcDbXrecord
280
     1
102
RTVSPropertyOp0
 70
     1
102
RTVSPropertyOp1
 70
     1
102
RTVSPropertyOp2
 70
     1
102
RTVSPropertyOp3
 70
     1
102
RTVSPropertyOp4
 70
     1
102
RTVSPropertyOp5
 70
     1
102
RTVSPropertyOp6
 70
     1
102
RTVSPropertyOp7
 70
     1
102
RTVSPropertyOp8
 70
     1
102
RTVSPropertyOp9
 70
     1
102
RTVSPropertyOp10
 70
     1
102
RTVSPropertyOp11
 70
     1
102
RTVSPropertyOp12
 70
     1
102
RTVSPropertyOp13
 70
     1
102
RTVSPropertyOp14
 70
     1
102
RTVSPropertyOp15
 70
     1
102
RTVSPropertyOp16
 70
     1
102
RTVSPropertyOp17
 70
     1
102
RTVSPropertyOp18
 70
     1
102
RTVSPropertyOp19
 70
     1
102
RTVSPropertyOp20
 70
     1
102
RTVSPropertyOp21
 70
     1
102
RTVSPropertyOp22
 70
     1
102
RTVSPropertyOp23
 70
     1
102
RTVSPropertyOp24
 70
     1
102
RTVSPropertyOp25
 70
     1
102
RTVSPropertyOp26
 70
     1
102
RTVSPropertyOp27
 70
     1
102
RTVSPropertyOp28
 70
     1
102
RTVSPropertyOp29
 70
     1
102
RTVSPropertyOp30
 70
     1
102
RTVSPropertyOp31
 70
     1
102
RTVSPropertyOp32
 70
     1
  0
XRECORD
  5
1D2
102
{ACAD_REACTORS
330
1D1
102
}
330
1D1
100
AcDbXrecord
280
     1
102
RTVSPropertyOp0
 70
     1
102
RTVSPropertyOp1
 70
     1
102
RTVSPropertyOp2
 70
     1
102
RTVSPropertyOp3
 70
     1
102
RTVSPropertyOp4
 70
     1
102
RTVSPropertyOp5
 70
     1
102
RTVSPropertyOp6
 70
     1
102
RTVSPropertyOp7
 70
     1
102
RTVSPropertyOp8
 70
     1
102
RTVSPropertyOp9
 70
     1
102
RTVSPropertyOp10
 70
     1
102
RTVSPropertyOp11
 70
     1
102
RTVSPropertyOp12
 70
     1
102
RTVSPropertyOp13
 70
     1
102
RTVSPropertyOp14
 70
     1
102
RTVSPropertyOp15
 70
     1
102
RTVSPropertyOp16
 70
     1
102
RTVSPropertyOp17
 70
     1
102
RTVSPropertyOp18
 70
     1
102
RTVSPropertyOp19
 70
     1
102
RTVSPropertyOp20
 70
     1
102
RTVSPropertyOp21
 70
     1
102
RTVSPropertyOp22
 70
     1
102
RTVSPropertyOp23
 70
     1
102
RTVSPropertyOp24
 70
     1
102
RTVSPropertyOp25
 70
     1
102
RTVSPropertyOp26
 70
     1
102
RTVSPropertyOp27
 70
     1
102
RTVSPropertyOp28
 70
     1
102
RTVSPropertyOp29
 70
     1
102
RTVSPropertyOp30
 70
     1
102
RTVSPropertyOp31
 70
     1
102
RTVSPropertyOp32
 70
     1
  0
XRECORD
  5
1C8
102
{ACAD_REACTORS
330
1C7
102
}
330
1C7
100
AcDbXrecord
280
     1
102
RTVSPropertyOp0
 70
     1
102
RTVSPropertyOp1
 70
     1
102
RTVSPropertyOp2
 70
     1
102
RTVSPropertyOp3
 70
     1
102
RTVSPropertyOp4
 70
     1
102
RTVSPropertyOp5
 70
     1
102
RTVSPropertyOp6
 70
     1
102
RTVSPropertyOp7
 70
     1
102
RTVSPropertyOp8
 70
     1
102
RTVSPropertyOp9
 70
     1
102
RTVSPropertyOp10
 70
     1
102
RTVSPropertyOp11
 70
     1
102
RTVSPropertyOp12
 70
     1
102
RTVSPropertyOp13
 70
     1
102
RTVSPropertyOp14
 70
     1
102
RTVSPropertyOp15
 70
     1
102
RTVSPropertyOp16
 70
     1
102
RTVSPropertyOp17
 70
     1
102
RTVSPropertyOp18
 70
     1
102
RTVSPropertyOp19
 70
     1
102
RTVSPropertyOp20
 70
     1
102
RTVSPropertyOp21
 70
     1
102
RTVSPropertyOp22
 70
     1
102
RTVSPropertyOp23
 70
     1
102
RTVSPropertyOp24
 70
     1
102
RTVSPropertyOp25
 70
     1
102
RTVSPropertyOp26
 70
     1
102
RTVSPropertyOp27
 70
     1
102
RTVSPropertyOp28
 70
     1
102
RTVSPropertyOp29
 70
     1
102
RTVSPropertyOp30
 70
     1
102
RTVSPropertyOp31
 70
     1
102
RTVSPropertyOp32
 70
     1
  0
XRECORD
  5
1D0
102
{ACAD_REACTORS
330
1CF
102
}
330
1CF
100
AcDbXrecord
280
     1
102
RTVSPropertyOp0
 70
     1
102
RTVSPropertyOp1
 70
     1
102
RTVSPropertyOp2
 70
     1
102
RTVSPropertyOp3
 70
     1
102
RTVSPropertyOp4
 70
     1
102
RTVSPropertyOp5
 70
     1
102
RTVSPropertyOp6
 70
     1
102
RTVSPropertyOp7
 70
     1
102
RTVSPropertyOp8
 70
     1
102
RTVSPropertyOp9
 70
     1
102
RTVSPropertyOp10
 70
     1
102
RTVSPropertyOp11
 70
     1
102
RTVSPropertyOp12
 70
     1
102
RTVSPropertyOp13
 70
     1
102
RTVSPropertyOp14
 70
     1
102
RTVSPropertyOp15
 70
     1
102
RTVSPropertyOp16
 70
     1
102
RTVSPropertyOp17
 70
     1
102
RTVSPropertyOp18
 70
     1
102
RTVSPropertyOp19
 70
     1
102
RTVSPropertyOp20
 70
     1
102
RTVSPropertyOp21
 70
     1
102
RTVSPropertyOp22
 70
     1
102
RTVSPropertyOp23
 70
     1
102
RTVSPropertyOp24
 70
     1
102
RTVSPropertyOp25
 70
     1
102
RTVSPropertyOp26
 70
     1
102
RTVSPropertyOp27
 70
     1
102
RTVSPropertyOp28
 70
     1
102
RTVSPropertyOp29
 70
     1
102
RTVSPropertyOp30
 70
     1
102
RTVSPropertyOp31
 70
     1
102
RTVSPropertyOp32
 70
     1
  0
ENDSEC
  0
EOF
