  0
SECTION
  2
HEADER
  9
$ACADVER
  1
AC1015
  9
$ACADMAINTVER
 70
     6
  9
$DWGCODEPAGE
  3
ANSI_1252
  9
$INSBASE
 10
0.0
 20
0.0
 30
0.0
  9
$EXTMIN
 10
-49.115456118
 20
-69.151990733
 30
0.0
  9
$EXTMAX
 10
166.798468569
 20
68.398673913
 30
0.0
  9
$LIMMIN
 10
-49.115456118
 20
-69.151990733
  9
$LIMMAX
 10
166.798468569
 20
68.398673913
  9
$ORTHOMODE
 70
     0
  9
$REGENMODE
 70
     1
  9
$FILLMODE
 70
     1
  9
$QTEXTMODE
 70
     0
  9
$MIRRTEXT
 70
     1
  9
$LTSCALE
 40
1.0
  9
$ATTMODE
 70
     1
  9
$TEXTSIZE
 40
0.2
  9
$TRACEWID
 40
0.05
  9
$TEXTSTYLE
  7
Standard
  9
$CLAYER
  8
0
  9
$CELTYPE
  6
ByBlock
  9
$CECOLOR
 62
   256
  9
$CELTSCALE
 40
1.0
  9
$DISPSILH
 70
     0
  9
$DIMSCALE
 40
1.0
  9
$DIMASZ
 40
0.18
  9
$DIMEXO
 40
0.0625
  9
$DIMDLI
 40
0.38
  9
$DIMRND
 40
0.0
  9
$DIMDLE
 40
0.0
  9
$DIMEXE
 40
0.18
  9
$DIMTP
 40
0.0
  9
$DIMTM
 40
0.0
  9
$DIMTXT
 40
0.18
  9
$DIMCEN
 40
0.09
  9
$DIMTSZ
 40
0.0
  9
$DIMTOL
 70
     0
  9
$DIMLIM
 70
     0
  9
$DIMTIH
 70
     1
  9
$DIMTOH
 70
     1
  9
$DIMSE1
 70
     0
  9
$DIMSE2
 70
     0
  9
$DIMTAD
 70
     0
  9
$DIMZIN
 70
     0
  9
$DIMBLK
  1

  9
$DIMASO
 70
     1
  9
$DIMSHO
 70
     1
  9
$DIMPOST
  1

  9
$DIMAPOST
  1

  9
$DIMALT
 70
     0
  9
$DIMALTD
 70
     2
  9
$DIMALTF
 40
25.4
  9
$DIMLFAC
 40
1.0
  9
$DIMTOFL
 70
     0
  9
$DIMTVP
 40
0.0
  9
$DIMTIX
 70
     0
  9
$DIMSOXD
 70
     0
  9
$DIMSAH
 70
     0
  9
$DIMBLK1
  1

  9
$DIMBLK2
  1

  9
$DIMSTYLE
  2
Standard
  9
$DIMCLRD
 70
     0
  9
$DIMCLRE
 70
     0
  9
$DIMCLRT
 70
     0
  9
$DIMTFAC
 40
1.0
  9
$DIMGAP
 40
0.09
  9
$DIMJUST
 70
     0
  9
$DIMSD1
 70
     0
  9
$DIMSD2
 70
     0
  9
$DIMTOLJ
 70
     1
  9
$DIMTZIN
 70
     0
  9
$DIMALTZ
 70
     0
  9
$DIMALTTZ
 70
     0
  9
$DIMUPT
 70
     0
  9
$DIMDEC
 70
     4
  9
$DIMTDEC
 70
     4
  9
$DIMALTU
 70
     2
  9
$DIMALTTD
 70
     2
  9
$DIMTXSTY
  7
Standard
  9
$DIMAUNIT
 70
     0
  9
$DIMADEC
 70
     0
  9
$DIMALTRND
 40
0.0
  9
$DIMAZIN
 70
     0
  9
$DIMDSEP
 70
    46
  9
$DIMATFIT
 70
     3
  9
$DIMFRAC
 70
     0
  9
$DIMLDRBLK
  1

  9
$DIMLUNIT
 70
     2
  9
$DIMLWD
 70
    -2
  9
$DIMLWE
 70
    -2
  9
$DIMTMOVE
 70
     2
  9
$LUNITS
 70
     2
  9
$LUPREC
 70
     4
  9
$SKETCHINC
 40
0.1
  9
$FILLETRAD
 40
0.5
  9
$AUNITS
 70
     2
  9
$AUPREC
 70
     0
  9
$MENU
  1
.
  9
$ELEVATION
 40
0.0
  9
$PELEVATION
 40
0.0
  9
$THICKNESS
 40
0.0
  9
$LIMCHECK
 70
     0
  9
$CHAMFERA
 40
0.5
  9
$CHAMFERB
 40
0.5
  9
$CHAMFERC
 40
1.0
  9
$CHAMFERD
 40
0.0
  9
$SKPOLY
 70
     0
  9
$TDCREATE
 40
2458327.544470324
  9
$TDUCREATE
 40
2458327.461136991
  9
$TDUPDATE
 40
2458327.544470579
  9
$TDUUPDATE
 40
2458327.461137245
  9
$TDINDWG
 40
0.0000000116
  9
$TDUSRTIMER
 40
0.0000000116
  9
$USRTIMER
 70
     1
  9
$ANGBASE
 50
0.0
  9
$ANGDIR
 70
     0
  9
$PDMODE
 70
     0
  9
$PDSIZE
 40
0.0
  9
$PLINEWID
 40
0.0
  9
$SPLFRAME
 70
     0
  9
$SPLINETYPE
 70
     6
  9
$SPLINESEGS
 70
     8
  9
$HANDSEED
  5
1EE
  9
$SURFTAB1
 70
     6
  9
$SURFTAB2
 70
     6
  9
$SURFTYPE
 70
     6
  9
$SURFU
 70
     6
  9
$SURFV
 70
     6
  9
$UCSBASE
  2

  9
$UCSNAME
  2

  9
$UCSORG
 10
0.0
 20
0.0
 30
0.0
  9
$UCSXDIR
 10
1.0
 20
0.0
 30
0.0
  9
$UCSYDIR
 10
0.0
 20
1.0
 30
0.0
  9
$UCSORTHOREF
  2

  9
$UCSORTHOVIEW
 70
     0
  9
$UCSORGTOP
 10
0.0
 20
0.0
 30
0.0
  9
$UCSORGBOTTOM
 10
0.0
 20
0.0
 30
0.0
  9
$UCSORGLEFT
 10
0.0
 20
0.0
 30
0.0
  9
$UCSORGRIGHT
 10
0.0
 20
0.0
 30
0.0
  9
$UCSORGFRONT
 10
0.0
 20
0.0
 30
0.0
  9
$UCSORGBACK
 10
0.0
 20
0.0
 30
0.0
  9
$PUCSBASE
  2

  9
$PUCSNAME
  2

  9
$PUCSORG
 10
0.0
 20
0.0
 30
0.0
  9
$PUCSXDIR
 10
1.0
 20
0.0
 30
0.0
  9
$PUCSYDIR
 10
0.0
 20
1.0
 30
0.0
  9
$PUCSORTHOREF
  2

  9
$PUCSORTHOVIEW
 70
     0
  9
$PUCSORGTOP
 10
0.0
 20
0.0
 30
0.0
  9
$PUCSORGBOTTOM
 10
0.0
 20
0.0
 30
0.0
  9
$PUCSORGLEFT
 10
0.0
 20
0.0
 30
0.0
  9
$PUCSORGRIGHT
 10
0.0
 20
0.0
 30
0.0
  9
$PUCSORGFRONT
 10
0.0
 20
0.0
 30
0.0
  9
$PUCSORGBACK
 10
0.0
 20
0.0
 30
0.0
  9
$USERI1
 70
     0
  9
$USERI2
 70
     0
  9
$USERI3
 70
     0
  9
$USERI4
 70
     0
  9
$USERI5
 70
     0
  9
$USERR1
 40
0.0
  9
$USERR2
 40
0.0
  9
$USERR3
 40
0.0
  9
$USERR4
 40
0.0
  9
$USERR5
 40
0.0
  9
$WORLDVIEW
 70
     1
  9
$SHADEDGE
 70
     3
  9
$SHADEDIF
 70
    70
  9
$TILEMODE
 70
     1
  9
$MAXACTVP
 70
    64
  9
$PINSBASE
 10
0.0
 20
0.0
 30
0.0
  9
$PLIMCHECK
 70
     0
  9
$PEXTMIN
 10
1.000000000000000E+20
 20
1.000000000000000E+20
 30
1.000000000000000E+20
  9
$PEXTMAX
 10
-1.000000000000000E+20
 20
-1.000000000000000E+20
 30
-1.000000000000000E+20
  9
$PLIMMIN
 10
0.0
 20
0.0
  9
$PLIMMAX
 10
12.0
 20
9.0
  9
$UNITMODE
 70
     0
  9
$VISRETAIN
 70
     1
  9
$PLINEGEN
 70
     0
  9
$PSLTSCALE
 70
     1
  9
$TREEDEPTH
 70
  3020
  9
$CMLSTYLE
  2
Standard
  9
$CMLJUST
 70
     0
  9
$CMLSCALE
 40
1.0
  9
$PROXYGRAPHICS
 70
     1
  9
$MEASUREMENT
 70
     0
  9
$CELWEIGHT
370
    -1
  9
$ENDCAPS
280
     0
  9
$JOINSTYLE
280
     0
  9
$LWDISPLAY
290
     0
  9
$INSUNITS
 70
     0
  9
$HYPERLINKBASE
  1

  9
$STYLESHEET
  1

  9
$XEDIT
290
     1
  9
$CEPSNTYPE
380
     0
  9
$PSTYLEMODE
290
     1
  9
$FINGERPRINTGUID
  2
{DC4F7E3D-608F-4093-8B14-ADF529E45CC6}
  9
$VERSIONGUID
  2
{FAEB1C32-E019-11D5-929B-00C0DF256EC4}
  9
$EXTNAMES
290
     1
  9
$PSVPSCALE
 40
0.0
  9
$OLESTARTUP
290
     0
  0
ENDSEC
  0
SECTION
  2
CLASSES
  0
CLASS
  1
ACDBDICTIONARYWDFLT
  2
AcDbDictionaryWithDefault
  3
ObjectDBX Classes
 90
        0
280
     0
281
     0
  0
CLASS
  1
SCALE
  2
AcDbScale
  3
ObjectDBX Classes
 90
     1153
280
     0
281
     0
  0
CLASS
  1
VISUALSTYLE
  2
AcDbVisualStyle
  3
ObjectDBX Classes
 90
     4095
280
     0
281
     0
  0
CLASS
  1
MATERIAL
  2
AcDbMaterial
  3
ObjectDBX Classes
 90
     1153
280
     0
281
     0
  0
CLASS
  1
DICTIONARYVAR
  2
AcDbDictionaryVar
  3
ObjectDBX Classes
 90
        0
280
     0
281
     0
  0
CLASS
  1
ACDBPLACEHOLDER
  2
AcDbPlaceHolder
  3
ObjectDBX Classes
 90
        0
280
     0
281
     0
  0
CLASS
  1
LAYOUT
  2
AcDbLayout
  3
ObjectDBX Classes
 90
        0
280
     0
281
     0
  0
ENDSEC
  0
SECTION
  2
TABLES
  0
TABLE
  2
VPORT
  5
8
102
{ACAD_XDICTIONARY
360
1B3
102
}
330
0
100
AcDbSymbolTable
 70
     1
  0
VPORT
  5
163
330
8
100
AcDbSymbolTableRecord
100
AcDbViewportTableRecord
  2
*Active
 70
     0
 10
0.0
 20
0.0
 11
1.0
 21
1.0
 12
10.42990654205607
 22
4.5
 13
0.0
 23
0.0
 14
0.5
 24
0.5
 15
0.5
 25
0.5
 16
0.0
 26
0.0
 36
1.0
 17
0.0
 27
0.0
 37
0.0
 40
9.0
 41
1.972972972850329
 42
50.0
 43
0.0
 44
0.0
 50
0.0
 51
0.0
 71
     0
 72
   100
 73
     1
 74
     3
 75
     0
 76
     0
 77
     0
 78
     0
281
     0
 65
     1
110
0.0
120
0.0
130
0.0
111
1.0
121
0.0
131
0.0
112
0.0
122
1.0
132
0.0
 79
     0
146
0.0
  0
ENDTAB
  0
TABLE
  2
LTYPE
  5
5
330
0
100
AcDbSymbolTable
 70
     5
  0
LTYPE
  5
14
330
5
100
AcDbSymbolTableRecord
100
AcDbLinetypeTableRecord
  2
ByBlock
 70
     0
  3

 72
    65
 73
     0
 40
0.0
  0
LTYPE
  5
15
330
5
100
AcDbSymbolTableRecord
100
AcDbLinetypeTableRecord
  2
ByLayer
 70
     0
  3

 72
    65
 73
     0
 40
0.0
  0
LTYPE
  5
16
330
5
100
AcDbSymbolTableRecord
100
AcDbLinetypeTableRecord
  2
Continuous
 70
     0
  3
Solid line
 72
    65
 73
     0
 40
0.0
  0
LTYPE
  5
20
330
5
100
AcDbSymbolTableRecord
100
AcDbLinetypeTableRecord
  2
PUNKT
 70
     0
  3
..............
 72
    65
 73
     2
 40
1.5
 49
0.7
 74
     0
 49
-0.8
 74
     0
  0
LTYPE
  5
21
330
5
100
AcDbSymbolTableRecord
100
AcDbLinetypeTableRecord
  2
GESTRICHELT
 70
     0
  3
-- -- -- -- --
 72
    65
 73
     7
 40
2.8
 49
0.9
 74
     0
 49
0.0
 74
     0
 49
0.9
 74
     0
 49
0.0
 74
     0
 49
0.2
 74
     0
 49
0.0
 74
     0
 49
-0.8
 74
     0
  0
LTYPE
  5
22
330
5
100
AcDbSymbolTableRecord
100
AcDbLinetypeTableRecord
  2
STRICHPUNKT
 70
     0
  3
--.--.--.--.--
 72
    65
 73
     4
 40
8.8
 49
5.5
 74
     0
 49
-1.3
 74
     0
 49
0.7
 74
     0
 49
-1.3
 74
     0
  0
LTYPE
  5
25
330
5
100
AcDbSymbolTableRecord
100
AcDbLinetypeTableRecord
  2
PHANTOM
 70
     0
  3
--..--..--..--
 72
    65
 73
     6
 40
14.2
 49
7.0
 74
     0
 49
-1.8
 74
     0
 49
0.9
 74
     0
 49
-1.8
 74
     0
 49
0.9
 74
     0
 49
-1.8
 74
     0
  0
LTYPE
  5
1DD
330
5
100
AcDbSymbolTableRecord
100
AcDbLinetypeTableRecord
  2
DASH
 70
     0
  3
DASH _ _ _ _ _
 72
    65
 73
     2
 40
0.75
 49
0.40
 74
     0
 49
-0.35
 74
     0
  0
LTYPE
  5
1DE
330
5
100
AcDbSymbolTableRecord
100
AcDbLinetypeTableRecord
  2
LONGDASH_DASH
 70
     0
  3
LONGDASH_DASH __ . __ . __
 72
    65
 73
     4
 40
0.85
 49
0.40
 74
     0
 49
-0.20
 74
     0
 49
0.05
 74
     0
 49
-0.20
 74
     0
  0
LTYPE
  5
1DF
330
5
100
AcDbSymbolTableRecord
100
AcDbLinetypeTableRecord
  2
LONGDASH_DASH_DASH
 70
     0
  3
LONGDASH_DASH_DASH __ . . __ . . __
 72
    65
 73
     6
 40
1.10
 49
0.40
 74
     0
 49
-0.20
 74
     0
 49
0.05
 74
     0
 49
-0.20
 74
     0
 49
0.05
 74
     0
 49
-0.20
 74
     0
  0
ENDTAB
  0
TABLE
  2
LAYER
  5
2
330
0
100
AcDbSymbolTable
 70
    14
  0
LAYER
  5
1A6
330
2
100
AcDbSymbolTableRecord
100
AcDbLayerTableRecord
  2
200
 70
     0
 62
     2
  6
Continuous
370
    50
390
F
  0
LAYER
  5
1E0
330
2
100
AcDbSymbolTableRecord
100
AcDbLayerTableRecord
  2
0
 70
     0
 62
     -1
  6
CONTINUOUS
370
    -3
390
F
  0
LAYER
  5
1E1
330
2
100
AcDbSymbolTableRecord
100
AcDbLayerTableRecord
  2
1
 70
     0
 62
     4
  6
CONTINUOUS
370
    50
390
F
  0
LAYER
  5
1E2
330
2
100
AcDbSymbolTableRecord
100
AcDbLayerTableRecord
  2
2
 70
     0
 62
     7
  6
CONTINUOUS
370
    25
390
F
  0
LAYER
  5
1E3
330
2
100
AcDbSymbolTableRecord
100
AcDbLayerTableRecord
  2
3
 70
     0
 62
     1
  6
DASH
370
    35
390
F
  0
LAYER
  5
1E4
330
2
100
AcDbSymbolTableRecord
100
AcDbLayerTableRecord
  2
4
 70
     0
 62
     2
  6
LONGDASH_DASH
370
    25
390
F
  0
LAYER
  5
1E5
330
2
100
AcDbSymbolTableRecord
100
AcDbLayerTableRecord
  2
6
 70
     0
 62
     5
  6
CONTINUOUS
370
    -3
390
F
  0
LAYER
  5
1E6
330
2
100
AcDbSymbolTableRecord
100
AcDbLayerTableRecord
  2
CUT
 70
     0
 62
     1
  6
CONTINUOUS
370
    25
390
F
  0
LAYER
  5
1E7
330
2
100
AcDbSymbolTableRecord
100
AcDbLayerTableRecord
  2
NOCUT
 70
     0
 62
     7
  6
CONTINUOUS
370
    25
390
F
  0
LAYER
  5
1E8
330
2
100
AcDbSymbolTableRecord
100
AcDbLayerTableRecord
  2
SK1
 70
     0
 62
     4
  6
CONTINUOUS
370
    50
390
F
  0
LAYER
  5
1E9
330
2
100
AcDbSymbolTableRecord
100
AcDbLayerTableRecord
  2
SK2
 70
     0
 62
     7
  6
CONTINUOUS
370
    25
390
F
  0
LAYER
  5
1EA
330
2
100
AcDbSymbolTableRecord
100
AcDbLayerTableRecord
  2
SK3
 70
     0
 62
     1
  6
DASH
370
    35
390
F
  0
LAYER
  5
1EB
330
2
100
AcDbSymbolTableRecord
100
AcDbLayerTableRecord
  2
SK4
 70
     0
 62
     2
  6
LONGDASH_DASH
370
    25
390
F
  0
LAYER
  5
1EC
330
2
100
AcDbSymbolTableRecord
100
AcDbLayerTableRecord
  2
SK6
 70
     0
 62
     5
  6
CONTINUOUS
370
    -3
390
F
  0
LAYER
  5
1ED
330
2
100
AcDbSymbolTableRecord
100
AcDbLayerTableRecord
  2
INFTOTAL
 70
     0
 62
     9
  6
CONTINUOUS
370
    18
390
F
  0
ENDTAB
  0
TABLE
  2
STYLE
  5
3
330
0
100
AcDbSymbolTable
 70
     2
  0
STYLE
  5
11
330
3
100
AcDbSymbolTableRecord
100
AcDbTextStyleTableRecord
  2
Standard
 70
     0
 40
0.0
 41
1.0
 50
0.0
 71
     0
 42
0.2
  3
txt
  4

  0
STYLE
  5
1A5
330
3
100
AcDbSymbolTableRecord
100
AcDbTextStyleTableRecord
  2
BMG_Text
 70
     0
 40
3.5
 41
1.0
 50
0.0
 71
     0
 42
0.2
  3
monos.ttf
  4

1001
ACAD
1000
Monospac821 BT
1071
       49
  0
ENDTAB
  0
TABLE
  2
VIEW
  5
6
330
0
100
AcDbSymbolTable
 70
     0
  0
ENDTAB
  0
TABLE
  2
UCS
  5
7
330
0
100
AcDbSymbolTable
 70
     0
  0
ENDTAB
  0
TABLE
  2
APPID
  5
9
330
0
100
AcDbSymbolTable
 70
     1
  0
APPID
  5
12
330
9
100
AcDbSymbolTableRecord
100
AcDbRegAppTableRecord
  2
ACAD
 70
     0
  0
ENDTAB
  0
TABLE
  2
DIMSTYLE
  5
A
330
0
100
AcDbSymbolTable
 70
     1
100
AcDbDimStyleTable
  0
DIMSTYLE
105
28
330
A
100
AcDbSymbolTableRecord
100
AcDbDimStyleTableRecord
  2
Standard
 70
     0
178
     0
340
11
  0
ENDTAB
  0
TABLE
  2
BLOCK_RECORD
  5
1
330
0
100
AcDbSymbolTable
 70
     0
  0
BLOCK_RECORD
  5
1D
330
1
100
AcDbSymbolTableRecord
100
AcDbBlockTableRecord
  2
*Model_Space
340
1E
  0
BLOCK_RECORD
  5
1B
330
1
100
AcDbSymbolTableRecord
100
AcDbBlockTableRecord
  2
*Paper_Space
340
1C
  0
ENDTAB
  0
ENDSEC
  0
SECTION
  2
BLOCKS
  0
BLOCK
  5
18E
330
1D
100
AcDbEntity
  8
0
100
AcDbBlockBegin
  2
*Model_Space
 70
     0
 10
0.0
 20
0.0
 30
0.0
  3
*Model_Space
  1

  0
ENDBLK
  5
18F
330
1D
100
AcDbEntity
  8
0
100
AcDbBlockEnd
  0
BLOCK
  5
18C
330
1B
100
AcDbEntity
 67
     1
  8
0
100
AcDbBlockBegin
  2
*Paper_Space
 70
     0
 10
0.0
 20
0.0
 30
0.0
  3
*Paper_Space
  1

  0
ENDBLK
  5
18D
330
1B
100
AcDbEntity
 67
     1
  8
0
100
AcDbBlockEnd
  0
ENDSEC
  0
SECTION
  2
ENTITIES
  0
LINE
  5
29
330
1D
100
AcDbEntity
  8
SK3
  6
DASH
370
    35
100
AcDbLine
 10
130.295789978
 20
-5.470987609
 30
0.0
 11
133.682696516
 21
8.113152559
 31
0.0
  0
LINE
  5
2A
330
1D
100
AcDbEntity
  8
SK3
  6
DASH
370
    35
100
AcDbLine
 10
133.682696516
 20
8.113152559
 30
0.0
 11
134.04557936
 21
9.568596148
 31
0.0
  0
LINE
  5
2B
330
1D
100
AcDbEntity
  8
SK3
  6
DASH
370
    35
100
AcDbLine
 10
134.04557936
 20
9.568596148
 30
0.0
 11
136.956466539
 21
8.842830462
 31
0.0
  0
LINE
  5
2C
330
1D
100
AcDbEntity
  8
1
  6
CONTINUOUS
370
    50
100
AcDbLine
 10
117.5
 20
6.304760106
 30
0.0
 11
136.323654526
 21
6.304760106
 31
0.0
  0
LINE
  5
2D
330
1D
100
AcDbEntity
  8
1
  6
CONTINUOUS
370
    50
100
AcDbLine
 10
136.323654526
 20
6.304760106
 30
0.0
 11
138.0
 21
13.028214572
 31
0.0
  0
LINE
  5
2E
330
1D
100
AcDbEntity
  8
CUT
  6
CONTINUOUS
370
    25
100
AcDbLine
 10
138.0
 20
13.028214572
 30
0.0
 11
138.0
 21
13.076696831
 31
0.0
  0
LINE
  5
2F
330
1D
100
AcDbEntity
  8
1
  6
CONTINUOUS
370
    50
100
AcDbLine
 10
138.0
 20
13.076696831
 30
0.0
 11
136.414636859
 21
13.076696831
 31
0.0
  0
LINE
  5
30
330
1D
100
AcDbEntity
  8
1
  6
CONTINUOUS
370
    50
100
AcDbLine
 10
136.414636859
 20
13.076696831
 30
0.0
 11
136.644842195
 21
14.0
 31
0.0
  0
LINE
  5
31
330
1D
100
AcDbEntity
  8
1
  6
CONTINUOUS
370
    50
100
AcDbLine
 10
136.644842195
 20
14.0
 30
0.0
 11
117.5
 21
14.0
 31
0.0
  0
LINE
  5
32
330
1D
100
AcDbEntity
  8
1
  6
CONTINUOUS
370
    50
100
AcDbLine
 10
117.5
 20
14.0
 30
0.0
 11
117.5
 21
6.304760106
 31
0.0
  0
LINE
  5
33
330
1D
100
AcDbEntity
  8
1
  6
CONTINUOUS
370
    50
100
AcDbLine
 10
117.5
 20
6.304760106
 30
0.0
 11
116.988846345
 21
5.069415719
 31
0.0
  0
LINE
  5
34
330
1D
100
AcDbEntity
  8
1
  6
CONTINUOUS
370
    50
100
AcDbLine
 10
116.988846345
 20
5.069415719
 30
0.0
 11
116.563508395
 21
3.795425087
 31
0.0
  0
LINE
  5
35
330
1D
100
AcDbEntity
  8
1
  6
CONTINUOUS
370
    50
100
AcDbLine
 10
116.563508395
 20
3.795425087
 30
0.0
 11
116.149075268
 21
1.936260606
 31
0.0
  0
LINE
  5
36
330
1D
100
AcDbEntity
  8
1
  6
CONTINUOUS
370
    50
100
AcDbLine
 10
116.149075268
 20
1.936260606
 30
0.0
 11
116.0
 21
0.0
 31
0.0
  0
LINE
  5
37
330
1D
100
AcDbEntity
  8
1
  6
CONTINUOUS
370
    50
100
AcDbLine
 10
116.0
 20
0.0
 30
0.0
 11
116.029039448
 21
-0.852542957
 31
0.0
  0
LINE
  5
38
330
1D
100
AcDbEntity
  8
1
  6
CONTINUOUS
370
    50
100
AcDbLine
 10
116.029039448
 20
-0.852542957
 30
0.0
 11
116.197213441
 21
-2.229176794
 31
0.0
  0
LINE
  5
39
330
1D
100
AcDbEntity
  8
1
  6
CONTINUOUS
370
    50
100
AcDbLine
 10
116.197213441
 20
-2.229176794
 30
0.0
 11
116.507015938
 21
-3.596173468
 31
0.0
  0
LINE
  5
3A
330
1D
100
AcDbEntity
  8
1
  6
CONTINUOUS
370
    50
100
AcDbLine
 10
116.507015938
 20
-3.596173468
 30
0.0
 11
116.950044299
 21
-4.965248397
 31
0.0
  0
LINE
  5
3B
330
1D
100
AcDbEntity
  8
1
  6
CONTINUOUS
370
    50
100
AcDbLine
 10
116.950044299
 20
-4.965248397
 30
0.0
 11
117.5
 21
-6.304760106
 31
0.0
  0
LINE
  5
3C
330
1D
100
AcDbEntity
  8
1
  6
CONTINUOUS
370
    50
100
AcDbLine
 10
117.5
 20
-6.304760106
 30
0.0
 11
133.179748034
 21
-6.304760106
 31
0.0
  0
LINE
  5
3D
330
1D
100
AcDbEntity
  8
1
  6
CONTINUOUS
370
    50
100
AcDbLine
 10
133.179748034
 20
-6.304760106
 30
0.0
 11
136.323654526
 21
6.304760106
 31
0.0
  0
LINE
  5
3E
330
1D
100
AcDbEntity
  8
1
  6
CONTINUOUS
370
    50
100
AcDbLine
 10
117.5
 20
14.0
 30
0.0
 11
116.0
 21
12.5
 31
0.0
  0
LINE
  5
3F
330
1D
100
AcDbEntity
  8
1
  6
CONTINUOUS
370
    50
100
AcDbLine
 10
116.0
 20
12.5
 30
0.0
 11
109.92820323
 21
12.5
 31
0.0
  0
LINE
  5
40
330
1D
100
AcDbEntity
  8
1
  6
CONTINUOUS
370
    50
100
AcDbLine
 10
109.92820323
 20
12.5
 30
0.0
 11
103.0
 21
8.5
 31
0.0
  0
LINE
  5
41
330
1D
100
AcDbEntity
  8
1
  6
CONTINUOUS
370
    50
100
AcDbLine
 10
103.0
 20
8.5
 30
0.0
 11
103.0
 21
0.0
 31
0.0
  0
LINE
  5
42
330
1D
100
AcDbEntity
  8
1
  6
CONTINUOUS
370
    50
100
AcDbLine
 10
103.0
 20
0.0
 30
0.0
 11
103.0
 21
-8.5
 31
0.0
  0
LINE
  5
43
330
1D
100
AcDbEntity
  8
1
  6
CONTINUOUS
370
    50
100
AcDbLine
 10
103.0
 20
-8.5
 30
0.0
 11
109.92820323
 21
-12.5
 31
0.0
  0
LINE
  5
44
330
1D
100
AcDbEntity
  8
1
  6
CONTINUOUS
370
    50
100
AcDbLine
 10
109.92820323
 20
-12.5
 30
0.0
 11
116.0
 21
-12.5
 31
0.0
  0
LINE
  5
45
330
1D
100
AcDbEntity
  8
1
  6
CONTINUOUS
370
    50
100
AcDbLine
 10
116.0
 20
-12.5
 30
0.0
 11
117.5
 21
-14.0
 31
0.0
  0
LINE
  5
46
330
1D
100
AcDbEntity
  8
1
  6
CONTINUOUS
370
    50
100
AcDbLine
 10
117.5
 20
-14.0
 30
0.0
 11
129.663658115
 21
-14.0
 31
0.0
  0
LINE
  5
47
330
1D
100
AcDbEntity
  8
1
  6
CONTINUOUS
370
    50
100
AcDbLine
 10
129.663658115
 20
-14.0
 30
0.0
 11
129.89386345
 21
-13.076696831
 31
0.0
  0
LINE
  5
48
330
1D
100
AcDbEntity
  8
1
  6
CONTINUOUS
370
    50
100
AcDbLine
 10
129.89386345
 20
-13.076696831
 30
0.0
 11
131.491314576
 21
-13.076696831
 31
0.0
  0
LINE
  5
49
330
1D
100
AcDbEntity
  8
1
  6
CONTINUOUS
370
    50
100
AcDbLine
 10
131.491314576
 20
-13.076696831
 30
0.0
 11
133.179748034
 21
-6.304760106
 31
0.0
  0
LINE
  5
4A
330
1D
100
AcDbEntity
  8
1
  6
CONTINUOUS
370
    50
100
AcDbLine
 10
103.0
 20
8.0
 30
0.0
 11
0.0
 21
8.0
 31
0.0
  0
LINE
  5
4B
330
1D
100
AcDbEntity
  8
1
  6
CONTINUOUS
370
    50
100
AcDbLine
 10
0.0
 20
8.0
 30
0.0
 11
-34.0
 21
8.0
 31
0.0
  0
LINE
  5
4C
330
1D
100
AcDbEntity
  8
1
  6
CONTINUOUS
370
    50
100
AcDbLine
 10
-34.0
 20
8.0
 30
0.0
 11
-35.0
 21
7.0
 31
0.0
  0
LINE
  5
4D
330
1D
100
AcDbEntity
  8
1
  6
CONTINUOUS
370
    50
100
AcDbLine
 10
-35.0
 20
7.0
 30
0.0
 11
-35.0
 21
0.0
 31
0.0
  0
LINE
  5
4E
330
1D
100
AcDbEntity
  8
1
  6
CONTINUOUS
370
    50
100
AcDbLine
 10
-35.0
 20
0.0
 30
0.0
 11
-35.0
 21
-7.0
 31
0.0
  0
LINE
  5
4F
330
1D
100
AcDbEntity
  8
1
  6
CONTINUOUS
370
    50
100
AcDbLine
 10
-35.0
 20
-7.0
 30
0.0
 11
-34.0
 21
-8.0
 31
0.0
  0
LINE
  5
50
330
1D
100
AcDbEntity
  8
1
  6
CONTINUOUS
370
    50
100
AcDbLine
 10
-34.0
 20
-8.0
 30
0.0
 11
0.0
 21
-8.0
 31
0.0
  0
LINE
  5
51
330
1D
100
AcDbEntity
  8
1
  6
CONTINUOUS
370
    50
100
AcDbLine
 10
0.0
 20
-8.0
 30
0.0
 11
103.0
 21
-8.0
 31
0.0
  0
LINE
  5
52
330
1D
100
AcDbEntity
  8
SK3
  6
DASH
370
    35
100
AcDbLine
 10
120.925655045
 20
7.583631165
 30
0.0
 11
122.135264523
 21
12.435109797
 31
0.0
  0
LINE
  5
53
330
1D
100
AcDbEntity
  8
SK3
  6
DASH
370
    35
100
AcDbLine
 10
122.135264523
 20
12.435109797
 30
0.0
 11
120.129958537
 21
10.35855466
 31
0.0
  0
LINE
  5
54
330
1D
100
AcDbEntity
  8
SK3
  6
DASH
370
    35
100
AcDbLine
 10
120.129958537
 20
10.35855466
 30
0.0
 11
120.925655045
 21
7.583631165
 31
0.0
  0
LINE
  5
55
330
1D
100
AcDbEntity
  8
SK3
  6
DASH
370
    35
100
AcDbLine
 10
118.409667331
 20
-2.507444388
 30
0.0
 11
119.619276809
 21
2.344034243
 31
0.0
  0
LINE
  5
56
330
1D
100
AcDbEntity
  8
SK3
  6
DASH
370
    35
100
AcDbLine
 10
119.619276809
 20
2.344034243
 30
0.0
 11
117.613970823
 21
0.267479107
 31
0.0
  0
LINE
  5
57
330
1D
100
AcDbEntity
  8
SK3
  6
DASH
370
    35
100
AcDbLine
 10
117.613970823
 20
0.267479107
 30
0.0
 11
118.409667331
 21
-2.507444388
 31
0.0
  0
LINE
  5
58
330
1D
100
AcDbEntity
  8
1
  6
CONTINUOUS
370
    50
100
AcDbLine
 10
117.5
 20
-14.0
 30
0.0
 11
117.5
 21
-6.304760106
 31
0.0
  0
LINE
  5
59
330
1D
100
AcDbEntity
  8
1
  6
CONTINUOUS
370
    50
100
AcDbLine
 10
116.0
 20
-12.5
 30
0.0
 11
116.0
 21
0.0
 31
0.0
  0
LINE
  5
5A
330
1D
100
AcDbEntity
  8
1
  6
CONTINUOUS
370
    50
100
AcDbLine
 10
116.0
 20
0.0
 30
0.0
 11
116.0
 21
12.5
 31
0.0
  0
LINE
  5
5B
330
1D
100
AcDbEntity
  8
1
  6
CONTINUOUS
370
    50
100
AcDbLine
 10
109.92820323
 20
-12.5
 30
0.0
 11
109.92820323
 21
12.5
 31
0.0
  0
LINE
  5
5C
330
1D
100
AcDbEntity
  8
1
  6
CONTINUOUS
370
    50
100
AcDbLine
 10
-34.0
 20
-8.0
 30
0.0
 11
-34.0
 21
0.0
 31
0.0
  0
LINE
  5
5D
330
1D
100
AcDbEntity
  8
1
  6
CONTINUOUS
370
    50
100
AcDbLine
 10
-34.0
 20
0.0
 30
0.0
 11
-34.0
 21
8.0
 31
0.0
  0
LINE
  5
5E
330
1D
100
AcDbEntity
  8
SK3
  6
DASH
370
    35
100
AcDbLine
 10
136.414636859
 20
13.076696831
 30
0.0
 11
129.89386345
 21
-13.076696831
 31
0.0
  0
LINE
  5
5F
330
1D
100
AcDbEntity
  8
SK3
  6
DASH
370
    35
100
AcDbLine
 10
125.36112328
 20
12.14611969
 30
0.0
 11
123.909591907
 21
6.324345332
 31
0.0
  0
LINE
  5
60
330
1D
100
AcDbEntity
  8
SK3
  6
DASH
370
    35
100
AcDbLine
 10
122.845135566
 20
2.055044137
 30
0.0
 11
121.393604193
 21
-3.766730221
 31
0.0
  0
LINE
  5
61
330
1D
100
AcDbEntity
  8
SK3
  6
DASH
370
    35
100
AcDbLine
 10
132.033852396
 20
1.5
 30
0.0
 11
110.0
 21
1.5
 31
0.0
  0
LINE
  5
62
330
1D
100
AcDbEntity
  8
SK3
  6
DASH
370
    35
100
AcDbLine
 10
110.0
 20
-1.5
 30
0.0
 11
133.094213585
 21
-1.5
 31
0.0
  0
LINE
  5
63
330
1D
100
AcDbEntity
  8
SK3
  6
DASH
370
    35
100
AcDbLine
 10
135.428315973
 20
9.120779827
 30
0.0
 11
125.240162333
 21
11.660971827
 31
0.0
  0
LINE
  5
64
330
1D
100
AcDbEntity
  8
SK3
  6
DASH
370
    35
100
AcDbLine
 10
125.240162333
 20
11.660971827
 30
0.0
 11
122.135264523
 21
12.435109797
 31
0.0
  0
LINE
  5
65
330
1D
100
AcDbEntity
  8
SK3
  6
DASH
370
    35
100
AcDbLine
 10
120.925655045
 20
7.583631165
 30
0.0
 11
124.030649884
 21
6.809469003
 31
0.0
  0
LINE
  5
66
330
1D
100
AcDbEntity
  8
SK3
  6
DASH
370
    35
100
AcDbLine
 10
124.030649884
 20
6.809469003
 30
0.0
 11
134.218706495
 21
4.269301196
 31
0.0
  0
LINE
  5
67
330
1D
100
AcDbEntity
  8
SK3
  6
DASH
370
    35
100
AcDbLine
 10
132.912328259
 20
-0.970295726
 30
0.0
 11
122.724174618
 21
1.569896274
 31
0.0
  0
LINE
  5
68
330
1D
100
AcDbEntity
  8
SK3
  6
DASH
370
    35
100
AcDbLine
 10
122.724174618
 20
1.569896274
 30
0.0
 11
119.619276809
 21
2.344034243
 31
0.0
  0
LINE
  5
69
330
1D
100
AcDbEntity
  8
SK3
  6
DASH
370
    35
100
AcDbLine
 10
118.409667331
 20
-2.507444388
 30
0.0
 11
121.51466217
 21
-3.28160655
 31
0.0
  0
LINE
  5
6A
330
1D
100
AcDbEntity
  8
SK3
  6
DASH
370
    35
100
AcDbLine
 10
121.51466217
 20
-3.28160655
 30
0.0
 11
131.702718781
 21
-5.821774358
 31
0.0
  0
LINE
  5
6B
330
1D
100
AcDbEntity
  8
SK3
  6
DASH
370
    35
100
AcDbLine
 10
131.702718781
 20
-5.821774358
 30
0.0
 11
133.206677157
 21
-6.196753296
 31
0.0
  0
LINE
  5
6C
330
1D
100
AcDbEntity
  8
SK3
  6
DASH
370
    35
100
AcDbLine
 10
-35.0
 20
-2.0
 30
0.0
 11
109.92820323
 21
-2.0
 31
0.0
  0
LINE
  5
6D
330
1D
100
AcDbEntity
  8
SK3
  6
DASH
370
    35
100
AcDbLine
 10
109.92820323
 20
2.0
 30
0.0
 11
-35.0
 21
2.0
 31
0.0
  0
LINE
  5
6E
330
1D
100
AcDbEntity
  8
SK3
  6
DASH
370
    35
100
AcDbLine
 10
125.36112328
 20
12.14611969
 30
0.0
 11
135.549276921
 21
9.60592769
 31
0.0
  0
LINE
  5
6F
330
1D
100
AcDbEntity
  8
SK3
  6
DASH
370
    35
100
AcDbLine
 10
123.909591907
 20
6.324345332
 30
0.0
 11
134.097745547
 21
3.784153333
 31
0.0
  0
LINE
  5
70
330
1D
100
AcDbEntity
  8
SK3
  6
DASH
370
    35
100
AcDbLine
 10
122.845135566
 20
2.055044137
 30
0.0
 11
133.033289207
 21
-0.485147863
 31
0.0
  0
LINE
  5
71
330
1D
100
AcDbEntity
  8
SK3
  6
DASH
370
    35
100
AcDbLine
 10
121.393604193
 20
-3.766730221
 30
0.0
 11
131.581757833
 21
-6.306922221
 31
0.0
  0
LINE
  5
72
330
1D
100
AcDbEntity
  8
SK1
  6
CONTINUOUS
370
    50
100
AcDbLine
 10
-37.312061934
 20
0.0
 30
0.0
 11
154.564971725
 21
0.0
 31
0.0
  0
LINE
  5
73
330
1D
100
AcDbEntity
  8
SK1
  6
CONTINUOUS
370
    50
100
AcDbLine
 10
119.251671266
 20
10.577536271
 30
0.0
 11
135.51380375
 21
6.522931257
 31
0.0
  0
LINE
  5
74
330
1D
100
AcDbEntity
  8
SK1
  6
CONTINUOUS
370
    50
100
AcDbLine
 10
116.751996145
 20
0.482393532
 30
0.0
 11
132.870503683
 21
-3.536401762
 31
0.0
  0
LINE
  5
75
330
1D
100
AcDbEntity
  8
2
  6
CONTINUOUS
370
    25
100
AcDbLine
 10
-35.0
 20
-30.839870453
 30
0.0
 11
-35.0
 21
-7.0
 31
0.0
  0
LINE
  5
76
330
1D
100
AcDbEntity
  8
2
  6
CONTINUOUS
370
    25
100
AcDbLine
 10
-35.0
 20
-28.839870453
 30
0.0
 11
-31.5
 21
-28.389870453
 31
0.0
  0
LINE
  5
77
330
1D
100
AcDbEntity
  8
2
  6
CONTINUOUS
370
    25
100
AcDbLine
 10
-31.5
 20
-28.389870453
 30
0.0
 11
-31.5
 21
-29.289870453
 31
0.0
  0
LINE
  5
78
330
1D
100
AcDbEntity
  8
2
  6
CONTINUOUS
370
    25
100
AcDbLine
 10
-31.5
 20
-29.289870453
 30
0.0
 11
-35.0
 21
-28.839870453
 31
0.0
  0
LINE
  5
79
330
1D
100
AcDbEntity
  8
2
  6
CONTINUOUS
370
    25
100
AcDbLine
 10
-31.6
 20
-28.839870453
 30
0.0
 11
-34.9
 21
-28.839870453
 31
0.0
  0
LINE
  5
7A
330
1D
100
AcDbEntity
  8
2
  6
CONTINUOUS
370
    25
100
AcDbLine
 10
-31.6
 20
-29.039870453
 30
0.0
 11
-33.344444444
 21
-29.039870453
 31
0.0
  0
LINE
  5
7B
330
1D
100
AcDbEntity
  8
2
  6
CONTINUOUS
370
    25
100
AcDbLine
 10
-31.6
 20
-28.639870453
 30
0.0
 11
-33.344444444
 21
-28.639870453
 31
0.0
  0
LINE
  5
7C
330
1D
100
AcDbEntity
  8
2
  6
CONTINUOUS
370
    25
100
AcDbLine
 10
-31.6
 20
-29.239870453
 30
0.0
 11
-31.788888889
 21
-29.239870453
 31
0.0
  0
LINE
  5
7D
330
1D
100
AcDbEntity
  8
2
  6
CONTINUOUS
370
    25
100
AcDbLine
 10
-31.6
 20
-28.439870453
 30
0.0
 11
-31.788888889
 21
-28.439870453
 31
0.0
  0
LINE
  5
7E
330
1D
100
AcDbEntity
  8
2
  6
CONTINUOUS
370
    25
100
AcDbLine
 10
0.0
 20
-30.839870453
 30
0.0
 11
0.0
 21
-8.0
 31
0.0
  0
LINE
  5
7F
330
1D
100
AcDbEntity
  8
2
  6
CONTINUOUS
370
    25
100
AcDbLine
 10
0.0
 20
-28.839870453
 30
0.0
 11
-3.5
 21
-29.289870453
 31
0.0
  0
LINE
  5
80
330
1D
100
AcDbEntity
  8
2
  6
CONTINUOUS
370
    25
100
AcDbLine
 10
-3.5
 20
-29.289870453
 30
0.0
 11
-3.5
 21
-28.389870453
 31
0.0
  0
LINE
  5
81
330
1D
100
AcDbEntity
  8
2
  6
CONTINUOUS
370
    25
100
AcDbLine
 10
-3.5
 20
-28.389870453
 30
0.0
 11
0.0
 21
-28.839870453
 31
0.0
  0
LINE
  5
82
330
1D
100
AcDbEntity
  8
2
  6
CONTINUOUS
370
    25
100
AcDbLine
 10
-3.4
 20
-28.839870453
 30
0.0
 11
-0.1
 21
-28.839870453
 31
0.0
  0
LINE
  5
83
330
1D
100
AcDbEntity
  8
2
  6
CONTINUOUS
370
    25
100
AcDbLine
 10
-3.4
 20
-28.639870453
 30
0.0
 11
-1.655555556
 21
-28.639870453
 31
0.0
  0
LINE
  5
84
330
1D
100
AcDbEntity
  8
2
  6
CONTINUOUS
370
    25
100
AcDbLine
 10
-3.4
 20
-29.039870453
 30
0.0
 11
-1.655555556
 21
-29.039870453
 31
0.0
  0
LINE
  5
85
330
1D
100
AcDbEntity
  8
2
  6
CONTINUOUS
370
    25
100
AcDbLine
 10
-3.4
 20
-28.439870453
 30
0.0
 11
-3.211111111
 21
-28.439870453
 31
0.0
  0
LINE
  5
86
330
1D
100
AcDbEntity
  8
2
  6
CONTINUOUS
370
    25
100
AcDbLine
 10
-3.4
 20
-29.239870453
 30
0.0
 11
-3.211111111
 21
-29.239870453
 31
0.0
  0
LINE
  5
87
330
1D
100
AcDbEntity
  8
2
  6
CONTINUOUS
370
    25
100
AcDbLine
 10
-31.5
 20
-28.839870453
 30
0.0
 11
-3.5
 21
-28.839870453
 31
0.0
  0
TEXT
  5
88
330
1D
100
AcDbEntity
  8
2
  6
CONTINUOUS
370
    25
100
AcDbText
 10
-15.437500391
 20
-27.339870453
 30
0.0
 40
3.5
  1
35
  7
BMG_Text
100
AcDbText
  0
TEXT
  5
89
330
1D
100
AcDbEntity
  8
2
  6
CONTINUOUS
370
    25
100
AcDbText
 10
-22.290312891
 20
-27.339870453
 30
0.0
 40
3.5
  1
min.
  7
BMG_Text
100
AcDbText
  0
LINE
  5
8A
330
1D
100
AcDbEntity
  8
2
  6
CONTINUOUS
370
    25
100
AcDbLine
 10
-43.998652935
 20
-8.0
 30
0.0
 11
-34.0
 21
-8.0
 31
0.0
  0
LINE
  5
8B
330
1D
100
AcDbEntity
  8
2
  6
CONTINUOUS
370
    25
100
AcDbLine
 10
-41.998652935
 20
-8.0
 30
0.0
 11
-42.448652935
 21
-4.5
 31
0.0
  0
LINE
  5
8C
330
1D
100
AcDbEntity
  8
2
  6
CONTINUOUS
370
    25
100
AcDbLine
 10
-42.448652935
 20
-4.5
 30
0.0
 11
-41.548652935
 21
-4.5
 31
0.0
  0
LINE
  5
8D
330
1D
100
AcDbEntity
  8
2
  6
CONTINUOUS
370
    25
100
AcDbLine
 10
-41.548652935
 20
-4.5
 30
0.0
 11
-41.998652935
 21
-8.0
 31
0.0
  0
LINE
  5
8E
330
1D
100
AcDbEntity
  8
2
  6
CONTINUOUS
370
    25
100
AcDbLine
 10
-41.998652935
 20
-4.6
 30
0.0
 11
-41.998652935
 21
-7.9
 31
0.0
  0
LINE
  5
8F
330
1D
100
AcDbEntity
  8
2
  6
CONTINUOUS
370
    25
100
AcDbLine
 10
-41.798652935
 20
-4.6
 30
0.0
 11
-41.798652935
 21
-6.344444444
 31
0.0
  0
LINE
  5
90
330
1D
100
AcDbEntity
  8
2
  6
CONTINUOUS
370
    25
100
AcDbLine
 10
-42.198652935
 20
-4.6
 30
0.0
 11
-42.198652935
 21
-6.344444444
 31
0.0
  0
LINE
  5
91
330
1D
100
AcDbEntity
  8
2
  6
CONTINUOUS
370
    25
100
AcDbLine
 10
-41.598652935
 20
-4.6
 30
0.0
 11
-41.598652935
 21
-4.788888889
 31
0.0
  0
LINE
  5
92
330
1D
100
AcDbEntity
  8
2
  6
CONTINUOUS
370
    25
100
AcDbLine
 10
-42.398652935
 20
-4.6
 30
0.0
 11
-42.398652935
 21
-4.788888889
 31
0.0
  0
LINE
  5
93
330
1D
100
AcDbEntity
  8
2
  6
CONTINUOUS
370
    25
100
AcDbLine
 10
-43.998652935
 20
8.0
 30
0.0
 11
-34.0
 21
8.0
 31
0.0
  0
LINE
  5
94
330
1D
100
AcDbEntity
  8
2
  6
CONTINUOUS
370
    25
100
AcDbLine
 10
-41.998652935
 20
8.0
 30
0.0
 11
-41.548652935
 21
4.5
 31
0.0
  0
LINE
  5
95
330
1D
100
AcDbEntity
  8
2
  6
CONTINUOUS
370
    25
100
AcDbLine
 10
-41.548652935
 20
4.5
 30
0.0
 11
-42.448652935
 21
4.5
 31
0.0
  0
LINE
  5
96
330
1D
100
AcDbEntity
  8
2
  6
CONTINUOUS
370
    25
100
AcDbLine
 10
-42.448652935
 20
4.5
 30
0.0
 11
-41.998652935
 21
8.0
 31
0.0
  0
LINE
  5
97
330
1D
100
AcDbEntity
  8
2
  6
CONTINUOUS
370
    25
100
AcDbLine
 10
-41.998652935
 20
4.6
 30
0.0
 11
-41.998652935
 21
7.9
 31
0.0
  0
LINE
  5
98
330
1D
100
AcDbEntity
  8
2
  6
CONTINUOUS
370
    25
100
AcDbLine
 10
-42.198652935
 20
4.6
 30
0.0
 11
-42.198652935
 21
6.344444444
 31
0.0
  0
LINE
  5
99
330
1D
100
AcDbEntity
  8
2
  6
CONTINUOUS
370
    25
100
AcDbLine
 10
-41.798652935
 20
4.6
 30
0.0
 11
-41.798652935
 21
6.344444444
 31
0.0
  0
LINE
  5
9A
330
1D
100
AcDbEntity
  8
2
  6
CONTINUOUS
370
    25
100
AcDbLine
 10
-42.398652935
 20
4.6
 30
0.0
 11
-42.398652935
 21
4.788888889
 31
0.0
  0
LINE
  5
9B
330
1D
100
AcDbEntity
  8
2
  6
CONTINUOUS
370
    25
100
AcDbLine
 10
-41.598652935
 20
4.6
 30
0.0
 11
-41.598652935
 21
4.788888889
 31
0.0
  0
LINE
  5
9C
330
1D
100
AcDbEntity
  8
2
  6
CONTINUOUS
370
    25
100
AcDbLine
 10
-41.998652935
 20
-4.5
 30
0.0
 11
-41.998652935
 21
4.5
 31
0.0
  0
TEXT
  5
9D
330
1D
100
AcDbEntity
  8
2
  6
CONTINUOUS
370
    25
100
AcDbText
 10
-43.498652935
 20
0.522812321
 30
0.0
 40
3.5
  1
16
 50
90.0
  7
BMG_Text
100
AcDbText
  0
CIRCLE
  5
9E
330
1D
100
AcDbEntity
  8
2
  6
CONTINUOUS
370
    25
100
AcDbCircle
 10
-44.748652935
 20
-1.727187679
 30
0.0
 40
1.25
  0
LINE
  5
9F
330
1D
100
AcDbEntity
  8
2
  6
CONTINUOUS
370
    25
100
AcDbLine
 10
-43.498652935
 20
-2.977187679
 30
0.0
 11
-45.998652935
 21
-0.477187679
 31
0.0
  0
LINE
  5
A0
330
1D
100
AcDbEntity
  8
2
  6
CONTINUOUS
370
    25
100
AcDbLine
 10
-35.0
 20
25.086553574
 30
0.0
 11
-35.0
 21
7.0
 31
0.0
  0
LINE
  5
A1
330
1D
100
AcDbEntity
  8
2
  6
CONTINUOUS
370
    25
100
AcDbLine
 10
-35.0
 20
23.086553574
 30
0.0
 11
-31.5
 21
23.536553576
 31
0.0
  0
LINE
  5
A2
330
1D
100
AcDbEntity
  8
2
  6
CONTINUOUS
370
    25
100
AcDbLine
 10
-31.5
 20
23.536553576
 30
0.0
 11
-31.5
 21
22.636553576
 31
0.0
  0
LINE
  5
A3
330
1D
100
AcDbEntity
  8
2
  6
CONTINUOUS
370
    25
100
AcDbLine
 10
-31.5
 20
22.636553576
 30
0.0
 11
-35.0
 21
23.086553574
 31
0.0
  0
LINE
  5
A4
330
1D
100
AcDbEntity
  8
2
  6
CONTINUOUS
370
    25
100
AcDbLine
 10
-31.6
 20
23.086553576
 30
0.0
 11
-34.9
 21
23.086553574
 31
0.0
  0
LINE
  5
A5
330
1D
100
AcDbEntity
  8
2
  6
CONTINUOUS
370
    25
100
AcDbLine
 10
-31.6
 20
22.886553576
 30
0.0
 11
-33.344444444
 21
22.886553575
 31
0.0
  0
LINE
  5
A6
330
1D
100
AcDbEntity
  8
2
  6
CONTINUOUS
370
    25
100
AcDbLine
 10
-31.6
 20
23.286553576
 30
0.0
 11
-33.344444445
 21
23.286553575
 31
0.0
  0
LINE
  5
A7
330
1D
100
AcDbEntity
  8
2
  6
CONTINUOUS
370
    25
100
AcDbLine
 10
-31.6
 20
22.686553576
 30
0.0
 11
-31.788888889
 21
22.686553576
 31
0.0
  0
LINE
  5
A8
330
1D
100
AcDbEntity
  8
2
  6
CONTINUOUS
370
    25
100
AcDbLine
 10
-31.6
 20
23.486553576
 30
0.0
 11
-31.788888889
 21
23.486553576
 31
0.0
  0
LINE
  5
A9
330
1D
100
AcDbEntity
  8
2
  6
CONTINUOUS
370
    25
100
AcDbLine
 10
138.0
 20
25.086553691
 30
0.0
 11
138.0
 21
13.028214572
 31
0.0
  0
LINE
  5
AA
330
1D
100
AcDbEntity
  8
2
  6
CONTINUOUS
370
    25
100
AcDbLine
 10
138.0
 20
23.086553691
 30
0.0
 11
134.5
 21
22.636553688
 31
0.0
  0
LINE
  5
AB
330
1D
100
AcDbEntity
  8
2
  6
CONTINUOUS
370
    25
100
AcDbLine
 10
134.5
 20
22.636553688
 30
0.0
 11
134.5
 21
23.536553688
 31
0.0
  0
LINE
  5
AC
330
1D
100
AcDbEntity
  8
2
  6
CONTINUOUS
370
    25
100
AcDbLine
 10
134.5
 20
23.536553688
 30
0.0
 11
138.0
 21
23.086553691
 31
0.0
  0
LINE
  5
AD
330
1D
100
AcDbEntity
  8
2
  6
CONTINUOUS
370
    25
100
AcDbLine
 10
134.6
 20
23.086553689
 30
0.0
 11
137.9
 21
23.086553691
 31
0.0
  0
LINE
  5
AE
330
1D
100
AcDbEntity
  8
2
  6
CONTINUOUS
370
    25
100
AcDbLine
 10
134.6
 20
23.286553689
 30
0.0
 11
136.344444444
 21
23.28655369
 31
0.0
  0
LINE
  5
AF
330
1D
100
AcDbEntity
  8
2
  6
CONTINUOUS
370
    25
100
AcDbLine
 10
134.6
 20
22.886553689
 30
0.0
 11
136.344444445
 21
22.88655369
 31
0.0
  0
LINE
  5
B0
330
1D
100
AcDbEntity
  8
2
  6
CONTINUOUS
370
    25
100
AcDbLine
 10
134.6
 20
23.486553689
 30
0.0
 11
134.788888889
 21
23.486553689
 31
0.0
  0
LINE
  5
B1
330
1D
100
AcDbEntity
  8
2
  6
CONTINUOUS
370
    25
100
AcDbLine
 10
134.6
 20
22.686553689
 30
0.0
 11
134.788888889
 21
22.686553689
 31
0.0
  0
LINE
  5
B2
330
1D
100
AcDbEntity
  8
2
  6
CONTINUOUS
370
    25
100
AcDbLine
 10
-31.5
 20
23.086553576
 30
0.0
 11
134.5
 21
23.086553688
 31
0.0
  0
TEXT
  5
B3
330
1D
100
AcDbEntity
  8
2
  6
CONTINUOUS
370
    25
100
AcDbText
 10
49.288435566
 20
24.586553631
 30
0.0
 40
3.5
  1
173
 50
0.000000039
  7
BMG_Text
100
AcDbText
  0
LINE
  5
B4
330
1D
100
AcDbEntity
  8
2
  6
CONTINUOUS
370
    25
100
AcDbLine
 10
0.0
 20
-30.839870453
 30
0.0
 11
0.0
 21
-8.0
 31
0.0
  0
LINE
  5
B5
330
1D
100
AcDbEntity
  8
2
  6
CONTINUOUS
370
    25
100
AcDbLine
 10
0.0
 20
-28.839870453
 30
0.0
 11
3.499999996
 21
-28.389870419
 31
0.0
  0
LINE
  5
B6
330
1D
100
AcDbEntity
  8
2
  6
CONTINUOUS
370
    25
100
AcDbLine
 10
3.499999996
 20
-28.389870419
 30
0.0
 11
3.500000004
 21
-29.289870419
 31
0.0
  0
LINE
  5
B7
330
1D
100
AcDbEntity
  8
2
  6
CONTINUOUS
370
    25
100
AcDbLine
 10
3.500000004
 20
-29.289870419
 30
0.0
 11
0.0
 21
-28.839870453
 31
0.0
  0
LINE
  5
B8
330
1D
100
AcDbEntity
  8
2
  6
CONTINUOUS
370
    25
100
AcDbLine
 10
3.4
 20
-28.83987042
 30
0.0
 11
0.1
 21
-28.839870452
 31
0.0
  0
LINE
  5
B9
330
1D
100
AcDbEntity
  8
2
  6
CONTINUOUS
370
    25
100
AcDbLine
 10
3.400000002
 20
-29.03987042
 30
0.0
 11
1.655555558
 21
-29.039870437
 31
0.0
  0
LINE
  5
BA
330
1D
100
AcDbEntity
  8
2
  6
CONTINUOUS
370
    25
100
AcDbLine
 10
3.399999998
 20
-28.63987042
 30
0.0
 11
1.655555554
 21
-28.639870437
 31
0.0
  0
LINE
  5
BB
330
1D
100
AcDbEntity
  8
2
  6
CONTINUOUS
370
    25
100
AcDbLine
 10
3.400000004
 20
-29.23987042
 30
0.0
 11
3.211111115
 21
-29.239870421
 31
0.0
  0
LINE
  5
BC
330
1D
100
AcDbEntity
  8
2
  6
CONTINUOUS
370
    25
100
AcDbLine
 10
3.399999996
 20
-28.43987042
 30
0.0
 11
3.211111107
 21
-28.439870421
 31
0.0
  0
LINE
  5
BD
330
1D
100
AcDbEntity
  8
2
  6
CONTINUOUS
370
    25
100
AcDbLine
 10
155.674671512
 20
-30.839868927
 30
0.0
 11
155.674671512
 21
19.6
 31
0.0
  0
LINE
  5
BE
330
1D
100
AcDbEntity
  8
2
  6
CONTINUOUS
370
    25
100
AcDbLine
 10
155.674671512
 20
-28.839868927
 30
0.0
 11
152.174671516
 21
-29.289868961
 31
0.0
  0
LINE
  5
BF
330
1D
100
AcDbEntity
  8
2
  6
CONTINUOUS
370
    25
100
AcDbLine
 10
152.174671516
 20
-29.289868961
 30
0.0
 11
152.174671507
 21
-28.389868961
 31
0.0
  0
LINE
  5
C0
330
1D
100
AcDbEntity
  8
2
  6
CONTINUOUS
370
    25
100
AcDbLine
 10
152.174671507
 20
-28.389868961
 30
0.0
 11
155.674671512
 21
-28.839868927
 31
0.0
  0
LINE
  5
C1
330
1D
100
AcDbEntity
  8
2
  6
CONTINUOUS
370
    25
100
AcDbLine
 10
152.274671512
 20
-28.83986896
 30
0.0
 11
155.574671512
 21
-28.839868928
 31
0.0
  0
LINE
  5
C2
330
1D
100
AcDbEntity
  8
2
  6
CONTINUOUS
370
    25
100
AcDbLine
 10
152.27467151
 20
-28.63986896
 30
0.0
 11
154.019115954
 21
-28.639868943
 31
0.0
  0
LINE
  5
C3
330
1D
100
AcDbEntity
  8
2
  6
CONTINUOUS
370
    25
100
AcDbLine
 10
152.274671514
 20
-29.03986896
 30
0.0
 11
154.019115958
 21
-29.039868943
 31
0.0
  0
LINE
  5
C4
330
1D
100
AcDbEntity
  8
2
  6
CONTINUOUS
370
    25
100
AcDbLine
 10
152.274671508
 20
-28.43986896
 30
0.0
 11
152.463560397
 21
-28.439868958
 31
0.0
  0
LINE
  5
C5
330
1D
100
AcDbEntity
  8
2
  6
CONTINUOUS
370
    25
100
AcDbLine
 10
152.274671516
 20
-29.23986896
 30
0.0
 11
152.463560405
 21
-29.239868958
 31
0.0
  0
LINE
  5
C6
330
1D
100
AcDbEntity
  8
2
  6
CONTINUOUS
370
    25
100
AcDbLine
 10
3.5
 20
-28.839870419
 30
0.0
 11
152.174671512
 21
-28.839868961
 31
0.0
  0
TEXT
  5
C7
330
1D
100
AcDbEntity
  8
2
  6
CONTINUOUS
370
    25
100
AcDbText
 10
72.617959001
 20
-27.339869741
 30
0.0
 40
3.5
  1
55-155
 50
0.000000562
  7
BMG_Text
100
AcDbText
  0
LINE
  5
C8
330
1D
100
AcDbEntity
  8
CUT
  6
CONTINUOUS
370
    25
100
AcDbLine
 10
146.576910176
 20
11.790163008
 30
0.0
 11
146.349862105
 21
11.661890332
 31
0.0
  0
LINE
  5
C9
330
1D
100
AcDbEntity
  8
CUT
  6
CONTINUOUS
370
    25
100
AcDbLine
 10
146.349862105
 20
11.661890332
 30
0.0
 11
146.146454281
 21
11.518655013
 31
0.0
  0
LINE
  5
CA
330
1D
100
AcDbEntity
  8
CUT
  6
CONTINUOUS
370
    25
100
AcDbLine
 10
146.146454281
 20
11.518655013
 30
0.0
 11
145.977707908
 21
11.364376984
 31
0.0
  0
LINE
  5
CB
330
1D
100
AcDbEntity
  8
CUT
  6
CONTINUOUS
370
    25
100
AcDbLine
 10
145.977707908
 20
11.364376984
 30
0.0
 11
145.846621835
 21
11.194060353
 31
0.0
  0
LINE
  5
CC
330
1D
100
AcDbEntity
  8
CUT
  6
CONTINUOUS
370
    25
100
AcDbLine
 10
145.846621835
 20
11.194060353
 30
0.0
 11
145.785454849
 21
11.067786071
 31
0.0
  0
LINE
  5
CD
330
1D
100
AcDbEntity
  8
CUT
  6
CONTINUOUS
370
    25
100
AcDbLine
 10
145.785454849
 20
11.067786071
 30
0.0
 11
145.755619021
 21
10.935104338
 31
0.0
  0
LINE
  5
CE
330
1D
100
AcDbEntity
  8
CUT
  6
CONTINUOUS
370
    25
100
AcDbLine
 10
145.755619021
 20
10.935104338
 30
0.0
 11
145.786621258
 21
10.736961069
 31
0.0
  0
LINE
  5
CF
330
1D
100
AcDbEntity
  8
CUT
  6
CONTINUOUS
370
    25
100
AcDbLine
 10
145.786621258
 20
10.736961069
 30
0.0
 11
145.843284147
 21
10.640815791
 31
0.0
  0
LINE
  5
D0
330
1D
100
AcDbEntity
  8
CUT
  6
CONTINUOUS
370
    25
100
AcDbLine
 10
145.843284147
 20
10.640815791
 30
0.0
 11
145.927849687
 21
10.552680813
 31
0.0
  0
LINE
  5
D1
330
1D
100
AcDbEntity
  8
CUT
  6
CONTINUOUS
370
    25
100
AcDbLine
 10
145.927849687
 20
10.552680813
 30
0.0
 11
146.126122193
 21
10.431555473
 31
0.0
  0
LINE
  5
D2
330
1D
100
AcDbEntity
  8
CUT
  6
CONTINUOUS
370
    25
100
AcDbLine
 10
146.126122193
 20
10.431555473
 30
0.0
 11
146.291845141
 21
10.370955043
 31
0.0
  0
LINE
  5
D3
330
1D
100
AcDbEntity
  8
CUT
  6
CONTINUOUS
370
    25
100
AcDbLine
 10
146.291845141
 20
10.370955043
 30
0.0
 11
146.470158988
 21
10.328349679
 31
0.0
  0
LINE
  5
D4
330
1D
100
AcDbEntity
  8
CUT
  6
CONTINUOUS
370
    25
100
AcDbLine
 10
146.470158988
 20
10.328349679
 30
0.0
 11
146.776866711
 21
10.290650856
 31
0.0
  0
LINE
  5
D5
330
1D
100
AcDbEntity
  8
CUT
  6
CONTINUOUS
370
    25
100
AcDbLine
 10
146.776866711
 20
10.290650856
 30
0.0
 11
147.089230026
 21
10.284320014
 31
0.0
  0
LINE
  5
D6
330
1D
100
AcDbEntity
  8
CUT
  6
CONTINUOUS
370
    25
100
AcDbLine
 10
147.089230026
 20
10.284320014
 30
0.0
 11
147.682252574
 21
10.331987357
 31
0.0
  0
LINE
  5
D7
330
1D
100
AcDbEntity
  8
CUT
  6
CONTINUOUS
370
    25
100
AcDbLine
 10
147.682252574
 20
10.331987357
 30
0.0
 11
148.260449927
 21
10.43580605
 31
0.0
  0
LINE
  5
D8
330
1D
100
AcDbEntity
  8
CUT
  6
CONTINUOUS
370
    25
100
AcDbLine
 10
148.260449927
 20
10.43580605
 30
0.0
 11
148.428748056
 21
10.342541227
 31
0.0
  0
LINE
  5
D9
330
1D
100
AcDbEntity
  8
CUT
  6
CONTINUOUS
370
    25
100
AcDbLine
 10
148.428748056
 20
10.342541227
 30
0.0
 11
148.584430047
 21
10.260990759
 31
0.0
  0
LINE
  5
DA
330
1D
100
AcDbEntity
  8
CUT
  6
CONTINUOUS
370
    25
100
AcDbLine
 10
148.584430047
 20
10.260990759
 30
0.0
 11
148.724433984
 21
10.19275856
 31
0.0
  0
LINE
  5
DB
330
1D
100
AcDbEntity
  8
CUT
  6
CONTINUOUS
370
    25
100
AcDbLine
 10
148.724433984
 20
10.19275856
 30
0.0
 11
148.846006304
 21
10.139186605
 31
0.0
  0
LINE
  5
DC
330
1D
100
AcDbEntity
  8
CUT
  6
CONTINUOUS
370
    25
100
AcDbLine
 10
148.846006304
 20
10.139186605
 30
0.0
 11
148.946755954
 21
10.101328533
 31
0.0
  0
LINE
  5
DD
330
1D
100
AcDbEntity
  8
CUT
  6
CONTINUOUS
370
    25
100
AcDbLine
 10
148.946755954
 20
10.101328533
 30
0.0
 11
149.024701414
 21
10.079928927
 31
0.0
  0
LINE
  5
DE
330
1D
100
AcDbEntity
  8
CUT
  6
CONTINUOUS
370
    25
100
AcDbLine
 10
149.024701414
 20
10.079928927
 30
0.0
 11
149.078309671
 21
10.075408671
 31
0.0
  0
LINE
  5
DF
330
1D
100
AcDbEntity
  8
CUT
  6
CONTINUOUS
370
    25
100
AcDbLine
 10
149.078309671
 20
10.075408671
 30
0.0
 11
149.106526372
 21
10.087856667
 31
0.0
  0
LINE
  5
E0
330
1D
100
AcDbEntity
  8
CUT
  6
CONTINUOUS
370
    25
100
AcDbLine
 10
149.106526372
 20
10.087856667
 30
0.0
 11
149.108796558
 21
10.117028091
 31
0.0
  0
LINE
  5
E1
330
1D
100
AcDbEntity
  8
CUT
  6
CONTINUOUS
370
    25
100
AcDbLine
 10
149.108796558
 20
10.117028091
 30
0.0
 11
149.085075578
 21
10.162349206
 31
0.0
  0
LINE
  5
E2
330
1D
100
AcDbEntity
  8
CUT
  6
CONTINUOUS
370
    25
100
AcDbLine
 10
149.085075578
 20
10.162349206
 30
0.0
 11
149.035829972
 21
10.222928649
 31
0.0
  0
LINE
  5
E3
330
1D
100
AcDbEntity
  8
CUT
  6
CONTINUOUS
370
    25
100
AcDbLine
 10
149.035829972
 20
10.222928649
 30
0.0
 11
148.96202829
 21
10.297574957
 31
0.0
  0
LINE
  5
E4
330
1D
100
AcDbEntity
  8
CUT
  6
CONTINUOUS
370
    25
100
AcDbLine
 10
148.96202829
 20
10.297574957
 30
0.0
 11
148.865122045
 21
10.384820005
 31
0.0
  0
LINE
  5
E5
330
1D
100
AcDbEntity
  8
CUT
  6
CONTINUOUS
370
    25
100
AcDbLine
 10
148.865122045
 20
10.384820005
 30
0.0
 11
148.747017166
 21
10.48294788
 31
0.0
  0
LINE
  5
E6
330
1D
100
AcDbEntity
  8
CUT
  6
CONTINUOUS
370
    25
100
AcDbLine
 10
148.747017166
 20
10.48294788
 30
0.0
 11
148.61003651
 21
10.590028626
 31
0.0
  0
LINE
  5
E7
330
1D
100
AcDbEntity
  8
CUT
  6
CONTINUOUS
370
    25
100
AcDbLine
 10
148.61003651
 20
10.590028626
 30
0.0
 11
148.456874178
 21
10.703956206
 31
0.0
  0
LINE
  5
E8
330
1D
100
AcDbEntity
  8
CUT
  6
CONTINUOUS
370
    25
100
AcDbLine
 10
148.456874178
 20
10.703956206
 30
0.0
 11
148.290542531
 21
10.822489919
 31
0.0
  0
LINE
  5
E9
330
1D
100
AcDbEntity
  8
CUT
  6
CONTINUOUS
370
    25
100
AcDbLine
 10
148.290542531
 20
10.822489919
 30
0.0
 11
148.114312938
 21
10.943298475
 31
0.0
  0
LINE
  5
EA
330
1D
100
AcDbEntity
  8
CUT
  6
CONTINUOUS
370
    25
100
AcDbLine
 10
148.114312938
 20
10.943298475
 30
0.0
 11
147.931651438
 21
11.064005839
 31
0.0
  0
LINE
  5
EB
330
1D
100
AcDbEntity
  8
CUT
  6
CONTINUOUS
370
    25
100
AcDbLine
 10
147.931651438
 20
11.064005839
 30
0.0
 11
147.746150575
 21
11.18223797
 31
0.0
  0
LINE
  5
EC
330
1D
100
AcDbEntity
  8
CUT
  6
CONTINUOUS
370
    25
100
AcDbLine
 10
147.746150575
 20
11.18223797
 30
0.0
 11
147.561458732
 21
11.295669507
 31
0.0
  0
LINE
  5
ED
330
1D
100
AcDbEntity
  8
CUT
  6
CONTINUOUS
370
    25
100
AcDbLine
 10
147.561458732
 20
11.295669507
 30
0.0
 11
147.381208385
 21
11.402069505
 31
0.0
  0
LINE
  5
EE
330
1D
100
AcDbEntity
  8
CUT
  6
CONTINUOUS
370
    25
100
AcDbLine
 10
147.381208385
 20
11.402069505
 30
0.0
 11
147.208944651
 21
11.499345318
 31
0.0
  0
LINE
  5
EF
330
1D
100
AcDbEntity
  8
CUT
  6
CONTINUOUS
370
    25
100
AcDbLine
 10
147.208944651
 20
11.499345318
 30
0.0
 11
147.048055572
 21
11.585583747
 31
0.0
  0
LINE
  5
F0
330
1D
100
AcDbEntity
  8
CUT
  6
CONTINUOUS
370
    25
100
AcDbLine
 10
147.048055572
 20
11.585583747
 30
0.0
 11
146.901705475
 21
11.659088676
 31
0.0
  0
LINE
  5
F1
330
1D
100
AcDbEntity
  8
CUT
  6
CONTINUOUS
370
    25
100
AcDbLine
 10
146.901705475
 20
11.659088676
 30
0.0
 11
146.772772738
 21
11.718414429
 31
0.0
  0
LINE
  5
F2
330
1D
100
AcDbEntity
  8
CUT
  6
CONTINUOUS
370
    25
100
AcDbLine
 10
146.772772738
 20
11.718414429
 30
0.0
 11
146.663793177
 21
11.7623942
 31
0.0
  0
LINE
  5
F3
330
1D
100
AcDbEntity
  8
CUT
  6
CONTINUOUS
370
    25
100
AcDbLine
 10
146.663793177
 20
11.7623942
 30
0.0
 11
146.576910176
 21
11.790163008
 31
0.0
  0
LINE
  5
F4
330
1D
100
AcDbEntity
  8
CUT
  6
CONTINUOUS
370
    25
100
AcDbLine
 10
146.576910176
 20
11.790163008
 30
0.0
 11
146.253183881
 21
12.066208763
 31
0.0
  0
LINE
  5
F5
330
1D
100
AcDbEntity
  8
CUT
  6
CONTINUOUS
370
    25
100
AcDbLine
 10
146.253183881
 20
12.066208763
 30
0.0
 11
145.958111817
 21
12.325122098
 31
0.0
  0
LINE
  5
F6
330
1D
100
AcDbEntity
  8
CUT
  6
CONTINUOUS
370
    25
100
AcDbLine
 10
145.958111817
 20
12.325122098
 30
0.0
 11
145.69211295
 21
12.56653539
 31
0.0
  0
LINE
  5
F7
330
1D
100
AcDbEntity
  8
CUT
  6
CONTINUOUS
370
    25
100
AcDbLine
 10
145.69211295
 20
12.56653539
 30
0.0
 11
145.455564962
 21
12.790105864
 31
0.0
  0
LINE
  5
F8
330
1D
100
AcDbEntity
  8
CUT
  6
CONTINUOUS
370
    25
100
AcDbLine
 10
145.455564962
 20
12.790105864
 30
0.0
 11
145.248803719
 21
12.99551608
 31
0.0
  0
LINE
  5
F9
330
1D
100
AcDbEntity
  8
CUT
  6
CONTINUOUS
370
    25
100
AcDbLine
 10
145.248803719
 20
12.99551608
 30
0.0
 11
145.072122796
 21
13.182474382
 31
0.0
  0
LINE
  5
FA
330
1D
100
AcDbEntity
  8
CUT
  6
CONTINUOUS
370
    25
100
AcDbLine
 10
145.072122796
 20
13.182474382
 30
0.0
 11
144.925773055
 21
13.350715315
 31
0.0
  0
LINE
  5
FB
330
1D
100
AcDbEntity
  8
CUT
  6
CONTINUOUS
370
    25
100
AcDbLine
 10
144.925773055
 20
13.350715315
 30
0.0
 11
144.809962295
 21
13.499999998
 31
0.0
  0
LINE
  5
FC
330
1D
100
AcDbEntity
  8
CUT
  6
CONTINUOUS
370
    25
100
AcDbLine
 10
144.809962295
 20
13.499999998
 30
0.0
 11
136.7778316
 21
13.499999998
 31
0.0
  0
LINE
  5
FD
330
1D
100
AcDbEntity
  8
CUT
  6
CONTINUOUS
370
    25
100
AcDbLine
 10
136.7778316
 20
13.499999998
 30
0.0
 11
136.672290266
 21
13.076696829
 31
0.0
  0
LINE
  5
FE
330
1D
100
AcDbEntity
  8
CUT
  6
CONTINUOUS
370
    25
100
AcDbLine
 10
136.672290266
 20
13.076696829
 30
0.0
 11
138.012087984
 21
13.076696829
 31
0.0
  0
LINE
  5
FF
330
1D
100
AcDbEntity
  8
CUT
  6
CONTINUOUS
370
    25
100
AcDbLine
 10
138.012087984
 20
13.076696829
 30
0.0
 11
136.323654525
 21
6.304760104
 31
0.0
  0
LINE
  5
100
330
1D
100
AcDbEntity
  8
CUT
  6
CONTINUOUS
370
    25
100
AcDbLine
 10
136.323654525
 20
6.304760104
 30
0.0
 11
143.850724661
 21
6.304760104
 31
0.0
  0
LINE
  5
101
330
1D
100
AcDbEntity
  8
CUT
  6
CONTINUOUS
370
    25
100
AcDbLine
 10
143.850724661
 20
6.304760104
 30
0.0
 11
144.683659497
 21
6.673070453
 31
0.0
  0
LINE
  5
102
330
1D
100
AcDbEntity
  8
CUT
  6
CONTINUOUS
370
    25
100
AcDbLine
 10
144.683659497
 20
6.673070453
 30
0.0
 11
145.556856805
 21
7.035498354
 31
0.0
  0
LINE
  5
103
330
1D
100
AcDbEntity
  8
CUT
  6
CONTINUOUS
370
    25
100
AcDbLine
 10
145.556856805
 20
7.035498354
 30
0.0
 11
146.469546843
 21
7.391724319
 31
0.0
  0
LINE
  5
104
330
1D
100
AcDbEntity
  8
CUT
  6
CONTINUOUS
370
    25
100
AcDbLine
 10
146.469546843
 20
7.391724319
 30
0.0
 11
147.420925057
 21
7.741434327
 31
0.0
  0
LINE
  5
105
330
1D
100
AcDbEntity
  8
CUT
  6
CONTINUOUS
370
    25
100
AcDbLine
 10
147.420925057
 20
7.741434327
 30
0.0
 11
148.410152786
 21
8.084320102
 31
0.0
  0
LINE
  5
106
330
1D
100
AcDbEntity
  8
CUT
  6
CONTINUOUS
370
    25
100
AcDbLine
 10
148.410152786
 20
8.084320102
 30
0.0
 11
149.436358008
 21
8.420079383
 31
0.0
  0
LINE
  5
107
330
1D
100
AcDbEntity
  8
CUT
  6
CONTINUOUS
370
    25
100
AcDbLine
 10
149.436358008
 20
8.420079383
 30
0.0
 11
150.4986361
 21
8.748416192
 31
0.0
  0
LINE
  5
108
330
1D
100
AcDbEntity
  8
CUT
  6
CONTINUOUS
370
    25
100
AcDbLine
 10
150.4986361
 20
8.748416192
 30
0.0
 11
149.895303078
 21
9.194798269
 31
0.0
  0
LINE
  5
109
330
1D
100
AcDbEntity
  8
CUT
  6
CONTINUOUS
370
    25
100
AcDbLine
 10
149.895303078
 20
9.194798269
 30
0.0
 11
149.320508316
 21
9.625314408
 31
0.0
  0
LINE
  5
10A
330
1D
100
AcDbEntity
  8
CUT
  6
CONTINUOUS
370
    25
100
AcDbLine
 10
149.320508316
 20
9.625314408
 30
0.0
 11
148.775243641
 21
10.039221739
 31
0.0
  0
LINE
  5
10B
330
1D
100
AcDbEntity
  8
CUT
  6
CONTINUOUS
370
    25
100
AcDbLine
 10
148.775243641
 20
10.039221739
 30
0.0
 11
148.260449927
 21
10.43580605
 31
0.0
  0
LINE
  5
10C
330
1D
100
AcDbEntity
  8
CUT
  6
CONTINUOUS
370
    25
100
AcDbLine
 10
154.708506856
 20
9.605294962
 30
0.0
 11
155.008864015
 21
9.410240742
 31
0.0
  0
LINE
  5
10D
330
1D
100
AcDbEntity
  8
CUT
  6
CONTINUOUS
370
    25
100
AcDbLine
 10
155.008864015
 20
9.410240742
 30
0.0
 11
154.961440529
 21
8.505346713
 31
0.0
  0
LINE
  5
10E
330
1D
100
AcDbEntity
  8
CUT
  6
CONTINUOUS
370
    25
100
AcDbLine
 10
154.961440529
 20
8.505346713
 30
0.0
 11
154.952934427
 21
8.309260766
 31
0.0
  0
LINE
  5
10F
330
1D
100
AcDbEntity
  8
CUT
  6
CONTINUOUS
370
    25
100
AcDbLine
 10
154.952934427
 20
8.309260766
 30
0.0
 11
154.948097393
 21
8.116597818
 31
0.0
  0
LINE
  5
110
330
1D
100
AcDbEntity
  8
CUT
  6
CONTINUOUS
370
    25
100
AcDbLine
 10
154.948097393
 20
8.116597818
 30
0.0
 11
154.947068717
 21
7.932905947
 31
0.0
  0
LINE
  5
111
330
1D
100
AcDbEntity
  8
CUT
  6
CONTINUOUS
370
    25
100
AcDbLine
 10
154.947068717
 20
7.932905947
 30
0.0
 11
154.949878022
 21
7.763474892
 31
0.0
  0
LINE
  5
112
330
1D
100
AcDbEntity
  8
CUT
  6
CONTINUOUS
370
    25
100
AcDbLine
 10
154.949878022
 20
7.763474892
 30
0.0
 11
154.95644441
 21
7.613183725
 31
0.0
  0
LINE
  5
113
330
1D
100
AcDbEntity
  8
CUT
  6
CONTINUOUS
370
    25
100
AcDbLine
 10
154.95644441
 20
7.613183725
 30
0.0
 11
154.966578788
 21
7.486360352
 31
0.0
  0
LINE
  5
114
330
1D
100
AcDbEntity
  8
CUT
  6
CONTINUOUS
370
    25
100
AcDbLine
 10
154.966578788
 20
7.486360352
 30
0.0
 11
154.896106819
 21
7.364299322
 31
0.0
  0
LINE
  5
115
330
1D
100
AcDbEntity
  8
CUT
  6
CONTINUOUS
370
    25
100
AcDbLine
 10
154.896106819
 20
7.364299322
 30
0.0
 11
154.348985328
 21
6.416657102
 31
0.0
  0
LINE
  5
116
330
1D
100
AcDbEntity
  8
CUT
  6
CONTINUOUS
370
    25
100
AcDbLine
 10
154.348985328
 20
6.416657102
 30
0.0
 11
150.4986361
 21
8.748416192
 31
0.0
  0
LINE
  5
117
330
1D
100
AcDbEntity
  8
CUT
  6
CONTINUOUS
370
    25
100
AcDbLine
 10
148.761848199
 20
16.730481269
 30
0.0
 11
147.382459905
 21
16.802771947
 31
0.0
  0
ARC
  5
118
330
1D
100
AcDbEntity
  8
CUT
  6
CONTINUOUS
370
    25
100
AcDbCircle
 10
147.298722375
 20
15.204964691
 30
0.0
 40
1.6
100
AcDbArc
 50
87.0
 51
211.6017136
  0
ARC
  5
119
330
1D
100
AcDbEntity
  8
CUT
  6
CONTINUOUS
370
    25
100
AcDbCircle
 10
147.298722375
 20
15.204964691
 30
0.0
 40
1.6
100
AcDbArc
 50
211.6017136
 51
262.3982864
  0
ARC
  5
11A
330
1D
100
AcDbEntity
  8
CUT
  6
CONTINUOUS
370
    25
100
AcDbCircle
 10
147.298722375
 20
15.204964691
 30
0.0
 40
1.6
100
AcDbArc
 50
262.3982864
 51
266.9999999999999
  0
LINE
  5
11B
330
1D
100
AcDbEntity
  8
CUT
  6
CONTINUOUS
370
    25
100
AcDbLine
 10
147.214984845
 20
13.607157435
 30
0.0
 11
148.594373139
 21
13.534866758
 31
0.0
  0
LINE
  5
11C
330
1D
100
AcDbEntity
  8
CUT
  6
CONTINUOUS
370
    25
100
AcDbLine
 10
154.765357834
 20
9.690642878
 30
0.0
 11
155.255110319
 21
19.035676974
 31
0.0
  0
LINE
  5
11D
330
1D
100
AcDbEntity
  8
CUT
  6
CONTINUOUS
370
    25
100
AcDbLine
 10
155.255110319
 20
19.035676974
 30
0.0
 11
155.235852988
 21
19.201709606
 31
0.0
  0
LINE
  5
11E
330
1D
100
AcDbEntity
  8
CUT
  6
CONTINUOUS
370
    25
100
AcDbLine
 10
155.235852988
 20
19.201709606
 30
0.0
 11
155.162567305
 21
19.351992133
 31
0.0
  0
LINE
  5
11F
330
1D
100
AcDbEntity
  8
CUT
  6
CONTINUOUS
370
    25
100
AcDbLine
 10
155.162567305
 20
19.351992133
 30
0.0
 11
155.044285422
 21
19.468522222
 31
0.0
  0
LINE
  5
120
330
1D
100
AcDbEntity
  8
CUT
  6
CONTINUOUS
370
    25
100
AcDbLine
 10
155.044285422
 20
19.468522222
 30
0.0
 11
154.894443405
 21
19.539285103
 31
0.0
  0
LINE
  5
121
330
1D
100
AcDbEntity
  8
CUT
  6
CONTINUOUS
370
    25
100
AcDbLine
 10
154.894443405
 20
19.539285103
 30
0.0
 11
154.758546026
 21
19.557982656
 31
0.0
  0
LINE
  5
122
330
1D
100
AcDbEntity
  8
CUT
  6
CONTINUOUS
370
    25
100
AcDbLine
 10
154.758546026
 20
19.557982656
 30
0.0
 11
154.311132126
 21
19.557982656
 31
0.0
  0
LINE
  5
123
330
1D
100
AcDbEntity
  8
CUT
  6
CONTINUOUS
370
    25
100
AcDbLine
 10
154.311132126
 20
19.557982656
 30
0.0
 11
153.535582098
 21
19.557982656
 31
0.0
  0
LINE
  5
124
330
1D
100
AcDbEntity
  8
CUT
  6
CONTINUOUS
370
    25
100
AcDbLine
 10
154.348985328
 20
6.416657102
 30
0.0
 11
144.27661607
 21
-11.029198206
 31
0.0
  0
LINE
  5
125
330
1D
100
AcDbEntity
  8
CUT
  6
CONTINUOUS
370
    25
100
AcDbLine
 10
144.27661607
 20
-11.029198206
 30
0.0
 11
140.933680576
 21
-16.819332328
 31
0.0
  0
LINE
  5
126
330
1D
100
AcDbEntity
  8
CUT
  6
CONTINUOUS
370
    25
100
AcDbLine
 10
140.933680576
 20
-16.819332328
 30
0.0
 11
138.674671507
 21
-18.186533481
 31
0.0
  0
LINE
  5
127
330
1D
100
AcDbEntity
  8
CUT
  6
CONTINUOUS
370
    25
100
AcDbLine
 10
138.674671507
 20
-18.186533481
 30
0.0
 11
138.674671507
 21
-14.309088023
 31
0.0
  0
LINE
  5
128
330
1D
100
AcDbEntity
  8
CUT
  6
CONTINUOUS
370
    25
100
AcDbLine
 10
138.674671507
 20
-14.309088023
 30
0.0
 11
138.719732568
 21
-14.274525152
 31
0.0
  0
LINE
  5
129
330
1D
100
AcDbEntity
  8
CUT
  6
CONTINUOUS
370
    25
100
AcDbLine
 10
138.719732568
 20
-14.274525152
 30
0.0
 11
141.505647057
 21
-12.666035092
 31
0.0
  0
LINE
  5
12A
330
1D
100
AcDbEntity
  8
CUT
  6
CONTINUOUS
370
    25
100
AcDbLine
 10
141.505647057
 20
-12.666035092
 30
0.0
 11
144.27661607
 21
-11.029198206
 31
0.0
  0
LINE
  5
12B
330
1D
100
AcDbEntity
  8
CUT
  6
CONTINUOUS
370
    25
100
AcDbLine
 10
154.896106819
 20
7.364299322
 30
0.0
 11
145.436478401
 21
13.507453846
 31
0.0
  0
LINE
  5
12C
330
1D
100
AcDbEntity
  8
CUT
  6
CONTINUOUS
370
    25
100
AcDbLine
 10
145.436478401
 20
13.507453846
 30
0.0
 11
145.433718686
 21
13.50331511
 31
0.0
  0
LINE
  5
12D
330
1D
100
AcDbEntity
  8
CUT
  6
CONTINUOUS
370
    25
100
AcDbLine
 10
145.433718686
 20
13.50331511
 30
0.0
 11
145.428383551
 21
13.50082912
 31
0.0
  0
LINE
  5
12E
330
1D
100
AcDbEntity
  8
CUT
  6
CONTINUOUS
370
    25
100
AcDbLine
 10
145.428383551
 20
13.50082912
 30
0.0
 11
145.420481842
 21
13.499999998
 31
0.0
  0
LINE
  5
12F
330
1D
100
AcDbEntity
  8
CUT
  6
CONTINUOUS
370
    25
100
AcDbLine
 10
145.420481842
 20
13.499999998
 30
0.0
 11
144.809962295
 21
13.499999998
 31
0.0
  0
LINE
  5
130
330
1D
100
AcDbEntity
  8
CUT
  6
CONTINUOUS
370
    25
100
AcDbLine
 10
155.093075312
 20
19.95640261
 30
0.0
 11
146.52793475
 21
15.592245515
 31
0.0
  0
ARC
  5
131
330
1D
100
AcDbEntity
  8
CUT
  6
CONTINUOUS
370
    25
100
AcDbCircle
 10
146.70953095
 20
15.235842905
 30
0.0
 40
0.4
100
AcDbArc
 50
117.0
 51
237.000000002
  0
LINE
  5
132
330
1D
100
AcDbEntity
  8
CUT
  6
CONTINUOUS
370
    25
100
AcDbLine
 10
146.491675336
 20
14.900374678
 30
0.0
 11
154.553716527
 21
9.664823912
 31
0.0
  0
ARC
  5
133
330
1D
100
AcDbEntity
  8
CUT
  6
CONTINUOUS
370
    25
100
AcDbCircle
 10
154.771572141
 20
10.000292139
 30
0.0
 40
0.4
100
AcDbArc
 50
237.0
 51
356.9999999999999
  0
LINE
  5
134
330
1D
100
AcDbEntity
  8
CUT
  6
CONTINUOUS
370
    25
100
AcDbLine
 10
155.171023955
 20
9.979357756
 30
0.0
 11
155.674123326
 21
19.579065618
 31
0.0
  0
ARC
  5
135
330
1D
100
AcDbEntity
  8
CUT
  6
CONTINUOUS
370
    25
100
AcDbCircle
 10
155.274671512
 20
19.6
 30
0.0
 40
0.4
100
AcDbArc
 50
356.9999999999999
 51
117.0
  0
LINE
  5
136
330
1D
100
AcDbEntity
  8
CUT
  6
CONTINUOUS
370
    25
100
AcDbLine
 10
138.674671507
 20
-18.186533481
 30
0.0
 11
135.061173267
 21
-18.186533481
 31
0.0
  0
LINE
  5
137
330
1D
100
AcDbEntity
  8
CUT
  6
CONTINUOUS
370
    25
100
AcDbLine
 10
135.061173267
 20
-18.186533481
 30
0.0
 11
134.858353284
 21
-19.000000002
 31
0.0
  0
LINE
  5
138
330
1D
100
AcDbEntity
  8
CUT
  6
CONTINUOUS
370
    25
100
AcDbLine
 10
134.858353284
 20
-19.000000002
 30
0.0
 11
128.674671507
 21
-19.000000002
 31
0.0
  0
LINE
  5
139
330
1D
100
AcDbEntity
  8
CUT
  6
CONTINUOUS
370
    25
100
AcDbLine
 10
128.674671507
 20
-19.000000002
 30
0.0
 11
128.841645778
 21
-18.330302782
 31
0.0
  0
LINE
  5
13A
330
1D
100
AcDbEntity
  8
CUT
  6
CONTINUOUS
370
    25
100
AcDbLine
 10
128.841645778
 20
-18.330302782
 30
0.0
 11
130.181443496
 21
-18.330302782
 31
0.0
  0
LINE
  5
13B
330
1D
100
AcDbEntity
  8
CUT
  6
CONTINUOUS
370
    25
100
AcDbLine
 10
130.181443496
 20
-18.330302782
 30
0.0
 11
131.184044941
 21
-14.309088023
 31
0.0
  0
LINE
  5
13C
330
1D
100
AcDbEntity
  8
CUT
  6
CONTINUOUS
370
    25
100
AcDbLine
 10
131.184044941
 20
-14.309088023
 30
0.0
 11
138.674671507
 21
-14.309088023
 31
0.0
  0
LINE
  5
13D
330
1D
100
AcDbEntity
  8
CUT
  6
CONTINUOUS
370
    25
100
AcDbLine
 10
138.719732568
 20
-14.274525152
 30
0.0
 11
143.850724661
 21
6.304760104
 31
0.0
  0
LINE
  5
13E
330
1D
100
AcDbEntity
  8
CUT
  6
CONTINUOUS
370
    25
100
AcDbLine
 10
136.323654525
 20
6.304760104
 30
0.0
 11
131.184044941
 21
-14.309088023
 31
0.0
  0
LINE
  5
13F
330
1D
100
AcDbEntity
  8
CUT
  6
CONTINUOUS
370
    25
100
AcDbLine
 10
128.841645778
 20
-18.330302782
 30
0.0
 11
136.672290266
 21
13.076696829
 31
0.0
  0
LINE
  5
140
330
1D
100
AcDbEntity
  8
CUT
  6
CONTINUOUS
370
    25
100
AcDbLine
 10
136.7778316
 20
13.499999998
 30
0.0
 11
137.027159603
 21
14.499999998
 31
0.0
  0
LINE
  5
141
330
1D
100
AcDbEntity
  8
CUT
  6
CONTINUOUS
370
    25
100
AcDbLine
 10
137.027159603
 20
14.499999998
 30
0.0
 11
138.316285422
 21
19.670401256
 31
0.0
  0
LINE
  5
142
330
1D
100
AcDbEntity
  8
CUT
  6
CONTINUOUS
370
    25
100
AcDbLine
 10
138.316285422
 20
19.670401256
 30
0.0
 11
153.47830196
 21
19.670401256
 31
0.0
  0
LINE
  5
143
330
1D
100
AcDbEntity
  8
CUT
  6
CONTINUOUS
370
    25
100
AcDbLine
 10
153.47830196
 20
19.670401256
 30
0.0
 11
153.695428677
 21
19.24426608
 31
0.0
  0
LINE
  5
144
330
1D
100
AcDbEntity
  8
CUT
  6
CONTINUOUS
370
    25
100
AcDbLine
 10
154.880992201
 20
9.615549042
 30
0.0
 11
154.908045285
 21
9.597980564
 31
0.0
  0
LINE
  5
145
330
1D
100
AcDbEntity
  8
CUT
  6
CONTINUOUS
370
    25
100
AcDbLine
 10
154.908045285
 20
9.597980564
 30
0.0
 11
155.008864015
 21
9.410240742
 31
0.0
  0
LINE
  5
146
330
1D
100
AcDbEntity
  8
CUT
  6
CONTINUOUS
370
    25
100
AcDbLine
 10
149.277154791
 20
1.62856472
 30
0.0
 11
149.760998583
 21
3.569156173
 31
0.0
  0
LINE
  5
147
330
1D
100
AcDbEntity
  8
CUT
  6
CONTINUOUS
370
    25
100
AcDbLine
 10
149.760998583
 20
3.569156173
 30
0.0
 11
151.091569009
 21
8.905782668
 31
0.0
  0
LINE
  5
148
330
1D
100
AcDbEntity
  8
CUT
  6
CONTINUOUS
370
    25
100
AcDbLine
 10
151.091569009
 20
8.905782668
 30
0.0
 11
142.358907472
 21
11.083079728
 31
0.0
  0
LINE
  5
149
330
1D
100
AcDbEntity
  8
CUT
  6
CONTINUOUS
370
    25
100
AcDbLine
 10
142.358907472
 20
11.083079728
 30
0.0
 11
135.061173267
 21
-18.186533481
 31
0.0
  0
LINE
  5
14A
330
1D
100
AcDbEntity
  8
CUT
  6
CONTINUOUS
370
    25
100
AcDbLine
 10
138.155198841
 20
19.024318269
 30
0.0
 11
139.49499656
 21
19.024318269
 31
0.0
  0
LINE
  5
14B
330
1D
100
AcDbEntity
  8
CUT
  6
CONTINUOUS
370
    25
100
AcDbLine
 10
139.49499656
 20
19.024318269
 30
0.0
 11
138.012087984
 21
13.076696829
 31
0.0
  0
LINE
  5
14C
330
1D
100
AcDbEntity
  8
CUT
  6
CONTINUOUS
370
    25
100
AcDbLine
 10
134.134328112
 20
-2.476148534
 30
0.0
 11
149.10277131
 21
10.083866633
 31
0.0
  0
LINE
  5
14D
330
1D
100
AcDbEntity
  8
CUT
  6
CONTINUOUS
370
    25
100
AcDbLine
 10
146.112103526
 20
11.490620267
 30
0.0
 11
135.369074448
 21
2.47614853
 31
0.0
  0
LINE
  5
14E
330
1D
100
AcDbEntity
  8
CUT
  6
CONTINUOUS
370
    25
100
AcDbLine
 10
154.155046241
 20
6.080744748
 30
0.0
 11
150.607725217
 21
6.965191215
 31
0.0
  0
LINE
  5
14F
330
1D
100
AcDbEntity
  8
CUT
  6
CONTINUOUS
370
    25
100
AcDbLine
 10
141.775521883
 20
8.743247932
 30
0.0
 11
135.953747526
 21
10.194779305
 31
0.0
  0
LINE
  5
150
330
1D
100
AcDbEntity
  8
CUT
  6
CONTINUOUS
370
    25
100
AcDbLine
 10
129.905700136
 20
-14.062613852
 30
0.0
 11
135.727474493
 21
-15.514145225
 31
0.0
  0
CIRCLE
  5
151
330
1D
100
AcDbEntity
  8
CUT
  6
CONTINUOUS
370
    25
100
AcDbCircle
 10
152.251924867
 20
14.945378348
 30
0.0
 40
1.8999736
  0
LINE
  5
152
330
1D
100
AcDbEntity
  8
SK1
  6
CONTINUOUS
370
    50
100
AcDbLine
 10
149.401964468
 20
14.945378348
 30
0.0
 11
155.101885267
 21
14.945378348
 31
0.0
  0
LINE
  5
153
330
1D
100
AcDbEntity
  8
SK1
  6
CONTINUOUS
370
    50
100
AcDbLine
 10
152.251924867
 20
12.095417949
 30
0.0
 11
152.251924867
 21
17.795338747
 31
0.0
  0
TEXT
  5
154
330
1D
100
AcDbEntity
  8
SK6
  6
CONTINUOUS
370
    35
100
AcDbText
 10
86.183625411
 20
-6.542447348
 30
0.0
 40
3.5
  1
615.258
  7
BMG_Text
100
AcDbText
  0
LINE
  5
155
330
1D
100
AcDbEntity
  8
2
  6
CONTINUOUS
370
    25
100
AcDbLine
 10
166.681664424
 20
20.000000499
 30
0.0
 11
155.274671512
 21
20.0
 31
0.0
  0
LINE
  5
156
330
1D
100
AcDbEntity
  8
2
  6
CONTINUOUS
370
    25
100
AcDbLine
 10
164.681664424
 20
20.000000411
 30
0.0
 11
165.131664577
 21
16.500000431
 31
0.0
  0
LINE
  5
157
330
1D
100
AcDbEntity
  8
2
  6
CONTINUOUS
370
    25
100
AcDbLine
 10
165.131664577
 20
16.500000431
 30
0.0
 11
164.231664577
 21
16.500000392
 31
0.0
  0
LINE
  5
158
330
1D
100
AcDbEntity
  8
2
  6
CONTINUOUS
370
    25
100
AcDbLine
 10
164.231664577
 20
16.500000392
 30
0.0
 11
164.681664424
 21
20.000000411
 31
0.0
  0
LINE
  5
159
330
1D
100
AcDbEntity
  8
2
  6
CONTINUOUS
370
    25
100
AcDbLine
 10
164.681664573
 20
16.600000411
 30
0.0
 11
164.681664428
 21
19.900000411
 31
0.0
  0
LINE
  5
15A
330
1D
100
AcDbEntity
  8
2
  6
CONTINUOUS
370
    25
100
AcDbLine
 10
164.481664573
 20
16.600000402
 30
0.0
 11
164.481664496
 21
18.344444847
 31
0.0
  0
LINE
  5
15B
330
1D
100
AcDbEntity
  8
2
  6
CONTINUOUS
370
    25
100
AcDbLine
 10
164.881664573
 20
16.60000042
 30
0.0
 11
164.881664496
 21
18.344444864
 31
0.0
  0
LINE
  5
15C
330
1D
100
AcDbEntity
  8
2
  6
CONTINUOUS
370
    25
100
AcDbLine
 10
164.281664573
 20
16.600000394
 30
0.0
 11
164.281664564
 21
16.788889283
 31
0.0
  0
LINE
  5
15D
330
1D
100
AcDbEntity
  8
2
  6
CONTINUOUS
370
    25
100
AcDbLine
 10
165.081664573
 20
16.600000429
 30
0.0
 11
165.081664564
 21
16.788889318
 31
0.0
  0
LINE
  5
15E
330
1D
100
AcDbEntity
  8
2
  6
CONTINUOUS
370
    25
100
AcDbLine
 10
164.681665386
 20
-1.999999555
 30
0.0
 11
164.681664577
 21
16.500000411
 31
0.0
  0
TEXT
  5
15F
330
1D
100
AcDbEntity
  8
2
  6
CONTINUOUS
370
    25
100
AcDbText
 10
163.270107873
 20
-2.978022746
 30
0.0
 40
3.5
  1
40
 50
90.00000250400001
  7
BMG_Text
100
AcDbText
  0
CIRCLE
  5
160
330
1D
100
AcDbEntity
  8
2
  6
CONTINUOUS
370
    25
100
AcDbCircle
 10
162.020107972
 20
-5.228022801
 30
0.0
 40
1.25
  0
LINE
  5
161
330
1D
100
AcDbEntity
  8
2
  6
CONTINUOUS
370
    25
100
AcDbLine
 10
163.270108026
 20
-6.478022746
 30
0.0
 11
160.770107917
 21
-3.978022855
 31
0.0
  0
TEXT
  5
162
330
1D
100
AcDbEntity
  8
2
  6
CONTINUOUS
370
    25
100
AcDbText
 10
163.270107662
 20
1.851352254
 30
0.0
 40
3.5
  1
-54
 50
90.00000250400001
  7
BMG_Text
100
AcDbText
  0
ENDSEC
  0
SECTION
  2
OBJECTS
  0
DICTIONARY
  5
C
330
0
100
AcDbDictionary
281
     1
  3
ACAD_GROUP
350
D
  3
ACAD_LAYOUT
350
1A
  3
ACAD_MATERIAL
350
1A1
  3
ACAD_MLEADERSTYLE
350
1AF
  3
ACAD_MLINESTYLE
350
17
  3
ACAD_PLOTSETTINGS
350
19
  3
ACAD_PLOTSTYLENAME
350
E
  3
ACAD_SCALELIST
350
16A
  3
ACAD_VISUALSTYLE
350
190
  3
ACDB_RECOMPOSE_DATA
350
1DC
  3
AcDbVariableDictionary
350
1AD
  0
DICTIONARY
  5
1B3
330
8
100
AcDbDictionary
280
     1
281
     1
  3
ACAD_XREC_ROUNDTRIP
360
1B4
  0
DICTIONARY
  5
D
102
{ACAD_REACTORS
330
C
102
}
330
C
100
AcDbDictionary
281
     1
  0
DICTIONARY
  5
1A
102
{ACAD_REACTORS
330
C
102
}
330
C
100
AcDbDictionary
281
     1
  3
Layout1
350
1C
  3
Model
350
1E
  0
DICTIONARY
  5
1A1
102
{ACAD_REACTORS
330
C
102
}
330
C
100
AcDbDictionary
281
     1
  3
ByBlock
350
1A3
  3
ByLayer
350
1A2
  3
Global
350
1A4
  0
DICTIONARY
  5
1AF
102
{ACAD_REACTORS
330
C
102
}
330
C
100
AcDbDictionary
281
     1
  0
DICTIONARY
  5
17
102
{ACAD_REACTORS
330
C
102
}
330
C
100
AcDbDictionary
281
     1
  3
Standard
350
18
  0
DICTIONARY
  5
19
102
{ACAD_REACTORS
330
C
102
}
330
C
100
AcDbDictionary
281
     1
  0
ACDBDICTIONARYWDFLT
  5
E
102
{ACAD_REACTORS
330
C
102
}
330
C
100
AcDbDictionary
281
     1
  3
Normal
350
F
100
AcDbDictionaryWithDefault
340
F
  0
DICTIONARY
  5
16A
102
{ACAD_REACTORS
330
C
102
}
330
C
100
AcDbDictionary
281
     1
  3
A0
350
16B
  3
A1
350
16C
  3
A2
350
16D
  3
A3
350
16E
  3
A4
350
16F
  3
A5
350
170
  3
A6
350
171
  3
A7
350
172
  3
A8
350
173
  3
A9
350
174
  3
B0
350
175
  3
B1
350
176
  3
B2
350
177
  3
B3
350
178
  3
B4
350
179
  3
B5
350
17A
  3
B6
350
17B
  3
B7
350
17C
  3
B8
350
17D
  3
B9
350
17E
  3
C0
350
17F
  3
C1
350
180
  3
C2
350
181
  3
C3
350
182
  3
C4
350
183
  3
C5
350
184
  3
C6
350
185
  3
C7
350
186
  3
C8
350
187
  3
C9
350
188
  3
D0
350
189
  3
D1
350
18A
  3
D2
350
18B
  0
DICTIONARY
  5
190
102
{ACAD_REACTORS
330
C
102
}
330
C
100
AcDbDictionary
281
     1
  3
2dWireframe
350
195
  3
3D Hidden
350
197
  3
3dWireframe
350
196
  3
Basic
350
198
  3
Brighten
350
19C
  3
ColorChange
350
1A0
  3
Conceptual
350
19A
  3
Dim
350
19B
  3
Facepattern
350
19F
  3
Flat
350
191
  3
FlatWithEdges
350
192
  3
Gouraud
350
193
  3
GouraudWithEdges
350
194
  3
Linepattern
350
19E
  3
Realistic
350
199
  3
Thicken
350
19D
  0
XRECORD
  5
1DC
102
{ACAD_REACTORS
330
C
102
}
330
C
100
AcDbXrecord
280
     1
  0
DICTIONARY
  5
1AD
102
{ACAD_REACTORS
330
C
102
}
330
C
100
AcDbDictionary
281
     1
  3
CANNOSCALE
350
1B5
  3
DIMASSOC
350
1B1
  3
HIDETEXT
350
1B2
  3
MSLTSCALE
350
1B0
  0
XRECORD
  5
1B4
102
{ACAD_REACTORS
330
1B3
102
}
330
1B3
100
AcDbXrecord
280
     1
102
VTR_0.000_0.000_1.000_1.000_VISUALSTYLE
340
195
102
VTR_0.000_0.000_1.000_1.000_GRIDDISPLAY
 70
     3
102
VTR_0.000_0.000_1.000_1.000_GRIDMAJOR
 70
     5
102
VTR_0.000_0.000_1.000_1.000_DEFAULTLIGHTING
280
     1
102
VTR_0.000_0.000_1.000_1.000_DEFAULTLIGHTINGTYPE
 70
     1
102
VTR_0.000_0.000_1.000_1.000_BRIGHTNESS
141
0.0
102
VTR_0.000_0.000_1.000_1.000_CONTRAST
142
0.0
  0
LAYOUT
  5
1C
102
{ACAD_REACTORS
330
1A
102
}
330
1A
100
AcDbPlotSettings
  1

  2
none_device
  4

  6

 40
0.0
 41
0.0
 42
0.0
 43
0.0
 44
0.0
 45
0.0
 46
0.0
 47
0.0
 48
0.0
 49
0.0
140
0.0
141
0.0
142
1.0
143
1.0
 70
   688
 72
     0
 73
     0
 74
     5
  7

 75
    16
147
1.0
148
0.0
149
0.0
100
AcDbLayout
  1
Layout1
 70
     1
 71
     1
 10
0.0
 20
0.0
 11
12.0
 21
9.0
 12
0.0
 22
0.0
 32
0.0
 14
1.000000000000000E+20
 24
1.000000000000000E+20
 34
1.000000000000000E+20
 15
-1.000000000000000E+20
 25
-1.000000000000000E+20
 35
-1.000000000000000E+20
146
0.0
 13
0.0
 23
0.0
 33
0.0
 16
1.0
 26
0.0
 36
0.0
 17
0.0
 27
1.0
 37
0.0
 76
     0
330
1B
  0
LAYOUT
  5
1E
102
{ACAD_REACTORS
330
1A
102
}
330
1A
100
AcDbPlotSettings
  1

  2
none_device
  4

  6

 40
0.0
 41
0.0
 42
0.0
 43
0.0
 44
0.0
 45
0.0
 46
0.0
 47
0.0
 48
0.0
 49
0.0
140
0.0
141
0.0
142
1.0
143
1.0
 70
  1712
 72
     0
 73
     0
 74
     0
  7

 75
     0
147
1.0
148
0.0
149
0.0
100
AcDbLayout
  1
Model
 70
     1
 71
     0
 10
0.0
 20
0.0
 11
12.0
 21
9.0
 12
0.0
 22
0.0
 32
0.0
 14
-49.115456118
 24
-69.151990733
 34
0.0
 15
166.798468569
 25
68.398673913
 35
0.0
146
0.0
 13
0.0
 23
0.0
 33
0.0
 16
1.0
 26
0.0
 36
0.0
 17
0.0
 27
1.0
 37
0.0
 76
     0
330
1D
331
163
  0
MATERIAL
  5
1A3
102
{ACAD_REACTORS
330
1A1
102
}
102
{ACAD_XDICTIONARY
360
1D8
102
}
330
1A1
100
AcDbMaterial
  1
ByBlock
  0
MATERIAL
  5
1A2
102
{ACAD_REACTORS
330
1A1
102
}
102
{ACAD_XDICTIONARY
360
1D6
102
}
330
1A1
100
AcDbMaterial
  1
ByLayer
  0
MATERIAL
  5
1A4
102
{ACAD_REACTORS
330
1A1
102
}
102
{ACAD_XDICTIONARY
360
1DA
102
}
330
1A1
100
AcDbMaterial
  1
Global
  0
MLINESTYLE
  5
18
102
{ACAD_REACTORS
330
17
102
}
330
17
100
AcDbMlineStyle
  2
Standard
 70
     0
  3

 62
   256
 51
90.0
 52
90.0
 71
     2
 49
0.5
 62
   256
  6
BYLAYER
 49
-0.5
 62
   256
  6
BYLAYER
  0
ACDBPLACEHOLDER
  5
F
102
{ACAD_REACTORS
330
E
102
}
330
E
  0
SCALE
  5
16B
102
{ACAD_REACTORS
330
16A
102
}
330
16A
100
AcDbScale
 70
     0
300
1:1
140
1.0
141
1.0
290
     1
  0
SCALE
  5
16C
102
{ACAD_REACTORS
330
16A
102
}
330
16A
100
AcDbScale
 70
     0
300
1:2
140
1.0
141
2.0
290
     0
  0
SCALE
  5
16D
102
{ACAD_REACTORS
330
16A
102
}
330
16A
100
AcDbScale
 70
     0
300
1:4
140
1.0
141
4.0
290
     0
  0
SCALE
  5
16E
102
{ACAD_REACTORS
330
16A
102
}
330
16A
100
AcDbScale
 70
     0
300
1:5
140
1.0
141
5.0
290
     0
  0
SCALE
  5
16F
102
{ACAD_REACTORS
330
16A
102
}
330
16A
100
AcDbScale
 70
     0
300
1:8
140
1.0
141
8.0
290
     0
  0
SCALE
  5
170
102
{ACAD_REACTORS
330
16A
102
}
330
16A
100
AcDbScale
 70
     0
300
1:10
140
1.0
141
10.0
290
     0
  0
SCALE
  5
171
102
{ACAD_REACTORS
330
16A
102
}
330
16A
100
AcDbScale
 70
     0
300
1:16
140
1.0
141
16.0
290
     0
  0
SCALE
  5
172
102
{ACAD_REACTORS
330
16A
102
}
330
16A
100
AcDbScale
 70
     0
300
1:20
140
1.0
141
20.0
290
     0
  0
SCALE
  5
173
102
{ACAD_REACTORS
330
16A
102
}
330
16A
100
AcDbScale
 70
     0
300
1:30
140
1.0
141
30.0
290
     0
  0
SCALE
  5
174
102
{ACAD_REACTORS
330
16A
102
}
330
16A
100
AcDbScale
 70
     0
300
1:40
140
1.0
141
40.0
290
     0
  0
SCALE
  5
175
102
{ACAD_REACTORS
330
16A
102
}
330
16A
100
AcDbScale
 70
     0
300
1:50
140
1.0
141
50.0
290
     0
  0
SCALE
  5
176
102
{ACAD_REACTORS
330
16A
102
}
330
16A
100
AcDbScale
 70
     0
300
1:100
140
1.0
141
100.0
290
     0
  0
SCALE
  5
177
102
{ACAD_REACTORS
330
16A
102
}
330
16A
100
AcDbScale
 70
     0
300
2:1
140
2.0
141
1.0
290
     0
  0
SCALE
  5
178
102
{ACAD_REACTORS
330
16A
102
}
330
16A
100
AcDbScale
 70
     0
300
4:1
140
4.0
141
1.0
290
     0
  0
SCALE
  5
179
102
{ACAD_REACTORS
330
16A
102
}
330
16A
100
AcDbScale
 70
     0
300
8:1
140
8.0
141
1.0
290
     0
  0
SCALE
  5
17A
102
{ACAD_REACTORS
330
16A
102
}
330
16A
100
AcDbScale
 70
     0
300
10:1
140
10.0
141
1.0
290
     0
  0
SCALE
  5
17B
102
{ACAD_REACTORS
330
16A
102
}
330
16A
100
AcDbScale
 70
     0
300
100:1
140
100.0
141
1.0
290
     0
  0
SCALE
  5
17C
102
{ACAD_REACTORS
330
16A
102
}
330
16A
100
AcDbScale
 70
     0
300
1/128" = 1'-0"
140
0.0078125
141
12.0
290
     0
  0
SCALE
  5
17D
102
{ACAD_REACTORS
330
16A
102
}
330
16A
100
AcDbScale
 70
     0
300
1/64" = 1'-0"
140
0.015625
141
12.0
290
     0
  0
SCALE
  5
17E
102
{ACAD_REACTORS
330
16A
102
}
330
16A
100
AcDbScale
 70
     0
300
1/32" = 1'-0"
140
0.03125
141
12.0
290
     0
  0
SCALE
  5
17F
102
{ACAD_REACTORS
330
16A
102
}
330
16A
100
AcDbScale
 70
     0
300
1/16" = 1'-0"
140
0.0625
141
12.0
290
     0
  0
SCALE
  5
180
102
{ACAD_REACTORS
330
16A
102
}
330
16A
100
AcDbScale
 70
     0
300
3/32" = 1'-0"
140
0.09375
141
12.0
290
     0
  0
SCALE
  5
181
102
{ACAD_REACTORS
330
16A
102
}
330
16A
100
AcDbScale
 70
     0
300
1/8" = 1'-0"
140
0.125
141
12.0
290
     0
  0
SCALE
  5
182
102
{ACAD_REACTORS
330
16A
102
}
330
16A
100
AcDbScale
 70
     0
300
3/16" = 1'-0"
140
0.1875
141
12.0
290
     0
  0
SCALE
  5
183
102
{ACAD_REACTORS
330
16A
102
}
330
16A
100
AcDbScale
 70
     0
300
1/4" = 1'-0"
140
0.25
141
12.0
290
     0
  0
SCALE
  5
184
102
{ACAD_REACTORS
330
16A
102
}
330
16A
100
AcDbScale
 70
     0
300
3/8" = 1'-0"
140
0.375
141
12.0
290
     0
  0
SCALE
  5
185
102
{ACAD_REACTORS
330
16A
102
}
330
16A
100
AcDbScale
 70
     0
300
1/2" = 1'-0"
140
0.5
141
12.0
290
     0
  0
SCALE
  5
186
102
{ACAD_REACTORS
330
16A
102
}
330
16A
100
AcDbScale
 70
     0
300
3/4" = 1'-0"
140
0.75
141
12.0
290
     0
  0
SCALE
  5
187
102
{ACAD_REACTORS
330
16A
102
}
330
16A
100
AcDbScale
 70
     0
300
1" = 1'-0"
140
1.0
141
12.0
290
     0
  0
SCALE
  5
188
102
{ACAD_REACTORS
330
16A
102
}
330
16A
100
AcDbScale
 70
     0
300
1-1/2" = 1'-0"
140
1.5
141
12.0
290
     0
  0
SCALE
  5
189
102
{ACAD_REACTORS
330
16A
102
}
330
16A
100
AcDbScale
 70
     0
300
3" = 1'-0"
140
3.0
141
12.0
290
     0
  0
SCALE
  5
18A
102
{ACAD_REACTORS
330
16A
102
}
330
16A
100
AcDbScale
 70
     0
300
6" = 1'-0"
140
6.0
141
12.0
290
     0
  0
SCALE
  5
18B
102
{ACAD_REACTORS
330
16A
102
}
330
16A
100
AcDbScale
 70
     0
300
1'-0" = 1'-0"
140
12.0
141
12.0
290
     0
  0
VISUALSTYLE
  5
195
102
{ACAD_REACTORS
330
190
102
}
102
{ACAD_XDICTIONARY
360
1BE
102
}
330
190
100
AcDbVisualStyle
  2
2dWireframe
 70
     4
 71
     0
 72
     2
 73
     0
 90
        0
 40
-0.6
 41
-30.0
 62
     5
 63
     7
 74
     1
 91
        4
 64
     7
 65
   257
 75
     1
175
     1
 42
1.0
 92
        0
 66
   257
 43
1.0
 76
     1
 77
     6
 78
     2
 67
     7
 79
     5
170
     0
171
     0
290
     0
174
     0
 93
        1
 44
0.0
173
     0
291
     0
 45
0.0
1001
ACAD
1000
AcDbSavedByObjectVersion
1070
     0
  0
VISUALSTYLE
  5
197
102
{ACAD_REACTORS
330
190
102
}
102
{ACAD_XDICTIONARY
360
1C2
102
}
330
190
100
AcDbVisualStyle
  2
3D Hidden
 70
     6
 71
     1
 72
     2
 73
     2
 90
        0
 40
-0.6
 41
-30.0
 62
     5
 63
     7
 74
     2
 91
        2
 64
     7
 65
   257
 75
     2
175
     1
 42
40.0
 92
        0
 66
   257
 43
1.0
 76
     1
 77
     6
 78
     2
 67
     7
 79
     3
170
     0
171
     0
290
     0
174
     0
 93
        1
 44
0.0
173
     0
291
     0
 45
0.0
1001
ACAD
1000
AcDbSavedByObjectVersion
1070
     0
  0
VISUALSTYLE
  5
196
102
{ACAD_REACTORS
330
190
102
}
102
{ACAD_XDICTIONARY
360
1C0
102
}
330
190
100
AcDbVisualStyle
  2
3dWireframe
 70
     5
 71
     0
 72
     2
 73
     0
 90
        0
 40
-0.6
 41
-30.0
 62
     5
 63
     7
 74
     1
 91
        4
 64
     7
 65
   257
 75
     1
175
     1
 42
1.0
 92
        0
 66
   257
 43
1.0
 76
     1
 77
     6
 78
     2
 67
     7
 79
     5
170
     0
171
     0
290
     0
174
     0
 93
        1
 44
0.0
173
     0
291
     0
 45
0.0
1001
ACAD
1000
AcDbSavedByObjectVersion
1070
     0
  0
VISUALSTYLE
  5
198
102
{ACAD_REACTORS
330
190
102
}
102
{ACAD_XDICTIONARY
360
1C4
102
}
330
190
100
AcDbVisualStyle
  2
Basic
 70
     7
 71
     1
 72
     0
 73
     1
 90
        0
 40
-0.6
 41
-30.0
 62
     5
 63
     7
 74
     0
 91
        4
 64
     7
 65
   257
 75
     1
175
     1
 42
1.0
 92
        8
 66
     7
 43
1.0
 76
     1
 77
     6
 78
     2
 67
     7
 79
     5
170
     0
171
     0
290
     0
174
     0
 93
        1
 44
0.0
173
     0
291
     1
 45
0.0
1001
ACAD
1000
AcDbSavedByObjectVersion
1070
     0
  0
VISUALSTYLE
  5
19C
102
{ACAD_REACTORS
330
190
102
}
102
{ACAD_XDICTIONARY
360
1CC
102
}
330
190
100
AcDbVisualStyle
  2
Brighten
 70
    12
 71
     2
 72
     2
 73
     0
 90
        0
 40
-0.6
 41
-30.0
 62
     5
 63
     7
 74
     1
 91
        4
 64
     7
 65
   257
 75
     1
175
     1
 42
1.0
 92
        8
 66
     7
 43
1.0
 76
     1
 77
     6
 78
     2
 67
     7
 79
     5
170
     0
171
     0
290
     0
174
     0
 93
        1
 44
50.0
173
     0
291
     1
 45
0.0
1001
ACAD
1000
AcDbSavedByObjectVersion
1070
     0
  0
VISUALSTYLE
  5
1A0
102
{ACAD_REACTORS
330
190
102
}
102
{ACAD_XDICTIONARY
360
1D4
102
}
330
190
100
AcDbVisualStyle
  2
ColorChange
 70
    16
 71
     2
 72
     2
 73
     3
 90
        0
 40
-0.6
 41
-30.0
 62
     5
 63
     8
 74
     1
 91
        4
 64
     7
 65
   257
 75
     1
175
     1
 42
1.0
 92
        8
 66
     8
 43
1.0
 76
     1
 77
     6
 78
     2
 67
     7
 79
     5
170
     0
171
     0
290
     0
174
     0
 93
        1
 44
0.0
173
     0
291
     1
 45
0.0
1001
ACAD
1000
AcDbSavedByObjectVersion
1070
     0
  0
VISUALSTYLE
  5
19A
102
{ACAD_REACTORS
330
190
102
}
102
{ACAD_XDICTIONARY
360
1C8
102
}
330
190
100
AcDbVisualStyle
  2
Conceptual
 70
     9
 71
     3
 72
     2
 73
     0
 90
        0
 40
-0.6
 41
-30.0
 62
     5
 63
     7
 74
     2
 91
        2
 64
     7
 65
   257
 75
     1
175
     1
 42
40.0
 92
        8
 66
     7
 43
1.0
 76
     1
 77
     6
 78
     2
 67
     7
 79
     3
170
     0
171
     0
290
     0
174
     0
 93
        1
 44
0.0
173
     0
291
     0
 45
0.0
1001
ACAD
1000
AcDbSavedByObjectVersion
1070
     0
  0
VISUALSTYLE
  5
19B
102
{ACAD_REACTORS
330
190
102
}
102
{ACAD_XDICTIONARY
360
1CA
102
}
330
190
100
AcDbVisualStyle
  2
Dim
 70
    11
 71
     2
 72
     2
 73
     0
 90
        0
 40
-0.6
 41
-30.0
 62
     5
 63
     7
 74
     1
 91
        4
 64
     7
 65
   257
 75
     1
175
     1
 42
1.0
 92
        8
 66
     7
 43
1.0
 76
     1
 77
     6
 78
     2
 67
     7
 79
     5
170
     0
171
     0
290
     0
174
     0
 93
        1
 44
-50.0
173
     0
291
     1
 45
0.0
1001
ACAD
1000
AcDbSavedByObjectVersion
1070
     0
  0
VISUALSTYLE
  5
19F
102
{ACAD_REACTORS
330
190
102
}
102
{ACAD_XDICTIONARY
360
1D2
102
}
330
190
100
AcDbVisualStyle
  2
Facepattern
 70
    15
 71
     2
 72
     2
 73
     0
 90
        0
 40
-0.6
 41
-30.0
 62
     5
 63
     7
 74
     1
 91
        4
 64
     7
 65
   257
 75
     1
175
     1
 42
1.0
 92
        8
 66
     7
 43
1.0
 76
     1
 77
     6
 78
     2
 67
     7
 79
     5
170
     0
171
     0
290
     0
174
     0
 93
        1
 44
0.0
173
     0
291
     1
 45
0.0
1001
ACAD
1000
AcDbSavedByObjectVersion
1070
     0
  0
VISUALSTYLE
  5
191
102
{ACAD_REACTORS
330
190
102
}
102
{ACAD_XDICTIONARY
360
1B6
102
}
330
190
100
AcDbVisualStyle
  2
Flat
 70
     0
 71
     2
 72
     1
 73
     1
 90
        2
 40
-0.6
 41
30.0
 62
     5
 63
     7
 74
     0
 91
        4
 64
     7
 65
   257
 75
     1
175
     1
 42
1.0
 92
        8
 66
     7
 43
1.0
 76
     1
 77
     6
 78
     2
 67
     7
 79
     5
170
     0
171
     0
290
     0
174
     0
 93
       13
 44
0.0
173
     0
291
     1
 45
0.0
1001
ACAD
1000
AcDbSavedByObjectVersion
1070
     0
  0
VISUALSTYLE
  5
192
102
{ACAD_REACTORS
330
190
102
}
102
{ACAD_XDICTIONARY
360
1B8
102
}
330
190
100
AcDbVisualStyle
  2
FlatWithEdges
 70
     1
 71
     2
 72
     1
 73
     1
 90
        2
 40
-0.6
 41
30.0
 62
     5
 63
     7
 74
     1
 91
        4
 64
     7
 65
   257
 75
     1
175
     1
 42
1.0
 92
        0
 66
   257
 43
1.0
 76
     1
 77
     6
 78
     2
 67
     7
 79
     5
170
     0
171
     0
290
     0
174
     0
 93
       13
 44
0.0
173
     0
291
     1
 45
0.0
1001
ACAD
1000
AcDbSavedByObjectVersion
1070
     0
  0
VISUALSTYLE
  5
193
102
{ACAD_REACTORS
330
190
102
}
102
{ACAD_XDICTIONARY
360
1BA
102
}
330
190
100
AcDbVisualStyle
  2
Gouraud
 70
     2
 71
     2
 72
     2
 73
     1
 90
        2
 40
-0.6
 41
30.0
 62
     5
 63
     7
 74
     0
 91
        4
 64
     7
 65
   257
 75
     1
175
     1
 42
1.0
 92
        0
 66
     7
 43
1.0
 76
     1
 77
     6
 78
     2
 67
     7
 79
     5
170
     0
171
     0
290
     0
174
     0
 93
       13
 44
0.0
173
     0
291
     1
 45
0.0
1001
ACAD
1000
AcDbSavedByObjectVersion
1070
     0
  0
VISUALSTYLE
  5
194
102
{ACAD_REACTORS
330
190
102
}
102
{ACAD_XDICTIONARY
360
1BC
102
}
330
190
100
AcDbVisualStyle
  2
GouraudWithEdges
 70
     3
 71
     2
 72
     2
 73
     1
 90
        2
 40
-0.6
 41
30.0
 62
     5
 63
     7
 74
     1
 91
        4
 64
     7
 65
   257
 75
     1
175
     1
 42
1.0
 92
        0
 66
   257
 43
1.0
 76
     1
 77
     6
 78
     2
 67
     7
 79
     5
170
     0
171
     0
290
     0
174
     0
 93
       13
 44
0.0
173
     0
291
     1
 45
0.0
1001
ACAD
1000
AcDbSavedByObjectVersion
1070
     0
  0
VISUALSTYLE
  5
19E
102
{ACAD_REACTORS
330
190
102
}
102
{ACAD_XDICTIONARY
360
1D0
102
}
330
190
100
AcDbVisualStyle
  2
Linepattern
 70
    14
 71
     2
 72
     2
 73
     0
 90
        0
 40
-0.6
 41
-30.0
 62
     5
 63
     7
 74
     1
 91
        4
 64
     7
 65
   257
 75
     7
175
     7
 42
1.0
 92
        8
 66
     7
 43
1.0
 76
     1
 77
     6
 78
     2
 67
     7
 79
     5
170
     0
171
     0
290
     0
174
     0
 93
        1
 44
0.0
173
     0
291
     1
 45
0.0
1001
ACAD
1000
AcDbSavedByObjectVersion
1070
     0
  0
VISUALSTYLE
  5
199
102
{ACAD_REACTORS
330
190
102
}
102
{ACAD_XDICTIONARY
360
1C6
102
}
330
190
100
AcDbVisualStyle
  2
Realistic
 70
     8
 71
     2
 72
     2
 73
     0
 90
        0
 40
-0.6
 41
-30.0
 62
     5
 63
     7
 74
     1
 91
        0
 64
     7
 65
   257
 75
     1
175
     1
 42
1.0
 92
        8
 66
     8
 43
1.0
 76
     1
 77
     6
 78
     2
 67
     7
 79
     5
170
     0
171
     0
290
     0
174
     0
 93
       13
 44
0.0
173
     0
291
     0
 45
0.0
1001
ACAD
1000
AcDbSavedByObjectVersion
1070
     0
  0
VISUALSTYLE
  5
19D
102
{ACAD_REACTORS
330
190
102
}
102
{ACAD_XDICTIONARY
360
1CE
102
}
330
190
100
AcDbVisualStyle
  2
Thicken
 70
    13
 71
     2
 72
     2
 73
     0
 90
        0
 40
-0.6
 41
-30.0
 62
     5
 63
     7
 74
     1
 91
        4
 64
     7
 65
   257
 75
     1
175
     1
 42
1.0
 92
       12
 66
     7
 43
1.0
 76
     1
 77
     6
 78
     2
 67
     7
 79
     5
170
     0
171
     0
290
     0
174
     0
 93
        1
 44
0.0
173
     0
291
     1
 45
0.0
1001
ACAD
1000
AcDbSavedByObjectVersion
1070
     0
  0
DICTIONARYVAR
  5
1B5
102
{ACAD_REACTORS
330
1AD
102
}
330
1AD
100
DictionaryVariables
280
     0
  1
1:1
  0
DICTIONARYVAR
  5
1B1
102
{ACAD_REACTORS
330
1AD
102
}
330
1AD
100
DictionaryVariables
280
     0
  1
2
  0
DICTIONARYVAR
  5
1B2
102
{ACAD_REACTORS
330
1AD
102
}
330
1AD
100
DictionaryVariables
280
     0
  1
1
  0
DICTIONARYVAR
  5
1B0
102
{ACAD_REACTORS
330
1AD
102
}
330
1AD
100
DictionaryVariables
280
     0
  1
0
  0
DICTIONARY
  5
1D8
330
1A3
100
AcDbDictionary
280
     1
281
     1
  3
ACAD_XREC_ROUNDTRIP
360
1D9
  0
DICTIONARY
  5
1D6
330
1A2
100
AcDbDictionary
280
     1
281
     1
  3
ACAD_XREC_ROUNDTRIP
360
1D7
  0
DICTIONARY
  5
1DA
330
1A4
100
AcDbDictionary
280
     1
281
     1
  3
ACAD_XREC_ROUNDTRIP
360
1DB
  0
DICTIONARY
  5
1BE
330
195
100
AcDbDictionary
280
     1
281
     1
  3
ACAD_XREC_ROUNDTRIP
360
1BF
  0
DICTIONARY
  5
1C2
330
197
100
AcDbDictionary
280
     1
281
     1
  3
ACAD_XREC_ROUNDTRIP
360
1C3
  0
DICTIONARY
  5
1C0
330
196
100
AcDbDictionary
280
     1
281
     1
  3
ACAD_XREC_ROUNDTRIP
360
1C1
  0
DICTIONARY
  5
1C4
330
198
100
AcDbDictionary
280
     1
281
     1
  3
ACAD_XREC_ROUNDTRIP
360
1C5
  0
DICTIONARY
  5
1CC
330
19C
100
AcDbDictionary
280
     1
281
     1
  3
ACAD_XREC_ROUNDTRIP
360
1CD
  0
DICTIONARY
  5
1D4
330
1A0
100
AcDbDictionary
280
     1
281
     1
  3
ACAD_XREC_ROUNDTRIP
360
1D5
  0
DICTIONARY
  5
1C8
330
19A
100
AcDbDictionary
280
     1
281
     1
  3
ACAD_XREC_ROUNDTRIP
360
1C9
  0
DICTIONARY
  5
1CA
330
19B
100
AcDbDictionary
280
     1
281
     1
  3
ACAD_XREC_ROUNDTRIP
360
1CB
  0
DICTIONARY
  5
1D2
330
19F
100
AcDbDictionary
280
     1
281
     1
  3
ACAD_XREC_ROUNDTRIP
360
1D3
  0
DICTIONARY
  5
1B6
330
191
100
AcDbDictionary
280
     1
281
     1
  3
ACAD_XREC_ROUNDTRIP
360
1B7
  0
DICTIONARY
  5
1B8
330
192
100
AcDbDictionary
280
     1
281
     1
  3
ACAD_XREC_ROUNDTRIP
360
1B9
  0
DICTIONARY
  5
1BA
330
193
100
AcDbDictionary
280
     1
281
     1
  3
ACAD_XREC_ROUNDTRIP
360
1BB
  0
DICTIONARY
  5
1BC
330
194
100
AcDbDictionary
280
     1
281
     1
  3
ACAD_XREC_ROUNDTRIP
360
1BD
  0
DICTIONARY
  5
1D0
330
19E
100
AcDbDictionary
280
     1
281
     1
  3
ACAD_XREC_ROUNDTRIP
360
1D1
  0
DICTIONARY
  5
1C6
330
199
100
AcDbDictionary
280
     1
281
     1
  3
ACAD_XREC_ROUNDTRIP
360
1C7
  0
DICTIONARY
  5
1CE
330
19D
100
AcDbDictionary
280
     1
281
     1
  3
ACAD_XREC_ROUNDTRIP
360
1CF
  0
XRECORD
  5
1D9
102
{ACAD_REACTORS
330
1D8
102
}
330
1D8
100
AcDbXrecord
280
     1
102
MATERIAL
148
0.0
149
0.0
149
0.0
 93
        0
 94
      127
282
     0
 72
     1
 77
     1
171
     1
175
     1
179
     1
273
     0
  0
XRECORD
  5
1D7
102
{ACAD_REACTORS
330
1D6
102
}
330
1D6
100
AcDbXrecord
280
     1
102
MATERIAL
148
0.0
149
0.0
149
0.0
 93
        0
 94
      127
282
     0
 72
     1
 77
     1
171
     1
175
     1
179
     1
273
     0
  0
XRECORD
  5
1DB
102
{ACAD_REACTORS
330
1DA
102
}
330
1DA
100
AcDbXrecord
280
     1
102
MATERIAL
148
0.0
149
0.0
149
0.0
 93
        0
 94
      127
282
     0
 72
     1
 77
     1
171
     1
175
     1
179
     1
273
     0
  0
XRECORD
  5
1BF
102
{ACAD_REACTORS
330
1BE
102
}
330
1BE
100
AcDbXrecord
280
     1
102
RTVSPropertyOp0
 70
     1
102
RTVSPropertyOp1
 70
     1
102
RTVSPropertyOp2
 70
     1
102
RTVSPropertyOp3
 70
     1
102
RTVSPropertyOp4
 70
     1
102
RTVSPropertyOp5
 70
     1
102
RTVSPropertyOp6
 70
     1
102
RTVSPropertyOp7
 70
     1
102
RTVSPropertyOp8
 70
     1
102
RTVSPropertyOp9
 70
     1
102
RTVSPropertyOp10
 70
     1
102
RTVSPropertyOp11
 70
     1
102
RTVSPropertyOp12
 70
     1
102
RTVSPropertyOp13
 70
     1
102
RTVSPropertyOp14
 70
     1
102
RTVSPropertyOp15
 70
     1
102
RTVSPropertyOp16
 70
     1
102
RTVSPropertyOp17
 70
     1
102
RTVSPropertyOp18
 70
     1
102
RTVSPropertyOp19
 70
     1
102
RTVSPropertyOp20
 70
     1
102
RTVSPropertyOp21
 70
     1
102
RTVSPropertyOp22
 70
     1
102
RTVSPropertyOp23
 70
     1
102
RTVSPropertyOp24
 70
     1
102
RTVSPropertyOp25
 70
     1
102
RTVSPropertyOp26
 70
     1
102
RTVSPropertyOp27
 70
     1
102
RTVSPropertyOp28
 70
     1
102
RTVSPropertyOp29
 70
     1
102
RTVSPropertyOp30
 70
     1
102
RTVSPropertyOp31
 70
     1
102
RTVSPropertyOp32
 70
     1
  0
XRECORD
  5
1C3
102
{ACAD_REACTORS
330
1C2
102
}
330
1C2
100
AcDbXrecord
280
     1
102
RTVSPropertyOp0
 70
     1
102
RTVSPropertyOp1
 70
     1
102
RTVSPropertyOp2
 70
     1
102
RTVSPropertyOp3
 70
     1
102
RTVSPropertyOp4
 70
     1
102
RTVSPropertyOp5
 70
     1
102
RTVSPropertyOp6
 70
     1
102
RTVSPropertyOp7
 70
     1
102
RTVSPropertyOp8
 70
     1
102
RTVSPropertyOp9
 70
     1
102
RTVSPropertyOp10
 70
     1
102
RTVSPropertyOp11
 70
     1
102
RTVSPropertyOp12
 70
     1
102
RTVSPropertyOp13
 70
     1
102
RTVSPropertyOp14
 70
     1
102
RTVSPropertyOp15
 70
     1
102
RTVSPropertyOp16
 70
     1
102
RTVSPropertyOp17
 70
     1
102
RTVSPropertyOp18
 70
     1
102
RTVSPropertyOp19
 70
     1
102
RTVSPropertyOp20
 70
     1
102
RTVSPropertyOp21
 70
     1
102
RTVSPropertyOp22
 70
     1
102
RTVSPropertyOp23
 70
     1
102
RTVSPropertyOp24
 70
     1
102
RTVSPropertyOp25
 70
     1
102
RTVSPropertyOp26
 70
     1
102
RTVSPropertyOp27
 70
     1
102
RTVSPropertyOp28
 70
     1
102
RTVSPropertyOp29
 70
     1
102
RTVSPropertyOp30
 70
     1
102
RTVSPropertyOp31
 70
     1
102
RTVSPropertyOp32
 70
     1
  0
XRECORD
  5
1C1
102
{ACAD_REACTORS
330
1C0
102
}
330
1C0
100
AcDbXrecord
280
     1
102
RTVSPropertyOp0
 70
     1
102
RTVSPropertyOp1
 70
     1
102
RTVSPropertyOp2
 70
     1
102
RTVSPropertyOp3
 70
     1
102
RTVSPropertyOp4
 70
     1
102
RTVSPropertyOp5
 70
     1
102
RTVSPropertyOp6
 70
     1
102
RTVSPropertyOp7
 70
     1
102
RTVSPropertyOp8
 70
     1
102
RTVSPropertyOp9
 70
     1
102
RTVSPropertyOp10
 70
     1
102
RTVSPropertyOp11
 70
     1
102
RTVSPropertyOp12
 70
     1
102
RTVSPropertyOp13
 70
     1
102
RTVSPropertyOp14
 70
     1
102
RTVSPropertyOp15
 70
     1
102
RTVSPropertyOp16
 70
     1
102
RTVSPropertyOp17
 70
     1
102
RTVSPropertyOp18
 70
     1
102
RTVSPropertyOp19
 70
     1
102
RTVSPropertyOp20
 70
     1
102
RTVSPropertyOp21
 70
     1
102
RTVSPropertyOp22
 70
     1
102
RTVSPropertyOp23
 70
     1
102
RTVSPropertyOp24
 70
     1
102
RTVSPropertyOp25
 70
     1
102
RTVSPropertyOp26
 70
     1
102
RTVSPropertyOp27
 70
     1
102
RTVSPropertyOp28
 70
     1
102
RTVSPropertyOp29
 70
     1
102
RTVSPropertyOp30
 70
     1
102
RTVSPropertyOp31
 70
     1
102
RTVSPropertyOp32
 70
     1
  0
XRECORD
  5
1C5
102
{ACAD_REACTORS
330
1C4
102
}
330
1C4
100
AcDbXrecord
280
     1
102
RTVSPropertyOp0
 70
     1
102
RTVSPropertyOp1
 70
     1
102
RTVSPropertyOp2
 70
     1
102
RTVSPropertyOp3
 70
     1
102
RTVSPropertyOp4
 70
     1
102
RTVSPropertyOp5
 70
     1
102
RTVSPropertyOp6
 70
     1
102
RTVSPropertyOp7
 70
     1
102
RTVSPropertyOp8
 70
     1
102
RTVSPropertyOp9
 70
     1
102
RTVSPropertyOp10
 70
     1
102
RTVSPropertyOp11
 70
     1
102
RTVSPropertyOp12
 70
     1
102
RTVSPropertyOp13
 70
     1
102
RTVSPropertyOp14
 70
     1
102
RTVSPropertyOp15
 70
     1
102
RTVSPropertyOp16
 70
     1
102
RTVSPropertyOp17
 70
     1
102
RTVSPropertyOp18
 70
     1
102
RTVSPropertyOp19
 70
     1
102
RTVSPropertyOp20
 70
     1
102
RTVSPropertyOp21
 70
     1
102
RTVSPropertyOp22
 70
     1
102
RTVSPropertyOp23
 70
     1
102
RTVSPropertyOp24
 70
     1
102
RTVSPropertyOp25
 70
     1
102
RTVSPropertyOp26
 70
     1
102
RTVSPropertyOp27
 70
     1
102
RTVSPropertyOp28
 70
     1
102
RTVSPropertyOp29
 70
     1
102
RTVSPropertyOp30
 70
     1
102
RTVSPropertyOp31
 70
     1
102
RTVSPropertyOp32
 70
     1
  0
XRECORD
  5
1CD
102
{ACAD_REACTORS
330
1CC
102
}
330
1CC
100
AcDbXrecord
280
     1
102
RTVSPropertyOp0
 70
     1
102
RTVSPropertyOp1
 70
     1
102
RTVSPropertyOp2
 70
     1
102
RTVSPropertyOp3
 70
     1
102
RTVSPropertyOp4
 70
     1
102
RTVSPropertyOp5
 70
     1
102
RTVSPropertyOp6
 70
     1
102
RTVSPropertyOp7
 70
     1
102
RTVSPropertyOp8
 70
     1
102
RTVSPropertyOp9
 70
     1
102
RTVSPropertyOp10
 70
     1
102
RTVSPropertyOp11
 70
     1
102
RTVSPropertyOp12
 70
     1
102
RTVSPropertyOp13
 70
     1
102
RTVSPropertyOp14
 70
     1
102
RTVSPropertyOp15
 70
     1
102
RTVSPropertyOp16
 70
     1
102
RTVSPropertyOp17
 70
     1
102
RTVSPropertyOp18
 70
     1
102
RTVSPropertyOp19
 70
     1
102
RTVSPropertyOp20
 70
     1
102
RTVSPropertyOp21
 70
     1
102
RTVSPropertyOp22
 70
     1
102
RTVSPropertyOp23
 70
     1
102
RTVSPropertyOp24
 70
     1
102
RTVSPropertyOp25
 70
     1
102
RTVSPropertyOp26
 70
     1
102
RTVSPropertyOp27
 70
     1
102
RTVSPropertyOp28
 70
     1
102
RTVSPropertyOp29
 70
     1
102
RTVSPropertyOp30
 70
     1
102
RTVSPropertyOp31
 70
     1
102
RTVSPropertyOp32
 70
     1
  0
XRECORD
  5
1D5
102
{ACAD_REACTORS
330
1D4
102
}
330
1D4
100
AcDbXrecord
280
     1
102
RTVSPropertyOp0
 70
     1
102
RTVSPropertyOp1
 70
     1
102
RTVSPropertyOp2
 70
     1
102
RTVSPropertyOp3
 70
     1
102
RTVSPropertyOp4
 70
     1
102
RTVSPropertyOp5
 70
     1
102
RTVSPropertyOp6
 70
     1
102
RTVSPropertyOp7
 70
     1
102
RTVSPropertyOp8
 70
     1
102
RTVSPropertyOp9
 70
     1
102
RTVSPropertyOp10
 70
     1
102
RTVSPropertyOp11
 70
     1
102
RTVSPropertyOp12
 70
     1
102
RTVSPropertyOp13
 70
     1
102
RTVSPropertyOp14
 70
     1
102
RTVSPropertyOp15
 70
     1
102
RTVSPropertyOp16
 70
     1
102
RTVSPropertyOp17
 70
     1
102
RTVSPropertyOp18
 70
     1
102
RTVSPropertyOp19
 70
     1
102
RTVSPropertyOp20
 70
     1
102
RTVSPropertyOp21
 70
     1
102
RTVSPropertyOp22
 70
     1
102
RTVSPropertyOp23
 70
     1
102
RTVSPropertyOp24
 70
     1
102
RTVSPropertyOp25
 70
     1
102
RTVSPropertyOp26
 70
     1
102
RTVSPropertyOp27
 70
     1
102
RTVSPropertyOp28
 70
     1
102
RTVSPropertyOp29
 70
     1
102
RTVSPropertyOp30
 70
     1
102
RTVSPropertyOp31
 70
     1
102
RTVSPropertyOp32
 70
     1
  0
XRECORD
  5
1C9
102
{ACAD_REACTORS
330
1C8
102
}
330
1C8
100
AcDbXrecord
280
     1
102
RTVSPropertyOp0
 70
     1
102
RTVSPropertyOp1
 70
     1
102
RTVSPropertyOp2
 70
     1
102
RTVSPropertyOp3
 70
     1
102
RTVSPropertyOp4
 70
     1
102
RTVSPropertyOp5
 70
     1
102
RTVSPropertyOp6
 70
     1
102
RTVSPropertyOp7
 70
     1
102
RTVSPropertyOp8
 70
     1
102
RTVSPropertyOp9
 70
     1
102
RTVSPropertyOp10
 70
     1
102
RTVSPropertyOp11
 70
     1
102
RTVSPropertyOp12
 70
     1
102
RTVSPropertyOp13
 70
     1
102
RTVSPropertyOp14
 70
     1
102
RTVSPropertyOp15
 70
     1
102
RTVSPropertyOp16
 70
     1
102
RTVSPropertyOp17
 70
     1
102
RTVSPropertyOp18
 70
     1
102
RTVSPropertyOp19
 70
     1
102
RTVSPropertyOp20
 70
     1
102
RTVSPropertyOp21
 70
     1
102
RTVSPropertyOp22
 70
     1
102
RTVSPropertyOp23
 70
     1
102
RTVSPropertyOp24
 70
     1
102
RTVSPropertyOp25
 70
     1
102
RTVSPropertyOp26
 70
     1
102
RTVSPropertyOp27
 70
     1
102
RTVSPropertyOp28
 70
     1
102
RTVSPropertyOp29
 70
     1
102
RTVSPropertyOp30
 70
     1
102
RTVSPropertyOp31
 70
     1
102
RTVSPropertyOp32
 70
     1
  0
XRECORD
  5
1CB
102
{ACAD_REACTORS
330
1CA
102
}
330
1CA
100
AcDbXrecord
280
     1
102
RTVSPropertyOp0
 70
     1
102
RTVSPropertyOp1
 70
     1
102
RTVSPropertyOp2
 70
     1
102
RTVSPropertyOp3
 70
     1
102
RTVSPropertyOp4
 70
     1
102
RTVSPropertyOp5
 70
     1
102
RTVSPropertyOp6
 70
     1
102
RTVSPropertyOp7
 70
     1
102
RTVSPropertyOp8
 70
     1
102
RTVSPropertyOp9
 70
     1
102
RTVSPropertyOp10
 70
     1
102
RTVSPropertyOp11
 70
     1
102
RTVSPropertyOp12
 70
     1
102
RTVSPropertyOp13
 70
     1
102
RTVSPropertyOp14
 70
     1
102
RTVSPropertyOp15
 70
     1
102
RTVSPropertyOp16
 70
     1
102
RTVSPropertyOp17
 70
     1
102
RTVSPropertyOp18
 70
     1
102
RTVSPropertyOp19
 70
     1
102
RTVSPropertyOp20
 70
     1
102
RTVSPropertyOp21
 70
     1
102
RTVSPropertyOp22
 70
     1
102
RTVSPropertyOp23
 70
     1
102
RTVSPropertyOp24
 70
     1
102
RTVSPropertyOp25
 70
     1
102
RTVSPropertyOp26
 70
     1
102
RTVSPropertyOp27
 70
     1
102
RTVSPropertyOp28
 70
     1
102
RTVSPropertyOp29
 70
     1
102
RTVSPropertyOp30
 70
     1
102
RTVSPropertyOp31
 70
     1
102
RTVSPropertyOp32
 70
     1
  0
XRECORD
  5
1D3
102
{ACAD_REACTORS
330
1D2
102
}
330
1D2
100
AcDbXrecord
280
     1
102
RTVSPropertyOp0
 70
     1
102
RTVSPropertyOp1
 70
     1
102
RTVSPropertyOp2
 70
     1
102
RTVSPropertyOp3
 70
     1
102
RTVSPropertyOp4
 70
     1
102
RTVSPropertyOp5
 70
     1
102
RTVSPropertyOp6
 70
     1
102
RTVSPropertyOp7
 70
     1
102
RTVSPropertyOp8
 70
     1
102
RTVSPropertyOp9
 70
     1
102
RTVSPropertyOp10
 70
     1
102
RTVSPropertyOp11
 70
     1
102
RTVSPropertyOp12
 70
     1
102
RTVSPropertyOp13
 70
     1
102
RTVSPropertyOp14
 70
     1
102
RTVSPropertyOp15
 70
     1
102
RTVSPropertyOp16
 70
     1
102
RTVSPropertyOp17
 70
     1
102
RTVSPropertyOp18
 70
     1
102
RTVSPropertyOp19
 70
     1
102
RTVSPropertyOp20
 70
     1
102
RTVSPropertyOp21
 70
     1
102
RTVSPropertyOp22
 70
     1
102
RTVSPropertyOp23
 70
     1
102
RTVSPropertyOp24
 70
     1
102
RTVSPropertyOp25
 70
     1
102
RTVSPropertyOp26
 70
     1
102
RTVSPropertyOp27
 70
     1
102
RTVSPropertyOp28
 70
     1
102
RTVSPropertyOp29
 70
     1
102
RTVSPropertyOp30
 70
     1
102
RTVSPropertyOp31
 70
     1
102
RTVSPropertyOp32
 70
     1
  0
XRECORD
  5
1B7
102
{ACAD_REACTORS
330
1B6
102
}
330
1B6
100
AcDbXrecord
280
     1
102
RTVSPropertyOp0
 70
     1
102
RTVSPropertyOp1
 70
     1
102
RTVSPropertyOp2
 70
     1
102
RTVSPropertyOp3
 70
     1
102
RTVSPropertyOp4
 70
     1
102
RTVSPropertyOp5
 70
     1
102
RTVSPropertyOp6
 70
     1
102
RTVSPropertyOp7
 70
     1
102
RTVSPropertyOp8
 70
     1
102
RTVSPropertyOp9
 70
     1
102
RTVSPropertyOp10
 70
     1
102
RTVSPropertyOp11
 70
     1
102
RTVSPropertyOp12
 70
     1
102
RTVSPropertyOp13
 70
     1
102
RTVSPropertyOp14
 70
     1
102
RTVSPropertyOp15
 70
     1
102
RTVSPropertyOp16
 70
     1
102
RTVSPropertyOp17
 70
     1
102
RTVSPropertyOp18
 70
     1
102
RTVSPropertyOp19
 70
     1
102
RTVSPropertyOp20
 70
     1
102
RTVSPropertyOp21
 70
     1
102
RTVSPropertyOp22
 70
     1
102
RTVSPropertyOp23
 70
     1
102
RTVSPropertyOp24
 70
     1
102
RTVSPropertyOp25
 70
     1
102
RTVSPropertyOp26
 70
     1
102
RTVSPropertyOp27
 70
     1
102
RTVSPropertyOp28
 70
     1
102
RTVSPropertyOp29
 70
     1
102
RTVSPropertyOp30
 70
     1
102
RTVSPropertyOp31
 70
     1
102
RTVSPropertyOp32
 70
     1
  0
XRECORD
  5
1B9
102
{ACAD_REACTORS
330
1B8
102
}
330
1B8
100
AcDbXrecord
280
     1
102
RTVSPropertyOp0
 70
     1
102
RTVSPropertyOp1
 70
     1
102
RTVSPropertyOp2
 70
     1
102
RTVSPropertyOp3
 70
     1
102
RTVSPropertyOp4
 70
     1
102
RTVSPropertyOp5
 70
     1
102
RTVSPropertyOp6
 70
     1
102
RTVSPropertyOp7
 70
     1
102
RTVSPropertyOp8
 70
     1
102
RTVSPropertyOp9
 70
     1
102
RTVSPropertyOp10
 70
     1
102
RTVSPropertyOp11
 70
     1
102
RTVSPropertyOp12
 70
     1
102
RTVSPropertyOp13
 70
     1
102
RTVSPropertyOp14
 70
     1
102
RTVSPropertyOp15
 70
     1
102
RTVSPropertyOp16
 70
     1
102
RTVSPropertyOp17
 70
     1
102
RTVSPropertyOp18
 70
     1
102
RTVSPropertyOp19
 70
     1
102
RTVSPropertyOp20
 70
     1
102
RTVSPropertyOp21
 70
     1
102
RTVSPropertyOp22
 70
     1
102
RTVSPropertyOp23
 70
     1
102
RTVSPropertyOp24
 70
     1
102
RTVSPropertyOp25
 70
     1
102
RTVSPropertyOp26
 70
     1
102
RTVSPropertyOp27
 70
     1
102
RTVSPropertyOp28
 70
     1
102
RTVSPropertyOp29
 70
     1
102
RTVSPropertyOp30
 70
     1
102
RTVSPropertyOp31
 70
     1
102
RTVSPropertyOp32
 70
     1
  0
XRECORD
  5
1BB
102
{ACAD_REACTORS
330
1BA
102
}
330
1BA
100
AcDbXrecord
280
     1
102
RTVSPropertyOp0
 70
     1
102
RTVSPropertyOp1
 70
     1
102
RTVSPropertyOp2
 70
     1
102
RTVSPropertyOp3
 70
     1
102
RTVSPropertyOp4
 70
     1
102
RTVSPropertyOp5
 70
     1
102
RTVSPropertyOp6
 70
     1
102
RTVSPropertyOp7
 70
     1
102
RTVSPropertyOp8
 70
     1
102
RTVSPropertyOp9
 70
     1
102
RTVSPropertyOp10
 70
     1
102
RTVSPropertyOp11
 70
     1
102
RTVSPropertyOp12
 70
     1
102
RTVSPropertyOp13
 70
     1
102
RTVSPropertyOp14
 70
     1
102
RTVSPropertyOp15
 70
     1
102
RTVSPropertyOp16
 70
     1
102
RTVSPropertyOp17
 70
     1
102
RTVSPropertyOp18
 70
     1
102
RTVSPropertyOp19
 70
     1
102
RTVSPropertyOp20
 70
     1
102
RTVSPropertyOp21
 70
     1
102
RTVSPropertyOp22
 70
     1
102
RTVSPropertyOp23
 70
     1
102
RTVSPropertyOp24
 70
     1
102
RTVSPropertyOp25
 70
     1
102
RTVSPropertyOp26
 70
     1
102
RTVSPropertyOp27
 70
     1
102
RTVSPropertyOp28
 70
     1
102
RTVSPropertyOp29
 70
     1
102
RTVSPropertyOp30
 70
     1
102
RTVSPropertyOp31
 70
     1
102
RTVSPropertyOp32
 70
     1
  0
XRECORD
  5
1BD
102
{ACAD_REACTORS
330
1BC
102
}
330
1BC
100
AcDbXrecord
280
     1
102
RTVSPropertyOp0
 70
     1
102
RTVSPropertyOp1
 70
     1
102
RTVSPropertyOp2
 70
     1
102
RTVSPropertyOp3
 70
     1
102
RTVSPropertyOp4
 70
     1
102
RTVSPropertyOp5
 70
     1
102
RTVSPropertyOp6
 70
     1
102
RTVSPropertyOp7
 70
     1
102
RTVSPropertyOp8
 70
     1
102
RTVSPropertyOp9
 70
     1
102
RTVSPropertyOp10
 70
     1
102
RTVSPropertyOp11
 70
     1
102
RTVSPropertyOp12
 70
     1
102
RTVSPropertyOp13
 70
     1
102
RTVSPropertyOp14
 70
     1
102
RTVSPropertyOp15
 70
     1
102
RTVSPropertyOp16
 70
     1
102
RTVSPropertyOp17
 70
     1
102
RTVSPropertyOp18
 70
     1
102
RTVSPropertyOp19
 70
     1
102
RTVSPropertyOp20
 70
     1
102
RTVSPropertyOp21
 70
     1
102
RTVSPropertyOp22
 70
     1
102
RTVSPropertyOp23
 70
     1
102
RTVSPropertyOp24
 70
     1
102
RTVSPropertyOp25
 70
     1
102
RTVSPropertyOp26
 70
     1
102
RTVSPropertyOp27
 70
     1
102
RTVSPropertyOp28
 70
     1
102
RTVSPropertyOp29
 70
     1
102
RTVSPropertyOp30
 70
     1
102
RTVSPropertyOp31
 70
     1
102
RTVSPropertyOp32
 70
     1
  0
XRECORD
  5
1D1
102
{ACAD_REACTORS
330
1D0
102
}
330
1D0
100
AcDbXrecord
280
     1
102
RTVSPropertyOp0
 70
     1
102
RTVSPropertyOp1
 70
     1
102
RTVSPropertyOp2
 70
     1
102
RTVSPropertyOp3
 70
     1
102
RTVSPropertyOp4
 70
     1
102
RTVSPropertyOp5
 70
     1
102
RTVSPropertyOp6
 70
     1
102
RTVSPropertyOp7
 70
     1
102
RTVSPropertyOp8
 70
     1
102
RTVSPropertyOp9
 70
     1
102
RTVSPropertyOp10
 70
     1
102
RTVSPropertyOp11
 70
     1
102
RTVSPropertyOp12
 70
     1
102
RTVSPropertyOp13
 70
     1
102
RTVSPropertyOp14
 70
     1
102
RTVSPropertyOp15
 70
     1
102
RTVSPropertyOp16
 70
     1
102
RTVSPropertyOp17
 70
     1
102
RTVSPropertyOp18
 70
     1
102
RTVSPropertyOp19
 70
     1
102
RTVSPropertyOp20
 70
     1
102
RTVSPropertyOp21
 70
     1
102
RTVSPropertyOp22
 70
     1
102
RTVSPropertyOp23
 70
     1
102
RTVSPropertyOp24
 70
     1
102
RTVSPropertyOp25
 70
     1
102
RTVSPropertyOp26
 70
     1
102
RTVSPropertyOp27
 70
     1
102
RTVSPropertyOp28
 70
     1
102
RTVSPropertyOp29
 70
     1
102
RTVSPropertyOp30
 70
     1
102
RTVSPropertyOp31
 70
     1
102
RTVSPropertyOp32
 70
     1
  0
XRECORD
  5
1C7
102
{ACAD_REACTORS
330
1C6
102
}
330
1C6
100
AcDbXrecord
280
     1
102
RTVSPropertyOp0
 70
     1
102
RTVSPropertyOp1
 70
     1
102
RTVSPropertyOp2
 70
     1
102
RTVSPropertyOp3
 70
     1
102
RTVSPropertyOp4
 70
     1
102
RTVSPropertyOp5
 70
     1
102
RTVSPropertyOp6
 70
     1
102
RTVSPropertyOp7
 70
     1
102
RTVSPropertyOp8
 70
     1
102
RTVSPropertyOp9
 70
     1
102
RTVSPropertyOp10
 70
     1
102
RTVSPropertyOp11
 70
     1
102
RTVSPropertyOp12
 70
     1
102
RTVSPropertyOp13
 70
     1
102
RTVSPropertyOp14
 70
     1
102
RTVSPropertyOp15
 70
     1
102
RTVSPropertyOp16
 70
     1
102
RTVSPropertyOp17
 70
     1
102
RTVSPropertyOp18
 70
     1
102
RTVSPropertyOp19
 70
     1
102
RTVSPropertyOp20
 70
     1
102
RTVSPropertyOp21
 70
     1
102
RTVSPropertyOp22
 70
     1
102
RTVSPropertyOp23
 70
     1
102
RTVSPropertyOp24
 70
     1
102
RTVSPropertyOp25
 70
     1
102
RTVSPropertyOp26
 70
     1
102
RTVSPropertyOp27
 70
     1
102
RTVSPropertyOp28
 70
     1
102
RTVSPropertyOp29
 70
     1
102
RTVSPropertyOp30
 70
     1
102
RTVSPropertyOp31
 70
     1
102
RTVSPropertyOp32
 70
     1
  0
XRECORD
  5
1CF
102
{ACAD_REACTORS
330
1CE
102
}
330
1CE
100
AcDbXrecord
280
     1
102
RTVSPropertyOp0
 70
     1
102
RTVSPropertyOp1
 70
     1
102
RTVSPropertyOp2
 70
     1
102
RTVSPropertyOp3
 70
     1
102
RTVSPropertyOp4
 70
     1
102
RTVSPropertyOp5
 70
     1
102
RTVSPropertyOp6
 70
     1
102
RTVSPropertyOp7
 70
     1
102
RTVSPropertyOp8
 70
     1
102
RTVSPropertyOp9
 70
     1
102
RTVSPropertyOp10
 70
     1
102
RTVSPropertyOp11
 70
     1
102
RTVSPropertyOp12
 70
     1
102
RTVSPropertyOp13
 70
     1
102
RTVSPropertyOp14
 70
     1
102
RTVSPropertyOp15
 70
     1
102
RTVSPropertyOp16
 70
     1
102
RTVSPropertyOp17
 70
     1
102
RTVSPropertyOp18
 70
     1
102
RTVSPropertyOp19
 70
     1
102
RTVSPropertyOp20
 70
     1
102
RTVSPropertyOp21
 70
     1
102
RTVSPropertyOp22
 70
     1
102
RTVSPropertyOp23
 70
     1
102
RTVSPropertyOp24
 70
     1
102
RTVSPropertyOp25
 70
     1
102
RTVSPropertyOp26
 70
     1
102
RTVSPropertyOp27
 70
     1
102
RTVSPropertyOp28
 70
     1
102
RTVSPropertyOp29
 70
     1
102
RTVSPropertyOp30
 70
     1
102
RTVSPropertyOp31
 70
     1
102
RTVSPropertyOp32
 70
     1
  0
ENDSEC
  0
EOF
