  0
SECTION
  2
HEADER
  9
$ACADVER
  1
AC1015
  9
$ACADMAINTVER
 70
     6
  9
$DWGCODEPAGE
  3
ANSI_1252
  9
$INSBASE
 10
0.0
 20
0.0
 30
0.0
  9
$EXTMIN
 10
-51.21000001
 20
-58.264623162
 30
0.0
  9
$EXTMAX
 10
174.210000986
 20
80.164390574
 30
0.0
  9
$LIMMIN
 10
-51.21000001
 20
-58.264623162
  9
$LIMMAX
 10
174.210000986
 20
80.164390574
  9
$ORTHOMODE
 70
     0
  9
$REGENMODE
 70
     1
  9
$FILLMODE
 70
     1
  9
$QTEXTMODE
 70
     0
  9
$MIRRTEXT
 70
     1
  9
$LTSCALE
 40
1.0
  9
$ATTMODE
 70
     1
  9
$TEXTSIZE
 40
0.2
  9
$TRACEWID
 40
0.05
  9
$TEXTSTYLE
  7
Standard
  9
$CLAYER
  8
0
  9
$CELTYPE
  6
ByBlock
  9
$CECOLOR
 62
   256
  9
$CELTSCALE
 40
1.0
  9
$DISPSILH
 70
     0
  9
$DIMSCALE
 40
1.0
  9
$DIMASZ
 40
0.18
  9
$DIMEXO
 40
0.0625
  9
$DIMDLI
 40
0.38
  9
$DIMRND
 40
0.0
  9
$DIMDLE
 40
0.0
  9
$DIMEXE
 40
0.18
  9
$DIMTP
 40
0.0
  9
$DIMTM
 40
0.0
  9
$DIMTXT
 40
0.18
  9
$DIMCEN
 40
0.09
  9
$DIMTSZ
 40
0.0
  9
$DIMTOL
 70
     0
  9
$DIMLIM
 70
     0
  9
$DIMTIH
 70
     1
  9
$DIMTOH
 70
     1
  9
$DIMSE1
 70
     0
  9
$DIMSE2
 70
     0
  9
$DIMTAD
 70
     0
  9
$DIMZIN
 70
     0
  9
$DIMBLK
  1

  9
$DIMASO
 70
     1
  9
$DIMSHO
 70
     1
  9
$DIMPOST
  1

  9
$DIMAPOST
  1

  9
$DIMALT
 70
     0
  9
$DIMALTD
 70
     2
  9
$DIMALTF
 40
25.4
  9
$DIMLFAC
 40
1.0
  9
$DIMTOFL
 70
     0
  9
$DIMTVP
 40
0.0
  9
$DIMTIX
 70
     0
  9
$DIMSOXD
 70
     0
  9
$DIMSAH
 70
     0
  9
$DIMBLK1
  1

  9
$DIMBLK2
  1

  9
$DIMSTYLE
  2
Standard
  9
$DIMCLRD
 70
     0
  9
$DIMCLRE
 70
     0
  9
$DIMCLRT
 70
     0
  9
$DIMTFAC
 40
1.0
  9
$DIMGAP
 40
0.09
  9
$DIMJUST
 70
     0
  9
$DIMSD1
 70
     0
  9
$DIMSD2
 70
     0
  9
$DIMTOLJ
 70
     1
  9
$DIMTZIN
 70
     0
  9
$DIMALTZ
 70
     0
  9
$DIMALTTZ
 70
     0
  9
$DIMUPT
 70
     0
  9
$DIMDEC
 70
     4
  9
$DIMTDEC
 70
     4
  9
$DIMALTU
 70
     2
  9
$DIMALTTD
 70
     2
  9
$DIMTXSTY
  7
Standard
  9
$DIMAUNIT
 70
     0
  9
$DIMADEC
 70
     0
  9
$DIMALTRND
 40
0.0
  9
$DIMAZIN
 70
     0
  9
$DIMDSEP
 70
    46
  9
$DIMATFIT
 70
     3
  9
$DIMFRAC
 70
     0
  9
$DIMLDRBLK
  1

  9
$DIMLUNIT
 70
     2
  9
$DIMLWD
 70
    -2
  9
$DIMLWE
 70
    -2
  9
$DIMTMOVE
 70
     2
  9
$LUNITS
 70
     2
  9
$LUPREC
 70
     4
  9
$SKETCHINC
 40
0.1
  9
$FILLETRAD
 40
0.5
  9
$AUNITS
 70
     2
  9
$AUPREC
 70
     0
  9
$MENU
  1
.
  9
$ELEVATION
 40
0.0
  9
$PELEVATION
 40
0.0
  9
$THICKNESS
 40
0.0
  9
$LIMCHECK
 70
     0
  9
$CHAMFERA
 40
0.5
  9
$CHAMFERB
 40
0.5
  9
$CHAMFERC
 40
1.0
  9
$CHAMFERD
 40
0.0
  9
$SKPOLY
 70
     0
  9
$TDCREATE
 40
2458327.54446882
  9
$TDUCREATE
 40
2458327.461135486
  9
$TDUPDATE
 40
2458327.544469039
  9
$TDUUPDATE
 40
2458327.461135706
  9
$TDINDWG
 40
0.0000000116
  9
$TDUSRTIMER
 40
0.0000000116
  9
$USRTIMER
 70
     1
  9
$ANGBASE
 50
0.0
  9
$ANGDIR
 70
     0
  9
$PDMODE
 70
     0
  9
$PDSIZE
 40
0.0
  9
$PLINEWID
 40
0.0
  9
$SPLFRAME
 70
     0
  9
$SPLINETYPE
 70
     6
  9
$SPLINESEGS
 70
     8
  9
$HANDSEED
  5
174
  9
$SURFTAB1
 70
     6
  9
$SURFTAB2
 70
     6
  9
$SURFTYPE
 70
     6
  9
$SURFU
 70
     6
  9
$SURFV
 70
     6
  9
$UCSBASE
  2

  9
$UCSNAME
  2

  9
$UCSORG
 10
0.0
 20
0.0
 30
0.0
  9
$UCSXDIR
 10
1.0
 20
0.0
 30
0.0
  9
$UCSYDIR
 10
0.0
 20
1.0
 30
0.0
  9
$UCSORTHOREF
  2

  9
$UCSORTHOVIEW
 70
     0
  9
$UCSORGTOP
 10
0.0
 20
0.0
 30
0.0
  9
$UCSORGBOTTOM
 10
0.0
 20
0.0
 30
0.0
  9
$UCSORGLEFT
 10
0.0
 20
0.0
 30
0.0
  9
$UCSORGRIGHT
 10
0.0
 20
0.0
 30
0.0
  9
$UCSORGFRONT
 10
0.0
 20
0.0
 30
0.0
  9
$UCSORGBACK
 10
0.0
 20
0.0
 30
0.0
  9
$PUCSBASE
  2

  9
$PUCSNAME
  2

  9
$PUCSORG
 10
0.0
 20
0.0
 30
0.0
  9
$PUCSXDIR
 10
1.0
 20
0.0
 30
0.0
  9
$PUCSYDIR
 10
0.0
 20
1.0
 30
0.0
  9
$PUCSORTHOREF
  2

  9
$PUCSORTHOVIEW
 70
     0
  9
$PUCSORGTOP
 10
0.0
 20
0.0
 30
0.0
  9
$PUCSORGBOTTOM
 10
0.0
 20
0.0
 30
0.0
  9
$PUCSORGLEFT
 10
0.0
 20
0.0
 30
0.0
  9
$PUCSORGRIGHT
 10
0.0
 20
0.0
 30
0.0
  9
$PUCSORGFRONT
 10
0.0
 20
0.0
 30
0.0
  9
$PUCSORGBACK
 10
0.0
 20
0.0
 30
0.0
  9
$USERI1
 70
     0
  9
$USERI2
 70
     0
  9
$USERI3
 70
     0
  9
$USERI4
 70
     0
  9
$USERI5
 70
     0
  9
$USERR1
 40
0.0
  9
$USERR2
 40
0.0
  9
$USERR3
 40
0.0
  9
$USERR4
 40
0.0
  9
$USERR5
 40
0.0
  9
$WORLDVIEW
 70
     1
  9
$SHADEDGE
 70
     3
  9
$SHADEDIF
 70
    70
  9
$TILEMODE
 70
     1
  9
$MAXACTVP
 70
    64
  9
$PINSBASE
 10
0.0
 20
0.0
 30
0.0
  9
$PLIMCHECK
 70
     0
  9
$PEXTMIN
 10
1.000000000000000E+20
 20
1.000000000000000E+20
 30
1.000000000000000E+20
  9
$PEXTMAX
 10
-1.000000000000000E+20
 20
-1.000000000000000E+20
 30
-1.000000000000000E+20
  9
$PLIMMIN
 10
0.0
 20
0.0
  9
$PLIMMAX
 10
12.0
 20
9.0
  9
$UNITMODE
 70
     0
  9
$VISRETAIN
 70
     1
  9
$PLINEGEN
 70
     0
  9
$PSLTSCALE
 70
     1
  9
$TREEDEPTH
 70
  3020
  9
$CMLSTYLE
  2
Standard
  9
$CMLJUST
 70
     0
  9
$CMLSCALE
 40
1.0
  9
$PROXYGRAPHICS
 70
     1
  9
$MEASUREMENT
 70
     0
  9
$CELWEIGHT
370
    -1
  9
$ENDCAPS
280
     0
  9
$JOINSTYLE
280
     0
  9
$LWDISPLAY
290
     0
  9
$INSUNITS
 70
     0
  9
$HYPERLINKBASE
  1

  9
$STYLESHEET
  1

  9
$XEDIT
290
     1
  9
$CEPSNTYPE
380
     0
  9
$PSTYLEMODE
290
     1
  9
$FINGERPRINTGUID
  2
{A2FA620A-3F7A-47A0-81D3-EE5B0644C600}
  9
$VERSIONGUID
  2
{FAEB1C32-E019-11D5-929B-00C0DF256EC4}
  9
$EXTNAMES
290
     1
  9
$PSVPSCALE
 40
0.0
  9
$OLESTARTUP
290
     0
  0
ENDSEC
  0
SECTION
  2
CLASSES
  0
CLASS
  1
ACDBDICTIONARYWDFLT
  2
AcDbDictionaryWithDefault
  3
ObjectDBX Classes
 90
        0
280
     0
281
     0
  0
CLASS
  1
SCALE
  2
AcDbScale
  3
ObjectDBX Classes
 90
     1153
280
     0
281
     0
  0
CLASS
  1
VISUALSTYLE
  2
AcDbVisualStyle
  3
ObjectDBX Classes
 90
     4095
280
     0
281
     0
  0
CLASS
  1
MATERIAL
  2
AcDbMaterial
  3
ObjectDBX Classes
 90
     1153
280
     0
281
     0
  0
CLASS
  1
DICTIONARYVAR
  2
AcDbDictionaryVar
  3
ObjectDBX Classes
 90
        0
280
     0
281
     0
  0
CLASS
  1
ACDBPLACEHOLDER
  2
AcDbPlaceHolder
  3
ObjectDBX Classes
 90
        0
280
     0
281
     0
  0
CLASS
  1
LAYOUT
  2
AcDbLayout
  3
ObjectDBX Classes
 90
        0
280
     0
281
     0
  0
ENDSEC
  0
SECTION
  2
TABLES
  0
TABLE
  2
VPORT
  5
8
102
{ACAD_XDICTIONARY
360
139
102
}
330
0
100
AcDbSymbolTable
 70
     1
  0
VPORT
  5
EC
330
8
100
AcDbSymbolTableRecord
100
AcDbViewportTableRecord
  2
*Active
 70
     0
 10
0.0
 20
0.0
 11
1.0
 21
1.0
 12
10.42990654205607
 22
4.5
 13
0.0
 23
0.0
 14
0.5
 24
0.5
 15
0.5
 25
0.5
 16
0.0
 26
0.0
 36
1.0
 17
0.0
 27
0.0
 37
0.0
 40
9.0
 41
1.972972972850329
 42
50.0
 43
0.0
 44
0.0
 50
0.0
 51
0.0
 71
     0
 72
   100
 73
     1
 74
     3
 75
     0
 76
     0
 77
     0
 78
     0
281
     0
 65
     1
110
0.0
120
0.0
130
0.0
111
1.0
121
0.0
131
0.0
112
0.0
122
1.0
132
0.0
 79
     0
146
0.0
  0
ENDTAB
  0
TABLE
  2
LTYPE
  5
5
330
0
100
AcDbSymbolTable
 70
     5
  0
LTYPE
  5
14
330
5
100
AcDbSymbolTableRecord
100
AcDbLinetypeTableRecord
  2
ByBlock
 70
     0
  3

 72
    65
 73
     0
 40
0.0
  0
LTYPE
  5
15
330
5
100
AcDbSymbolTableRecord
100
AcDbLinetypeTableRecord
  2
ByLayer
 70
     0
  3

 72
    65
 73
     0
 40
0.0
  0
LTYPE
  5
16
330
5
100
AcDbSymbolTableRecord
100
AcDbLinetypeTableRecord
  2
Continuous
 70
     0
  3
Solid line
 72
    65
 73
     0
 40
0.0
  0
LTYPE
  5
20
330
5
100
AcDbSymbolTableRecord
100
AcDbLinetypeTableRecord
  2
PUNKT
 70
     0
  3
..............
 72
    65
 73
     2
 40
1.5
 49
0.7
 74
     0
 49
-0.8
 74
     0
  0
LTYPE
  5
21
330
5
100
AcDbSymbolTableRecord
100
AcDbLinetypeTableRecord
  2
GESTRICHELT
 70
     0
  3
-- -- -- -- --
 72
    65
 73
     7
 40
2.8
 49
0.9
 74
     0
 49
0.0
 74
     0
 49
0.9
 74
     0
 49
0.0
 74
     0
 49
0.2
 74
     0
 49
0.0
 74
     0
 49
-0.8
 74
     0
  0
LTYPE
  5
22
330
5
100
AcDbSymbolTableRecord
100
AcDbLinetypeTableRecord
  2
STRICHPUNKT
 70
     0
  3
--.--.--.--.--
 72
    65
 73
     4
 40
8.8
 49
5.5
 74
     0
 49
-1.3
 74
     0
 49
0.7
 74
     0
 49
-1.3
 74
     0
  0
LTYPE
  5
25
330
5
100
AcDbSymbolTableRecord
100
AcDbLinetypeTableRecord
  2
PHANTOM
 70
     0
  3
--..--..--..--
 72
    65
 73
     6
 40
14.2
 49
7.0
 74
     0
 49
-1.8
 74
     0
 49
0.9
 74
     0
 49
-1.8
 74
     0
 49
0.9
 74
     0
 49
-1.8
 74
     0
  0
LTYPE
  5
163
330
5
100
AcDbSymbolTableRecord
100
AcDbLinetypeTableRecord
  2
DASH
 70
     0
  3
DASH _ _ _ _ _
 72
    65
 73
     2
 40
0.75
 49
0.40
 74
     0
 49
-0.35
 74
     0
  0
LTYPE
  5
164
330
5
100
AcDbSymbolTableRecord
100
AcDbLinetypeTableRecord
  2
LONGDASH_DASH
 70
     0
  3
LONGDASH_DASH __ . __ . __
 72
    65
 73
     4
 40
0.85
 49
0.40
 74
     0
 49
-0.20
 74
     0
 49
0.05
 74
     0
 49
-0.20
 74
     0
  0
LTYPE
  5
165
330
5
100
AcDbSymbolTableRecord
100
AcDbLinetypeTableRecord
  2
LONGDASH_DASH_DASH
 70
     0
  3
LONGDASH_DASH_DASH __ . . __ . . __
 72
    65
 73
     6
 40
1.10
 49
0.40
 74
     0
 49
-0.20
 74
     0
 49
0.05
 74
     0
 49
-0.20
 74
     0
 49
0.05
 74
     0
 49
-0.20
 74
     0
  0
ENDTAB
  0
TABLE
  2
LAYER
  5
2
330
0
100
AcDbSymbolTable
 70
    11
  0
LAYER
  5
12E
330
2
100
AcDbSymbolTableRecord
100
AcDbLayerTableRecord
  2
200
 70
     0
 62
     2
  6
Continuous
370
    50
390
F
  0
LAYER
  5
166
330
2
100
AcDbSymbolTableRecord
100
AcDbLayerTableRecord
  2
0
 70
     0
 62
     -1
  6
CONTINUOUS
370
    -3
390
F
  0
LAYER
  5
167
330
2
100
AcDbSymbolTableRecord
100
AcDbLayerTableRecord
  2
1
 70
     0
 62
     4
  6
CONTINUOUS
370
    50
390
F
  0
LAYER
  5
168
330
2
100
AcDbSymbolTableRecord
100
AcDbLayerTableRecord
  2
2
 70
     0
 62
     7
  6
CONTINUOUS
370
    25
390
F
  0
LAYER
  5
169
330
2
100
AcDbSymbolTableRecord
100
AcDbLayerTableRecord
  2
3
 70
     0
 62
     1
  6
DASH
370
    35
390
F
  0
LAYER
  5
16A
330
2
100
AcDbSymbolTableRecord
100
AcDbLayerTableRecord
  2
4
 70
     0
 62
     2
  6
LONGDASH_DASH
370
    25
390
F
  0
LAYER
  5
16B
330
2
100
AcDbSymbolTableRecord
100
AcDbLayerTableRecord
  2
6
 70
     0
 62
     5
  6
CONTINUOUS
370
    -3
390
F
  0
LAYER
  5
16C
330
2
100
AcDbSymbolTableRecord
100
AcDbLayerTableRecord
  2
CUT
 70
     0
 62
     1
  6
CONTINUOUS
370
    25
390
F
  0
LAYER
  5
16D
330
2
100
AcDbSymbolTableRecord
100
AcDbLayerTableRecord
  2
NOCUT
 70
     0
 62
     7
  6
CONTINUOUS
370
    25
390
F
  0
LAYER
  5
16E
330
2
100
AcDbSymbolTableRecord
100
AcDbLayerTableRecord
  2
SK1
 70
     0
 62
     4
  6
CONTINUOUS
370
    50
390
F
  0
LAYER
  5
16F
330
2
100
AcDbSymbolTableRecord
100
AcDbLayerTableRecord
  2
SK2
 70
     0
 62
     7
  6
CONTINUOUS
370
    25
390
F
  0
LAYER
  5
170
330
2
100
AcDbSymbolTableRecord
100
AcDbLayerTableRecord
  2
SK3
 70
     0
 62
     1
  6
DASH
370
    35
390
F
  0
LAYER
  5
171
330
2
100
AcDbSymbolTableRecord
100
AcDbLayerTableRecord
  2
SK4
 70
     0
 62
     2
  6
LONGDASH_DASH
370
    25
390
F
  0
LAYER
  5
172
330
2
100
AcDbSymbolTableRecord
100
AcDbLayerTableRecord
  2
SK6
 70
     0
 62
     5
  6
CONTINUOUS
370
    -3
390
F
  0
LAYER
  5
173
330
2
100
AcDbSymbolTableRecord
100
AcDbLayerTableRecord
  2
INFTOTAL
 70
     0
 62
     9
  6
CONTINUOUS
370
    18
390
F
  0
ENDTAB
  0
TABLE
  2
STYLE
  5
3
330
0
100
AcDbSymbolTable
 70
     2
  0
STYLE
  5
11
330
3
100
AcDbSymbolTableRecord
100
AcDbTextStyleTableRecord
  2
Standard
 70
     0
 40
0.0
 41
1.0
 50
0.0
 71
     0
 42
0.2
  3
txt
  4

  0
STYLE
  5
12D
330
3
100
AcDbSymbolTableRecord
100
AcDbTextStyleTableRecord
  2
BMG_Text
 70
     0
 40
3.5
 41
1.0
 50
0.0
 71
     0
 42
0.2
  3
monos.ttf
  4

1001
ACAD
1000
Monospac821 BT
1071
       49
  0
ENDTAB
  0
TABLE
  2
VIEW
  5
6
330
0
100
AcDbSymbolTable
 70
     0
  0
ENDTAB
  0
TABLE
  2
UCS
  5
7
330
0
100
AcDbSymbolTable
 70
     0
  0
ENDTAB
  0
TABLE
  2
APPID
  5
9
330
0
100
AcDbSymbolTable
 70
     1
  0
APPID
  5
12
330
9
100
AcDbSymbolTableRecord
100
AcDbRegAppTableRecord
  2
ACAD
 70
     0
  0
ENDTAB
  0
TABLE
  2
DIMSTYLE
  5
A
330
0
100
AcDbSymbolTable
 70
     1
100
AcDbDimStyleTable
  0
DIMSTYLE
105
28
330
A
100
AcDbSymbolTableRecord
100
AcDbDimStyleTableRecord
  2
Standard
 70
     0
178
     0
340
11
  0
ENDTAB
  0
TABLE
  2
BLOCK_RECORD
  5
1
330
0
100
AcDbSymbolTable
 70
     0
  0
BLOCK_RECORD
  5
1D
330
1
100
AcDbSymbolTableRecord
100
AcDbBlockTableRecord
  2
*Model_Space
340
1E
  0
BLOCK_RECORD
  5
1B
330
1
100
AcDbSymbolTableRecord
100
AcDbBlockTableRecord
  2
*Paper_Space
340
1C
  0
ENDTAB
  0
ENDSEC
  0
SECTION
  2
BLOCKS
  0
BLOCK
  5
116
330
1D
100
AcDbEntity
  8
0
100
AcDbBlockBegin
  2
*Model_Space
 70
     0
 10
0.0
 20
0.0
 30
0.0
  3
*Model_Space
  1

  0
ENDBLK
  5
117
330
1D
100
AcDbEntity
  8
0
100
AcDbBlockEnd
  0
BLOCK
  5
114
330
1B
100
AcDbEntity
 67
     1
  8
0
100
AcDbBlockBegin
  2
*Paper_Space
 70
     0
 10
0.0
 20
0.0
 30
0.0
  3
*Paper_Space
  1

  0
ENDBLK
  5
115
330
1B
100
AcDbEntity
 67
     1
  8
0
100
AcDbBlockEnd
  0
ENDSEC
  0
SECTION
  2
ENTITIES
  0
LINE
  5
29
330
1D
100
AcDbEntity
  8
SK1
  6
CONTINUOUS
370
    50
100
AcDbLine
 10
-34.0
 20
-8.0
 30
0.0
 11
-34.0
 21
8.0
 31
0.0
  0
LINE
  5
2A
330
1D
100
AcDbEntity
  8
SK1
  6
CONTINUOUS
370
    50
100
AcDbLine
 10
-34.0
 20
8.0
 30
0.0
 11
-35.0
 21
7.0
 31
0.0
  0
LINE
  5
2B
330
1D
100
AcDbEntity
  8
SK1
  6
CONTINUOUS
370
    50
100
AcDbLine
 10
-35.0
 20
7.0
 30
0.0
 11
-35.0
 21
-7.0
 31
0.0
  0
LINE
  5
2C
330
1D
100
AcDbEntity
  8
SK1
  6
CONTINUOUS
370
    50
100
AcDbLine
 10
-35.0
 20
-7.0
 30
0.0
 11
-34.0
 21
-8.0
 31
0.0
  0
LINE
  5
2D
330
1D
100
AcDbEntity
  8
1
  6
CONTINUOUS
370
    50
100
AcDbLine
 10
124.99945668
 20
8.0
 30
0.0
 11
0.0
 21
8.0
 31
0.0
  0
LINE
  5
2E
330
1D
100
AcDbEntity
  8
SK1
  6
CONTINUOUS
370
    50
100
AcDbLine
 10
0.0
 20
8.0
 30
0.0
 11
-34.0
 21
8.0
 31
0.0
  0
LINE
  5
2F
330
1D
100
AcDbEntity
  8
SK1
  6
CONTINUOUS
370
    50
100
AcDbLine
 10
-34.0
 20
-8.0
 30
0.0
 11
0.0
 21
-8.0
 31
0.0
  0
LINE
  5
30
330
1D
100
AcDbEntity
  8
1
  6
CONTINUOUS
370
    50
100
AcDbLine
 10
0.0
 20
-8.0
 30
0.0
 11
124.99945668
 21
-8.0
 31
0.0
  0
LINE
  5
31
330
1D
100
AcDbEntity
  8
SK3
  6
DASH
370
    35
100
AcDbLine
 10
-35.0
 20
-2.5
 30
0.0
 11
126.99945668
 21
-2.5
 31
0.0
  0
LINE
  5
32
330
1D
100
AcDbEntity
  8
SK3
  6
DASH
370
    35
100
AcDbLine
 10
-35.0
 20
2.5
 30
0.0
 11
126.99945668
 21
2.5
 31
0.0
  0
LINE
  5
33
330
1D
100
AcDbEntity
  8
SK1
  6
CONTINUOUS
370
    50
100
AcDbLine
 10
-36.644264735
 20
0.0
 30
0.0
 11
142.87688193
 21
0.0
 31
0.0
  0
LINE
  5
34
330
1D
100
AcDbEntity
  8
SK1
  6
CONTINUOUS
370
    50
100
AcDbLine
 10
142.9419956
 20
7.767357057
 30
0.0
 11
143.0
 21
8.0
 31
0.0
  0
LINE
  5
35
330
1D
100
AcDbEntity
  8
SK3
  6
DASH
370
    35
100
AcDbLine
 10
130.182017717
 20
2.698566299
 30
0.0
 11
131.815119558
 21
4.475549724
 31
0.0
  0
LINE
  5
36
330
1D
100
AcDbEntity
  8
SK3
  6
DASH
370
    35
100
AcDbLine
 10
131.815119558
 20
4.475549724
 30
0.0
 11
140.033776179
 21
2.303474296
 31
0.0
  0
LINE
  5
37
330
1D
100
AcDbEntity
  8
SK3
  6
DASH
370
    35
100
AcDbLine
 10
140.033776179
 20
2.303474296
 30
0.0
 11
140.275698075
 21
3.273770022
 31
0.0
  0
LINE
  5
38
330
1D
100
AcDbEntity
  8
SK3
  6
DASH
370
    35
100
AcDbLine
 10
140.275698075
 20
3.273770022
 30
0.0
 11
141.731141664
 21
2.910887179
 31
0.0
  0
LINE
  5
39
330
1D
100
AcDbEntity
  8
SK3
  6
DASH
370
    35
100
AcDbLine
 10
140.27961029
 20
-2.910887179
 30
0.0
 11
138.824166701
 21
-2.548004335
 31
0.0
  0
LINE
  5
3A
330
1D
100
AcDbEntity
  8
SK3
  6
DASH
370
    35
100
AcDbLine
 10
138.824166701
 20
-2.548004335
 30
0.0
 11
139.066088597
 21
-1.577708609
 31
0.0
  0
LINE
  5
3B
330
1D
100
AcDbEntity
  8
SK3
  6
DASH
370
    35
100
AcDbLine
 10
139.066088597
 20
-1.577708609
 30
0.0
 11
130.818574923
 21
0.478627503
 31
0.0
  0
LINE
  5
3C
330
1D
100
AcDbEntity
  8
SK3
  6
DASH
370
    35
100
AcDbLine
 10
130.818574923
 20
0.478627503
 30
0.0
 11
130.182017717
 21
2.698566299
 31
0.0
  0
LINE
  5
3D
330
1D
100
AcDbEntity
  8
1
  6
CONTINUOUS
370
    50
100
AcDbLine
 10
141.763263645
 20
8.0
 30
0.0
 11
141.016728297
 21
5.005810259
 31
0.0
  0
LINE
  5
3E
330
1D
100
AcDbEntity
  8
SK3
  6
DASH
370
    35
100
AcDbLine
 10
141.016728297
 20
5.005810259
 30
0.0
 11
140.566786793
 21
3.201193454
 31
0.0
  0
LINE
  5
3F
330
1D
100
AcDbEntity
  8
1
  6
CONTINUOUS
370
    50
100
AcDbLine
 10
137.331192676
 20
5.0
 30
0.0
 11
142.253464652
 21
5.0
 31
0.0
  0
LINE
  5
40
330
1D
100
AcDbEntity
  8
1
  6
CONTINUOUS
370
    50
100
AcDbLine
 10
139.068756355
 20
-7.767357057
 30
0.0
 11
142.9419956
 21
7.767357057
 31
0.0
  0
LINE
  5
41
330
1D
100
AcDbEntity
  8
1
  6
CONTINUOUS
370
    50
100
AcDbLine
 10
141.763263645
 20
8.0
 30
0.0
 11
124.99945668
 21
8.0
 31
0.0
  0
LINE
  5
42
330
1D
100
AcDbEntity
  8
1
  6
CONTINUOUS
370
    50
100
AcDbLine
 10
124.99945668
 20
8.0
 30
0.0
 11
124.99945668
 21
6.0
 31
0.0
  0
LINE
  5
43
330
1D
100
AcDbEntity
  8
1
  6
CONTINUOUS
370
    50
100
AcDbLine
 10
124.99945668
 20
6.0
 30
0.0
 11
126.99945668
 21
6.0
 31
0.0
  0
LINE
  5
44
330
1D
100
AcDbEntity
  8
1
  6
CONTINUOUS
370
    50
100
AcDbLine
 10
126.99945668
 20
6.0
 30
0.0
 11
126.99945668
 21
-6.0
 31
0.0
  0
LINE
  5
45
330
1D
100
AcDbEntity
  8
1
  6
CONTINUOUS
370
    50
100
AcDbLine
 10
126.99945668
 20
-6.0
 30
0.0
 11
124.99945668
 21
-6.0
 31
0.0
  0
LINE
  5
46
330
1D
100
AcDbEntity
  8
1
  6
CONTINUOUS
370
    50
100
AcDbLine
 10
124.99945668
 20
-6.0
 30
0.0
 11
124.99945668
 21
-8.0
 31
0.0
  0
LINE
  5
47
330
1D
100
AcDbEntity
  8
1
  6
CONTINUOUS
370
    50
100
AcDbLine
 10
124.99945668
 20
-8.0
 30
0.0
 11
137.774015599
 21
-8.0
 31
0.0
  0
LINE
  5
48
330
1D
100
AcDbEntity
  8
1
  6
CONTINUOUS
370
    50
100
AcDbLine
 10
137.774015599
 20
-8.0
 30
0.0
 11
137.83202
 21
-7.767357057
 31
0.0
  0
LINE
  5
49
330
1D
100
AcDbEntity
  8
SK3
  6
DASH
370
    35
100
AcDbLine
 10
137.83202
 20
-7.767357057
 30
0.0
 11
139.115255419
 21
-2.620580904
 31
0.0
  0
LINE
  5
4A
330
1D
100
AcDbEntity
  8
SK3
  6
DASH
370
    35
100
AcDbLine
 10
138.945127649
 20
-2.062856472
 30
0.0
 11
133.608501154
 21
-0.732286046
 31
0.0
  0
LINE
  5
4B
330
1D
100
AcDbEntity
  8
SK3
  6
DASH
370
    35
100
AcDbLine
 10
133.608501154
 20
-0.732286046
 30
0.0
 11
131.918865628
 21
0.20429422
 31
0.0
  0
LINE
  5
4C
330
1D
100
AcDbEntity
  8
SK3
  6
DASH
370
    35
100
AcDbLine
 10
133.266007181
 20
4.092100518
 30
0.0
 11
134.818110632
 21
4.119192585
 31
0.0
  0
LINE
  5
4D
330
1D
100
AcDbEntity
  8
SK3
  6
DASH
370
    35
100
AcDbLine
 10
134.818110632
 20
4.119192585
 30
0.0
 11
133.608501154
 21
-0.732286046
 31
0.0
  0
LINE
  5
4E
330
1D
100
AcDbEntity
  8
SK3
  6
DASH
370
    35
100
AcDbLine
 10
131.815119558
 20
4.475549724
 30
0.0
 11
130.818574923
 21
0.478627503
 31
0.0
  0
LINE
  5
4F
330
1D
100
AcDbEntity
  8
SK3
  6
DASH
370
    35
100
AcDbLine
 10
126.99945668
 20
-1.545740384
 30
0.0
 11
141.012442881
 21
4.988622395
 31
0.0
  0
LINE
  5
50
330
1D
100
AcDbEntity
  8
SK3
  6
DASH
370
    35
100
AcDbLine
 10
134.876794604
 20
5.370782978
 30
0.0
 11
126.99945668
 21
1.764393372
 31
0.0
  0
LINE
  5
51
330
1D
100
AcDbEntity
  8
SK3
  6
DASH
370
    35
100
AcDbLine
 10
140.154737127
 20
2.788622159
 30
0.0
 11
134.818110632
 21
4.119192585
 31
0.0
  0
LINE
  5
52
330
1D
100
AcDbEntity
  8
SK3
  6
DASH
370
    35
100
AcDbLine
 10
140.033776179
 20
2.303474296
 30
0.0
 11
139.066088597
 21
-1.577708609
 31
0.0
  0
LINE
  5
53
330
1D
100
AcDbEntity
  8
SK1
  6
CONTINUOUS
370
    50
100
AcDbLine
 10
125.533100705
 20
-0.569392858
 30
0.0
 11
138.962243775
 21
5.646437019
 31
0.0
  0
LINE
  5
54
330
1D
100
AcDbEntity
  8
SK1
  6
CONTINUOUS
370
    50
100
AcDbLine
 10
128.705147341
 20
3.06679144
 30
0.0
 11
142.245673588
 21
-0.309240926
 31
0.0
  0
ARC
  5
55
330
1D
100
AcDbEntity
  8
1
  6
CONTINUOUS
370
    50
100
AcDbCircle
 10
137.3
 20
13.0
 30
0.0
 40
8.0
100
AcDbArc
 50
218.682187453
 51
271.976493079
  0
LINE
  5
56
330
1D
100
AcDbEntity
  8
1
  6
CONTINUOUS
370
    50
100
AcDbLine
 10
141.705259244
 20
7.767357057
 30
0.0
 11
142.9419956
 21
7.767357057
 31
0.0
  0
LINE
  5
57
330
1D
100
AcDbEntity
  8
1
  6
CONTINUOUS
370
    50
100
AcDbLine
 10
137.83202
 20
-7.767357057
 30
0.0
 11
139.068756355
 21
-7.767357057
 31
0.0
  0
LINE
  5
58
330
1D
100
AcDbEntity
  8
2
  6
CONTINUOUS
370
    25
100
AcDbLine
 10
-46.0
 20
-8.0
 30
0.0
 11
-34.0
 21
-8.0
 31
0.0
  0
LINE
  5
59
330
1D
100
AcDbEntity
  8
2
  6
CONTINUOUS
370
    25
100
AcDbLine
 10
-44.0
 20
-8.0
 30
0.0
 11
-44.45
 21
-4.5
 31
0.0
  0
LINE
  5
5A
330
1D
100
AcDbEntity
  8
2
  6
CONTINUOUS
370
    25
100
AcDbLine
 10
-44.45
 20
-4.5
 30
0.0
 11
-43.55
 21
-4.5
 31
0.0
  0
LINE
  5
5B
330
1D
100
AcDbEntity
  8
2
  6
CONTINUOUS
370
    25
100
AcDbLine
 10
-43.55
 20
-4.5
 30
0.0
 11
-44.0
 21
-8.0
 31
0.0
  0
LINE
  5
5C
330
1D
100
AcDbEntity
  8
2
  6
CONTINUOUS
370
    25
100
AcDbLine
 10
-44.0
 20
-4.6
 30
0.0
 11
-44.0
 21
-7.9
 31
0.0
  0
LINE
  5
5D
330
1D
100
AcDbEntity
  8
2
  6
CONTINUOUS
370
    25
100
AcDbLine
 10
-43.8
 20
-4.6
 30
0.0
 11
-43.8
 21
-6.344444444
 31
0.0
  0
LINE
  5
5E
330
1D
100
AcDbEntity
  8
2
  6
CONTINUOUS
370
    25
100
AcDbLine
 10
-44.2
 20
-4.6
 30
0.0
 11
-44.2
 21
-6.344444444
 31
0.0
  0
LINE
  5
5F
330
1D
100
AcDbEntity
  8
2
  6
CONTINUOUS
370
    25
100
AcDbLine
 10
-43.6
 20
-4.6
 30
0.0
 11
-43.6
 21
-4.788888889
 31
0.0
  0
LINE
  5
60
330
1D
100
AcDbEntity
  8
2
  6
CONTINUOUS
370
    25
100
AcDbLine
 10
-44.4
 20
-4.6
 30
0.0
 11
-44.4
 21
-4.788888889
 31
0.0
  0
LINE
  5
61
330
1D
100
AcDbEntity
  8
2
  6
CONTINUOUS
370
    25
100
AcDbLine
 10
-46.0
 20
8.0
 30
0.0
 11
-34.0
 21
8.0
 31
0.0
  0
LINE
  5
62
330
1D
100
AcDbEntity
  8
2
  6
CONTINUOUS
370
    25
100
AcDbLine
 10
-44.0
 20
8.0
 30
0.0
 11
-43.55
 21
4.5
 31
0.0
  0
LINE
  5
63
330
1D
100
AcDbEntity
  8
2
  6
CONTINUOUS
370
    25
100
AcDbLine
 10
-43.55
 20
4.5
 30
0.0
 11
-44.45
 21
4.5
 31
0.0
  0
LINE
  5
64
330
1D
100
AcDbEntity
  8
2
  6
CONTINUOUS
370
    25
100
AcDbLine
 10
-44.45
 20
4.5
 30
0.0
 11
-44.0
 21
8.0
 31
0.0
  0
LINE
  5
65
330
1D
100
AcDbEntity
  8
2
  6
CONTINUOUS
370
    25
100
AcDbLine
 10
-44.0
 20
4.6
 30
0.0
 11
-44.0
 21
7.9
 31
0.0
  0
LINE
  5
66
330
1D
100
AcDbEntity
  8
2
  6
CONTINUOUS
370
    25
100
AcDbLine
 10
-44.2
 20
4.6
 30
0.0
 11
-44.2
 21
6.344444444
 31
0.0
  0
LINE
  5
67
330
1D
100
AcDbEntity
  8
2
  6
CONTINUOUS
370
    25
100
AcDbLine
 10
-43.8
 20
4.6
 30
0.0
 11
-43.8
 21
6.344444444
 31
0.0
  0
LINE
  5
68
330
1D
100
AcDbEntity
  8
2
  6
CONTINUOUS
370
    25
100
AcDbLine
 10
-44.4
 20
4.6
 30
0.0
 11
-44.4
 21
4.788888889
 31
0.0
  0
LINE
  5
69
330
1D
100
AcDbEntity
  8
2
  6
CONTINUOUS
370
    25
100
AcDbLine
 10
-43.6
 20
4.6
 30
0.0
 11
-43.6
 21
4.788888889
 31
0.0
  0
LINE
  5
6A
330
1D
100
AcDbEntity
  8
2
  6
CONTINUOUS
370
    25
100
AcDbLine
 10
-44.0
 20
-4.5
 30
0.0
 11
-44.0
 21
4.5
 31
0.0
  0
TEXT
  5
6B
330
1D
100
AcDbEntity
  8
2
  6
CONTINUOUS
370
    25
100
AcDbText
 10
-45.5
 20
0.522812321
 30
0.0
 40
3.5
  1
16
 50
90.0
  7
BMG_Text
100
AcDbText
  0
CIRCLE
  5
6C
330
1D
100
AcDbEntity
  8
2
  6
CONTINUOUS
370
    25
100
AcDbCircle
 10
-46.75
 20
-1.727187679
 30
0.0
 40
1.25
  0
LINE
  5
6D
330
1D
100
AcDbEntity
  8
2
  6
CONTINUOUS
370
    25
100
AcDbLine
 10
-45.5
 20
-2.977187679
 30
0.0
 11
-48.0
 21
-0.477187679
 31
0.0
  0
LINE
  5
6E
330
1D
100
AcDbEntity
  8
2
  6
CONTINUOUS
370
    25
100
AcDbLine
 10
-35.0
 20
-22.0
 30
0.0
 11
-35.0
 21
-7.0
 31
0.0
  0
LINE
  5
6F
330
1D
100
AcDbEntity
  8
2
  6
CONTINUOUS
370
    25
100
AcDbLine
 10
-35.0
 20
-20.0
 30
0.0
 11
-31.5
 21
-19.55
 31
0.0
  0
LINE
  5
70
330
1D
100
AcDbEntity
  8
2
  6
CONTINUOUS
370
    25
100
AcDbLine
 10
-31.5
 20
-19.55
 30
0.0
 11
-31.5
 21
-20.45
 31
0.0
  0
LINE
  5
71
330
1D
100
AcDbEntity
  8
2
  6
CONTINUOUS
370
    25
100
AcDbLine
 10
-31.5
 20
-20.45
 30
0.0
 11
-35.0
 21
-20.0
 31
0.0
  0
LINE
  5
72
330
1D
100
AcDbEntity
  8
2
  6
CONTINUOUS
370
    25
100
AcDbLine
 10
-31.6
 20
-20.0
 30
0.0
 11
-34.9
 21
-20.0
 31
0.0
  0
LINE
  5
73
330
1D
100
AcDbEntity
  8
2
  6
CONTINUOUS
370
    25
100
AcDbLine
 10
-31.6
 20
-20.2
 30
0.0
 11
-33.344444444
 21
-20.2
 31
0.0
  0
LINE
  5
74
330
1D
100
AcDbEntity
  8
2
  6
CONTINUOUS
370
    25
100
AcDbLine
 10
-31.6
 20
-19.8
 30
0.0
 11
-33.344444444
 21
-19.8
 31
0.0
  0
LINE
  5
75
330
1D
100
AcDbEntity
  8
2
  6
CONTINUOUS
370
    25
100
AcDbLine
 10
-31.6
 20
-20.4
 30
0.0
 11
-31.788888889
 21
-20.4
 31
0.0
  0
LINE
  5
76
330
1D
100
AcDbEntity
  8
2
  6
CONTINUOUS
370
    25
100
AcDbLine
 10
-31.6
 20
-19.6
 30
0.0
 11
-31.788888889
 21
-19.6
 31
0.0
  0
LINE
  5
77
330
1D
100
AcDbEntity
  8
2
  6
CONTINUOUS
370
    25
100
AcDbLine
 10
0.0
 20
-22.0
 30
0.0
 11
0.0
 21
-10.0
 31
0.0
  0
LINE
  5
78
330
1D
100
AcDbEntity
  8
2
  6
CONTINUOUS
370
    25
100
AcDbLine
 10
0.0
 20
-20.0
 30
0.0
 11
-3.5
 21
-20.45
 31
0.0
  0
LINE
  5
79
330
1D
100
AcDbEntity
  8
2
  6
CONTINUOUS
370
    25
100
AcDbLine
 10
-3.5
 20
-20.45
 30
0.0
 11
-3.5
 21
-19.55
 31
0.0
  0
LINE
  5
7A
330
1D
100
AcDbEntity
  8
2
  6
CONTINUOUS
370
    25
100
AcDbLine
 10
-3.5
 20
-19.55
 30
0.0
 11
0.0
 21
-20.0
 31
0.0
  0
LINE
  5
7B
330
1D
100
AcDbEntity
  8
2
  6
CONTINUOUS
370
    25
100
AcDbLine
 10
-3.4
 20
-20.0
 30
0.0
 11
-0.1
 21
-20.0
 31
0.0
  0
LINE
  5
7C
330
1D
100
AcDbEntity
  8
2
  6
CONTINUOUS
370
    25
100
AcDbLine
 10
-3.4
 20
-19.8
 30
0.0
 11
-1.655555556
 21
-19.8
 31
0.0
  0
LINE
  5
7D
330
1D
100
AcDbEntity
  8
2
  6
CONTINUOUS
370
    25
100
AcDbLine
 10
-3.4
 20
-20.2
 30
0.0
 11
-1.655555556
 21
-20.2
 31
0.0
  0
LINE
  5
7E
330
1D
100
AcDbEntity
  8
2
  6
CONTINUOUS
370
    25
100
AcDbLine
 10
-3.4
 20
-19.6
 30
0.0
 11
-3.211111111
 21
-19.6
 31
0.0
  0
LINE
  5
7F
330
1D
100
AcDbEntity
  8
2
  6
CONTINUOUS
370
    25
100
AcDbLine
 10
-3.4
 20
-20.4
 30
0.0
 11
-3.211111111
 21
-20.4
 31
0.0
  0
LINE
  5
80
330
1D
100
AcDbEntity
  8
2
  6
CONTINUOUS
370
    25
100
AcDbLine
 10
-31.5
 20
-20.0
 30
0.0
 11
-3.5
 21
-20.0
 31
0.0
  0
TEXT
  5
81
330
1D
100
AcDbEntity
  8
2
  6
CONTINUOUS
370
    25
100
AcDbText
 10
-15.437500391
 20
-18.5
 30
0.0
 40
3.5
  1
35
  7
BMG_Text
100
AcDbText
  0
TEXT
  5
82
330
1D
100
AcDbEntity
  8
2
  6
CONTINUOUS
370
    25
100
AcDbText
 10
-22.290312891
 20
-18.5
 30
0.0
 40
3.5
  1
min.
  7
BMG_Text
100
AcDbText
  0
LINE
  5
83
330
1D
100
AcDbEntity
  8
200
370
    50
100
AcDbLine
 10
158.995755327
 20
-1.122576473
 30
0.0
 11
159.498852856
 21
8.477134028
 31
0.0
  0
ARC
  5
84
330
1D
100
AcDbEntity
  8
200
370
    50
100
AcDbCircle
 10
159.099401493
 20
8.498068387
 30
0.0
 40
0.399999548
100
AcDbArc
 50
356.9999999999999
 51
116.999989
  0
LINE
  5
85
330
1D
100
AcDbEntity
  8
200
370
    50
100
AcDbLine
 10
158.917808072
 20
8.854465711
 30
0.0
 11
150.352667318
 21
4.490313668
 31
0.0
  0
ARC
  5
86
330
1D
100
AcDbEntity
  8
200
370
    50
100
AcDbCircle
 10
150.534263912
 20
4.133909864
 30
0.0
 40
0.400001243
100
AcDbArc
 50
117.000018328
 51
236.999064576
  0
LINE
  5
87
330
1D
100
AcDbEntity
  8
200
370
    50
100
AcDbLine
 10
150.316403996
 20
3.798447001
 30
0.0
 11
151.971727743
 21
2.723466946
 31
0.0
  0
LINE
  5
88
330
1D
100
AcDbEntity
  8
200
370
    50
100
AcDbLine
 10
151.971727743
 20
2.723466946
 30
0.0
 11
158.378453139
 21
-1.437110121
 31
0.0
  0
ARC
  5
89
330
1D
100
AcDbEntity
  8
200
370
    50
100
AcDbCircle
 10
158.596309609
 20
-1.10164241
 30
0.0
 40
0.400000033
100
AcDbArc
 50
236.999856949
 51
356.9999999999999
  0
LINE
  5
8A
330
1D
100
AcDbEntity
  8
200
370
    50
100
AcDbLine
 10
141.969330733
 20
7.998067935
 30
0.0
 11
140.374330482
 21
1.600871339
 31
0.0
  0
LINE
  5
8B
330
1D
100
AcDbEntity
  8
200
370
    50
100
AcDbLine
 10
138.989530796
 20
-3.953256838
 30
0.0
 11
137.980082687
 21
-8.001932065
 31
0.0
  0
LINE
  5
8C
330
1D
100
AcDbEntity
  8
200
370
    50
100
AcDbLine
 10
137.980082687
 20
-8.001932065
 30
0.0
 11
143.133150834
 21
-8.001932065
 31
0.0
  0
LINE
  5
8D
330
1D
100
AcDbEntity
  8
200
370
    50
100
AcDbLine
 10
150.294721864
 20
-6.6832493
 30
0.0
 11
158.564007315
 21
-1.908975119
 31
0.0
  0
LINE
  5
8E
330
1D
100
AcDbEntity
  8
200
370
    50
100
AcDbLine
 10
158.564007315
 20
-1.908975119
 30
0.0
 11
158.585362567
 21
-1.501492618
 31
0.0
  0
LINE
  5
8F
330
1D
100
AcDbEntity
  8
200
370
    50
100
AcDbLine
 10
157.237030817
 20
7.998067935
 30
0.0
 11
141.969330733
 21
7.998067935
 31
0.0
  0
LINE
  5
90
330
1D
100
AcDbEntity
  8
200
370
    50
100
AcDbLine
 10
153.168512807
 20
5.925056914
 30
0.0
 11
152.82551105
 21
6.147804755
 31
0.0
  0
LINE
  5
91
330
1D
100
AcDbEntity
  8
200
370
    50
100
AcDbLine
 10
152.82551105
 20
6.147804755
 30
0.0
 11
151.475572037
 21
7.024464992
 31
0.0
  0
ARC
  5
92
330
1D
100
AcDbEntity
  8
200
370
    50
100
AcDbCircle
 10
150.604150431
 20
5.682591375
 30
0.0
 40
1.600000131
100
AcDbArc
 50
57.000039339
 51
236.99996647
  0
LINE
  5
93
330
1D
100
AcDbEntity
  8
200
370
    50
100
AcDbLine
 10
149.732726713
 20
4.340718243
 30
0.0
 11
150.138282017
 21
4.077347211
 31
0.0
  0
LINE
  5
94
330
1D
100
AcDbEntity
  8
200
370
    50
100
AcDbLine
 10
150.198907816
 20
3.915879399
 30
0.0
 11
149.523350364
 21
4.354591741
 31
0.0
  0
LINE
  5
95
330
1D
100
AcDbEntity
  8
200
370
    50
100
AcDbLine
 10
149.523350364
 20
4.354591741
 30
0.0
 11
149.218509671
 21
4.882591309
 31
0.0
  0
LINE
  5
96
330
1D
100
AcDbEntity
  8
200
370
    50
100
AcDbLine
 10
150.259597829
 20
3.698067935
 30
0.0
 11
151.942271729
 21
2.605325328
 31
0.0
  0
LINE
  5
97
330
1D
100
AcDbEntity
  8
200
370
    50
100
AcDbLine
 10
151.942271729
 20
2.605325328
 30
0.0
 11
158.574857984
 21
-1.701932067
 31
0.0
  0
LINE
  5
98
330
1D
100
AcDbEntity
  8
200
370
    50
100
AcDbLine
 10
153.789355566
 20
-4.665621592
 30
0.0
 11
150.129421055
 21
-4.665621592
 31
0.0
  0
LINE
  5
99
330
1D
100
AcDbEntity
  8
200
370
    50
100
AcDbLine
 10
150.129421055
 20
-4.665621592
 30
0.0
 11
139.842531944
 21
-4.665621592
 31
0.0
  0
LINE
  5
9A
330
1D
100
AcDbEntity
  8
200
370
    50
100
AcDbLine
 10
141.92783395
 20
3.698067935
 30
0.0
 11
139.074033934
 21
-7.747898757
 31
0.0
  0
LINE
  5
9B
330
1D
100
AcDbEntity
  8
200
370
    50
100
AcDbLine
 10
143.133150834
 20
-8.001932065
 30
0.0
 11
143.461935374
 21
-6.6832493
 31
0.0
  0
LINE
  5
9C
330
1D
100
AcDbEntity
  8
200
370
    50
100
AcDbLine
 10
143.461935374
 20
-6.6832493
 30
0.0
 11
150.294721864
 21
-6.6832493
 31
0.0
  0
LINE
  5
9D
330
1D
100
AcDbEntity
  8
200
370
    50
100
AcDbLine
 10
141.344626208
 20
1.358949443
 30
0.0
 11
140.374330482
 21
1.600871339
 31
0.0
  0
LINE
  5
9E
330
1D
100
AcDbEntity
  8
200
370
    50
100
AcDbLine
 10
138.989530796
 20
-3.953256838
 30
0.0
 11
139.959826522
 21
-4.195178733
 31
0.0
  0
LINE
  5
9F
330
1D
100
AcDbEntity
  8
200
370
    50
100
AcDbLine
 10
139.074033934
 20
-7.747898757
 30
0.0
 11
138.043420304
 21
-7.747898757
 31
0.0
  0
LINE
  5
A0
330
1D
100
AcDbEntity
  8
200
370
    50
100
AcDbLine
 10
140.89722032
 20
3.698067935
 30
0.0
 11
150.259597829
 21
3.698067935
 31
0.0
  0
CIRCLE
  5
A1
330
1D
100
AcDbEntity
  8
200
370
    50
100
AcDbCircle
 10
156.076660878
 20
3.843445147
 30
0.0
 40
1.9
  0
LINE
  5
A2
330
1D
100
AcDbEntity
  8
200
370
    50
100
AcDbLine
 10
158.320826683
 20
-2.049375523
 30
0.0
 11
149.47053987
 21
3.698067935
 31
0.0
  0
LINE
  5
A3
330
1D
100
AcDbEntity
  8
200
370
    50
100
AcDbLine
 10
155.404937583
 20
-3.732864879
 30
0.0
 11
143.962304494
 21
3.698067935
 31
0.0
  0
LINE
  5
A4
330
1D
100
AcDbEntity
  8
200
370
    50
100
AcDbLine
 10
157.237030817
 20
7.998067935
 30
0.0
 11
157.538555238
 21
7.998067935
 31
0.0
  0
LINE
  5
A5
330
1D
100
AcDbEntity
  8
200
370
    50
100
AcDbLine
 10
156.076660878
 20
6.594079165
 30
0.0
 11
156.076660878
 21
1.092811129
 31
0.0
  0
LINE
  5
A6
330
1D
100
AcDbEntity
  8
200
370
    50
100
AcDbLine
 10
153.381160432
 20
3.851819092
 30
0.0
 11
158.437641535
 21
3.851819092
 31
0.0
  0
LINE
  5
A7
330
1D
100
AcDbEntity
  8
200
370
    50
100
AcDbLine
 10
159.040935429
 20
7.191355898
 30
0.0
 11
158.581815473
 21
-1.569175195
 31
0.0
  0
ARC
  5
A8
330
1D
100
AcDbEntity
  8
200
370
    50
100
AcDbCircle
 10
158.541620661
 20
7.217523874
 30
0.0
 40
0.5
100
AcDbArc
 50
357.0000001600001
 51
90.0
  0
LINE
  5
A9
330
1D
100
AcDbEntity
  8
200
370
    50
100
AcDbLine
 10
157.538555238
 20
7.717523874
 30
0.0
 11
158.541620661
 21
7.717523874
 31
0.0
  0
LINE
  5
AA
330
1D
100
AcDbEntity
  8
200
370
    50
100
AcDbLine
 10
157.538555238
 20
7.998067935
 30
0.0
 11
157.538555238
 21
7.717523874
 31
0.0
  0
LINE
  5
AB
330
1D
100
AcDbEntity
  8
200
370
    50
100
AcDbLine
 10
151.28758608
 20
1.969111122
 30
0.0
 11
150.196185377
 21
-2.408258008
 31
0.0
  0
LINE
  5
AC
330
1D
100
AcDbEntity
  8
200
370
    50
100
AcDbLine
 10
150.828576946
 20
0.128126042
 30
0.0
 11
158.569617203
 21
-1.801932065
 31
0.0
  0
LINE
  5
AD
330
1D
100
AcDbEntity
  8
200
370
    50
100
AcDbLine
 10
145.950959585
 20
3.299681548
 30
0.0
 11
151.28758608
 21
1.969111122
 31
0.0
  0
LINE
  5
AE
330
1D
100
AcDbEntity
  8
200
370
    50
100
AcDbLine
 10
140.639829352
 20
2.665729146
 30
0.0
 11
145.491307983
 21
1.456119668
 31
0.0
  0
LINE
  5
AF
330
1D
100
AcDbEntity
  8
200
370
    50
100
AcDbLine
 10
143.638432258
 20
-5.975358963
 30
0.0
 11
138.786953627
 21
-4.765749485
 31
0.0
  0
LINE
  5
B0
330
1D
100
AcDbEntity
  8
200
370
    50
100
AcDbLine
 10
145.265267936
 20
-3.713103773
 30
0.0
 11
138.015251374
 21
-1.905471623
 31
0.0
  0
LINE
  5
B1
330
1D
100
AcDbEntity
  8
200
370
    50
100
AcDbLine
 10
145.860149805
 20
-1.327162919
 30
0.0
 11
138.610133242
 21
0.480469232
 31
0.0
  0
LINE
  5
B2
330
1D
100
AcDbEntity
  8
200
370
    50
100
AcDbLine
 10
145.950959585
 20
3.299681548
 30
0.0
 11
143.461935374
 21
-6.6832493
 31
0.0
  0
LINE
  5
B3
330
1D
100
AcDbEntity
  8
2
  6
CONTINUOUS
370
    25
100
AcDbLine
 10
0.0
 20
-22.0
 30
0.0
 11
0.0
 21
-10.0
 31
0.0
  0
LINE
  5
B4
330
1D
100
AcDbEntity
  8
2
  6
CONTINUOUS
370
    25
100
AcDbLine
 10
0.0
 20
-20.0
 30
0.0
 11
3.499999999
 21
-19.549999988
 31
0.0
  0
LINE
  5
B5
330
1D
100
AcDbEntity
  8
2
  6
CONTINUOUS
370
    25
100
AcDbLine
 10
3.499999999
 20
-19.549999988
 30
0.0
 11
3.500000001
 21
-20.449999988
 31
0.0
  0
LINE
  5
B6
330
1D
100
AcDbEntity
  8
2
  6
CONTINUOUS
370
    25
100
AcDbLine
 10
3.500000001
 20
-20.449999988
 30
0.0
 11
0.0
 21
-20.0
 31
0.0
  0
LINE
  5
B7
330
1D
100
AcDbEntity
  8
2
  6
CONTINUOUS
370
    25
100
AcDbLine
 10
3.4
 20
-19.999999989
 30
0.0
 11
0.1
 21
-20.0
 31
0.0
  0
LINE
  5
B8
330
1D
100
AcDbEntity
  8
2
  6
CONTINUOUS
370
    25
100
AcDbLine
 10
3.400000001
 20
-20.199999989
 30
0.0
 11
1.655555556
 21
-20.199999994
 31
0.0
  0
LINE
  5
B9
330
1D
100
AcDbEntity
  8
2
  6
CONTINUOUS
370
    25
100
AcDbLine
 10
3.399999999
 20
-19.799999989
 30
0.0
 11
1.655555555
 21
-19.799999994
 31
0.0
  0
LINE
  5
BA
330
1D
100
AcDbEntity
  8
2
  6
CONTINUOUS
370
    25
100
AcDbLine
 10
3.400000001
 20
-20.399999989
 30
0.0
 11
3.211111112
 21
-20.399999989
 31
0.0
  0
LINE
  5
BB
330
1D
100
AcDbEntity
  8
2
  6
CONTINUOUS
370
    25
100
AcDbLine
 10
3.399999999
 20
-19.599999989
 30
0.0
 11
3.21111111
 21
-19.599999989
 31
0.0
  0
LINE
  5
BC
330
1D
100
AcDbEntity
  8
2
  6
CONTINUOUS
370
    25
100
AcDbLine
 10
159.499401041
 20
-21.999999469
 30
0.0
 11
159.499401041
 21
8.498068387
 31
0.0
  0
LINE
  5
BD
330
1D
100
AcDbEntity
  8
2
  6
CONTINUOUS
370
    25
100
AcDbLine
 10
159.499401041
 20
-19.999999469
 30
0.0
 11
155.999401043
 21
-20.449999481
 31
0.0
  0
LINE
  5
BE
330
1D
100
AcDbEntity
  8
2
  6
CONTINUOUS
370
    25
100
AcDbLine
 10
155.999401043
 20
-20.449999481
 30
0.0
 11
155.99940104
 21
-19.549999481
 31
0.0
  0
LINE
  5
BF
330
1D
100
AcDbEntity
  8
2
  6
CONTINUOUS
370
    25
100
AcDbLine
 10
155.99940104
 20
-19.549999481
 30
0.0
 11
159.499401041
 21
-19.999999469
 31
0.0
  0
LINE
  5
C0
330
1D
100
AcDbEntity
  8
2
  6
CONTINUOUS
370
    25
100
AcDbLine
 10
156.099401041
 20
-19.99999948
 30
0.0
 11
159.399401041
 21
-19.999999469
 31
0.0
  0
LINE
  5
C1
330
1D
100
AcDbEntity
  8
2
  6
CONTINUOUS
370
    25
100
AcDbLine
 10
156.099401041
 20
-19.79999948
 30
0.0
 11
157.843845485
 21
-19.799999475
 31
0.0
  0
LINE
  5
C2
330
1D
100
AcDbEntity
  8
2
  6
CONTINUOUS
370
    25
100
AcDbLine
 10
156.099401042
 20
-20.19999948
 30
0.0
 11
157.843845486
 21
-20.199999475
 31
0.0
  0
LINE
  5
C3
330
1D
100
AcDbEntity
  8
2
  6
CONTINUOUS
370
    25
100
AcDbLine
 10
156.09940104
 20
-19.59999948
 30
0.0
 11
156.288289929
 21
-19.59999948
 31
0.0
  0
LINE
  5
C4
330
1D
100
AcDbEntity
  8
2
  6
CONTINUOUS
370
    25
100
AcDbLine
 10
156.099401043
 20
-20.39999948
 30
0.0
 11
156.288289932
 21
-20.39999948
 31
0.0
  0
LINE
  5
C5
330
1D
100
AcDbEntity
  8
2
  6
CONTINUOUS
370
    25
100
AcDbLine
 10
3.5
 20
-19.999999988
 30
0.0
 11
155.999401041
 21
-19.999999481
 31
0.0
  0
TEXT
  5
C6
330
1D
100
AcDbEntity
  8
2
  6
CONTINUOUS
370
    25
100
AcDbText
 10
81.183292483
 20
-18.49999973
 30
0.0
 40
3.5
  1
160
 50
0.000000191
  7
BMG_Text
100
AcDbText
  0
TEXT
  5
C7
330
1D
100
AcDbEntity
  8
2
  6
CONTINUOUS
370
    25
100
AcDbText
 10
73.619542483
 20
-18.499999755
 30
0.0
 40
3.5
  1
110-
 50
0.000000191
  7
BMG_Text
100
AcDbText
  0
LINE
  5
C8
330
1D
100
AcDbEntity
  8
2
  6
CONTINUOUS
370
    25
100
AcDbLine
 10
174.000000019
 20
8.898068586
 30
0.0
 11
159.099401493
 21
8.898067935
 31
0.0
  0
LINE
  5
C9
330
1D
100
AcDbEntity
  8
2
  6
CONTINUOUS
370
    25
100
AcDbLine
 10
172.000000019
 20
8.898068499
 30
0.0
 11
172.449999866
 21
12.398068518
 31
0.0
  0
LINE
  5
CA
330
1D
100
AcDbEntity
  8
2
  6
CONTINUOUS
370
    25
100
AcDbLine
 10
172.449999866
 20
12.398068518
 30
0.0
 11
171.549999866
 21
12.398068479
 31
0.0
  0
LINE
  5
CB
330
1D
100
AcDbEntity
  8
2
  6
CONTINUOUS
370
    25
100
AcDbLine
 10
171.549999866
 20
12.398068479
 30
0.0
 11
172.000000019
 21
8.898068499
 31
0.0
  0
LINE
  5
CC
330
1D
100
AcDbEntity
  8
2
  6
CONTINUOUS
370
    25
100
AcDbLine
 10
171.999999871
 20
12.298068499
 30
0.0
 11
172.000000015
 21
8.998068499
 31
0.0
  0
LINE
  5
CD
330
1D
100
AcDbEntity
  8
2
  6
CONTINUOUS
370
    25
100
AcDbLine
 10
172.199999871
 20
12.298068507
 30
0.0
 11
172.199999947
 21
10.553624063
 31
0.0
  0
LINE
  5
CE
330
1D
100
AcDbEntity
  8
2
  6
CONTINUOUS
370
    25
100
AcDbLine
 10
171.799999871
 20
12.29806849
 30
0.0
 11
171.799999947
 21
10.553624045
 31
0.0
  0
LINE
  5
CF
330
1D
100
AcDbEntity
  8
2
  6
CONTINUOUS
370
    25
100
AcDbLine
 10
172.399999871
 20
12.298068516
 30
0.0
 11
172.399999879
 21
12.109179627
 31
0.0
  0
LINE
  5
D0
330
1D
100
AcDbEntity
  8
2
  6
CONTINUOUS
370
    25
100
AcDbLine
 10
171.599999871
 20
12.298068481
 30
0.0
 11
171.599999879
 21
12.109179592
 31
0.0
  0
LINE
  5
D1
330
1D
100
AcDbEntity
  8
2
  6
CONTINUOUS
370
    25
100
AcDbLine
 10
171.999999866
 20
12.398068499
 30
0.0
 11
171.999998577
 21
41.899767412
 31
0.0
  0
LINE
  5
D2
330
1D
100
AcDbEntity
  8
2
  6
CONTINUOUS
370
    25
100
AcDbLine
 10
172.000000797
 20
-8.898065953
 30
0.0
 11
172.000000019
 21
8.898068499
 31
0.0
  0
TEXT
  5
D3
330
1D
100
AcDbEntity
  8
2
  6
CONTINUOUS
370
    25
100
AcDbText
 10
170.616495508
 20
17.116017352
 30
0.0
 40
3.5
  1
17.8
 50
90.00000250400001
  7
BMG_Text
100
AcDbText
  0
CIRCLE
  5
D4
330
1D
100
AcDbEntity
  8
2
  6
CONTINUOUS
370
    25
100
AcDbCircle
 10
169.366495606
 20
14.866017297
 30
0.0
 40
1.25
  0
LINE
  5
D5
330
1D
100
AcDbEntity
  8
2
  6
CONTINUOUS
370
    25
100
AcDbLine
 10
170.616495661
 20
13.616017352
 30
0.0
 11
168.116495552
 21
16.116017242
 31
0.0
  0
TEXT
  5
D6
330
1D
100
AcDbEntity
  8
2
  6
CONTINUOUS
370
    25
100
AcDbText
 10
170.616495189
 20
24.406329852
 30
0.0
 40
3.5
  1
-33.0(40.0)
 50
90.00000250400001
  7
BMG_Text
100
AcDbText
  0
LINE
  5
D7
330
1D
100
AcDbEntity
  8
2
  6
CONTINUOUS
370
    25
100
AcDbLine
 10
-35.0
 20
18.0
 30
0.0
 11
-35.0
 21
7.0
 31
0.0
  0
LINE
  5
D8
330
1D
100
AcDbEntity
  8
2
  6
CONTINUOUS
370
    25
100
AcDbLine
 10
-35.0
 20
16.0
 30
0.0
 11
-31.5
 21
16.45
 31
0.0
  0
LINE
  5
D9
330
1D
100
AcDbEntity
  8
2
  6
CONTINUOUS
370
    25
100
AcDbLine
 10
-31.5
 20
16.45
 30
0.0
 11
-31.5
 21
15.55
 31
0.0
  0
LINE
  5
DA
330
1D
100
AcDbEntity
  8
2
  6
CONTINUOUS
370
    25
100
AcDbLine
 10
-31.5
 20
15.55
 30
0.0
 11
-35.0
 21
16.0
 31
0.0
  0
LINE
  5
DB
330
1D
100
AcDbEntity
  8
2
  6
CONTINUOUS
370
    25
100
AcDbLine
 10
-31.6
 20
16.0
 30
0.0
 11
-34.9
 21
16.0
 31
0.0
  0
LINE
  5
DC
330
1D
100
AcDbEntity
  8
2
  6
CONTINUOUS
370
    25
100
AcDbLine
 10
-31.6
 20
15.8
 30
0.0
 11
-33.344444444
 21
15.8
 31
0.0
  0
LINE
  5
DD
330
1D
100
AcDbEntity
  8
2
  6
CONTINUOUS
370
    25
100
AcDbLine
 10
-31.6
 20
16.2
 30
0.0
 11
-33.344444444
 21
16.2
 31
0.0
  0
LINE
  5
DE
330
1D
100
AcDbEntity
  8
2
  6
CONTINUOUS
370
    25
100
AcDbLine
 10
-31.6
 20
15.6
 30
0.0
 11
-31.788888889
 21
15.6
 31
0.0
  0
LINE
  5
DF
330
1D
100
AcDbEntity
  8
2
  6
CONTINUOUS
370
    25
100
AcDbLine
 10
-31.6
 20
16.4
 30
0.0
 11
-31.788888889
 21
16.4
 31
0.0
  0
LINE
  5
E0
330
1D
100
AcDbEntity
  8
2
  6
CONTINUOUS
370
    25
100
AcDbLine
 10
143.0
 20
18.0
 30
0.0
 11
143.0
 21
8.0
 31
0.0
  0
LINE
  5
E1
330
1D
100
AcDbEntity
  8
2
  6
CONTINUOUS
370
    25
100
AcDbLine
 10
143.0
 20
16.0
 30
0.0
 11
139.5
 21
15.55
 31
0.0
  0
LINE
  5
E2
330
1D
100
AcDbEntity
  8
2
  6
CONTINUOUS
370
    25
100
AcDbLine
 10
139.5
 20
15.55
 30
0.0
 11
139.5
 21
16.45
 31
0.0
  0
LINE
  5
E3
330
1D
100
AcDbEntity
  8
2
  6
CONTINUOUS
370
    25
100
AcDbLine
 10
139.5
 20
16.45
 30
0.0
 11
143.0
 21
16.0
 31
0.0
  0
LINE
  5
E4
330
1D
100
AcDbEntity
  8
2
  6
CONTINUOUS
370
    25
100
AcDbLine
 10
139.6
 20
16.0
 30
0.0
 11
142.9
 21
16.0
 31
0.0
  0
LINE
  5
E5
330
1D
100
AcDbEntity
  8
2
  6
CONTINUOUS
370
    25
100
AcDbLine
 10
139.6
 20
16.2
 30
0.0
 11
141.344444444
 21
16.2
 31
0.0
  0
LINE
  5
E6
330
1D
100
AcDbEntity
  8
2
  6
CONTINUOUS
370
    25
100
AcDbLine
 10
139.6
 20
15.8
 30
0.0
 11
141.344444444
 21
15.8
 31
0.0
  0
LINE
  5
E7
330
1D
100
AcDbEntity
  8
2
  6
CONTINUOUS
370
    25
100
AcDbLine
 10
139.6
 20
16.4
 30
0.0
 11
139.788888889
 21
16.4
 31
0.0
  0
LINE
  5
E8
330
1D
100
AcDbEntity
  8
2
  6
CONTINUOUS
370
    25
100
AcDbLine
 10
139.6
 20
15.6
 30
0.0
 11
139.788888889
 21
15.6
 31
0.0
  0
LINE
  5
E9
330
1D
100
AcDbEntity
  8
2
  6
CONTINUOUS
370
    25
100
AcDbLine
 10
-31.5
 20
16.0
 30
0.0
 11
139.5
 21
16.0
 31
0.0
  0
TEXT
  5
EA
330
1D
100
AcDbEntity
  8
2
  6
CONTINUOUS
370
    25
100
AcDbText
 10
51.597029261
 20
17.5
 30
0.0
 40
3.5
  1
178
  7
BMG_Text
100
AcDbText
  0
TEXT
  5
EB
330
1D
100
AcDbEntity
  8
2
  6
CONTINUOUS
370
    25
100
AcDbText
 10
110.75182554
 20
-7.282868972
 30
0.0
 40
3.5
  1
615.253
  7
BMG_Text
100
AcDbText
  0
ENDSEC
  0
SECTION
  2
OBJECTS
  0
DICTIONARY
  5
C
330
0
100
AcDbDictionary
281
     1
  3
ACAD_GROUP
350
D
  3
ACAD_LAYOUT
350
1A
  3
ACAD_MATERIAL
350
129
  3
ACAD_MLEADERSTYLE
350
135
  3
ACAD_MLINESTYLE
350
17
  3
ACAD_PLOTSETTINGS
350
19
  3
ACAD_PLOTSTYLENAME
350
E
  3
ACAD_SCALELIST
350
F2
  3
ACAD_VISUALSTYLE
350
118
  3
ACDB_RECOMPOSE_DATA
350
162
  3
AcDbVariableDictionary
350
133
  0
DICTIONARY
  5
139
330
8
100
AcDbDictionary
280
     1
281
     1
  3
ACAD_XREC_ROUNDTRIP
360
13A
  0
DICTIONARY
  5
D
102
{ACAD_REACTORS
330
C
102
}
330
C
100
AcDbDictionary
281
     1
  0
DICTIONARY
  5
1A
102
{ACAD_REACTORS
330
C
102
}
330
C
100
AcDbDictionary
281
     1
  3
Layout1
350
1C
  3
Model
350
1E
  0
DICTIONARY
  5
129
102
{ACAD_REACTORS
330
C
102
}
330
C
100
AcDbDictionary
281
     1
  3
ByBlock
350
12B
  3
ByLayer
350
12A
  3
Global
350
12C
  0
DICTIONARY
  5
135
102
{ACAD_REACTORS
330
C
102
}
330
C
100
AcDbDictionary
281
     1
  0
DICTIONARY
  5
17
102
{ACAD_REACTORS
330
C
102
}
330
C
100
AcDbDictionary
281
     1
  3
Standard
350
18
  0
DICTIONARY
  5
19
102
{ACAD_REACTORS
330
C
102
}
330
C
100
AcDbDictionary
281
     1
  0
ACDBDICTIONARYWDFLT
  5
E
102
{ACAD_REACTORS
330
C
102
}
330
C
100
AcDbDictionary
281
     1
  3
Normal
350
F
100
AcDbDictionaryWithDefault
340
F
  0
DICTIONARY
  5
F2
102
{ACAD_REACTORS
330
C
102
}
330
C
100
AcDbDictionary
281
     1
  3
A0
350
F3
  3
A1
350
F4
  3
A2
350
F5
  3
A3
350
F6
  3
A4
350
F7
  3
A5
350
F8
  3
A6
350
F9
  3
A7
350
FA
  3
A8
350
FB
  3
A9
350
FC
  3
B0
350
FD
  3
B1
350
FE
  3
B2
350
FF
  3
B3
350
100
  3
B4
350
101
  3
B5
350
102
  3
B6
350
103
  3
B7
350
104
  3
B8
350
105
  3
B9
350
106
  3
C0
350
107
  3
C1
350
108
  3
C2
350
109
  3
C3
350
10A
  3
C4
350
10B
  3
C5
350
10C
  3
C6
350
10D
  3
C7
350
10E
  3
C8
350
10F
  3
C9
350
110
  3
D0
350
111
  3
D1
350
112
  3
D2
350
113
  0
DICTIONARY
  5
118
102
{ACAD_REACTORS
330
C
102
}
330
C
100
AcDbDictionary
281
     1
  3
2dWireframe
350
11D
  3
3D Hidden
350
11F
  3
3dWireframe
350
11E
  3
Basic
350
120
  3
Brighten
350
124
  3
ColorChange
350
128
  3
Conceptual
350
122
  3
Dim
350
123
  3
Facepattern
350
127
  3
Flat
350
119
  3
FlatWithEdges
350
11A
  3
Gouraud
350
11B
  3
GouraudWithEdges
350
11C
  3
Linepattern
350
126
  3
Realistic
350
121
  3
Thicken
350
125
  0
XRECORD
  5
162
102
{ACAD_REACTORS
330
C
102
}
330
C
100
AcDbXrecord
280
     1
  0
DICTIONARY
  5
133
102
{ACAD_REACTORS
330
C
102
}
330
C
100
AcDbDictionary
281
     1
  3
CANNOSCALE
350
13B
  3
DIMASSOC
350
137
  3
HIDETEXT
350
138
  3
MSLTSCALE
350
136
  0
XRECORD
  5
13A
102
{ACAD_REACTORS
330
139
102
}
330
139
100
AcDbXrecord
280
     1
102
VTR_0.000_0.000_1.000_1.000_VISUALSTYLE
340
11D
102
VTR_0.000_0.000_1.000_1.000_GRIDDISPLAY
 70
     3
102
VTR_0.000_0.000_1.000_1.000_GRIDMAJOR
 70
     5
102
VTR_0.000_0.000_1.000_1.000_DEFAULTLIGHTING
280
     1
102
VTR_0.000_0.000_1.000_1.000_DEFAULTLIGHTINGTYPE
 70
     1
102
VTR_0.000_0.000_1.000_1.000_BRIGHTNESS
141
0.0
102
VTR_0.000_0.000_1.000_1.000_CONTRAST
142
0.0
  0
LAYOUT
  5
1C
102
{ACAD_REACTORS
330
1A
102
}
330
1A
100
AcDbPlotSettings
  1

  2
none_device
  4

  6

 40
0.0
 41
0.0
 42
0.0
 43
0.0
 44
0.0
 45
0.0
 46
0.0
 47
0.0
 48
0.0
 49
0.0
140
0.0
141
0.0
142
1.0
143
1.0
 70
   688
 72
     0
 73
     0
 74
     5
  7

 75
    16
147
1.0
148
0.0
149
0.0
100
AcDbLayout
  1
Layout1
 70
     1
 71
     1
 10
0.0
 20
0.0
 11
12.0
 21
9.0
 12
0.0
 22
0.0
 32
0.0
 14
1.000000000000000E+20
 24
1.000000000000000E+20
 34
1.000000000000000E+20
 15
-1.000000000000000E+20
 25
-1.000000000000000E+20
 35
-1.000000000000000E+20
146
0.0
 13
0.0
 23
0.0
 33
0.0
 16
1.0
 26
0.0
 36
0.0
 17
0.0
 27
1.0
 37
0.0
 76
     0
330
1B
  0
LAYOUT
  5
1E
102
{ACAD_REACTORS
330
1A
102
}
330
1A
100
AcDbPlotSettings
  1

  2
none_device
  4

  6

 40
0.0
 41
0.0
 42
0.0
 43
0.0
 44
0.0
 45
0.0
 46
0.0
 47
0.0
 48
0.0
 49
0.0
140
0.0
141
0.0
142
1.0
143
1.0
 70
  1712
 72
     0
 73
     0
 74
     0
  7

 75
     0
147
1.0
148
0.0
149
0.0
100
AcDbLayout
  1
Model
 70
     1
 71
     0
 10
0.0
 20
0.0
 11
12.0
 21
9.0
 12
0.0
 22
0.0
 32
0.0
 14
-51.21000001
 24
-58.264623162
 34
0.0
 15
174.210000986
 25
80.164390574
 35
0.0
146
0.0
 13
0.0
 23
0.0
 33
0.0
 16
1.0
 26
0.0
 36
0.0
 17
0.0
 27
1.0
 37
0.0
 76
     0
330
1D
331
EC
  0
MATERIAL
  5
12B
102
{ACAD_REACTORS
330
129
102
}
102
{ACAD_XDICTIONARY
360
15E
102
}
330
129
100
AcDbMaterial
  1
ByBlock
  0
MATERIAL
  5
12A
102
{ACAD_REACTORS
330
129
102
}
102
{ACAD_XDICTIONARY
360
15C
102
}
330
129
100
AcDbMaterial
  1
ByLayer
  0
MATERIAL
  5
12C
102
{ACAD_REACTORS
330
129
102
}
102
{ACAD_XDICTIONARY
360
160
102
}
330
129
100
AcDbMaterial
  1
Global
  0
MLINESTYLE
  5
18
102
{ACAD_REACTORS
330
17
102
}
330
17
100
AcDbMlineStyle
  2
Standard
 70
     0
  3

 62
   256
 51
90.0
 52
90.0
 71
     2
 49
0.5
 62
   256
  6
BYLAYER
 49
-0.5
 62
   256
  6
BYLAYER
  0
ACDBPLACEHOLDER
  5
F
102
{ACAD_REACTORS
330
E
102
}
330
E
  0
SCALE
  5
F3
102
{ACAD_REACTORS
330
F2
102
}
330
F2
100
AcDbScale
 70
     0
300
1:1
140
1.0
141
1.0
290
     1
  0
SCALE
  5
F4
102
{ACAD_REACTORS
330
F2
102
}
330
F2
100
AcDbScale
 70
     0
300
1:2
140
1.0
141
2.0
290
     0
  0
SCALE
  5
F5
102
{ACAD_REACTORS
330
F2
102
}
330
F2
100
AcDbScale
 70
     0
300
1:4
140
1.0
141
4.0
290
     0
  0
SCALE
  5
F6
102
{ACAD_REACTORS
330
F2
102
}
330
F2
100
AcDbScale
 70
     0
300
1:5
140
1.0
141
5.0
290
     0
  0
SCALE
  5
F7
102
{ACAD_REACTORS
330
F2
102
}
330
F2
100
AcDbScale
 70
     0
300
1:8
140
1.0
141
8.0
290
     0
  0
SCALE
  5
F8
102
{ACAD_REACTORS
330
F2
102
}
330
F2
100
AcDbScale
 70
     0
300
1:10
140
1.0
141
10.0
290
     0
  0
SCALE
  5
F9
102
{ACAD_REACTORS
330
F2
102
}
330
F2
100
AcDbScale
 70
     0
300
1:16
140
1.0
141
16.0
290
     0
  0
SCALE
  5
FA
102
{ACAD_REACTORS
330
F2
102
}
330
F2
100
AcDbScale
 70
     0
300
1:20
140
1.0
141
20.0
290
     0
  0
SCALE
  5
FB
102
{ACAD_REACTORS
330
F2
102
}
330
F2
100
AcDbScale
 70
     0
300
1:30
140
1.0
141
30.0
290
     0
  0
SCALE
  5
FC
102
{ACAD_REACTORS
330
F2
102
}
330
F2
100
AcDbScale
 70
     0
300
1:40
140
1.0
141
40.0
290
     0
  0
SCALE
  5
FD
102
{ACAD_REACTORS
330
F2
102
}
330
F2
100
AcDbScale
 70
     0
300
1:50
140
1.0
141
50.0
290
     0
  0
SCALE
  5
FE
102
{ACAD_REACTORS
330
F2
102
}
330
F2
100
AcDbScale
 70
     0
300
1:100
140
1.0
141
100.0
290
     0
  0
SCALE
  5
FF
102
{ACAD_REACTORS
330
F2
102
}
330
F2
100
AcDbScale
 70
     0
300
2:1
140
2.0
141
1.0
290
     0
  0
SCALE
  5
100
102
{ACAD_REACTORS
330
F2
102
}
330
F2
100
AcDbScale
 70
     0
300
4:1
140
4.0
141
1.0
290
     0
  0
SCALE
  5
101
102
{ACAD_REACTORS
330
F2
102
}
330
F2
100
AcDbScale
 70
     0
300
8:1
140
8.0
141
1.0
290
     0
  0
SCALE
  5
102
102
{ACAD_REACTORS
330
F2
102
}
330
F2
100
AcDbScale
 70
     0
300
10:1
140
10.0
141
1.0
290
     0
  0
SCALE
  5
103
102
{ACAD_REACTORS
330
F2
102
}
330
F2
100
AcDbScale
 70
     0
300
100:1
140
100.0
141
1.0
290
     0
  0
SCALE
  5
104
102
{ACAD_REACTORS
330
F2
102
}
330
F2
100
AcDbScale
 70
     0
300
1/128" = 1'-0"
140
0.0078125
141
12.0
290
     0
  0
SCALE
  5
105
102
{ACAD_REACTORS
330
F2
102
}
330
F2
100
AcDbScale
 70
     0
300
1/64" = 1'-0"
140
0.015625
141
12.0
290
     0
  0
SCALE
  5
106
102
{ACAD_REACTORS
330
F2
102
}
330
F2
100
AcDbScale
 70
     0
300
1/32" = 1'-0"
140
0.03125
141
12.0
290
     0
  0
SCALE
  5
107
102
{ACAD_REACTORS
330
F2
102
}
330
F2
100
AcDbScale
 70
     0
300
1/16" = 1'-0"
140
0.0625
141
12.0
290
     0
  0
SCALE
  5
108
102
{ACAD_REACTORS
330
F2
102
}
330
F2
100
AcDbScale
 70
     0
300
3/32" = 1'-0"
140
0.09375
141
12.0
290
     0
  0
SCALE
  5
109
102
{ACAD_REACTORS
330
F2
102
}
330
F2
100
AcDbScale
 70
     0
300
1/8" = 1'-0"
140
0.125
141
12.0
290
     0
  0
SCALE
  5
10A
102
{ACAD_REACTORS
330
F2
102
}
330
F2
100
AcDbScale
 70
     0
300
3/16" = 1'-0"
140
0.1875
141
12.0
290
     0
  0
SCALE
  5
10B
102
{ACAD_REACTORS
330
F2
102
}
330
F2
100
AcDbScale
 70
     0
300
1/4" = 1'-0"
140
0.25
141
12.0
290
     0
  0
SCALE
  5
10C
102
{ACAD_REACTORS
330
F2
102
}
330
F2
100
AcDbScale
 70
     0
300
3/8" = 1'-0"
140
0.375
141
12.0
290
     0
  0
SCALE
  5
10D
102
{ACAD_REACTORS
330
F2
102
}
330
F2
100
AcDbScale
 70
     0
300
1/2" = 1'-0"
140
0.5
141
12.0
290
     0
  0
SCALE
  5
10E
102
{ACAD_REACTORS
330
F2
102
}
330
F2
100
AcDbScale
 70
     0
300
3/4" = 1'-0"
140
0.75
141
12.0
290
     0
  0
SCALE
  5
10F
102
{ACAD_REACTORS
330
F2
102
}
330
F2
100
AcDbScale
 70
     0
300
1" = 1'-0"
140
1.0
141
12.0
290
     0
  0
SCALE
  5
110
102
{ACAD_REACTORS
330
F2
102
}
330
F2
100
AcDbScale
 70
     0
300
1-1/2" = 1'-0"
140
1.5
141
12.0
290
     0
  0
SCALE
  5
111
102
{ACAD_REACTORS
330
F2
102
}
330
F2
100
AcDbScale
 70
     0
300
3" = 1'-0"
140
3.0
141
12.0
290
     0
  0
SCALE
  5
112
102
{ACAD_REACTORS
330
F2
102
}
330
F2
100
AcDbScale
 70
     0
300
6" = 1'-0"
140
6.0
141
12.0
290
     0
  0
SCALE
  5
113
102
{ACAD_REACTORS
330
F2
102
}
330
F2
100
AcDbScale
 70
     0
300
1'-0" = 1'-0"
140
12.0
141
12.0
290
     0
  0
VISUALSTYLE
  5
11D
102
{ACAD_REACTORS
330
118
102
}
102
{ACAD_XDICTIONARY
360
144
102
}
330
118
100
AcDbVisualStyle
  2
2dWireframe
 70
     4
 71
     0
 72
     2
 73
     0
 90
        0
 40
-0.6
 41
-30.0
 62
     5
 63
     7
 74
     1
 91
        4
 64
     7
 65
   257
 75
     1
175
     1
 42
1.0
 92
        0
 66
   257
 43
1.0
 76
     1
 77
     6
 78
     2
 67
     7
 79
     5
170
     0
171
     0
290
     0
174
     0
 93
        1
 44
0.0
173
     0
291
     0
 45
0.0
1001
ACAD
1000
AcDbSavedByObjectVersion
1070
     0
  0
VISUALSTYLE
  5
11F
102
{ACAD_REACTORS
330
118
102
}
102
{ACAD_XDICTIONARY
360
148
102
}
330
118
100
AcDbVisualStyle
  2
3D Hidden
 70
     6
 71
     1
 72
     2
 73
     2
 90
        0
 40
-0.6
 41
-30.0
 62
     5
 63
     7
 74
     2
 91
        2
 64
     7
 65
   257
 75
     2
175
     1
 42
40.0
 92
        0
 66
   257
 43
1.0
 76
     1
 77
     6
 78
     2
 67
     7
 79
     3
170
     0
171
     0
290
     0
174
     0
 93
        1
 44
0.0
173
     0
291
     0
 45
0.0
1001
ACAD
1000
AcDbSavedByObjectVersion
1070
     0
  0
VISUALSTYLE
  5
11E
102
{ACAD_REACTORS
330
118
102
}
102
{ACAD_XDICTIONARY
360
146
102
}
330
118
100
AcDbVisualStyle
  2
3dWireframe
 70
     5
 71
     0
 72
     2
 73
     0
 90
        0
 40
-0.6
 41
-30.0
 62
     5
 63
     7
 74
     1
 91
        4
 64
     7
 65
   257
 75
     1
175
     1
 42
1.0
 92
        0
 66
   257
 43
1.0
 76
     1
 77
     6
 78
     2
 67
     7
 79
     5
170
     0
171
     0
290
     0
174
     0
 93
        1
 44
0.0
173
     0
291
     0
 45
0.0
1001
ACAD
1000
AcDbSavedByObjectVersion
1070
     0
  0
VISUALSTYLE
  5
120
102
{ACAD_REACTORS
330
118
102
}
102
{ACAD_XDICTIONARY
360
14A
102
}
330
118
100
AcDbVisualStyle
  2
Basic
 70
     7
 71
     1
 72
     0
 73
     1
 90
        0
 40
-0.6
 41
-30.0
 62
     5
 63
     7
 74
     0
 91
        4
 64
     7
 65
   257
 75
     1
175
     1
 42
1.0
 92
        8
 66
     7
 43
1.0
 76
     1
 77
     6
 78
     2
 67
     7
 79
     5
170
     0
171
     0
290
     0
174
     0
 93
        1
 44
0.0
173
     0
291
     1
 45
0.0
1001
ACAD
1000
AcDbSavedByObjectVersion
1070
     0
  0
VISUALSTYLE
  5
124
102
{ACAD_REACTORS
330
118
102
}
102
{ACAD_XDICTIONARY
360
152
102
}
330
118
100
AcDbVisualStyle
  2
Brighten
 70
    12
 71
     2
 72
     2
 73
     0
 90
        0
 40
-0.6
 41
-30.0
 62
     5
 63
     7
 74
     1
 91
        4
 64
     7
 65
   257
 75
     1
175
     1
 42
1.0
 92
        8
 66
     7
 43
1.0
 76
     1
 77
     6
 78
     2
 67
     7
 79
     5
170
     0
171
     0
290
     0
174
     0
 93
        1
 44
50.0
173
     0
291
     1
 45
0.0
1001
ACAD
1000
AcDbSavedByObjectVersion
1070
     0
  0
VISUALSTYLE
  5
128
102
{ACAD_REACTORS
330
118
102
}
102
{ACAD_XDICTIONARY
360
15A
102
}
330
118
100
AcDbVisualStyle
  2
ColorChange
 70
    16
 71
     2
 72
     2
 73
     3
 90
        0
 40
-0.6
 41
-30.0
 62
     5
 63
     8
 74
     1
 91
        4
 64
     7
 65
   257
 75
     1
175
     1
 42
1.0
 92
        8
 66
     8
 43
1.0
 76
     1
 77
     6
 78
     2
 67
     7
 79
     5
170
     0
171
     0
290
     0
174
     0
 93
        1
 44
0.0
173
     0
291
     1
 45
0.0
1001
ACAD
1000
AcDbSavedByObjectVersion
1070
     0
  0
VISUALSTYLE
  5
122
102
{ACAD_REACTORS
330
118
102
}
102
{ACAD_XDICTIONARY
360
14E
102
}
330
118
100
AcDbVisualStyle
  2
Conceptual
 70
     9
 71
     3
 72
     2
 73
     0
 90
        0
 40
-0.6
 41
-30.0
 62
     5
 63
     7
 74
     2
 91
        2
 64
     7
 65
   257
 75
     1
175
     1
 42
40.0
 92
        8
 66
     7
 43
1.0
 76
     1
 77
     6
 78
     2
 67
     7
 79
     3
170
     0
171
     0
290
     0
174
     0
 93
        1
 44
0.0
173
     0
291
     0
 45
0.0
1001
ACAD
1000
AcDbSavedByObjectVersion
1070
     0
  0
VISUALSTYLE
  5
123
102
{ACAD_REACTORS
330
118
102
}
102
{ACAD_XDICTIONARY
360
150
102
}
330
118
100
AcDbVisualStyle
  2
Dim
 70
    11
 71
     2
 72
     2
 73
     0
 90
        0
 40
-0.6
 41
-30.0
 62
     5
 63
     7
 74
     1
 91
        4
 64
     7
 65
   257
 75
     1
175
     1
 42
1.0
 92
        8
 66
     7
 43
1.0
 76
     1
 77
     6
 78
     2
 67
     7
 79
     5
170
     0
171
     0
290
     0
174
     0
 93
        1
 44
-50.0
173
     0
291
     1
 45
0.0
1001
ACAD
1000
AcDbSavedByObjectVersion
1070
     0
  0
VISUALSTYLE
  5
127
102
{ACAD_REACTORS
330
118
102
}
102
{ACAD_XDICTIONARY
360
158
102
}
330
118
100
AcDbVisualStyle
  2
Facepattern
 70
    15
 71
     2
 72
     2
 73
     0
 90
        0
 40
-0.6
 41
-30.0
 62
     5
 63
     7
 74
     1
 91
        4
 64
     7
 65
   257
 75
     1
175
     1
 42
1.0
 92
        8
 66
     7
 43
1.0
 76
     1
 77
     6
 78
     2
 67
     7
 79
     5
170
     0
171
     0
290
     0
174
     0
 93
        1
 44
0.0
173
     0
291
     1
 45
0.0
1001
ACAD
1000
AcDbSavedByObjectVersion
1070
     0
  0
VISUALSTYLE
  5
119
102
{ACAD_REACTORS
330
118
102
}
102
{ACAD_XDICTIONARY
360
13C
102
}
330
118
100
AcDbVisualStyle
  2
Flat
 70
     0
 71
     2
 72
     1
 73
     1
 90
        2
 40
-0.6
 41
30.0
 62
     5
 63
     7
 74
     0
 91
        4
 64
     7
 65
   257
 75
     1
175
     1
 42
1.0
 92
        8
 66
     7
 43
1.0
 76
     1
 77
     6
 78
     2
 67
     7
 79
     5
170
     0
171
     0
290
     0
174
     0
 93
       13
 44
0.0
173
     0
291
     1
 45
0.0
1001
ACAD
1000
AcDbSavedByObjectVersion
1070
     0
  0
VISUALSTYLE
  5
11A
102
{ACAD_REACTORS
330
118
102
}
102
{ACAD_XDICTIONARY
360
13E
102
}
330
118
100
AcDbVisualStyle
  2
FlatWithEdges
 70
     1
 71
     2
 72
     1
 73
     1
 90
        2
 40
-0.6
 41
30.0
 62
     5
 63
     7
 74
     1
 91
        4
 64
     7
 65
   257
 75
     1
175
     1
 42
1.0
 92
        0
 66
   257
 43
1.0
 76
     1
 77
     6
 78
     2
 67
     7
 79
     5
170
     0
171
     0
290
     0
174
     0
 93
       13
 44
0.0
173
     0
291
     1
 45
0.0
1001
ACAD
1000
AcDbSavedByObjectVersion
1070
     0
  0
VISUALSTYLE
  5
11B
102
{ACAD_REACTORS
330
118
102
}
102
{ACAD_XDICTIONARY
360
140
102
}
330
118
100
AcDbVisualStyle
  2
Gouraud
 70
     2
 71
     2
 72
     2
 73
     1
 90
        2
 40
-0.6
 41
30.0
 62
     5
 63
     7
 74
     0
 91
        4
 64
     7
 65
   257
 75
     1
175
     1
 42
1.0
 92
        0
 66
     7
 43
1.0
 76
     1
 77
     6
 78
     2
 67
     7
 79
     5
170
     0
171
     0
290
     0
174
     0
 93
       13
 44
0.0
173
     0
291
     1
 45
0.0
1001
ACAD
1000
AcDbSavedByObjectVersion
1070
     0
  0
VISUALSTYLE
  5
11C
102
{ACAD_REACTORS
330
118
102
}
102
{ACAD_XDICTIONARY
360
142
102
}
330
118
100
AcDbVisualStyle
  2
GouraudWithEdges
 70
     3
 71
     2
 72
     2
 73
     1
 90
        2
 40
-0.6
 41
30.0
 62
     5
 63
     7
 74
     1
 91
        4
 64
     7
 65
   257
 75
     1
175
     1
 42
1.0
 92
        0
 66
   257
 43
1.0
 76
     1
 77
     6
 78
     2
 67
     7
 79
     5
170
     0
171
     0
290
     0
174
     0
 93
       13
 44
0.0
173
     0
291
     1
 45
0.0
1001
ACAD
1000
AcDbSavedByObjectVersion
1070
     0
  0
VISUALSTYLE
  5
126
102
{ACAD_REACTORS
330
118
102
}
102
{ACAD_XDICTIONARY
360
156
102
}
330
118
100
AcDbVisualStyle
  2
Linepattern
 70
    14
 71
     2
 72
     2
 73
     0
 90
        0
 40
-0.6
 41
-30.0
 62
     5
 63
     7
 74
     1
 91
        4
 64
     7
 65
   257
 75
     7
175
     7
 42
1.0
 92
        8
 66
     7
 43
1.0
 76
     1
 77
     6
 78
     2
 67
     7
 79
     5
170
     0
171
     0
290
     0
174
     0
 93
        1
 44
0.0
173
     0
291
     1
 45
0.0
1001
ACAD
1000
AcDbSavedByObjectVersion
1070
     0
  0
VISUALSTYLE
  5
121
102
{ACAD_REACTORS
330
118
102
}
102
{ACAD_XDICTIONARY
360
14C
102
}
330
118
100
AcDbVisualStyle
  2
Realistic
 70
     8
 71
     2
 72
     2
 73
     0
 90
        0
 40
-0.6
 41
-30.0
 62
     5
 63
     7
 74
     1
 91
        0
 64
     7
 65
   257
 75
     1
175
     1
 42
1.0
 92
        8
 66
     8
 43
1.0
 76
     1
 77
     6
 78
     2
 67
     7
 79
     5
170
     0
171
     0
290
     0
174
     0
 93
       13
 44
0.0
173
     0
291
     0
 45
0.0
1001
ACAD
1000
AcDbSavedByObjectVersion
1070
     0
  0
VISUALSTYLE
  5
125
102
{ACAD_REACTORS
330
118
102
}
102
{ACAD_XDICTIONARY
360
154
102
}
330
118
100
AcDbVisualStyle
  2
Thicken
 70
    13
 71
     2
 72
     2
 73
     0
 90
        0
 40
-0.6
 41
-30.0
 62
     5
 63
     7
 74
     1
 91
        4
 64
     7
 65
   257
 75
     1
175
     1
 42
1.0
 92
       12
 66
     7
 43
1.0
 76
     1
 77
     6
 78
     2
 67
     7
 79
     5
170
     0
171
     0
290
     0
174
     0
 93
        1
 44
0.0
173
     0
291
     1
 45
0.0
1001
ACAD
1000
AcDbSavedByObjectVersion
1070
     0
  0
DICTIONARYVAR
  5
13B
102
{ACAD_REACTORS
330
133
102
}
330
133
100
DictionaryVariables
280
     0
  1
1:1
  0
DICTIONARYVAR
  5
137
102
{ACAD_REACTORS
330
133
102
}
330
133
100
DictionaryVariables
280
     0
  1
2
  0
DICTIONARYVAR
  5
138
102
{ACAD_REACTORS
330
133
102
}
330
133
100
DictionaryVariables
280
     0
  1
1
  0
DICTIONARYVAR
  5
136
102
{ACAD_REACTORS
330
133
102
}
330
133
100
DictionaryVariables
280
     0
  1
0
  0
DICTIONARY
  5
15E
330
12B
100
AcDbDictionary
280
     1
281
     1
  3
ACAD_XREC_ROUNDTRIP
360
15F
  0
DICTIONARY
  5
15C
330
12A
100
AcDbDictionary
280
     1
281
     1
  3
ACAD_XREC_ROUNDTRIP
360
15D
  0
DICTIONARY
  5
160
330
12C
100
AcDbDictionary
280
     1
281
     1
  3
ACAD_XREC_ROUNDTRIP
360
161
  0
DICTIONARY
  5
144
330
11D
100
AcDbDictionary
280
     1
281
     1
  3
ACAD_XREC_ROUNDTRIP
360
145
  0
DICTIONARY
  5
148
330
11F
100
AcDbDictionary
280
     1
281
     1
  3
ACAD_XREC_ROUNDTRIP
360
149
  0
DICTIONARY
  5
146
330
11E
100
AcDbDictionary
280
     1
281
     1
  3
ACAD_XREC_ROUNDTRIP
360
147
  0
DICTIONARY
  5
14A
330
120
100
AcDbDictionary
280
     1
281
     1
  3
ACAD_XREC_ROUNDTRIP
360
14B
  0
DICTIONARY
  5
152
330
124
100
AcDbDictionary
280
     1
281
     1
  3
ACAD_XREC_ROUNDTRIP
360
153
  0
DICTIONARY
  5
15A
330
128
100
AcDbDictionary
280
     1
281
     1
  3
ACAD_XREC_ROUNDTRIP
360
15B
  0
DICTIONARY
  5
14E
330
122
100
AcDbDictionary
280
     1
281
     1
  3
ACAD_XREC_ROUNDTRIP
360
14F
  0
DICTIONARY
  5
150
330
123
100
AcDbDictionary
280
     1
281
     1
  3
ACAD_XREC_ROUNDTRIP
360
151
  0
DICTIONARY
  5
158
330
127
100
AcDbDictionary
280
     1
281
     1
  3
ACAD_XREC_ROUNDTRIP
360
159
  0
DICTIONARY
  5
13C
330
119
100
AcDbDictionary
280
     1
281
     1
  3
ACAD_XREC_ROUNDTRIP
360
13D
  0
DICTIONARY
  5
13E
330
11A
100
AcDbDictionary
280
     1
281
     1
  3
ACAD_XREC_ROUNDTRIP
360
13F
  0
DICTIONARY
  5
140
330
11B
100
AcDbDictionary
280
     1
281
     1
  3
ACAD_XREC_ROUNDTRIP
360
141
  0
DICTIONARY
  5
142
330
11C
100
AcDbDictionary
280
     1
281
     1
  3
ACAD_XREC_ROUNDTRIP
360
143
  0
DICTIONARY
  5
156
330
126
100
AcDbDictionary
280
     1
281
     1
  3
ACAD_XREC_ROUNDTRIP
360
157
  0
DICTIONARY
  5
14C
330
121
100
AcDbDictionary
280
     1
281
     1
  3
ACAD_XREC_ROUNDTRIP
360
14D
  0
DICTIONARY
  5
154
330
125
100
AcDbDictionary
280
     1
281
     1
  3
ACAD_XREC_ROUNDTRIP
360
155
  0
XRECORD
  5
15F
102
{ACAD_REACTORS
330
15E
102
}
330
15E
100
AcDbXrecord
280
     1
102
MATERIAL
148
0.0
149
0.0
149
0.0
 93
        0
 94
      127
282
     0
 72
     1
 77
     1
171
     1
175
     1
179
     1
273
     0
  0
XRECORD
  5
15D
102
{ACAD_REACTORS
330
15C
102
}
330
15C
100
AcDbXrecord
280
     1
102
MATERIAL
148
0.0
149
0.0
149
0.0
 93
        0
 94
      127
282
     0
 72
     1
 77
     1
171
     1
175
     1
179
     1
273
     0
  0
XRECORD
  5
161
102
{ACAD_REACTORS
330
160
102
}
330
160
100
AcDbXrecord
280
     1
102
MATERIAL
148
0.0
149
0.0
149
0.0
 93
        0
 94
      127
282
     0
 72
     1
 77
     1
171
     1
175
     1
179
     1
273
     0
  0
XRECORD
  5
145
102
{ACAD_REACTORS
330
144
102
}
330
144
100
AcDbXrecord
280
     1
102
RTVSPropertyOp0
 70
     1
102
RTVSPropertyOp1
 70
     1
102
RTVSPropertyOp2
 70
     1
102
RTVSPropertyOp3
 70
     1
102
RTVSPropertyOp4
 70
     1
102
RTVSPropertyOp5
 70
     1
102
RTVSPropertyOp6
 70
     1
102
RTVSPropertyOp7
 70
     1
102
RTVSPropertyOp8
 70
     1
102
RTVSPropertyOp9
 70
     1
102
RTVSPropertyOp10
 70
     1
102
RTVSPropertyOp11
 70
     1
102
RTVSPropertyOp12
 70
     1
102
RTVSPropertyOp13
 70
     1
102
RTVSPropertyOp14
 70
     1
102
RTVSPropertyOp15
 70
     1
102
RTVSPropertyOp16
 70
     1
102
RTVSPropertyOp17
 70
     1
102
RTVSPropertyOp18
 70
     1
102
RTVSPropertyOp19
 70
     1
102
RTVSPropertyOp20
 70
     1
102
RTVSPropertyOp21
 70
     1
102
RTVSPropertyOp22
 70
     1
102
RTVSPropertyOp23
 70
     1
102
RTVSPropertyOp24
 70
     1
102
RTVSPropertyOp25
 70
     1
102
RTVSPropertyOp26
 70
     1
102
RTVSPropertyOp27
 70
     1
102
RTVSPropertyOp28
 70
     1
102
RTVSPropertyOp29
 70
     1
102
RTVSPropertyOp30
 70
     1
102
RTVSPropertyOp31
 70
     1
102
RTVSPropertyOp32
 70
     1
  0
XRECORD
  5
149
102
{ACAD_REACTORS
330
148
102
}
330
148
100
AcDbXrecord
280
     1
102
RTVSPropertyOp0
 70
     1
102
RTVSPropertyOp1
 70
     1
102
RTVSPropertyOp2
 70
     1
102
RTVSPropertyOp3
 70
     1
102
RTVSPropertyOp4
 70
     1
102
RTVSPropertyOp5
 70
     1
102
RTVSPropertyOp6
 70
     1
102
RTVSPropertyOp7
 70
     1
102
RTVSPropertyOp8
 70
     1
102
RTVSPropertyOp9
 70
     1
102
RTVSPropertyOp10
 70
     1
102
RTVSPropertyOp11
 70
     1
102
RTVSPropertyOp12
 70
     1
102
RTVSPropertyOp13
 70
     1
102
RTVSPropertyOp14
 70
     1
102
RTVSPropertyOp15
 70
     1
102
RTVSPropertyOp16
 70
     1
102
RTVSPropertyOp17
 70
     1
102
RTVSPropertyOp18
 70
     1
102
RTVSPropertyOp19
 70
     1
102
RTVSPropertyOp20
 70
     1
102
RTVSPropertyOp21
 70
     1
102
RTVSPropertyOp22
 70
     1
102
RTVSPropertyOp23
 70
     1
102
RTVSPropertyOp24
 70
     1
102
RTVSPropertyOp25
 70
     1
102
RTVSPropertyOp26
 70
     1
102
RTVSPropertyOp27
 70
     1
102
RTVSPropertyOp28
 70
     1
102
RTVSPropertyOp29
 70
     1
102
RTVSPropertyOp30
 70
     1
102
RTVSPropertyOp31
 70
     1
102
RTVSPropertyOp32
 70
     1
  0
XRECORD
  5
147
102
{ACAD_REACTORS
330
146
102
}
330
146
100
AcDbXrecord
280
     1
102
RTVSPropertyOp0
 70
     1
102
RTVSPropertyOp1
 70
     1
102
RTVSPropertyOp2
 70
     1
102
RTVSPropertyOp3
 70
     1
102
RTVSPropertyOp4
 70
     1
102
RTVSPropertyOp5
 70
     1
102
RTVSPropertyOp6
 70
     1
102
RTVSPropertyOp7
 70
     1
102
RTVSPropertyOp8
 70
     1
102
RTVSPropertyOp9
 70
     1
102
RTVSPropertyOp10
 70
     1
102
RTVSPropertyOp11
 70
     1
102
RTVSPropertyOp12
 70
     1
102
RTVSPropertyOp13
 70
     1
102
RTVSPropertyOp14
 70
     1
102
RTVSPropertyOp15
 70
     1
102
RTVSPropertyOp16
 70
     1
102
RTVSPropertyOp17
 70
     1
102
RTVSPropertyOp18
 70
     1
102
RTVSPropertyOp19
 70
     1
102
RTVSPropertyOp20
 70
     1
102
RTVSPropertyOp21
 70
     1
102
RTVSPropertyOp22
 70
     1
102
RTVSPropertyOp23
 70
     1
102
RTVSPropertyOp24
 70
     1
102
RTVSPropertyOp25
 70
     1
102
RTVSPropertyOp26
 70
     1
102
RTVSPropertyOp27
 70
     1
102
RTVSPropertyOp28
 70
     1
102
RTVSPropertyOp29
 70
     1
102
RTVSPropertyOp30
 70
     1
102
RTVSPropertyOp31
 70
     1
102
RTVSPropertyOp32
 70
     1
  0
XRECORD
  5
14B
102
{ACAD_REACTORS
330
14A
102
}
330
14A
100
AcDbXrecord
280
     1
102
RTVSPropertyOp0
 70
     1
102
RTVSPropertyOp1
 70
     1
102
RTVSPropertyOp2
 70
     1
102
RTVSPropertyOp3
 70
     1
102
RTVSPropertyOp4
 70
     1
102
RTVSPropertyOp5
 70
     1
102
RTVSPropertyOp6
 70
     1
102
RTVSPropertyOp7
 70
     1
102
RTVSPropertyOp8
 70
     1
102
RTVSPropertyOp9
 70
     1
102
RTVSPropertyOp10
 70
     1
102
RTVSPropertyOp11
 70
     1
102
RTVSPropertyOp12
 70
     1
102
RTVSPropertyOp13
 70
     1
102
RTVSPropertyOp14
 70
     1
102
RTVSPropertyOp15
 70
     1
102
RTVSPropertyOp16
 70
     1
102
RTVSPropertyOp17
 70
     1
102
RTVSPropertyOp18
 70
     1
102
RTVSPropertyOp19
 70
     1
102
RTVSPropertyOp20
 70
     1
102
RTVSPropertyOp21
 70
     1
102
RTVSPropertyOp22
 70
     1
102
RTVSPropertyOp23
 70
     1
102
RTVSPropertyOp24
 70
     1
102
RTVSPropertyOp25
 70
     1
102
RTVSPropertyOp26
 70
     1
102
RTVSPropertyOp27
 70
     1
102
RTVSPropertyOp28
 70
     1
102
RTVSPropertyOp29
 70
     1
102
RTVSPropertyOp30
 70
     1
102
RTVSPropertyOp31
 70
     1
102
RTVSPropertyOp32
 70
     1
  0
XRECORD
  5
153
102
{ACAD_REACTORS
330
152
102
}
330
152
100
AcDbXrecord
280
     1
102
RTVSPropertyOp0
 70
     1
102
RTVSPropertyOp1
 70
     1
102
RTVSPropertyOp2
 70
     1
102
RTVSPropertyOp3
 70
     1
102
RTVSPropertyOp4
 70
     1
102
RTVSPropertyOp5
 70
     1
102
RTVSPropertyOp6
 70
     1
102
RTVSPropertyOp7
 70
     1
102
RTVSPropertyOp8
 70
     1
102
RTVSPropertyOp9
 70
     1
102
RTVSPropertyOp10
 70
     1
102
RTVSPropertyOp11
 70
     1
102
RTVSPropertyOp12
 70
     1
102
RTVSPropertyOp13
 70
     1
102
RTVSPropertyOp14
 70
     1
102
RTVSPropertyOp15
 70
     1
102
RTVSPropertyOp16
 70
     1
102
RTVSPropertyOp17
 70
     1
102
RTVSPropertyOp18
 70
     1
102
RTVSPropertyOp19
 70
     1
102
RTVSPropertyOp20
 70
     1
102
RTVSPropertyOp21
 70
     1
102
RTVSPropertyOp22
 70
     1
102
RTVSPropertyOp23
 70
     1
102
RTVSPropertyOp24
 70
     1
102
RTVSPropertyOp25
 70
     1
102
RTVSPropertyOp26
 70
     1
102
RTVSPropertyOp27
 70
     1
102
RTVSPropertyOp28
 70
     1
102
RTVSPropertyOp29
 70
     1
102
RTVSPropertyOp30
 70
     1
102
RTVSPropertyOp31
 70
     1
102
RTVSPropertyOp32
 70
     1
  0
XRECORD
  5
15B
102
{ACAD_REACTORS
330
15A
102
}
330
15A
100
AcDbXrecord
280
     1
102
RTVSPropertyOp0
 70
     1
102
RTVSPropertyOp1
 70
     1
102
RTVSPropertyOp2
 70
     1
102
RTVSPropertyOp3
 70
     1
102
RTVSPropertyOp4
 70
     1
102
RTVSPropertyOp5
 70
     1
102
RTVSPropertyOp6
 70
     1
102
RTVSPropertyOp7
 70
     1
102
RTVSPropertyOp8
 70
     1
102
RTVSPropertyOp9
 70
     1
102
RTVSPropertyOp10
 70
     1
102
RTVSPropertyOp11
 70
     1
102
RTVSPropertyOp12
 70
     1
102
RTVSPropertyOp13
 70
     1
102
RTVSPropertyOp14
 70
     1
102
RTVSPropertyOp15
 70
     1
102
RTVSPropertyOp16
 70
     1
102
RTVSPropertyOp17
 70
     1
102
RTVSPropertyOp18
 70
     1
102
RTVSPropertyOp19
 70
     1
102
RTVSPropertyOp20
 70
     1
102
RTVSPropertyOp21
 70
     1
102
RTVSPropertyOp22
 70
     1
102
RTVSPropertyOp23
 70
     1
102
RTVSPropertyOp24
 70
     1
102
RTVSPropertyOp25
 70
     1
102
RTVSPropertyOp26
 70
     1
102
RTVSPropertyOp27
 70
     1
102
RTVSPropertyOp28
 70
     1
102
RTVSPropertyOp29
 70
     1
102
RTVSPropertyOp30
 70
     1
102
RTVSPropertyOp31
 70
     1
102
RTVSPropertyOp32
 70
     1
  0
XRECORD
  5
14F
102
{ACAD_REACTORS
330
14E
102
}
330
14E
100
AcDbXrecord
280
     1
102
RTVSPropertyOp0
 70
     1
102
RTVSPropertyOp1
 70
     1
102
RTVSPropertyOp2
 70
     1
102
RTVSPropertyOp3
 70
     1
102
RTVSPropertyOp4
 70
     1
102
RTVSPropertyOp5
 70
     1
102
RTVSPropertyOp6
 70
     1
102
RTVSPropertyOp7
 70
     1
102
RTVSPropertyOp8
 70
     1
102
RTVSPropertyOp9
 70
     1
102
RTVSPropertyOp10
 70
     1
102
RTVSPropertyOp11
 70
     1
102
RTVSPropertyOp12
 70
     1
102
RTVSPropertyOp13
 70
     1
102
RTVSPropertyOp14
 70
     1
102
RTVSPropertyOp15
 70
     1
102
RTVSPropertyOp16
 70
     1
102
RTVSPropertyOp17
 70
     1
102
RTVSPropertyOp18
 70
     1
102
RTVSPropertyOp19
 70
     1
102
RTVSPropertyOp20
 70
     1
102
RTVSPropertyOp21
 70
     1
102
RTVSPropertyOp22
 70
     1
102
RTVSPropertyOp23
 70
     1
102
RTVSPropertyOp24
 70
     1
102
RTVSPropertyOp25
 70
     1
102
RTVSPropertyOp26
 70
     1
102
RTVSPropertyOp27
 70
     1
102
RTVSPropertyOp28
 70
     1
102
RTVSPropertyOp29
 70
     1
102
RTVSPropertyOp30
 70
     1
102
RTVSPropertyOp31
 70
     1
102
RTVSPropertyOp32
 70
     1
  0
XRECORD
  5
151
102
{ACAD_REACTORS
330
150
102
}
330
150
100
AcDbXrecord
280
     1
102
RTVSPropertyOp0
 70
     1
102
RTVSPropertyOp1
 70
     1
102
RTVSPropertyOp2
 70
     1
102
RTVSPropertyOp3
 70
     1
102
RTVSPropertyOp4
 70
     1
102
RTVSPropertyOp5
 70
     1
102
RTVSPropertyOp6
 70
     1
102
RTVSPropertyOp7
 70
     1
102
RTVSPropertyOp8
 70
     1
102
RTVSPropertyOp9
 70
     1
102
RTVSPropertyOp10
 70
     1
102
RTVSPropertyOp11
 70
     1
102
RTVSPropertyOp12
 70
     1
102
RTVSPropertyOp13
 70
     1
102
RTVSPropertyOp14
 70
     1
102
RTVSPropertyOp15
 70
     1
102
RTVSPropertyOp16
 70
     1
102
RTVSPropertyOp17
 70
     1
102
RTVSPropertyOp18
 70
     1
102
RTVSPropertyOp19
 70
     1
102
RTVSPropertyOp20
 70
     1
102
RTVSPropertyOp21
 70
     1
102
RTVSPropertyOp22
 70
     1
102
RTVSPropertyOp23
 70
     1
102
RTVSPropertyOp24
 70
     1
102
RTVSPropertyOp25
 70
     1
102
RTVSPropertyOp26
 70
     1
102
RTVSPropertyOp27
 70
     1
102
RTVSPropertyOp28
 70
     1
102
RTVSPropertyOp29
 70
     1
102
RTVSPropertyOp30
 70
     1
102
RTVSPropertyOp31
 70
     1
102
RTVSPropertyOp32
 70
     1
  0
XRECORD
  5
159
102
{ACAD_REACTORS
330
158
102
}
330
158
100
AcDbXrecord
280
     1
102
RTVSPropertyOp0
 70
     1
102
RTVSPropertyOp1
 70
     1
102
RTVSPropertyOp2
 70
     1
102
RTVSPropertyOp3
 70
     1
102
RTVSPropertyOp4
 70
     1
102
RTVSPropertyOp5
 70
     1
102
RTVSPropertyOp6
 70
     1
102
RTVSPropertyOp7
 70
     1
102
RTVSPropertyOp8
 70
     1
102
RTVSPropertyOp9
 70
     1
102
RTVSPropertyOp10
 70
     1
102
RTVSPropertyOp11
 70
     1
102
RTVSPropertyOp12
 70
     1
102
RTVSPropertyOp13
 70
     1
102
RTVSPropertyOp14
 70
     1
102
RTVSPropertyOp15
 70
     1
102
RTVSPropertyOp16
 70
     1
102
RTVSPropertyOp17
 70
     1
102
RTVSPropertyOp18
 70
     1
102
RTVSPropertyOp19
 70
     1
102
RTVSPropertyOp20
 70
     1
102
RTVSPropertyOp21
 70
     1
102
RTVSPropertyOp22
 70
     1
102
RTVSPropertyOp23
 70
     1
102
RTVSPropertyOp24
 70
     1
102
RTVSPropertyOp25
 70
     1
102
RTVSPropertyOp26
 70
     1
102
RTVSPropertyOp27
 70
     1
102
RTVSPropertyOp28
 70
     1
102
RTVSPropertyOp29
 70
     1
102
RTVSPropertyOp30
 70
     1
102
RTVSPropertyOp31
 70
     1
102
RTVSPropertyOp32
 70
     1
  0
XRECORD
  5
13D
102
{ACAD_REACTORS
330
13C
102
}
330
13C
100
AcDbXrecord
280
     1
102
RTVSPropertyOp0
 70
     1
102
RTVSPropertyOp1
 70
     1
102
RTVSPropertyOp2
 70
     1
102
RTVSPropertyOp3
 70
     1
102
RTVSPropertyOp4
 70
     1
102
RTVSPropertyOp5
 70
     1
102
RTVSPropertyOp6
 70
     1
102
RTVSPropertyOp7
 70
     1
102
RTVSPropertyOp8
 70
     1
102
RTVSPropertyOp9
 70
     1
102
RTVSPropertyOp10
 70
     1
102
RTVSPropertyOp11
 70
     1
102
RTVSPropertyOp12
 70
     1
102
RTVSPropertyOp13
 70
     1
102
RTVSPropertyOp14
 70
     1
102
RTVSPropertyOp15
 70
     1
102
RTVSPropertyOp16
 70
     1
102
RTVSPropertyOp17
 70
     1
102
RTVSPropertyOp18
 70
     1
102
RTVSPropertyOp19
 70
     1
102
RTVSPropertyOp20
 70
     1
102
RTVSPropertyOp21
 70
     1
102
RTVSPropertyOp22
 70
     1
102
RTVSPropertyOp23
 70
     1
102
RTVSPropertyOp24
 70
     1
102
RTVSPropertyOp25
 70
     1
102
RTVSPropertyOp26
 70
     1
102
RTVSPropertyOp27
 70
     1
102
RTVSPropertyOp28
 70
     1
102
RTVSPropertyOp29
 70
     1
102
RTVSPropertyOp30
 70
     1
102
RTVSPropertyOp31
 70
     1
102
RTVSPropertyOp32
 70
     1
  0
XRECORD
  5
13F
102
{ACAD_REACTORS
330
13E
102
}
330
13E
100
AcDbXrecord
280
     1
102
RTVSPropertyOp0
 70
     1
102
RTVSPropertyOp1
 70
     1
102
RTVSPropertyOp2
 70
     1
102
RTVSPropertyOp3
 70
     1
102
RTVSPropertyOp4
 70
     1
102
RTVSPropertyOp5
 70
     1
102
RTVSPropertyOp6
 70
     1
102
RTVSPropertyOp7
 70
     1
102
RTVSPropertyOp8
 70
     1
102
RTVSPropertyOp9
 70
     1
102
RTVSPropertyOp10
 70
     1
102
RTVSPropertyOp11
 70
     1
102
RTVSPropertyOp12
 70
     1
102
RTVSPropertyOp13
 70
     1
102
RTVSPropertyOp14
 70
     1
102
RTVSPropertyOp15
 70
     1
102
RTVSPropertyOp16
 70
     1
102
RTVSPropertyOp17
 70
     1
102
RTVSPropertyOp18
 70
     1
102
RTVSPropertyOp19
 70
     1
102
RTVSPropertyOp20
 70
     1
102
RTVSPropertyOp21
 70
     1
102
RTVSPropertyOp22
 70
     1
102
RTVSPropertyOp23
 70
     1
102
RTVSPropertyOp24
 70
     1
102
RTVSPropertyOp25
 70
     1
102
RTVSPropertyOp26
 70
     1
102
RTVSPropertyOp27
 70
     1
102
RTVSPropertyOp28
 70
     1
102
RTVSPropertyOp29
 70
     1
102
RTVSPropertyOp30
 70
     1
102
RTVSPropertyOp31
 70
     1
102
RTVSPropertyOp32
 70
     1
  0
XRECORD
  5
141
102
{ACAD_REACTORS
330
140
102
}
330
140
100
AcDbXrecord
280
     1
102
RTVSPropertyOp0
 70
     1
102
RTVSPropertyOp1
 70
     1
102
RTVSPropertyOp2
 70
     1
102
RTVSPropertyOp3
 70
     1
102
RTVSPropertyOp4
 70
     1
102
RTVSPropertyOp5
 70
     1
102
RTVSPropertyOp6
 70
     1
102
RTVSPropertyOp7
 70
     1
102
RTVSPropertyOp8
 70
     1
102
RTVSPropertyOp9
 70
     1
102
RTVSPropertyOp10
 70
     1
102
RTVSPropertyOp11
 70
     1
102
RTVSPropertyOp12
 70
     1
102
RTVSPropertyOp13
 70
     1
102
RTVSPropertyOp14
 70
     1
102
RTVSPropertyOp15
 70
     1
102
RTVSPropertyOp16
 70
     1
102
RTVSPropertyOp17
 70
     1
102
RTVSPropertyOp18
 70
     1
102
RTVSPropertyOp19
 70
     1
102
RTVSPropertyOp20
 70
     1
102
RTVSPropertyOp21
 70
     1
102
RTVSPropertyOp22
 70
     1
102
RTVSPropertyOp23
 70
     1
102
RTVSPropertyOp24
 70
     1
102
RTVSPropertyOp25
 70
     1
102
RTVSPropertyOp26
 70
     1
102
RTVSPropertyOp27
 70
     1
102
RTVSPropertyOp28
 70
     1
102
RTVSPropertyOp29
 70
     1
102
RTVSPropertyOp30
 70
     1
102
RTVSPropertyOp31
 70
     1
102
RTVSPropertyOp32
 70
     1
  0
XRECORD
  5
143
102
{ACAD_REACTORS
330
142
102
}
330
142
100
AcDbXrecord
280
     1
102
RTVSPropertyOp0
 70
     1
102
RTVSPropertyOp1
 70
     1
102
RTVSPropertyOp2
 70
     1
102
RTVSPropertyOp3
 70
     1
102
RTVSPropertyOp4
 70
     1
102
RTVSPropertyOp5
 70
     1
102
RTVSPropertyOp6
 70
     1
102
RTVSPropertyOp7
 70
     1
102
RTVSPropertyOp8
 70
     1
102
RTVSPropertyOp9
 70
     1
102
RTVSPropertyOp10
 70
     1
102
RTVSPropertyOp11
 70
     1
102
RTVSPropertyOp12
 70
     1
102
RTVSPropertyOp13
 70
     1
102
RTVSPropertyOp14
 70
     1
102
RTVSPropertyOp15
 70
     1
102
RTVSPropertyOp16
 70
     1
102
RTVSPropertyOp17
 70
     1
102
RTVSPropertyOp18
 70
     1
102
RTVSPropertyOp19
 70
     1
102
RTVSPropertyOp20
 70
     1
102
RTVSPropertyOp21
 70
     1
102
RTVSPropertyOp22
 70
     1
102
RTVSPropertyOp23
 70
     1
102
RTVSPropertyOp24
 70
     1
102
RTVSPropertyOp25
 70
     1
102
RTVSPropertyOp26
 70
     1
102
RTVSPropertyOp27
 70
     1
102
RTVSPropertyOp28
 70
     1
102
RTVSPropertyOp29
 70
     1
102
RTVSPropertyOp30
 70
     1
102
RTVSPropertyOp31
 70
     1
102
RTVSPropertyOp32
 70
     1
  0
XRECORD
  5
157
102
{ACAD_REACTORS
330
156
102
}
330
156
100
AcDbXrecord
280
     1
102
RTVSPropertyOp0
 70
     1
102
RTVSPropertyOp1
 70
     1
102
RTVSPropertyOp2
 70
     1
102
RTVSPropertyOp3
 70
     1
102
RTVSPropertyOp4
 70
     1
102
RTVSPropertyOp5
 70
     1
102
RTVSPropertyOp6
 70
     1
102
RTVSPropertyOp7
 70
     1
102
RTVSPropertyOp8
 70
     1
102
RTVSPropertyOp9
 70
     1
102
RTVSPropertyOp10
 70
     1
102
RTVSPropertyOp11
 70
     1
102
RTVSPropertyOp12
 70
     1
102
RTVSPropertyOp13
 70
     1
102
RTVSPropertyOp14
 70
     1
102
RTVSPropertyOp15
 70
     1
102
RTVSPropertyOp16
 70
     1
102
RTVSPropertyOp17
 70
     1
102
RTVSPropertyOp18
 70
     1
102
RTVSPropertyOp19
 70
     1
102
RTVSPropertyOp20
 70
     1
102
RTVSPropertyOp21
 70
     1
102
RTVSPropertyOp22
 70
     1
102
RTVSPropertyOp23
 70
     1
102
RTVSPropertyOp24
 70
     1
102
RTVSPropertyOp25
 70
     1
102
RTVSPropertyOp26
 70
     1
102
RTVSPropertyOp27
 70
     1
102
RTVSPropertyOp28
 70
     1
102
RTVSPropertyOp29
 70
     1
102
RTVSPropertyOp30
 70
     1
102
RTVSPropertyOp31
 70
     1
102
RTVSPropertyOp32
 70
     1
  0
XRECORD
  5
14D
102
{ACAD_REACTORS
330
14C
102
}
330
14C
100
AcDbXrecord
280
     1
102
RTVSPropertyOp0
 70
     1
102
RTVSPropertyOp1
 70
     1
102
RTVSPropertyOp2
 70
     1
102
RTVSPropertyOp3
 70
     1
102
RTVSPropertyOp4
 70
     1
102
RTVSPropertyOp5
 70
     1
102
RTVSPropertyOp6
 70
     1
102
RTVSPropertyOp7
 70
     1
102
RTVSPropertyOp8
 70
     1
102
RTVSPropertyOp9
 70
     1
102
RTVSPropertyOp10
 70
     1
102
RTVSPropertyOp11
 70
     1
102
RTVSPropertyOp12
 70
     1
102
RTVSPropertyOp13
 70
     1
102
RTVSPropertyOp14
 70
     1
102
RTVSPropertyOp15
 70
     1
102
RTVSPropertyOp16
 70
     1
102
RTVSPropertyOp17
 70
     1
102
RTVSPropertyOp18
 70
     1
102
RTVSPropertyOp19
 70
     1
102
RTVSPropertyOp20
 70
     1
102
RTVSPropertyOp21
 70
     1
102
RTVSPropertyOp22
 70
     1
102
RTVSPropertyOp23
 70
     1
102
RTVSPropertyOp24
 70
     1
102
RTVSPropertyOp25
 70
     1
102
RTVSPropertyOp26
 70
     1
102
RTVSPropertyOp27
 70
     1
102
RTVSPropertyOp28
 70
     1
102
RTVSPropertyOp29
 70
     1
102
RTVSPropertyOp30
 70
     1
102
RTVSPropertyOp31
 70
     1
102
RTVSPropertyOp32
 70
     1
  0
XRECORD
  5
155
102
{ACAD_REACTORS
330
154
102
}
330
154
100
AcDbXrecord
280
     1
102
RTVSPropertyOp0
 70
     1
102
RTVSPropertyOp1
 70
     1
102
RTVSPropertyOp2
 70
     1
102
RTVSPropertyOp3
 70
     1
102
RTVSPropertyOp4
 70
     1
102
RTVSPropertyOp5
 70
     1
102
RTVSPropertyOp6
 70
     1
102
RTVSPropertyOp7
 70
     1
102
RTVSPropertyOp8
 70
     1
102
RTVSPropertyOp9
 70
     1
102
RTVSPropertyOp10
 70
     1
102
RTVSPropertyOp11
 70
     1
102
RTVSPropertyOp12
 70
     1
102
RTVSPropertyOp13
 70
     1
102
RTVSPropertyOp14
 70
     1
102
RTVSPropertyOp15
 70
     1
102
RTVSPropertyOp16
 70
     1
102
RTVSPropertyOp17
 70
     1
102
RTVSPropertyOp18
 70
     1
102
RTVSPropertyOp19
 70
     1
102
RTVSPropertyOp20
 70
     1
102
RTVSPropertyOp21
 70
     1
102
RTVSPropertyOp22
 70
     1
102
RTVSPropertyOp23
 70
     1
102
RTVSPropertyOp24
 70
     1
102
RTVSPropertyOp25
 70
     1
102
RTVSPropertyOp26
 70
     1
102
RTVSPropertyOp27
 70
     1
102
RTVSPropertyOp28
 70
     1
102
RTVSPropertyOp29
 70
     1
102
RTVSPropertyOp30
 70
     1
102
RTVSPropertyOp31
 70
     1
102
RTVSPropertyOp32
 70
     1
  0
ENDSEC
  0
EOF
