  0
SECTION
  2
HEADER
  9
$ACADVER
  1
AC1027
  9
$ACADMAINTVER
 70
   105
  9
$DWGCODEPAGE
  3
ANSI_1252
  9
$REQUIREDVERSIONS
160
                 0
  9
$LASTSAVEDBY
  1
christoph.stuessi
  9
$INSBASE
 10
0.0
 20
0.0
 30
0.0
  9
$EXTMIN
 10
-122.5735932684682
 20
-86.09438913415532
 30
0.0
  9
$EXTMAX
 10
144.7307276444746
 20
89.5096994655975
 30
0.0
  9
$LIMMIN
 10
-81.793868366
 20
-54.170439602
  9
$LIMMAX
 10
102.97389072
 20
63.538170921
  9
$ORTHOMODE
 70
     0
  9
$REGENMODE
 70
     1
  9
$FILLMODE
 70
     1
  9
$QTEXTMODE
 70
     0
  9
$MIRRTEXT
 70
     1
  9
$LTSCALE
 40
1.0
  9
$ATTMODE
 70
     1
  9
$TEXTSIZE
 40
0.2
  9
$TRACEWID
 40
0.05
  9
$TEXTSTYLE
  7
Standard
  9
$CLAYER
  8
NOCUT
  9
$CELTYPE
  6
ByLayer
  9
$CECOLOR
 62
   256
  9
$CELTSCALE
 40
1.0
  9
$DISPSILH
 70
     0
  9
$DIMSCALE
 40
1.0
  9
$DIMASZ
 40
0.18
  9
$DIMEXO
 40
0.0625
  9
$DIMDLI
 40
0.38
  9
$DIMRND
 40
0.0
  9
$DIMDLE
 40
0.0
  9
$DIMEXE
 40
0.18
  9
$DIMTP
 40
0.0
  9
$DIMTM
 40
0.0
  9
$DIMTXT
 40
0.18
  9
$DIMCEN
 40
0.09
  9
$DIMTSZ
 40
0.0
  9
$DIMTOL
 70
     0
  9
$DIMLIM
 70
     0
  9
$DIMTIH
 70
     1
  9
$DIMTOH
 70
     1
  9
$DIMSE1
 70
     0
  9
$DIMSE2
 70
     0
  9
$DIMTAD
 70
     0
  9
$DIMZIN
 70
     0
  9
$DIMBLK
  1

  9
$DIMASO
 70
     1
  9
$DIMSHO
 70
     1
  9
$DIMPOST
  1

  9
$DIMAPOST
  1

  9
$DIMALT
 70
     0
  9
$DIMALTD
 70
     2
  9
$DIMALTF
 40
25.4
  9
$DIMLFAC
 40
1.0
  9
$DIMTOFL
 70
     0
  9
$DIMTVP
 40
0.0
  9
$DIMTIX
 70
     0
  9
$DIMSOXD
 70
     0
  9
$DIMSAH
 70
     0
  9
$DIMBLK1
  1

  9
$DIMBLK2
  1

  9
$DIMSTYLE
  2
Standard
  9
$DIMCLRD
 70
     0
  9
$DIMCLRE
 70
     0
  9
$DIMCLRT
 70
     0
  9
$DIMTFAC
 40
1.0
  9
$DIMGAP
 40
0.09
  9
$DIMJUST
 70
     0
  9
$DIMSD1
 70
     0
  9
$DIMSD2
 70
     0
  9
$DIMTOLJ
 70
     1
  9
$DIMTZIN
 70
     0
  9
$DIMALTZ
 70
     0
  9
$DIMALTTZ
 70
     0
  9
$DIMUPT
 70
     0
  9
$DIMDEC
 70
     4
  9
$DIMTDEC
 70
     4
  9
$DIMALTU
 70
     2
  9
$DIMALTTD
 70
     2
  9
$DIMTXSTY
  7
Standard
  9
$DIMAUNIT
 70
     0
  9
$DIMADEC
 70
     0
  9
$DIMALTRND
 40
0.0
  9
$DIMAZIN
 70
     0
  9
$DIMDSEP
 70
    46
  9
$DIMATFIT
 70
     3
  9
$DIMFRAC
 70
     0
  9
$DIMLDRBLK
  1

  9
$DIMLUNIT
 70
     2
  9
$DIMLWD
 70
    -2
  9
$DIMLWE
 70
    -2
  9
$DIMTMOVE
 70
     2
  9
$DIMFXL
 40
1.0
  9
$DIMFXLON
 70
     0
  9
$DIMJOGANG
 40
0.7853981633974483
  9
$DIMTFILL
 70
     0
  9
$DIMTFILLCLR
 70
     0
  9
$DIMARCSYM
 70
     0
  9
$DIMLTYPE
  6

  9
$DIMLTEX1
  6

  9
$DIMLTEX2
  6

  9
$DIMTXTDIRECTION
 70
     0
  9
$LUNITS
 70
     2
  9
$LUPREC
 70
     4
  9
$SKETCHINC
 40
0.1
  9
$FILLETRAD
 40
0.5
  9
$AUNITS
 70
     2
  9
$AUPREC
 70
     0
  9
$MENU
  1
.
  9
$ELEVATION
 40
0.0
  9
$PELEVATION
 40
0.0
  9
$THICKNESS
 40
0.0
  9
$LIMCHECK
 70
     0
  9
$CHAMFERA
 40
0.5
  9
$CHAMFERB
 40
0.5
  9
$CHAMFERC
 40
1.0
  9
$CHAMFERD
 40
0.0
  9
$SKPOLY
 70
     0
  9
$TDCREATE
 40
2458327.507648391
  9
$TDUCREATE
 40
2458327.465981725
  9
$TDUPDATE
 40
2458495.615435613
  9
$TDUUPDATE
 40
2458495.573768947
  9
$TDINDWG
 40
0.0076880671
  9
$TDUSRTIMER
 40
0.0172992361
  9
$USRTIMER
 70
     1
  9
$ANGBASE
 50
0.0
  9
$ANGDIR
 70
     0
  9
$PDMODE
 70
     0
  9
$PDSIZE
 40
0.0
  9
$PLINEWID
 40
0.0
  9
$SPLFRAME
 70
     0
  9
$SPLINETYPE
 70
     6
  9
$SPLINESEGS
 70
     8
  9
$HANDSEED
  5
268
  9
$SURFTAB1
 70
     6
  9
$SURFTAB2
 70
     6
  9
$SURFTYPE
 70
     6
  9
$SURFU
 70
     6
  9
$SURFV
 70
     6
  9
$UCSBASE
  2

  9
$UCSNAME
  2

  9
$UCSORG
 10
0.0
 20
0.0
 30
0.0
  9
$UCSXDIR
 10
1.0
 20
0.0
 30
0.0
  9
$UCSYDIR
 10
0.0
 20
1.0
 30
0.0
  9
$UCSORTHOREF
  2

  9
$UCSORTHOVIEW
 70
     0
  9
$UCSORGTOP
 10
0.0
 20
0.0
 30
0.0
  9
$UCSORGBOTTOM
 10
0.0
 20
0.0
 30
0.0
  9
$UCSORGLEFT
 10
0.0
 20
0.0
 30
0.0
  9
$UCSORGRIGHT
 10
0.0
 20
0.0
 30
0.0
  9
$UCSORGFRONT
 10
0.0
 20
0.0
 30
0.0
  9
$UCSORGBACK
 10
0.0
 20
0.0
 30
0.0
  9
$PUCSBASE
  2

  9
$PUCSNAME
  2

  9
$PUCSORG
 10
0.0
 20
0.0
 30
0.0
  9
$PUCSXDIR
 10
1.0
 20
0.0
 30
0.0
  9
$PUCSYDIR
 10
0.0
 20
1.0
 30
0.0
  9
$PUCSORTHOREF
  2

  9
$PUCSORTHOVIEW
 70
     0
  9
$PUCSORGTOP
 10
0.0
 20
0.0
 30
0.0
  9
$PUCSORGBOTTOM
 10
0.0
 20
0.0
 30
0.0
  9
$PUCSORGLEFT
 10
0.0
 20
0.0
 30
0.0
  9
$PUCSORGRIGHT
 10
0.0
 20
0.0
 30
0.0
  9
$PUCSORGFRONT
 10
0.0
 20
0.0
 30
0.0
  9
$PUCSORGBACK
 10
0.0
 20
0.0
 30
0.0
  9
$USERI1
 70
     0
  9
$USERI2
 70
     0
  9
$USERI3
 70
     0
  9
$USERI4
 70
     0
  9
$USERI5
 70
     0
  9
$USERR1
 40
0.0
  9
$USERR2
 40
0.0
  9
$USERR3
 40
0.0
  9
$USERR4
 40
0.0
  9
$USERR5
 40
0.0
  9
$WORLDVIEW
 70
     1
  9
$SHADEDGE
 70
     3
  9
$SHADEDIF
 70
    70
  9
$TILEMODE
 70
     1
  9
$MAXACTVP
 70
    64
  9
$PINSBASE
 10
0.0
 20
0.0
 30
0.0
  9
$PLIMCHECK
 70
     0
  9
$PEXTMIN
 10
1.000000000000000E+20
 20
1.000000000000000E+20
 30
1.000000000000000E+20
  9
$PEXTMAX
 10
-1.000000000000000E+20
 20
-1.000000000000000E+20
 30
-1.000000000000000E+20
  9
$PLIMMIN
 10
0.0
 20
0.0
  9
$PLIMMAX
 10
0.0
 20
0.0
  9
$UNITMODE
 70
     0
  9
$VISRETAIN
 70
     1
  9
$PLINEGEN
 70
     0
  9
$PSLTSCALE
 70
     1
  9
$TREEDEPTH
 70
  3020
  9
$CMLSTYLE
  2
Standard
  9
$CMLJUST
 70
     0
  9
$CMLSCALE
 40
1.0
  9
$PROXYGRAPHICS
 70
     1
  9
$MEASUREMENT
 70
     0
  9
$CELWEIGHT
370
    -1
  9
$ENDCAPS
280
     0
  9
$JOINSTYLE
280
     0
  9
$LWDISPLAY
290
     0
  9
$INSUNITS
 70
     0
  9
$HYPERLINKBASE
  1

  9
$STYLESHEET
  1

  9
$XEDIT
290
     1
  9
$CEPSNTYPE
380
     0
  9
$PSTYLEMODE
290
     1
  9
$FINGERPRINTGUID
  2
{E3C0DB62-ED8D-49C9-B55B-0FF126AF7788}
  9
$VERSIONGUID
  2
{FAEB1C32-E019-11D5-929B-00C0DF256EC4}
  9
$EXTNAMES
290
     1
  9
$PSVPSCALE
 40
0.0
  9
$OLESTARTUP
290
     0
  9
$SORTENTS
280
   127
  9
$INDEXCTL
280
     0
  9
$HIDETEXT
280
     1
  9
$XCLIPFRAME
280
     2
  9
$HALOGAP
280
     0
  9
$OBSCOLOR
 70
   257
  9
$OBSLTYPE
280
     0
  9
$INTERSECTIONDISPLAY
280
     0
  9
$INTERSECTIONCOLOR
 70
   257
  9
$DIMASSOC
280
     2
  9
$PROJECTNAME
  1

  9
$CAMERADISPLAY
290
     0
  9
$LENSLENGTH
 40
50.0
  9
$CAMERAHEIGHT
 40
0.0
  9
$STEPSPERSEC
 40
2.0
  9
$STEPSIZE
 40
6.0
  9
$3DDWFPREC
 40
2.0
  9
$PSOLWIDTH
 40
0.25
  9
$PSOLHEIGHT
 40
4.0
  9
$LOFTANG1
 40
1.570796326794897
  9
$LOFTANG2
 40
1.570796326794897
  9
$LOFTMAG1
 40
0.0
  9
$LOFTMAG2
 40
0.0
  9
$LOFTPARAM
 70
     7
  9
$LOFTNORMALS
280
     1
  9
$LATITUDE
 40
37.795
  9
$LONGITUDE
 40
-122.394
  9
$NORTHDIRECTION
 40
0.0
  9
$TIMEZONE
 70
 -8000
  9
$LIGHTGLYPHDISPLAY
280
     1
  9
$TILEMODELIGHTSYNCH
280
     1
  9
$SOLIDHIST
280
     0
  9
$SHOWHIST
280
     1
  9
$DWFFRAME
280
     2
  9
$DGNFRAME
280
     2
  9
$REALWORLDSCALE
290
     1
  9
$INTERFERECOLOR
 62
   256
  9
$CSHADOW
280
     0
  9
$SHADOWPLANELOCATION
 40
0.0
  0
ENDSEC
  0
SECTION
  2
CLASSES
  0
CLASS
  1
ACDBDICTIONARYWDFLT
  2
AcDbDictionaryWithDefault
  3
ObjectDBX Classes
 90
        0
 91
        4
280
     0
281
     0
  0
CLASS
  1
SCALE
  2
AcDbScale
  3
ObjectDBX Classes
 90
     1153
 91
        4
280
     0
281
     0
  0
CLASS
  1
VISUALSTYLE
  2
AcDbVisualStyle
  3
ObjectDBX Classes
 90
     4095
 91
        4
280
     0
281
     0
  0
CLASS
  1
MATERIAL
  2
AcDbMaterial
  3
ObjectDBX Classes
 90
     1153
 91
        4
280
     0
281
     0
  0
CLASS
  1
DICTIONARYVAR
  2
AcDbDictionaryVar
  3
ObjectDBX Classes
 90
        0
 91
        4
280
     0
281
     0
  0
CLASS
  1
ACDBPLACEHOLDER
  2
AcDbPlaceHolder
  3
ObjectDBX Classes
 90
        0
 91
        1
280
     0
281
     0
  0
CLASS
  1
LAYOUT
  2
AcDbLayout
  3
ObjectDBX Classes
 90
        0
 91
        1
280
     0
281
     0
  0
CLASS
  1
TABLESTYLE
  2
AcDbTableStyle
  3
ObjectDBX Classes
 90
     4095
 91
        4
280
     0
281
     0
  0
CLASS
  1
MLEADERSTYLE
  2
AcDbMLeaderStyle
  3
ACDB_MLEADERSTYLE_CLASS
 90
     4095
 91
        4
280
     0
281
     0
  0
CLASS
  1
CELLSTYLEMAP
  2
AcDbCellStyleMap
  3
ObjectDBX Classes
 90
     1152
 91
        4
280
     0
281
     0
  0
CLASS
  1
SUN
  2
AcDbSun
  3
SCENEOE
 90
     1153
 91
        4
280
     0
281
     0
  0
ENDSEC
  0
SECTION
  2
TABLES
  0
TABLE
  2
VPORT
  5
8
330
0
100
AcDbSymbolTable
 70
     1
  0
VPORT
  5
10B
330
8
100
AcDbSymbolTableRecord
100
AcDbViewportTableRecord
  2
*Active
 70
     0
 10
0.0
 20
0.0
 11
1.0
 21
1.0
 12
35.19666021943915
 22
-0.2020257572926027
 13
0.0
 23
0.0
 14
0.5
 24
0.5
 15
0.5
 25
0.5
 16
0.0
 26
0.0
 36
1.0
 17
0.0
 27
0.0
 37
0.0
 40
302.9247513601806
 41
1.925373134328358
 42
50.0
 43
0.0
 44
0.0
 50
0.0
 51
0.0
 71
    16
 72
   100
 73
     1
 74
     3
 75
     1
 76
     0
 77
     0
 78
     0
281
     0
 65
     1
110
0.0
120
0.0
130
0.0
111
1.0
121
0.0
131
0.0
112
0.0
122
1.0
132
0.0
 79
     0
146
0.0
348
13C
 60
     3
 61
     5
292
     1
282
     1
141
0.0
142
0.0
 63
   256
361
21F
  0
ENDTAB
  0
TABLE
  2
LTYPE
  5
5
330
0
100
AcDbSymbolTable
 70
     8
  0
LTYPE
  5
14
330
5
100
AcDbSymbolTableRecord
100
AcDbLinetypeTableRecord
  2
ByBlock
 70
     0
  3

 72
    65
 73
     0
 40
0.0
  0
LTYPE
  5
15
330
5
100
AcDbSymbolTableRecord
100
AcDbLinetypeTableRecord
  2
ByLayer
 70
     0
  3

 72
    65
 73
     0
 40
0.0
  0
LTYPE
  5
16
330
5
100
AcDbSymbolTableRecord
100
AcDbLinetypeTableRecord
  2
Continuous
 70
     0
  3
Solid line
 72
    65
 73
     0
 40
0.0
  0
LTYPE
  5
20
330
5
100
AcDbSymbolTableRecord
100
AcDbLinetypeTableRecord
  2
PUNKT
 70
     0
  3
..............
 72
    65
 73
     2
 40
1.5
 49
0.7
 74
     0
 49
-0.8
 74
     0
  0
LTYPE
  5
21
330
5
100
AcDbSymbolTableRecord
100
AcDbLinetypeTableRecord
  2
GESTRICHELT
 70
     0
  3
-- -- -- -- --
 72
    65
 73
     7
 40
2.8
 49
0.9
 74
     0
 49
0.0
 74
     0
 49
0.9
 74
     0
 49
0.0
 74
     0
 49
0.2
 74
     0
 49
0.0
 74
     0
 49
-0.8
 74
     0
  0
LTYPE
  5
22
330
5
100
AcDbSymbolTableRecord
100
AcDbLinetypeTableRecord
  2
STRICHPUNKT
 70
     0
  3
--.--.--.--.--
 72
    65
 73
     4
 40
8.8
 49
5.5
 74
     0
 49
-1.3
 74
     0
 49
0.7
 74
     0
 49
-1.3
 74
     0
  0
LTYPE
  5
25
330
5
100
AcDbSymbolTableRecord
100
AcDbLinetypeTableRecord
  2
PHANTOM
 70
     0
  3
--..--..--..--
 72
    65
 73
     6
 40
14.2
 49
7.0
 74
     0
 49
-1.8
 74
     0
 49
0.9
 74
     0
 49
-1.8
 74
     0
 49
0.9
 74
     0
 49
-1.8
 74
     0
  0
LTYPE
  5
183
330
5
100
AcDbSymbolTableRecord
100
AcDbLinetypeTableRecord
  2
DASH
 70
     0
  3
DASH _ _ _ _ _
 72
    65
 73
     2
 40
0.75
 49
0.4
 74
     0
 49
-0.35
 74
     0
  0
LTYPE
  5
184
330
5
100
AcDbSymbolTableRecord
100
AcDbLinetypeTableRecord
  2
LONGDASH_DASH
 70
     0
  3
LONGDASH_DASH __ . __ . __
 72
    65
 73
     4
 40
0.85
 49
0.4
 74
     0
 49
-0.2
 74
     0
 49
0.05
 74
     0
 49
-0.2
 74
     0
  0
LTYPE
  5
185
330
5
100
AcDbSymbolTableRecord
100
AcDbLinetypeTableRecord
  2
LONGDASH_DASH_DASH
 70
     0
  3
LONGDASH_DASH_DASH __ . . __ . . __
 72
    65
 73
     6
 40
1.1
 49
0.4
 74
     0
 49
-0.2
 74
     0
 49
0.05
 74
     0
 49
-0.2
 74
     0
 49
0.05
 74
     0
 49
-0.2
 74
     0
  0
ENDTAB
  0
TABLE
  2
LAYER
  5
2
102
{ACAD_XDICTIONARY
360
1A7
102
}
330
0
100
AcDbSymbolTable
 70
    15
  0
LAYER
  5
14D
330
2
100
AcDbSymbolTableRecord
100
AcDbLayerTableRecord
  2
200
 70
     0
 62
     2
  6
Continuous
370
    50
390
F
347
14B
348
0
  0
LAYER
  5
186
330
2
100
AcDbSymbolTableRecord
100
AcDbLayerTableRecord
  2
0
 70
     0
 62
    -1
  6
Continuous
370
    -3
390
F
347
14B
348
0
  0
LAYER
  5
187
330
2
100
AcDbSymbolTableRecord
100
AcDbLayerTableRecord
  2
1
 70
     0
 62
     4
  6
Continuous
370
    50
390
F
347
14B
348
0
  0
LAYER
  5
188
330
2
100
AcDbSymbolTableRecord
100
AcDbLayerTableRecord
  2
2
 70
     0
 62
     7
  6
Continuous
370
    25
390
F
347
14B
348
0
  0
LAYER
  5
189
330
2
100
AcDbSymbolTableRecord
100
AcDbLayerTableRecord
  2
3
 70
     0
 62
     1
  6
DASH
370
    35
390
F
347
14B
348
0
  0
LAYER
  5
18A
330
2
100
AcDbSymbolTableRecord
100
AcDbLayerTableRecord
  2
4
 70
     0
 62
     2
  6
LONGDASH_DASH
370
    25
390
F
347
14B
348
0
  0
LAYER
  5
18B
330
2
100
AcDbSymbolTableRecord
100
AcDbLayerTableRecord
  2
6
 70
     0
 62
     5
  6
Continuous
370
    -3
390
F
347
14B
348
0
  0
LAYER
  5
18C
330
2
100
AcDbSymbolTableRecord
100
AcDbLayerTableRecord
  2
CUT
 70
     0
 62
     1
  6
Continuous
370
    25
390
F
347
14B
348
0
  0
LAYER
  5
18D
330
2
100
AcDbSymbolTableRecord
100
AcDbLayerTableRecord
  2
NOCUT
 70
     0
 62
     7
  6
Continuous
370
    25
390
F
347
14B
348
0
  0
LAYER
  5
18E
330
2
100
AcDbSymbolTableRecord
100
AcDbLayerTableRecord
  2
SK1
 70
     0
 62
     4
  6
Continuous
370
    50
390
F
347
14B
348
0
  0
LAYER
  5
18F
330
2
100
AcDbSymbolTableRecord
100
AcDbLayerTableRecord
  2
SK2
 70
     0
 62
     7
  6
Continuous
370
    25
390
F
347
14B
348
0
  0
LAYER
  5
190
330
2
100
AcDbSymbolTableRecord
100
AcDbLayerTableRecord
  2
SK3
 70
     0
 62
     1
  6
DASH
370
    35
390
F
347
14B
348
0
  0
LAYER
  5
191
330
2
100
AcDbSymbolTableRecord
100
AcDbLayerTableRecord
  2
SK4
 70
     0
 62
     2
  6
LONGDASH_DASH
370
    25
390
F
347
14B
348
0
  0
LAYER
  5
192
330
2
100
AcDbSymbolTableRecord
100
AcDbLayerTableRecord
  2
SK6
 70
     0
 62
     5
  6
Continuous
370
    -3
390
F
347
14B
348
0
  0
LAYER
  5
193
330
2
100
AcDbSymbolTableRecord
100
AcDbLayerTableRecord
  2
INFTOTAL
 70
     0
 62
     9
  6
Continuous
370
    18
390
F
347
14B
348
0
  0
ENDTAB
  0
TABLE
  2
STYLE
  5
3
330
0
100
AcDbSymbolTable
 70
     2
  0
STYLE
  5
11
330
3
100
AcDbSymbolTableRecord
100
AcDbTextStyleTableRecord
  2
Standard
 70
     0
 40
0.0
 41
1.0
 50
0.0
 71
     0
 42
0.2
  3
txt
  4

  0
STYLE
  5
14C
330
3
100
AcDbSymbolTableRecord
100
AcDbTextStyleTableRecord
  2
BMG_Text
 70
     0
 40
3.5
 41
1.0
 50
0.0
 71
     0
 42
0.2
  3
monos.ttf
  4

1001
ACAD
1000
Monospac821 BT
1071
       49
  0
ENDTAB
  0
TABLE
  2
VIEW
  5
6
330
0
100
AcDbSymbolTable
 70
     0
  0
ENDTAB
  0
TABLE
  2
UCS
  5
7
330
0
100
AcDbSymbolTable
 70
     0
  0
ENDTAB
  0
TABLE
  2
APPID
  5
9
330
0
100
AcDbSymbolTable
 70
     1
  0
APPID
  5
12
330
9
100
AcDbSymbolTableRecord
100
AcDbRegAppTableRecord
  2
ACAD
 70
     0
  0
ENDTAB
  0
TABLE
  2
DIMSTYLE
  5
A
330
0
100
AcDbSymbolTable
 70
     1
100
AcDbDimStyleTable
  0
DIMSTYLE
105
28
330
A
100
AcDbSymbolTableRecord
100
AcDbDimStyleTableRecord
  2
Standard
 70
     0
178
     0
340
11
  0
ENDTAB
  0
TABLE
  2
BLOCK_RECORD
  5
1
330
0
100
AcDbSymbolTable
 70
     0
  0
BLOCK_RECORD
  5
1D
330
1
100
AcDbSymbolTableRecord
100
AcDbBlockTableRecord
  2
*Model_Space
340
1E
 70
     0
280
     1
281
     0
  0
BLOCK_RECORD
  5
1B
330
1
100
AcDbSymbolTableRecord
100
AcDbBlockTableRecord
  2
*Paper_Space
340
1C
 70
     0
280
     1
281
     0
  0
ENDTAB
  0
ENDSEC
  0
SECTION
  2
BLOCKS
  0
BLOCK
  5
135
330
1D
100
AcDbEntity
  8
0
100
AcDbBlockBegin
  2
*Model_Space
 70
     0
 10
0.0
 20
0.0
 30
0.0
  3
*Model_Space
  1

  0
ENDBLK
  5
136
330
1D
100
AcDbEntity
  8
0
100
AcDbBlockEnd
  0
BLOCK
  5
133
330
1B
100
AcDbEntity
 67
     1
  8
0
100
AcDbBlockBegin
  2
*Paper_Space
 70
     0
 10
0.0
 20
0.0
 30
0.0
  3
*Paper_Space
  1

  0
ENDBLK
  5
134
330
1B
100
AcDbEntity
 67
     1
  8
0
100
AcDbBlockEnd
  0
ENDSEC
  0
SECTION
  2
ENTITIES
  0
LINE
  5
29
330
1D
100
AcDbEntity
  8
1
100
AcDbLine
 10
0.0
 20
-42.5
 30
0.0
 11
0.0
 21
-45.0
 31
0.0
  0
LINE
  5
2A
330
1D
100
AcDbEntity
  8
1
100
AcDbLine
 10
30.0533321
 20
-43.0
 30
0.0
 11
29.517433715
 21
-45.0
 31
0.0
  0
LINE
  5
2B
330
1D
100
AcDbEntity
  8
1
100
AcDbLine
 10
0.0
 20
-45.0
 30
0.0
 11
29.517433715
 21
-45.0
 31
0.0
  0
LINE
  5
2C
330
1D
100
AcDbEntity
  8
1
100
AcDbLine
 10
30.17820323
 20
43.0
 30
0.0
 11
29.642304845
 21
45.0
 31
0.0
  0
LINE
  5
2D
330
1D
100
AcDbEntity
  8
SK1
  6
Continuous
370
    50
100
AcDbLine
 10
-0.25
 20
-31.0
 30
0.0
 11
0.0
 21
-31.0
 31
0.0
  0
LINE
  5
2E
330
1D
100
AcDbEntity
  8
1
  6
Continuous
370
    50
100
AcDbLine
 10
0.0
 20
31.0
 30
0.0
 11
-0.25
 21
31.0
 31
0.0
  0
LINE
  5
2F
330
1D
100
AcDbEntity
  8
1
  6
Continuous
370
    50
100
AcDbLine
 10
66.719059892
 20
-40.4
 30
0.0
 11
66.95
 21
-40.0
 31
0.0
  0
ARC
  5
30
330
1D
100
AcDbEntity
  8
SK1
100
AcDbCircle
 10
-0.55
 20
-18.2
 30
0.0
 40
0.5
100
AcDbArc
 50
53.130102354
 51
105.0
  0
ARC
  5
31
330
1D
100
AcDbEntity
  8
SK1
100
AcDbCircle
 10
-0.55
 20
18.2
 30
0.0
 40
0.5
100
AcDbArc
 50
255.0
 51
306.8698976460001
  0
ARC
  5
32
330
1D
100
AcDbEntity
  8
SK1
100
AcDbCircle
 10
-39.268504542
 20
-17.0
 30
0.0
 40
1.0
100
AcDbArc
 50
210.0
 51
280.0
  0
ARC
  5
33
330
1D
100
AcDbEntity
  8
SK1
100
AcDbCircle
 10
-39.268504542
 20
17.0
 30
0.0
 40
1.0
100
AcDbArc
 50
80.0
 51
150.0
  0
LINE
  5
34
330
1D
100
AcDbEntity
  8
SK1
100
AcDbLine
 10
-35.25
 20
-18.0
 30
0.0
 11
-1.735441491
 21
-18.0
 31
0.0
  0
LINE
  5
35
330
1D
100
AcDbEntity
  8
SK1
100
AcDbLine
 10
-1.735441491
 20
18.0
 30
0.0
 11
-35.25
 21
18.0
 31
0.0
  0
LINE
  5
36
330
1D
100
AcDbEntity
  8
SK1
100
AcDbLine
 10
-35.25
 20
18.0
 30
0.0
 11
-37.437486792
 21
17.69256878
 31
0.0
  0
LINE
  5
37
330
1D
100
AcDbEntity
  8
SK1
100
AcDbLine
 10
-37.437486792
 20
-17.69256878
 30
0.0
 11
-35.25
 21
-18.0
 31
0.0
  0
LINE
  5
38
330
1D
100
AcDbEntity
  8
SK1
100
AcDbLine
 10
-1.735441491
 20
-18.0
 30
0.0
 11
-0.679409523
 21
-17.717037087
 31
0.0
  0
LINE
  5
39
330
1D
100
AcDbEntity
  8
SK1
100
AcDbLine
 10
-0.679409523
 20
17.717037087
 30
0.0
 11
-1.735441491
 21
18.0
 31
0.0
  0
LINE
  5
3A
330
1D
100
AcDbEntity
  8
SK1
100
AcDbLine
 10
-39.094856365
 20
-17.984807753
 30
0.0
 11
-37.437486792
 21
-17.69256878
 31
0.0
  0
LINE
  5
3B
330
1D
100
AcDbEntity
  8
SK1
100
AcDbLine
 10
-37.437486792
 20
17.69256878
 30
0.0
 11
-39.094856365
 21
17.984807753
 31
0.0
  0
LINE
  5
3C
330
1D
100
AcDbEntity
  8
SK1
100
AcDbLine
 10
-40.134529946
 20
17.5
 30
0.0
 11
-40.25
 21
17.3
 31
0.0
  0
LINE
  5
3D
330
1D
100
AcDbEntity
  8
SK1
100
AcDbLine
 10
-40.25
 20
-17.3
 30
0.0
 11
-40.134529946
 21
-17.5
 31
0.0
  0
LINE
  5
3E
330
1D
100
AcDbEntity
  8
1
  6
Continuous
370
    50
100
AcDbLine
 10
59.8
 20
31.350050556
 30
0.0
 11
59.8
 21
37.505
 31
0.0
  0
ARC
  5
3F
330
1D
100
AcDbEntity
  8
1
  6
Continuous
370
    50
100
AcDbCircle
 10
36.642518693
 20
45.117100014
 30
0.0
 40
0.885352466
100
AcDbArc
 50
87.430090376
 51
181.033901551
  0
LINE
  5
40
330
1D
100
AcDbEntity
  8
1
  6
Continuous
370
    50
100
AcDbLine
 10
42.253783091
 20
46.005
 30
0.0
 11
36.682119558
 21
46.005
 31
0.0
  0
LINE
  5
41
330
1D
100
AcDbEntity
  8
1
  6
Continuous
370
    50
100
AcDbLine
 10
58.85
 20
46.005
 30
0.0
 11
53.243282295
 21
46.005
 31
0.0
  0
LINE
  5
42
330
1D
100
AcDbEntity
  8
1
  6
Continuous
370
    50
100
AcDbLine
 10
35.75
 20
45.10135318
 30
0.0
 11
35.75
 21
37.794228634
 31
0.0
  0
LINE
  5
43
330
1D
100
AcDbEntity
  8
1
  6
Continuous
370
    50
100
AcDbLine
 10
51.995289062
 20
45.798120721
 30
0.0
 11
50.85
 21
46.105
 31
0.0
  0
LINE
  5
44
330
1D
100
AcDbEntity
  8
1
  6
Continuous
370
    50
100
AcDbLine
 10
44.65
 20
46.105
 30
0.0
 11
43.50290739
 21
45.797637462
 31
0.0
  0
LINE
  5
45
330
1D
100
AcDbEntity
  8
1
  6
Continuous
370
    50
100
AcDbLine
 10
31.837320508
 20
-40.4
 30
0.0
 11
42.996152423
 21
-43.39
 31
0.0
  0
LINE
  5
46
330
1D
100
AcDbEntity
  8
1
  6
Continuous
370
    50
100
AcDbLine
 10
52.503847577
 20
-43.39
 30
0.0
 11
63.559262964
 21
-40.4
 31
0.0
  0
LINE
  5
47
330
1D
100
AcDbEntity
  8
1
  6
Continuous
370
    50
100
AcDbLine
 10
31.25
 20
39.0
 30
0.0
 11
30.17820323
 21
43.0
 31
0.0
  0
LINE
  5
48
330
1D
100
AcDbEntity
  8
1
  6
Continuous
370
    50
100
AcDbLine
 10
48.636346229
 20
34.341342569
 30
0.0
 11
31.25
 21
39.0
 31
0.0
  0
LINE
  5
49
330
1D
100
AcDbEntity
  8
1
  6
Continuous
370
    50
100
AcDbLine
 10
48.636346229
 20
34.341342569
 30
0.0
 11
44.945572735
 21
33.779493448
 31
0.0
  0
LINE
  5
4A
330
1D
100
AcDbEntity
  8
1
  6
Continuous
370
    50
100
AcDbLine
 10
44.945572735
 20
33.779493448
 30
0.0
 11
41.316349062
 21
33.205313681
 31
0.0
  0
LINE
  5
4B
330
1D
100
AcDbEntity
  8
1
  6
Continuous
370
    50
100
AcDbLine
 10
41.316349062
 20
33.205313681
 30
0.0
 11
37.75
 21
32.619012861
 31
0.0
  0
LINE
  5
4C
330
1D
100
AcDbEntity
  8
1
  6
Continuous
370
    50
100
AcDbLine
 10
37.75
 20
32.619012861
 30
0.0
 11
16.95
 21
32.619012861
 31
0.0
  0
LINE
  5
4D
330
1D
100
AcDbEntity
  8
1
  6
Continuous
370
    50
100
AcDbLine
 10
16.95
 20
32.619012861
 30
0.0
 11
16.2
 21
31.889457506
 31
0.0
  0
LINE
  5
4E
330
1D
100
AcDbEntity
  8
1
  6
Continuous
370
    50
100
AcDbLine
 10
16.2
 20
31.889457506
 30
0.0
 11
0.5
 21
31.889457506
 31
0.0
  0
LINE
  5
4F
330
1D
100
AcDbEntity
  8
1
  6
Continuous
370
    50
100
AcDbLine
 10
0.5
 20
43.0
 30
0.0
 11
0.5
 21
31.889457506
 31
0.0
  0
LINE
  5
50
330
1D
100
AcDbEntity
  8
1
  6
Continuous
370
    50
100
AcDbLine
 10
0.5
 20
43.0
 30
0.0
 11
30.17820323
 21
43.0
 31
0.0
  0
LINE
  5
51
330
1D
100
AcDbEntity
  8
1
  6
Continuous
370
    50
100
AcDbLine
 10
0.0
 20
31.681027445
 30
0.0
 11
0.0
 21
42.5
 31
0.0
  0
LINE
  5
52
330
1D
100
AcDbEntity
  8
1
  6
Continuous
370
    50
100
AcDbLine
 10
0.5
 20
43.0
 30
0.0
 11
0.0
 21
42.5
 31
0.0
  0
LINE
  5
53
330
1D
100
AcDbEntity
  8
1
  6
Continuous
370
    50
100
AcDbLine
 10
0.0
 20
31.681027445
 30
0.0
 11
0.5
 21
31.889457506
 31
0.0
  0
LINE
  5
54
330
1D
100
AcDbEntity
  8
1
  6
Continuous
370
    50
100
AcDbLine
 10
16.95
 20
-32.619012861
 30
0.0
 11
16.2
 21
-31.889457506
 31
0.0
  0
LINE
  5
55
330
1D
100
AcDbEntity
  8
1
  6
Continuous
370
    50
100
AcDbLine
 10
16.2
 20
-31.889457506
 30
0.0
 11
16.2
 21
31.889457506
 31
0.0
  0
LINE
  5
56
330
1D
100
AcDbEntity
  8
1
  6
Continuous
370
    50
100
AcDbLine
 10
16.95
 20
-32.619012861
 30
0.0
 11
16.95
 21
32.619012861
 31
0.0
  0
LINE
  5
57
330
1D
100
AcDbEntity
  8
1
  6
Continuous
370
    50
100
AcDbLine
 10
0.0
 20
-31.681027445
 30
0.0
 11
0.0
 21
31.681027445
 31
0.0
  0
LINE
  5
58
330
1D
100
AcDbEntity
  8
1
  6
Continuous
370
    50
100
AcDbLine
 10
0.5
 20
31.889457506
 30
0.0
 11
0.5
 21
-31.889457506
 31
0.0
  0
LINE
  5
59
330
1D
100
AcDbEntity
  8
1
  6
Continuous
370
    50
100
AcDbLine
 10
0.0
 20
-31.681027445
 30
0.0
 11
0.5
 21
-31.889457506
 31
0.0
  0
LINE
  5
5A
330
1D
100
AcDbEntity
  8
1
  6
Continuous
370
    50
100
AcDbLine
 10
16.2
 20
-31.889457506
 30
0.0
 11
0.5
 21
-31.889457506
 31
0.0
  0
LINE
  5
5B
330
1D
100
AcDbEntity
  8
1
  6
Continuous
370
    50
100
AcDbLine
 10
37.75
 20
-32.619012861
 30
0.0
 11
16.95
 21
-32.619012861
 31
0.0
  0
LINE
  5
5C
330
1D
100
AcDbEntity
  8
1
  6
Continuous
370
    50
100
AcDbLine
 10
62.908548116
 20
-36.323007235
 30
0.0
 11
56.369003457
 21
-35.450948107
 31
0.0
  0
LINE
  5
5D
330
1D
100
AcDbEntity
  8
1
  6
Continuous
370
    50
100
AcDbLine
 10
56.369003457
 20
-35.450948107
 30
0.0
 11
49.991704669
 21
-34.542297954
 31
0.0
  0
LINE
  5
5E
330
1D
100
AcDbEntity
  8
1
  6
Continuous
370
    50
100
AcDbLine
 10
49.991704669
 20
-34.542297954
 30
0.0
 11
43.78323414
 21
-33.597994648
 31
0.0
  0
LINE
  5
5F
330
1D
100
AcDbEntity
  8
1
  6
Continuous
370
    50
100
AcDbLine
 10
43.78323414
 20
-33.597994648
 30
0.0
 11
37.75
 21
-32.619012861
 31
0.0
  0
LINE
  5
60
330
1D
100
AcDbEntity
  8
1
  6
Continuous
370
    50
100
AcDbLine
 10
66.719059892
 20
-40.4
 30
0.0
 11
30.75
 21
-40.4
 31
0.0
  0
LINE
  5
61
330
1D
100
AcDbEntity
  8
1
  6
Continuous
370
    50
100
AcDbLine
 10
30.0533321
 20
-43.0
 30
0.0
 11
30.75
 21
-40.4
 31
0.0
  0
LINE
  5
62
330
1D
100
AcDbEntity
  8
1
  6
Continuous
370
    50
100
AcDbLine
 10
30.0533321
 20
-43.0
 30
0.0
 11
0.5
 21
-43.0
 31
0.0
  0
LINE
  5
63
330
1D
100
AcDbEntity
  8
1
  6
Continuous
370
    50
100
AcDbLine
 10
0.5
 20
-31.889457506
 30
0.0
 11
0.5
 21
-43.0
 31
0.0
  0
LINE
  5
64
330
1D
100
AcDbEntity
  8
1
  6
Continuous
370
    50
100
AcDbLine
 10
0.0
 20
-42.5
 30
0.0
 11
0.0
 21
-31.681027445
 31
0.0
  0
LINE
  5
65
330
1D
100
AcDbEntity
  8
1
  6
Continuous
370
    50
100
AcDbLine
 10
0.0
 20
-42.5
 30
0.0
 11
0.5
 21
-43.0
 31
0.0
  0
LINE
  5
66
330
1D
100
AcDbEntity
  8
1
  6
Continuous
370
    50
100
AcDbLine
 10
37.75
 20
-32.619012861
 30
0.0
 11
37.75
 21
32.619012861
 31
0.0
  0
LINE
  5
67
330
1D
100
AcDbEntity
  8
1
  6
Continuous
370
    50
100
AcDbLine
 10
64.63446864
 20
30.054658588
 30
0.0
 11
48.636346229
 21
34.341342569
 31
0.0
  0
LINE
  5
68
330
1D
100
AcDbEntity
  8
1
  6
Continuous
370
    50
100
AcDbLine
 10
64.63446864
 20
-35.318045783
 30
0.0
 11
64.63446864
 21
30.054658588
 31
0.0
  0
ARC
  5
69
330
1D
100
AcDbEntity
  8
1
  6
Continuous
370
    50
100
AcDbCircle
 10
63.099722618
 20
-34.666801829
 30
0.0
 40
1.667202459
100
AcDbArc
 50
263.415533125
 51
337.00686724
  0
CIRCLE
  5
6A
330
1D
100
AcDbEntity
  8
1
  6
Continuous
370
    50
100
AcDbCircle
 10
31.75
 20
0.0
 30
0.0
 40
5.25
  0
LINE
  5
6B
330
1D
100
AcDbEntity
  8
SK1
  6
Continuous
370
    50
100
AcDbLine
 10
-0.25
 20
-31.0
 30
0.0
 11
-0.25
 21
31.0
 31
0.0
  0
LINE
  5
6C
330
1D
100
AcDbEntity
  8
1
  6
Continuous
370
    50
100
AcDbLine
 10
64.640598923
 20
-35.31033915
 30
0.0
 11
64.63446864
 21
-35.318045783
 31
0.0
  0
LINE
  5
6D
330
1D
100
AcDbEntity
  8
1
  6
Continuous
370
    50
100
AcDbLine
 10
66.95
 20
-32.368966619
 30
0.0
 11
64.640598923
 21
-35.31033915
 31
0.0
  0
LINE
  5
6E
330
1D
100
AcDbEntity
  8
1
  6
Continuous
370
    50
100
AcDbLine
 10
66.95
 20
-32.368966619
 30
0.0
 11
66.95
 21
29.43421383
 31
0.0
  0
LINE
  5
6F
330
1D
100
AcDbEntity
  8
1
  6
Continuous
370
    50
100
AcDbLine
 10
66.95
 20
29.43421383
 30
0.0
 11
64.63446864
 21
30.054658588
 31
0.0
  0
LINE
  5
70
330
1D
100
AcDbEntity
  8
1
  6
Continuous
370
    50
100
AcDbLine
 10
66.95
 20
-40.0
 30
0.0
 11
66.95
 21
-32.368966619
 31
0.0
  0
LINE
  5
71
330
1D
100
AcDbEntity
  8
SK1
100
AcDbLine
 10
-35.25
 20
0.0
 30
0.0
 11
-35.25
 21
18.0
 31
0.0
  0
LINE
  5
72
330
1D
100
AcDbEntity
  8
SK1
100
AcDbLine
 10
-35.25
 20
-18.0
 30
0.0
 11
-35.25
 21
0.0
 31
0.0
  0
LINE
  5
73
330
1D
100
AcDbEntity
  8
SK1
100
AcDbLine
 10
-1.735441491
 20
-18.0
 30
0.0
 11
-1.735441491
 21
18.0
 31
0.0
  0
LINE
  5
74
330
1D
100
AcDbEntity
  8
SK1
100
AcDbLine
 10
-37.437486792
 20
-17.69256878
 30
0.0
 11
-37.437486792
 21
17.69256878
 31
0.0
  0
LINE
  5
75
330
1D
100
AcDbEntity
  8
SK1
100
AcDbLine
 10
-40.25
 20
-17.3
 30
0.0
 11
-40.25
 21
17.3
 31
0.0
  0
CIRCLE
  5
76
330
1D
100
AcDbEntity
  8
SK1
100
AcDbCircle
 10
-15.75
 20
0.0
 30
0.0
 40
6.5
  0
LINE
  5
77
330
1D
100
AcDbEntity
  8
1
  6
Continuous
370
    50
100
AcDbLine
 10
59.8
 20
37.505
 30
0.0
 11
51.15
 21
37.505
 31
0.0
  0
LINE
  5
78
330
1D
100
AcDbEntity
  8
1
  6
Continuous
370
    50
100
AcDbLine
 10
44.241163094
 20
37.505
 30
0.0
 11
36.829415957
 21
37.505
 31
0.0
  0
CIRCLE
  5
79
330
1D
100
AcDbEntity
  8
SK1
100
AcDbCircle
 10
-15.75
 20
0.0
 30
0.0
 40
5.541287953
  0
ARC
  5
7A
330
1D
100
AcDbEntity
  8
1
  6
Continuous
370
    50
100
AcDbCircle
 10
58.85
 20
45.105
 30
0.0
 40
0.9
100
AcDbArc
 50
0.0
 51
90.0
  0
ARC
  5
7B
330
1D
100
AcDbEntity
  8
1
  6
Continuous
370
    50
100
AcDbCircle
 10
47.819932508
 20
75.731143782
 30
0.0
 40
30.243471143
100
AcDbArc
 50
259.3945608000001
 51
269.8675138479999
  0
ARC
  5
7C
330
1D
100
AcDbEntity
  8
1
  6
Continuous
370
    50
100
AcDbCircle
 10
47.700421247
 20
75.514017609
 30
0.0
 40
30.026305048
100
AcDbArc
 50
270.094605533
 51
280.637822399
  0
LINE
  5
7D
330
1D
100
AcDbEntity
  8
1
  6
Continuous
370
    50
100
AcDbLine
 10
50.549512926
 20
38.105487074
 30
0.0
 11
51.15
 21
37.505
 31
0.0
  0
LINE
  5
7E
330
1D
100
AcDbEntity
  8
1
  6
Continuous
370
    50
100
AcDbLine
 10
50.549512926
 20
38.105487074
 30
0.0
 11
50.298580521
 21
39.605
 31
0.0
  0
LINE
  5
7F
330
1D
100
AcDbEntity
  8
1
  6
Continuous
370
    50
100
AcDbLine
 10
50.298580521
 20
39.605
 30
0.0
 11
45.201419479
 21
39.605
 31
0.0
  0
LINE
  5
80
330
1D
100
AcDbEntity
  8
1
  6
Continuous
370
    50
100
AcDbLine
 10
45.201419479
 20
39.605
 30
0.0
 11
44.932523803
 21
37.998142801
 31
0.0
  0
LINE
  5
81
330
1D
100
AcDbEntity
  8
1
  6
Continuous
370
    50
100
AcDbLine
 10
44.241163094
 20
37.505
 30
0.0
 11
44.932523803
 21
37.998142801
 31
0.0
  0
LINE
  5
82
330
1D
100
AcDbEntity
  8
1
  6
Continuous
370
    50
100
AcDbLine
 10
59.75
 20
37.505
 30
0.0
 11
59.75
 21
45.105
 31
0.0
  0
LINE
  5
84
330
1D
100
AcDbEntity
  8
1
  6
Continuous
370
    50
100
AcDbLine
 10
68.305660938
 20
49.413054405
 30
0.0
 11
59.968942984
 21
47.943066099
 31
0.0
  0
ARC
  5
85
330
1D
100
AcDbEntity
  8
1
  6
Continuous
370
    50
100
AcDbCircle
 10
62.335193217
 20
45.20621259
 30
0.0
 40
1.6
100
AcDbArc
 50
87.0
 51
266.9999999999999
  0
LINE
  5
86
330
1D
100
AcDbEntity
  8
1
  6
Continuous
370
    50
100
AcDbLine
 10
62.251455687
 20
43.608405334
 30
0.0
 11
63.651540806
 21
43.535029982
 31
0.0
  0
LINE
  5
88
330
1D
100
AcDbEntity
  8
1
  6
Continuous
370
    50
100
AcDbLine
 10
69.687218587
 20
37.505
 30
0.0
 11
69.796258056
 21
39.585597008
 31
0.0
  0
LINE
  5
89
330
1D
100
AcDbEntity
  8
1
  6
Continuous
370
    50
100
AcDbLine
 10
59.968942984
 20
47.943066099
 30
0.0
 11
58.85
 21
46.005
 31
0.0
  0
LINE
  5
8A
330
1D
100
AcDbEntity
  8
1
  6
Continuous
370
    50
100
AcDbLine
 10
68.305660938
 20
49.413054405
 30
0.0
 11
68.465987907
 21
49.098395011
 31
0.0
  0
LINE
  5
8B
330
1D
100
AcDbEntity
  8
1
  6
Continuous
370
    50
100
AcDbLine
 10
63.819015866
 20
46.730644494
 30
0.0
 11
62.418930747
 21
46.804019846
 31
0.0
  0
LINE
  5
8C
330
1D
100
AcDbEntity
  8
1
  6
Continuous
370
    50
100
AcDbLine
 10
59.8
 20
37.505
 30
0.0
 11
69.687218587
 21
37.505
 31
0.0
  0
LINE
  5
8D
330
1D
100
AcDbEntity
  8
1
  6
Continuous
370
    50
100
AcDbLine
 10
69.787112571
 20
39.602627293
 30
0.0
 11
69.796258056
 21
39.585597008
 31
0.0
  0
LINE
  5
8E
330
1D
100
AcDbEntity
  8
CUT
100
AcDbLine
 10
61.548843003
 20
44.900537902
 30
0.0
 11
69.610884194
 21
39.664987136
 31
0.0
  0
ARC
  5
8F
330
1D
100
AcDbEntity
  8
CUT
100
AcDbCircle
 10
61.766698617
 20
45.23600613
 30
0.0
 40
0.4
100
AcDbArc
 50
117.0
 51
237.0
  0
LINE
  5
90
330
1D
100
AcDbEntity
  8
CUT
100
AcDbLine
 10
70.150242979
 20
49.956565834
 30
0.0
 11
61.585102417
 21
45.592408739
 31
0.0
  0
ARC
  5
91
330
1D
100
AcDbEntity
  8
CUT
100
AcDbCircle
 10
70.331839179
 20
49.600163224
 30
0.0
 40
0.4
100
AcDbArc
 50
356.9999999999999
 51
117.0
  0
LINE
  5
92
330
1D
100
AcDbEntity
  8
CUT
100
AcDbLine
 10
70.228191622
 20
39.979520981
 30
0.0
 11
70.731290993
 21
49.579228842
 31
0.0
  0
ARC
  5
93
330
1D
100
AcDbEntity
  8
CUT
100
AcDbCircle
 10
69.828739808
 20
40.000455363
 30
0.0
 40
0.4
100
AcDbArc
 50
237.0
 51
356.9999999999999
  0
CIRCLE
  5
94
330
1D
100
AcDbEntity
  8
CUT
100
AcDbCircle
 10
67.128614984
 20
44.955
 30
0.0
 40
1.725
  0
LINE
  5
95
330
1D
100
AcDbEntity
  8
1
  6
Continuous
370
    50
100
AcDbLine
 10
50.85
 20
46.105
 30
0.0
 11
44.65
 21
46.105
 31
0.0
  0
LINE
  5
96
330
1D
100
AcDbEntity
  8
1
  6
Continuous
370
    50
100
AcDbLine
 10
34.64
 20
0.0
 30
0.0
 11
33.196624327
 21
2.5
 31
0.0
  0
LINE
  5
97
330
1D
100
AcDbEntity
  8
1
  6
Continuous
370
    50
100
AcDbLine
 10
33.196624327
 20
2.5
 30
0.0
 11
30.303375673
 21
2.5
 31
0.0
  0
LINE
  5
98
330
1D
100
AcDbEntity
  8
1
  6
Continuous
370
    50
100
AcDbLine
 10
30.303375673
 20
2.5
 30
0.0
 11
28.86
 21
0.0
 31
0.0
  0
LINE
  5
99
330
1D
100
AcDbEntity
  8
1
  6
Continuous
370
    50
100
AcDbLine
 10
28.86
 20
0.0
 30
0.0
 11
30.303375673
 21
-2.5
 31
0.0
  0
LINE
  5
9A
330
1D
100
AcDbEntity
  8
1
  6
Continuous
370
    50
100
AcDbLine
 10
30.303375673
 20
-2.5
 30
0.0
 11
33.196624327
 21
-2.5
 31
0.0
  0
LINE
  5
9B
330
1D
100
AcDbEntity
  8
1
  6
Continuous
370
    50
100
AcDbLine
 10
33.196624327
 20
-2.5
 30
0.0
 11
34.64
 21
0.0
 31
0.0
  0
LINE
  5
9C
330
1D
100
AcDbEntity
  8
1
  6
Continuous
370
    50
100
AcDbLine
 10
43.817666922
 20
-43.39
 30
0.0
 11
42.996152423
 21
-43.39
 31
0.0
  0
LINE
  5
9D
330
1D
100
AcDbEntity
  8
1
  6
Continuous
370
    50
100
AcDbLine
 10
52.503847577
 20
-43.39
 30
0.0
 11
43.817666922
 21
-43.39
 31
0.0
  0
LINE
  5
9E
330
1D
100
AcDbEntity
  8
1
  6
Continuous
370
    50
100
AcDbLine
 10
59.75
 20
45.105
 30
0.0
 11
59.724816873
 21
45.09596723
 31
0.0
  0
LINE
  5
9F
330
1D
100
AcDbEntity
  8
1
  6
Continuous
370
    50
100
AcDbLine
 10
59.724816873
 20
45.09596723
 30
0.0
 11
59.617162712
 21
45.057535517
 31
0.0
  0
LINE
  5
A0
330
1D
100
AcDbEntity
  8
1
  6
Continuous
370
    50
100
AcDbLine
 10
59.617162712
 20
45.057535517
 30
0.0
 11
59.422091755
 21
44.988651526
 31
0.0
  0
LINE
  5
A1
330
1D
100
AcDbEntity
  8
1
  6
Continuous
370
    50
100
AcDbLine
 10
59.422091755
 20
44.988651526
 30
0.0
 11
59.140092741
 21
44.890803418
 31
0.0
  0
LINE
  5
A2
330
1D
100
AcDbEntity
  8
1
  6
Continuous
370
    50
100
AcDbLine
 10
59.140092741
 20
44.890803418
 30
0.0
 11
58.768569119
 21
44.76505061
 31
0.0
  0
LINE
  5
A3
330
1D
100
AcDbEntity
  8
1
  6
Continuous
370
    50
100
AcDbLine
 10
58.768569119
 20
44.76505061
 30
0.0
 11
58.328435944
 21
44.620783238
 31
0.0
  0
LINE
  5
A4
330
1D
100
AcDbEntity
  8
1
  6
Continuous
370
    50
100
AcDbLine
 10
58.328435944
 20
44.620783238
 30
0.0
 11
57.810314664
 21
44.457598222
 31
0.0
  0
LINE
  5
A5
330
1D
100
AcDbEntity
  8
1
  6
Continuous
370
    50
100
AcDbLine
 10
57.810314664
 20
44.457598222
 30
0.0
 11
57.207102143
 21
44.276826474
 31
0.0
  0
LINE
  5
A6
330
1D
100
AcDbEntity
  8
1
  6
Continuous
370
    50
100
AcDbLine
 10
57.207102143
 20
44.276826474
 30
0.0
 11
56.528901437
 21
44.085650058
 31
0.0
  0
LINE
  5
A7
330
1D
100
AcDbEntity
  8
1
  6
Continuous
370
    50
100
AcDbLine
 10
56.528901437
 20
44.085650058
 30
0.0
 11
55.12367278
 21
43.731296661
 31
0.0
  0
LINE
  5
A8
330
1D
100
AcDbEntity
  8
1
  6
Continuous
370
    50
100
AcDbLine
 10
55.12367278
 20
43.731296661
 30
0.0
 11
54.337986452
 21
43.558381757
 31
0.0
  0
LINE
  5
A9
330
1D
100
AcDbEntity
  8
1
  6
Continuous
370
    50
100
AcDbLine
 10
54.337986452
 20
43.558381757
 30
0.0
 11
53.497015495
 21
43.393840484
 31
0.0
  0
LINE
  5
AA
330
1D
100
AcDbEntity
  8
1
  6
Continuous
370
    50
100
AcDbLine
 10
53.497015495
 20
43.393840484
 30
0.0
 11
52.887640387
 21
43.288101394
 31
0.0
  0
LINE
  5
AB
330
1D
100
AcDbEntity
  8
1
  6
Continuous
370
    50
100
AcDbLine
 10
52.887640387
 20
43.288101394
 30
0.0
 11
51.605843417
 21
43.103327561
 31
0.0
  0
LINE
  5
AC
330
1D
100
AcDbEntity
  8
1
  6
Continuous
370
    50
100
AcDbLine
 10
51.605843417
 20
43.103327561
 30
0.0
 11
50.018302025
 21
42.946489305
 31
0.0
  0
LINE
  5
AD
330
1D
100
AcDbEntity
  8
1
  6
Continuous
370
    50
100
AcDbLine
 10
50.018302025
 20
42.946489305
 30
0.0
 11
48.09996504
 21
42.865098504
 31
0.0
  0
LINE
  5
AE
330
1D
100
AcDbEntity
  8
1
  6
Continuous
370
    50
100
AcDbLine
 10
48.09996504
 20
42.865098504
 30
0.0
 11
47.118582638
 21
42.869580924
 31
0.0
  0
LINE
  5
AF
330
1D
100
AcDbEntity
  8
1
  6
Continuous
370
    50
100
AcDbLine
 10
47.118582638
 20
42.869580924
 30
0.0
 11
46.126869112
 21
42.905836922
 31
0.0
  0
LINE
  5
B0
330
1D
100
AcDbEntity
  8
1
  6
Continuous
370
    50
100
AcDbLine
 10
46.126869112
 20
42.905836922
 30
0.0
 11
45.243993628
 21
42.96484473
 31
0.0
  0
LINE
  5
B1
330
1D
100
AcDbEntity
  8
1
  6
Continuous
370
    50
100
AcDbLine
 10
45.243993628
 20
42.96484473
 30
0.0
 11
43.262140201
 21
43.188010423
 31
0.0
  0
LINE
  5
B2
330
1D
100
AcDbEntity
  8
1
  6
Continuous
370
    50
100
AcDbLine
 10
43.262140201
 20
43.188010423
 30
0.0
 11
42.188686503
 21
43.360408167
 31
0.0
  0
LINE
  5
B3
330
1D
100
AcDbEntity
  8
1
  6
Continuous
370
    50
100
AcDbLine
 10
42.188686503
 20
43.360408167
 30
0.0
 11
41.317078957
 21
43.526433689
 31
0.0
  0
LINE
  5
B4
330
1D
100
AcDbEntity
  8
1
  6
Continuous
370
    50
100
AcDbLine
 10
41.317078957
 20
43.526433689
 30
0.0
 11
40.486723558
 21
43.705894377
 31
0.0
  0
LINE
  5
B5
330
1D
100
AcDbEntity
  8
1
  6
Continuous
370
    50
100
AcDbLine
 10
40.486723558
 20
43.705894377
 30
0.0
 11
39.692614981
 21
43.896575685
 31
0.0
  0
LINE
  5
B6
330
1D
100
AcDbEntity
  8
1
  6
Continuous
370
    50
100
AcDbLine
 10
39.692614981
 20
43.896575685
 30
0.0
 11
38.953272995
 21
44.09050926
 31
0.0
  0
LINE
  5
B7
330
1D
100
AcDbEntity
  8
1
  6
Continuous
370
    50
100
AcDbLine
 10
38.953272995
 20
44.09050926
 30
0.0
 11
38.066267767
 21
44.343569503
 31
0.0
  0
LINE
  5
B8
330
1D
100
AcDbEntity
  8
1
  6
Continuous
370
    50
100
AcDbLine
 10
38.066267767
 20
44.343569503
 30
0.0
 11
37.298828822
 21
44.580030435
 31
0.0
  0
LINE
  5
B9
330
1D
100
AcDbEntity
  8
1
  6
Continuous
370
    50
100
AcDbLine
 10
37.298828822
 20
44.580030435
 30
0.0
 11
36.860750784
 21
44.722129103
 31
0.0
  0
LINE
  5
BA
330
1D
100
AcDbEntity
  8
1
  6
Continuous
370
    50
100
AcDbLine
 10
36.860750784
 20
44.722129103
 30
0.0
 11
36.425237905
 21
44.86842907
 31
0.0
  0
LINE
  5
BB
330
1D
100
AcDbEntity
  8
1
  6
Continuous
370
    50
100
AcDbLine
 10
36.425237905
 20
44.86842907
 30
0.0
 11
35.943054625
 21
45.036167388
 31
0.0
  0
LINE
  5
BC
330
1D
100
AcDbEntity
  8
1
  6
Continuous
370
    50
100
AcDbLine
 10
35.943054625
 20
45.036167388
 30
0.0
 11
35.835908058
 21
45.074252575
 31
0.0
  0
LINE
  5
BD
330
1D
100
AcDbEntity
  8
1
  6
Continuous
370
    50
100
AcDbLine
 10
35.835908058
 20
45.074252575
 30
0.0
 11
35.758904549
 21
45.101804243
 31
0.0
  0
LINE
  5
BE
330
1D
100
AcDbEntity
  8
1
  6
Continuous
370
    50
100
AcDbLine
 10
35.758904549
 20
45.101804243
 30
0.0
 11
35.760198999
 21
45.101339868
 31
0.0
  0
ARC
  5
BF
330
1D
100
AcDbEntity
  8
1
  6
Continuous
370
    50
100
AcDbCircle
 10
47.751222397
 20
71.567968448
 30
0.0
 40
27.868408999
100
AcDbArc
 50
246.594948027
 51
293.469234801
  0
LINE
  5
C3
330
1D
100
AcDbEntity
  8
SK3
  6
DASH
370
    35
100
AcDbLine
 10
35.661757249
 20
-35.75
 30
0.0
 11
35.661757249
 21
38.487746189
 31
0.0
  0
LINE
  5
C4
330
1D
100
AcDbEntity
  8
SK3
  6
DASH
370
    35
100
AcDbLine
 10
63.160757249
 20
-35.75
 30
0.0
 11
33.160757249
 21
-35.75
 31
0.0
  0
LINE
  5
C5
330
1D
100
AcDbEntity
  8
SK3
  6
DASH
370
    35
100
AcDbLine
 10
33.160757249
 20
-35.75
 30
0.0
 11
33.160757249
 21
-40.4
 31
0.0
  0
LINE
  5
C6
330
1D
100
AcDbEntity
  8
SK3
  6
DASH
370
    35
100
AcDbLine
 10
63.160757249
 20
-40.4
 30
0.0
 11
63.160757249
 21
-35.75
 31
0.0
  0
LINE
  5
C7
330
1D
100
AcDbEntity
  8
SK3
  6
DASH
370
    35
100
AcDbLine
 10
60.661757249
 20
30.449270416
 30
0.0
 11
60.661757249
 21
-35.75
 31
0.0
  0
TEXT
  5
C8
330
1D
100
AcDbEntity
  8
SK6
  6
Continuous
370
    35
100
AcDbText
 10
4.5
 20
-41.5
 30
0.0
 40
3.5
  1
310.607
  7
BMG_Text
100
AcDbText
  0
LINE
  5
CE
330
1D
100
AcDbEntity
  8
SK3
  6
DASH
370
    35
100
AcDbLine
 10
-3.004276418
 20
7.99429811
 30
0.0
 11
-3.004276418
 21
-8.022187791
 31
0.0
  0
LINE
  5
CF
330
1D
100
AcDbEntity
  8
SK3
  6
DASH
370
    35
100
AcDbLine
 10
-39.997149055
 20
7.99429811
 30
0.0
 11
-3.004276418
 21
7.99429811
 31
0.0
  0
LINE
  5
D0
330
1D
100
AcDbEntity
  8
SK3
  6
DASH
370
    35
100
AcDbLine
 10
-39.997149055
 20
-8.022187791
 30
0.0
 11
-3.004276418
 21
-8.022187791
 31
0.0
  0
LINE
  5
D4
330
1D
100
AcDbEntity
  8
SK2
100
AcDbLine
 10
-50.981946945
 20
-18.0
 30
0.0
 11
-35.25
 21
-18.0
 31
0.0
  0
LINE
  5
D5
330
1D
100
AcDbEntity
  8
SK2
100
AcDbLine
 10
-48.981946945
 20
-18.0
 30
0.0
 11
-49.431946945
 21
-14.5
 31
0.0
  0
LINE
  5
D6
330
1D
100
AcDbEntity
  8
SK2
100
AcDbLine
 10
-49.431946945
 20
-14.5
 30
0.0
 11
-48.531946945
 21
-14.5
 31
0.0
  0
LINE
  5
D7
330
1D
100
AcDbEntity
  8
SK2
100
AcDbLine
 10
-48.531946945
 20
-14.5
 30
0.0
 11
-48.981946945
 21
-18.0
 31
0.0
  0
LINE
  5
D8
330
1D
100
AcDbEntity
  8
SK2
100
AcDbLine
 10
-50.981946945
 20
18.0
 30
0.0
 11
-35.25
 21
18.0
 31
0.0
  0
LINE
  5
D9
330
1D
100
AcDbEntity
  8
SK2
100
AcDbLine
 10
-48.981946945
 20
18.0
 30
0.0
 11
-48.531946945
 21
14.5
 31
0.0
  0
LINE
  5
DA
330
1D
100
AcDbEntity
  8
SK2
100
AcDbLine
 10
-48.531946945
 20
14.5
 30
0.0
 11
-49.431946945
 21
14.5
 31
0.0
  0
LINE
  5
DB
330
1D
100
AcDbEntity
  8
SK2
100
AcDbLine
 10
-49.431946945
 20
14.5
 30
0.0
 11
-48.981946945
 21
18.0
 31
0.0
  0
LINE
  5
DC
330
1D
100
AcDbEntity
  8
SK2
100
AcDbLine
 10
-48.981946945
 20
-14.5
 30
0.0
 11
-48.981946945
 21
14.5
 31
0.0
  0
TEXT
  5
DD
330
1D
100
AcDbEntity
  8
SK2
100
AcDbText
 10
-50.481946945
 20
0.331405848
 30
0.0
 40
3.5
  1
36
 50
90.0
  7
BMG_Text
100
AcDbText
  0
CIRCLE
  5
DE
330
1D
100
AcDbEntity
  8
SK2
100
AcDbCircle
 10
-51.731946945
 20
-1.918594152
 30
0.0
 40
1.25
  0
LINE
  5
DF
330
1D
100
AcDbEntity
  8
SK2
100
AcDbLine
 10
-50.481946945
 20
-3.168594152
 30
0.0
 11
-52.981946945
 21
-0.668594152
 31
0.0
  0
LINE
  5
E0
330
1D
100
AcDbEntity
  8
1
100
AcDbLine
 10
0.0
 20
45.0
 30
0.0
 11
29.642304845
 21
45.0
 31
0.0
  0
LINE
  5
E1
330
1D
100
AcDbEntity
  8
1
100
AcDbLine
 10
0.0
 20
42.5
 30
0.0
 11
0.0
 21
45.0
 31
0.0
  0
LINE
  5
E2
330
1D
100
AcDbEntity
  8
2
  6
Continuous
370
    25
100
AcDbLine
 10
-58.567108154
 20
-45.0
 30
0.0
 11
0.0
 21
-45.0
 31
0.0
  0
LINE
  5
E3
330
1D
100
AcDbEntity
  8
2
  6
Continuous
370
    25
100
AcDbLine
 10
-56.567108154
 20
-45.0
 30
0.0
 11
-57.017108154
 21
-41.5
 31
0.0
  0
LINE
  5
E4
330
1D
100
AcDbEntity
  8
2
  6
Continuous
370
    25
100
AcDbLine
 10
-57.017108154
 20
-41.5
 30
0.0
 11
-56.117108154
 21
-41.5
 31
0.0
  0
LINE
  5
E5
330
1D
100
AcDbEntity
  8
2
  6
Continuous
370
    25
100
AcDbLine
 10
-56.117108154
 20
-41.5
 30
0.0
 11
-56.567108154
 21
-45.0
 31
0.0
  0
LINE
  5
E6
330
1D
100
AcDbEntity
  8
2
  6
Continuous
370
    25
100
AcDbLine
 10
-58.567108154
 20
45.0
 30
0.0
 11
0.0
 21
45.0
 31
0.0
  0
LINE
  5
E7
330
1D
100
AcDbEntity
  8
2
  6
Continuous
370
    25
100
AcDbLine
 10
-56.567108154
 20
45.0
 30
0.0
 11
-56.117108154
 21
41.5
 31
0.0
  0
LINE
  5
E8
330
1D
100
AcDbEntity
  8
2
  6
Continuous
370
    25
100
AcDbLine
 10
-56.117108154
 20
41.5
 30
0.0
 11
-57.017108154
 21
41.5
 31
0.0
  0
LINE
  5
E9
330
1D
100
AcDbEntity
  8
2
  6
Continuous
370
    25
100
AcDbLine
 10
-57.017108154
 20
41.5
 30
0.0
 11
-56.567108154
 21
45.0
 31
0.0
  0
LINE
  5
EA
330
1D
100
AcDbEntity
  8
2
  6
Continuous
370
    25
100
AcDbLine
 10
-56.567108154
 20
-41.5
 30
0.0
 11
-56.567108154
 21
41.5
 31
0.0
  0
TEXT
  5
EB
330
1D
100
AcDbEntity
  8
2
  6
Continuous
370
    25
100
AcDbText
 10
-58.067108154
 20
0.139998994
 30
0.0
 40
3.5
  1
90
 50
90.0
  7
BMG_Text
100
AcDbText
  0
CIRCLE
  5
EC
330
1D
100
AcDbEntity
  8
2
  6
Continuous
370
    25
100
AcDbCircle
 10
-59.317108154
 20
-2.110001006
 30
0.0
 40
1.25
  0
LINE
  5
ED
330
1D
100
AcDbEntity
  8
2
  6
Continuous
370
    25
100
AcDbLine
 10
-58.067108154
 20
-3.360001006
 30
0.0
 11
-60.567108154
 21
-0.860001006
 31
0.0
  0
LINE
  5
EE
330
1D
100
AcDbEntity
  8
2
  6
Continuous
370
    25
100
AcDbLine
 10
-0.25
 20
-55.016433716
 30
0.0
 11
-0.25
 21
-18.0
 31
0.0
  0
LINE
  5
EF
330
1D
100
AcDbEntity
  8
2
  6
Continuous
370
    25
100
AcDbLine
 10
-0.25
 20
-53.016433716
 30
0.0
 11
3.249999987
 21
-52.566433616
 31
0.0
  0
LINE
  5
F0
330
1D
100
AcDbEntity
  8
2
  6
Continuous
370
    25
100
AcDbLine
 10
3.249999987
 20
-52.566433616
 30
0.0
 11
3.250000013
 21
-53.466433616
 31
0.0
  0
LINE
  5
F1
330
1D
100
AcDbEntity
  8
2
  6
Continuous
370
    25
100
AcDbLine
 10
3.250000013
 20
-53.466433616
 30
0.0
 11
-0.25
 21
-53.016433716
 31
0.0
  0
LINE
  5
F2
330
1D
100
AcDbEntity
  8
2
  6
Continuous
370
    25
100
AcDbLine
 10
66.95
 20
-55.016431808
 30
0.0
 11
66.95
 21
-40.0
 31
0.0
  0
LINE
  5
F3
330
1D
100
AcDbEntity
  8
2
  6
Continuous
370
    25
100
AcDbLine
 10
66.95
 20
-53.016431808
 30
0.0
 11
63.450000013
 21
-53.466431908
 31
0.0
  0
LINE
  5
F4
330
1D
100
AcDbEntity
  8
2
  6
Continuous
370
    25
100
AcDbLine
 10
63.450000013
 20
-53.466431908
 30
0.0
 11
63.449999987
 21
-52.566431908
 31
0.0
  0
LINE
  5
F5
330
1D
100
AcDbEntity
  8
2
  6
Continuous
370
    25
100
AcDbLine
 10
63.449999987
 20
-52.566431908
 30
0.0
 11
66.95
 21
-53.016431808
 31
0.0
  0
LINE
  5
F6
330
1D
100
AcDbEntity
  8
2
  6
Continuous
370
    25
100
AcDbLine
 10
3.25
 20
-53.016433616
 30
0.0
 11
63.45
 21
-53.016431908
 31
0.0
  0
TEXT
  5
F7
330
1D
100
AcDbEntity
  8
2
  6
Continuous
370
    25
100
AcDbText
 10
30.126717956
 20
-51.516432854
 30
0.0
 40
3.5
  1
67.2
 50
0.000001626
  7
BMG_Text
100
AcDbText
  0
LINE
  5
F9
330
1D
100
AcDbEntity
  8
2
  6
Continuous
370
    25
100
AcDbLine
 10
-0.25
 20
57.38416481
 30
0.0
 11
3.249999998
 21
57.834164822
 31
0.0
  0
LINE
  5
FA
330
1D
100
AcDbEntity
  8
2
  6
Continuous
370
    25
100
AcDbLine
 10
3.249999998
 20
57.834164822
 30
0.0
 11
3.250000002
 21
56.934164822
 31
0.0
  0
LINE
  5
FB
330
1D
100
AcDbEntity
  8
2
  6
Continuous
370
    25
100
AcDbLine
 10
3.250000002
 20
56.934164822
 30
0.0
 11
-0.25
 21
57.38416481
 31
0.0
  0
LINE
  5
FC
330
1D
100
AcDbEntity
  8
2
  6
Continuous
370
    25
100
AcDbLine
 10
70.731839179
 20
59.384165052
 30
0.0
 11
70.731839179
 21
49.600163224
 31
0.0
  0
LINE
  5
FD
330
1D
100
AcDbEntity
  8
2
  6
Continuous
370
    25
100
AcDbLine
 10
70.731839179
 20
57.384165052
 30
0.0
 11
67.23183918
 21
56.93416504
 31
0.0
  0
LINE
  5
FE
330
1D
100
AcDbEntity
  8
2
  6
Continuous
370
    25
100
AcDbLine
 10
67.23183918
 20
56.93416504
 30
0.0
 11
67.231839177
 21
57.83416504
 31
0.0
  0
LINE
  5
FF
330
1D
100
AcDbEntity
  8
2
  6
Continuous
370
    25
100
AcDbLine
 10
67.231839177
 20
57.83416504
 30
0.0
 11
70.731839179
 21
57.384165052
 31
0.0
  0
LINE
  5
100
330
1D
100
AcDbEntity
  8
2
  6
Continuous
370
    25
100
AcDbLine
 10
3.25
 20
57.384164822
 30
0.0
 11
67.231839179
 21
57.38416504
 31
0.0
  0
TEXT
  5
101
330
1D
100
AcDbEntity
  8
2
  6
Continuous
370
    25
100
AcDbText
 10
33.959043791
 20
58.884164927
 30
0.0
 40
3.5
  1
71
 50
0.000000195
  7
BMG_Text
100
AcDbText
  0
LINE
  5
102
330
1D
100
AcDbEntity
  8
2
  6
Continuous
370
    25
100
AcDbLine
 10
84.747128104
 20
50.000163855
 30
0.0
 11
70.331839179
 21
50.000163224
 31
0.0
  0
LINE
  5
103
330
1D
100
AcDbEntity
  8
2
  6
Continuous
370
    25
100
AcDbLine
 10
82.747128104
 20
50.000163767
 30
0.0
 11
83.197128257
 21
46.500163787
 31
0.0
  0
LINE
  5
104
330
1D
100
AcDbEntity
  8
2
  6
Continuous
370
    25
100
AcDbLine
 10
83.197128257
 20
46.500163787
 30
0.0
 11
82.297128257
 21
46.500163747
 31
0.0
  0
LINE
  5
105
330
1D
100
AcDbEntity
  8
2
  6
Continuous
370
    25
100
AcDbLine
 10
82.297128257
 20
46.500163747
 30
0.0
 11
82.747128104
 21
50.000163767
 31
0.0
  0
LINE
  5
106
330
1D
100
AcDbEntity
  8
2
  6
Continuous
370
    25
100
AcDbLine
 10
82.747130508
 20
-5.000015727
 30
0.0
 11
82.747128257
 21
46.500163767
 31
0.0
  0
TEXT
  5
107
330
1D
100
AcDbEntity
  8
2
  6
Continuous
370
    25
100
AcDbText
 10
81.210678541
 20
-4.277479056
 30
0.0
 40
3.5
  1
100
 50
90.00000250400001
  7
BMG_Text
100
AcDbText
  0
CIRCLE
  5
108
330
1D
100
AcDbEntity
  8
2
  6
Continuous
370
    25
100
AcDbCircle
 10
79.960678639
 20
-6.527479111
 30
0.0
 40
1.25
  0
LINE
  5
109
330
1D
100
AcDbEntity
  8
2
  6
Continuous
370
    25
100
AcDbLine
 10
81.210678694
 20
-7.777479056
 30
0.0
 11
78.710678585
 21
-5.277479166
 31
0.0
  0
TEXT
  5
10A
330
1D
100
AcDbEntity
  8
2
  6
Continuous
370
    25
100
AcDbText
 10
81.210678265
 20
5.915335256681288
 30
0.0
 40
3.5
  1
-153
 50
90.00000250400001
  7
BMG_Text
100
AcDbText
  0
LINE
  5
1B0
330
1D
100
AcDbEntity
  8
1
100
AcDbLine
 10
63.819015866
 20
46.730644494
 30
0.0
 11
68.465987907
 21
49.098395011
 31
0.0
  0
LINE
  5
1B1
330
1D
100
AcDbEntity
  8
1
100
AcDbLine
 10
63.651540806
 20
43.535029982
 30
0.0
 11
69.78960944697515
 21
39.54965952616489
 31
0.0
  0
LINE
  5
1B2
330
1D
100
AcDbEntity
  8
1
100
AcDbLine
 10
69.78960944697515
 20
39.54965952616489
 30
0.0
 11
69.79437465238006
 21
39.54965952616489
 31
0.0
  0
LINE
  5
1B3
330
1D
100
AcDbEntity
  8
1
100
AcDbLine
 10
69.7916853135
 20
39.60217535542072
 30
0.0
 11
70.331839179
 21
49.600163224
 31
0.0
  0
LINE
  5
1B4
330
1D
100
AcDbEntity
  8
1
100
AcDbLine
 10
70.331839179
 20
49.600163224
 30
0.0
 11
68.465987907
 21
49.098395011
 31
0.0
  0
LINE
  5
1BE
330
1D
100
AcDbEntity
  8
NOCUT
100
AcDbLine
 10
31.67738168932422
 20
40.4
 30
0.0
 11
30.8748711305
 21
40.4
 31
0.0
  0
LINE
  5
1BF
330
1D
100
AcDbEntity
  8
NOCUT
100
AcDbLine
 10
31.67738168932422
 20
40.4
 30
0.0
 11
35.75
 21
41.447790907
 31
0.0
  0
LINE
  5
1C0
330
1D
100
AcDbEntity
  8
NOCUT
100
AcDbLine
 10
35.75
 20
41.447790907
 30
0.0
 11
35.75
 21
45.10135318
 31
0.0
  0
LINE
  5
1C1
330
1D
100
AcDbEntity
  8
NOCUT
100
AcDbLine
 10
36.682119558
 20
46.005
 30
0.0
 11
42.253783091
 21
46.005
 31
0.0
  0
LINE
  5
1C2
330
1D
100
AcDbEntity
  8
NOCUT
100
AcDbLine
 10
42.253783091
 20
46.005
 30
0.0
 11
43.50290739
 21
45.797637462
 31
0.0
  0
LINE
  5
1C3
330
1D
100
AcDbEntity
  8
NOCUT
100
AcDbLine
 10
43.50290739
 20
45.797637462
 30
0.0
 11
44.65
 21
46.105
 31
0.0
  0
LINE
  5
1C4
330
1D
100
AcDbEntity
  8
NOCUT
100
AcDbLine
 10
44.65
 20
46.105
 30
0.0
 11
50.85
 21
46.105
 31
0.0
  0
LINE
  5
1C5
330
1D
100
AcDbEntity
  8
NOCUT
100
AcDbLine
 10
50.85
 20
46.105
 30
0.0
 11
51.995289062
 21
45.798120721
 31
0.0
  0
LINE
  5
1C6
330
1D
100
AcDbEntity
  8
NOCUT
100
AcDbLine
 10
51.995289062
 20
45.798120721
 30
0.0
 11
53.243282295
 21
46.005
 31
0.0
  0
LINE
  5
1C7
330
1D
100
AcDbEntity
  8
NOCUT
100
AcDbLine
 10
53.243282295
 20
46.005
 30
0.0
 11
58.84999999982712
 21
46.00500000029176
 31
0.0
  0
LINE
  5
1C8
330
1D
100
AcDbEntity
  8
NOCUT
100
AcDbLine
 10
58.84999999982712
 20
46.00500000029176
 30
0.0
 11
59.968942984
 21
47.943066099
 31
0.0
  0
LINE
  5
1C9
330
1D
100
AcDbEntity
  8
NOCUT
100
AcDbLine
 10
59.968942984
 20
47.943066099
 30
0.0
 11
68.305660938
 21
49.413054405
 31
0.0
  0
LINE
  5
1CA
330
1D
100
AcDbEntity
  8
NOCUT
100
AcDbLine
 10
68.305660938
 20
49.413054405
 30
0.0
 11
68.465987907
 21
49.098395011
 31
0.0
  0
LINE
  5
1CB
330
1D
100
AcDbEntity
  8
NOCUT
100
AcDbLine
 10
68.465987907
 20
49.098395011
 30
0.0
 11
70.331839179
 21
49.600163224
 31
0.0
  0
LINE
  5
1CC
330
1D
100
AcDbEntity
  8
NOCUT
100
AcDbLine
 10
70.331839179
 20
49.600163224
 30
0.0
 11
69.687218587
 21
37.505
 31
0.0
  0
LINE
  5
1CD
330
1D
100
AcDbEntity
  8
NOCUT
100
AcDbLine
 10
69.687218587
 20
37.505
 30
0.0
 11
66.95
 21
37.505
 31
0.0
  0
LINE
  5
1CE
330
1D
100
AcDbEntity
  8
NOCUT
100
AcDbLine
 10
66.95
 20
37.505
 30
0.0
 11
66.95
 21
-0.0000000000000071
 31
0.0
  0
LINE
  5
1CF
330
1D
100
AcDbEntity
  8
NOCUT
100
AcDbLine
 10
66.95
 20
-0.0000000000000071
 30
0.0
 11
0.0
 21
0.0
 31
0.0
  0
LINE
  5
1D0
330
1D
100
AcDbEntity
  8
NOCUT
100
AcDbLine
 10
0.0
 20
0.0
 30
0.0
 11
0.0
 21
42.5
 31
0.0
  0
LINE
  5
1D1
330
1D
100
AcDbEntity
  8
NOCUT
100
AcDbLine
 10
0.0
 20
42.5
 30
0.0
 11
0.0
 21
45.0
 31
0.0
  0
LINE
  5
1D2
330
1D
100
AcDbEntity
  8
NOCUT
100
AcDbLine
 10
0.0
 20
45.0
 30
0.0
 11
29.642304845
 21
45.0
 31
0.0
  0
LINE
  5
1D3
330
1D
100
AcDbEntity
  8
NOCUT
100
AcDbLine
 10
29.642304845
 20
45.0
 30
0.0
 11
30.8748711305
 21
40.4
 31
0.0
  0
ARC
  5
1D4
330
1D
100
AcDbEntity
  8
NOCUT
100
AcDbCircle
 10
36.65265613057439
 20
45.10282365426574
 30
0.0
 40
0.9026573283135105
100
AcDbArc
 50
88.12948957097935
 51
180.0933377528014
  0
LWPOLYLINE
  5
1F7
330
1D
100
AcDbEntity
  8
INFTOTAL
100
AcDbPolyline
 90
        4
 70
     1
 43
0.0
 10
-122.5735932684682
 20
89.5096994655975
 10
-122.5735932684682
 20
-86.09438913415532
 10
144.7307276444746
 20
-86.09438913415532
 10
144.7307276444746
 20
89.5096994655975
  0
LINE
  5
21B
330
1D
100
AcDbEntity
  8
2
100
AcDbLine
 10
0.0
 20
45.0
 30
0.0
 11
0.0000000000000009
 21
59.25186015457582
 31
0.0
  0
LINE
  5
232
330
1D
100
AcDbEntity
  8
SK6
100
AcDbLine
 10
0.5080682987683467
 20
1.942622200816857
 30
0.0
 11
1.740646042043061
 21
1.844884758618862
 31
0.0
  0
LINE
  5
233
330
1D
100
AcDbEntity
  8
SK6
100
AcDbLine
 10
1.740646042043061
 20
1.844884758618862
 30
0.0
 11
2.658292027124235
 21
0.9869672104364628
 31
0.0
  0
LINE
  5
234
330
1D
100
AcDbEntity
  8
SK6
100
AcDbLine
 10
2.658292027124235
 20
0.9869672104364628
 30
0.0
 11
1.532139498687338
 21
1.274749679130559
 31
0.0
  0
LINE
  5
236
330
1D
100
AcDbEntity
  8
3
100
AcDbLine
 10
0.4833197594292287
 20
1.950145523461742
 30
0.0
 11
1.617039569028576
 21
-0.0031881770394857
 31
0.0
  0
LINE
  5
237
330
1D
100
AcDbEntity
  8
3
100
AcDbLine
 10
1.617039569028576
 20
-0.0031881770394857
 30
0.0
 11
0.4996771170162075
 21
-1.937544158485611
 31
0.0
  0
LINE
  5
238
330
1D
100
AcDbEntity
  8
3
100
AcDbLine
 10
0.5277087241364615
 20
4.050551612872795
 30
0.0
 11
63.66522976096401
 21
30.31572996972932
 31
0.0
  0
LINE
  5
239
330
1D
100
AcDbEntity
  8
3
100
AcDbLine
 10
55.72631229885939
 20
32.43954004695623
 30
0.0
 11
0.5006293059652849
 21
9.454201419534833
 31
0.0
  0
LINE
  5
23C
330
1D
100
AcDbEntity
  8
4
100
AcDbLine
 10
0.0
 20
0.0
 30
0.0
 11
69.0
 21
0.0
 31
0.0
  0
LINE
  5
242
330
1D
100
AcDbEntity
  8
SK3
100
AcDbLine
 10
0.5002325579948675
 20
9.453866595516347
 30
0.0
 11
-2.987913067736115
 21
8.032345033378544
 31
0.0
  0
LINE
  5
243
330
1D
100
AcDbEntity
  8
SK3
100
AcDbLine
 10
0.5002093382143431
 20
4.039230801416037
 30
0.0
 11
-2.99596365956365
 21
2.772645437434559
 31
0.0
  0
LINE
  5
245
330
1D
100
AcDbEntity
  8
SK3
100
AcDbLine
 10
0.4999603554277069
 20
-1.93680850843841
 30
0.0
 11
-3.001866765034179
 21
-7.324865949251981
 31
0.0
  0
LINE
  5
246
330
1D
100
AcDbEntity
  8
SK3
100
AcDbLine
 10
0.5017583057566772
 20
1.925653502922028
 30
0.0
 11
-0.6288064166125098
 21
3.615056919807432
 31
0.0
  0
LINE
  5
248
330
1D
100
AcDbEntity
  8
SK4
100
AcDbLine
 10
0.0
 20
0.0
 30
0.0
 11
-46.0
 21
0.0
 31
0.0
  0
ENDSEC
  0
SECTION
  2
OBJECTS
  0
DICTIONARY
  5
C
330
0
100
AcDbDictionary
281
     1
  3
ACAD_DETAILVIEWSTYLE
350
1A5
  3
ACAD_GROUP
350
D
  3
ACAD_LAYOUT
350
1A
  3
ACAD_MATERIAL
350
148
  3
ACAD_MLEADERSTYLE
350
155
  3
ACAD_MLINESTYLE
350
17
  3
ACAD_PLOTSETTINGS
350
19
  3
ACAD_PLOTSTYLENAME
350
E
  3
ACAD_SCALELIST
350
111
  3
ACAD_SECTIONVIEWSTYLE
350
1A6
  3
ACAD_TABLESTYLE
350
19E
  3
ACAD_VISUALSTYLE
350
137
  3
ACDB_RECOMPOSE_DATA
350
267
  3
AcDbVariableDictionary
350
153
  3
APPDATA
350
1A1
  0
SUN
  5
21F
330
10B
100
AcDbSun
 90
        1
290
     0
 63
     7
421
 16777215
 40
1.0
291
     1
 91
  2455826
 92
 54000000
292
     0
 70
     2
 71
   256
280
     1
  0
DICTIONARY
  5
1A7
330
2
100
AcDbDictionary
280
     1
281
     1
  3
ACAD_LAYERSTATES
360
1A8
  0
DICTIONARY
  5
1A5
102
{ACAD_REACTORS
330
C
102
}
330
C
100
AcDbDictionary
281
     1
  0
DICTIONARY
  5
D
102
{ACAD_REACTORS
330
C
102
}
330
C
100
AcDbDictionary
281
     1
  0
DICTIONARY
  5
1A
102
{ACAD_REACTORS
330
C
102
}
330
C
100
AcDbDictionary
281
     1
  3
Layout1
350
1C
  3
Model
350
1E
  0
DICTIONARY
  5
148
102
{ACAD_REACTORS
330
C
102
}
330
C
100
AcDbDictionary
281
     1
  3
ByBlock
350
14A
  3
ByLayer
350
149
  3
Global
350
14B
  0
DICTIONARY
  5
155
102
{ACAD_REACTORS
330
C
102
}
330
C
100
AcDbDictionary
281
     1
  3
Standard
350
1A0
  0
DICTIONARY
  5
17
102
{ACAD_REACTORS
330
C
102
}
330
C
100
AcDbDictionary
281
     1
  3
Standard
350
18
  0
DICTIONARY
  5
19
102
{ACAD_REACTORS
330
C
102
}
330
C
100
AcDbDictionary
281
     1
  0
ACDBDICTIONARYWDFLT
  5
E
102
{ACAD_REACTORS
330
C
102
}
330
C
100
AcDbDictionary
281
     1
  3
Normal
350
F
100
AcDbDictionaryWithDefault
340
F
  0
DICTIONARY
  5
111
102
{ACAD_REACTORS
330
C
102
}
330
C
100
AcDbDictionary
281
     1
  3
A0
350
112
  3
A1
350
113
  3
A2
350
114
  3
A3
350
115
  3
A4
350
116
  3
A5
350
117
  3
A6
350
118
  3
A7
350
119
  3
A8
350
11A
  3
A9
350
11B
  3
B0
350
11C
  3
B1
350
11D
  3
B2
350
11E
  3
B3
350
11F
  3
B4
350
120
  3
B5
350
121
  3
B6
350
122
  3
B7
350
123
  3
B8
350
124
  3
B9
350
125
  3
C0
350
126
  3
C1
350
127
  3
C2
350
128
  3
C3
350
129
  3
C4
350
12A
  3
C5
350
12B
  3
C6
350
12C
  3
C7
350
12D
  3
C8
350
12E
  3
C9
350
12F
  3
D0
350
130
  3
D1
350
131
  3
D2
350
132
  0
DICTIONARY
  5
1A6
102
{ACAD_REACTORS
330
C
102
}
330
C
100
AcDbDictionary
281
     1
  0
DICTIONARY
  5
19E
102
{ACAD_REACTORS
330
C
102
}
330
C
100
AcDbDictionary
281
     1
  3
Standard
350
19F
  0
DICTIONARY
  5
137
102
{ACAD_REACTORS
330
C
102
}
330
C
100
AcDbDictionary
281
     1
  3
2dWireframe
350
13C
  3
3D Hidden
350
13E
  3
3dWireframe
350
13D
  3
Basic
350
13F
  3
Brighten
350
143
  3
ColorChange
350
147
  3
Conceptual
350
141
  3
Dim
350
142
  3
EdgeColorOff
350
198
  3
Facepattern
350
146
  3
Flat
350
138
  3
FlatWithEdges
350
139
  3
Gouraud
350
13A
  3
GouraudWithEdges
350
13B
  3
Hidden
350
195
  3
JitterOff
350
196
  3
Linepattern
350
145
  3
OverhangOff
350
197
  3
Realistic
350
140
  3
Shaded
350
19D
  3
Shaded with edges
350
19C
  3
Shades of Gray
350
199
  3
Sketchy
350
19A
  3
Thicken
350
144
  3
Wireframe
350
194
  3
X-Ray
350
19B
  0
XRECORD
  5
267
102
{ACAD_REACTORS
330
C
102
}
330
C
100
AcDbXrecord
280
     1
 90
        1
330
19F
  0
DICTIONARY
  5
153
102
{ACAD_REACTORS
330
C
102
}
330
C
100
AcDbDictionary
281
     1
  3
CANNOSCALE
350
1A2
  3
CMLEADERSTYLE
350
1A4
  3
CTABLESTYLE
350
1A3
  3
DIMASSOC
350
157
  3
HIDETEXT
350
158
  3
MSLTSCALE
350
156
  0
DICTIONARY
  5
1A1
102
{ACAD_REACTORS
330
C
102
}
330
C
100
AcDbDictionary
281
     1
  0
DICTIONARY
  5
1A8
102
{ACAD_REACTORS
330
1A7
102
}
330
1A7
100
AcDbDictionary
281
     1
  0
LAYOUT
  5
1C
102
{ACAD_REACTORS
330
1A
102
}
330
1A
100
AcDbPlotSettings
  1

  2
none_device
  4

  6

 40
0.0
 41
0.0
 42
0.0
 43
0.0
 44
0.0
 45
0.0
 46
0.0
 47
0.0
 48
0.0
 49
0.0
140
0.0
141
0.0
142
1.0
143
1.0
 70
   688
 72
     0
 73
     0
 74
     5
  7

 75
    16
 76
     0
 77
     2
 78
   300
147
1.0
148
0.0
149
0.0
100
AcDbLayout
  1
Layout1
 70
     1
 71
     1
 10
0.0
 20
0.0
 11
12.0
 21
9.0
 12
0.0
 22
0.0
 32
0.0
 14
1.000000000000000E+20
 24
1.000000000000000E+20
 34
1.000000000000000E+20
 15
-1.000000000000000E+20
 25
-1.000000000000000E+20
 35
-1.000000000000000E+20
146
0.0
 13
0.0
 23
0.0
 33
0.0
 16
1.0
 26
0.0
 36
0.0
 17
0.0
 27
1.0
 37
0.0
 76
     0
330
1B
  0
LAYOUT
  5
1E
102
{ACAD_REACTORS
330
1A
102
}
330
1A
100
AcDbPlotSettings
  1

  2
none_device
  4

  6

 40
0.0
 41
0.0
 42
0.0
 43
0.0
 44
0.0
 45
0.0
 46
0.0
 47
0.0
 48
0.0
 49
0.0
140
0.0
141
0.0
142
1.0
143
1.0
 70
  1712
 72
     0
 73
     0
 74
     0
  7

 75
     0
 76
     0
 77
     2
 78
   300
147
1.0
148
0.0
149
0.0
100
AcDbLayout
  1
Model
 70
     1
 71
     0
 10
0.0
 20
0.0
 11
12.0
 21
9.0
 12
0.0
 22
0.0
 32
0.0
 14
-122.5735932684682
 24
-86.09438913415532
 34
0.0
 15
144.7307276444746
 25
89.5096994655975
 35
0.0
146
0.0
 13
0.0
 23
0.0
 33
0.0
 16
1.0
 26
0.0
 36
0.0
 17
0.0
 27
1.0
 37
0.0
 76
     0
330
1D
331
10B
  0
MATERIAL
  5
14A
102
{ACAD_REACTORS
330
148
102
}
330
148
100
AcDbMaterial
  1
ByBlock
 72
     1
 94
      127
  0
MATERIAL
  5
149
102
{ACAD_REACTORS
330
148
102
}
330
148
100
AcDbMaterial
  1
ByLayer
 72
     1
 94
      127
  0
MATERIAL
  5
14B
102
{ACAD_REACTORS
330
148
102
}
330
148
100
AcDbMaterial
  1
Global
 72
     1
 94
      127
  0
MLEADERSTYLE
  5
1A0
102
{ACAD_REACTORS
330
155
102
}
330
155
100
AcDbMLeaderStyle
179
     2
170
     2
171
     1
172
     0
 90
        2
 40
0.0
 41
0.0
173
     1
 91
-1056964608
340
14
 92
       -2
290
     1
 42
0.09
291
     1
 43
0.36
  3
Standard
341
0
 44
0.18
300

342
11
174
     1
178
     1
175
     1
176
     0
 93
-1056964608
 45
0.18
292
     0
297
     0
 46
0.18
343
0
 94
-1056964608
 47
1.0
 49
1.0
140
1.0
293
     1
141
0.0
294
     1
177
     0
142
1.0
295
     0
296
     0
143
0.125
271
     0
272
     9
273
     9
298
     0
  0
MLINESTYLE
  5
18
102
{ACAD_REACTORS
330
17
102
}
330
17
100
AcDbMlineStyle
  2
Standard
 70
     0
  3

 62
   256
 51
90.0
 52
90.0
 71
     2
 49
0.5
 62
   256
  6
BYLAYER
 49
-0.5
 62
   256
  6
BYLAYER
  0
ACDBPLACEHOLDER
  5
F
102
{ACAD_REACTORS
330
E
102
}
330
E
  0
SCALE
  5
112
102
{ACAD_REACTORS
330
111
102
}
330
111
100
AcDbScale
 70
     0
300
1:1
140
1.0
141
1.0
290
     1
  0
SCALE
  5
113
102
{ACAD_REACTORS
330
111
102
}
330
111
100
AcDbScale
 70
     0
300
1:2
140
1.0
141
2.0
290
     0
  0
SCALE
  5
114
102
{ACAD_REACTORS
330
111
102
}
330
111
100
AcDbScale
 70
     0
300
1:4
140
1.0
141
4.0
290
     0
  0
SCALE
  5
115
102
{ACAD_REACTORS
330
111
102
}
330
111
100
AcDbScale
 70
     0
300
1:5
140
1.0
141
5.0
290
     0
  0
SCALE
  5
116
102
{ACAD_REACTORS
330
111
102
}
330
111
100
AcDbScale
 70
     0
300
1:8
140
1.0
141
8.0
290
     0
  0
SCALE
  5
117
102
{ACAD_REACTORS
330
111
102
}
330
111
100
AcDbScale
 70
     0
300
1:10
140
1.0
141
10.0
290
     0
  0
SCALE
  5
118
102
{ACAD_REACTORS
330
111
102
}
330
111
100
AcDbScale
 70
     0
300
1:16
140
1.0
141
16.0
290
     0
  0
SCALE
  5
119
102
{ACAD_REACTORS
330
111
102
}
330
111
100
AcDbScale
 70
     0
300
1:20
140
1.0
141
20.0
290
     0
  0
SCALE
  5
11A
102
{ACAD_REACTORS
330
111
102
}
330
111
100
AcDbScale
 70
     0
300
1:30
140
1.0
141
30.0
290
     0
  0
SCALE
  5
11B
102
{ACAD_REACTORS
330
111
102
}
330
111
100
AcDbScale
 70
     0
300
1:40
140
1.0
141
40.0
290
     0
  0
SCALE
  5
11C
102
{ACAD_REACTORS
330
111
102
}
330
111
100
AcDbScale
 70
     0
300
1:50
140
1.0
141
50.0
290
     0
  0
SCALE
  5
11D
102
{ACAD_REACTORS
330
111
102
}
330
111
100
AcDbScale
 70
     0
300
1:100
140
1.0
141
100.0
290
     0
  0
SCALE
  5
11E
102
{ACAD_REACTORS
330
111
102
}
330
111
100
AcDbScale
 70
     0
300
2:1
140
2.0
141
1.0
290
     0
  0
SCALE
  5
11F
102
{ACAD_REACTORS
330
111
102
}
330
111
100
AcDbScale
 70
     0
300
4:1
140
4.0
141
1.0
290
     0
  0
SCALE
  5
120
102
{ACAD_REACTORS
330
111
102
}
330
111
100
AcDbScale
 70
     0
300
8:1
140
8.0
141
1.0
290
     0
  0
SCALE
  5
121
102
{ACAD_REACTORS
330
111
102
}
330
111
100
AcDbScale
 70
     0
300
10:1
140
10.0
141
1.0
290
     0
  0
SCALE
  5
122
102
{ACAD_REACTORS
330
111
102
}
330
111
100
AcDbScale
 70
     0
300
100:1
140
100.0
141
1.0
290
     0
  0
SCALE
  5
123
102
{ACAD_REACTORS
330
111
102
}
330
111
100
AcDbScale
 70
     0
300
1/128" = 1'-0"
140
0.0078125
141
12.0
290
     0
  0
SCALE
  5
124
102
{ACAD_REACTORS
330
111
102
}
330
111
100
AcDbScale
 70
     0
300
1/64" = 1'-0"
140
0.015625
141
12.0
290
     0
  0
SCALE
  5
125
102
{ACAD_REACTORS
330
111
102
}
330
111
100
AcDbScale
 70
     0
300
1/32" = 1'-0"
140
0.03125
141
12.0
290
     0
  0
SCALE
  5
126
102
{ACAD_REACTORS
330
111
102
}
330
111
100
AcDbScale
 70
     0
300
1/16" = 1'-0"
140
0.0625
141
12.0
290
     0
  0
SCALE
  5
127
102
{ACAD_REACTORS
330
111
102
}
330
111
100
AcDbScale
 70
     0
300
3/32" = 1'-0"
140
0.09375
141
12.0
290
     0
  0
SCALE
  5
128
102
{ACAD_REACTORS
330
111
102
}
330
111
100
AcDbScale
 70
     0
300
1/8" = 1'-0"
140
0.125
141
12.0
290
     0
  0
SCALE
  5
129
102
{ACAD_REACTORS
330
111
102
}
330
111
100
AcDbScale
 70
     0
300
3/16" = 1'-0"
140
0.1875
141
12.0
290
     0
  0
SCALE
  5
12A
102
{ACAD_REACTORS
330
111
102
}
330
111
100
AcDbScale
 70
     0
300
1/4" = 1'-0"
140
0.25
141
12.0
290
     0
  0
SCALE
  5
12B
102
{ACAD_REACTORS
330
111
102
}
330
111
100
AcDbScale
 70
     0
300
3/8" = 1'-0"
140
0.375
141
12.0
290
     0
  0
SCALE
  5
12C
102
{ACAD_REACTORS
330
111
102
}
330
111
100
AcDbScale
 70
     0
300
1/2" = 1'-0"
140
0.5
141
12.0
290
     0
  0
SCALE
  5
12D
102
{ACAD_REACTORS
330
111
102
}
330
111
100
AcDbScale
 70
     0
300
3/4" = 1'-0"
140
0.75
141
12.0
290
     0
  0
SCALE
  5
12E
102
{ACAD_REACTORS
330
111
102
}
330
111
100
AcDbScale
 70
     0
300
1" = 1'-0"
140
1.0
141
12.0
290
     0
  0
SCALE
  5
12F
102
{ACAD_REACTORS
330
111
102
}
330
111
100
AcDbScale
 70
     0
300
1-1/2" = 1'-0"
140
1.5
141
12.0
290
     0
  0
SCALE
  5
130
102
{ACAD_REACTORS
330
111
102
}
330
111
100
AcDbScale
 70
     0
300
3" = 1'-0"
140
3.0
141
12.0
290
     0
  0
SCALE
  5
131
102
{ACAD_REACTORS
330
111
102
}
330
111
100
AcDbScale
 70
     0
300
6" = 1'-0"
140
6.0
141
12.0
290
     0
  0
SCALE
  5
132
102
{ACAD_REACTORS
330
111
102
}
330
111
100
AcDbScale
 70
     0
300
1'-0" = 1'-0"
140
12.0
141
12.0
290
     0
  0
TABLESTYLE
  5
19F
102
{ACAD_REACTORS
330
19E
102
}
102
{ACAD_XDICTIONARY
360
265
102
}
330
19E
100
AcDbTableStyle
  3
Standard
 70
     0
 71
     0
 40
0.06
 41
0.06
280
     0
281
     0
  7
Standard
140
0.18
170
     2
 62
     0
 63
   257
283
     0
 90
        4
 91
        0
  1

274
    -2
284
     1
 64
     0
275
    -2
285
     1
 65
     0
276
    -2
286
     1
 66
     0
277
    -2
287
     1
 67
     0
278
    -2
288
     1
 68
     0
279
    -2
289
     1
 69
     0
  7
Standard
140
0.25
170
     5
 62
     0
 63
   257
283
     0
 90
        4
 91
        0
  1

274
    -2
284
     1
 64
     0
275
    -2
285
     1
 65
     0
276
    -2
286
     1
 66
     0
277
    -2
287
     1
 67
     0
278
    -2
288
     1
 68
     0
279
    -2
289
     1
 69
     0
  7
Standard
140
0.18
170
     5
 62
     0
 63
   257
283
     0
 90
        4
 91
        0
  1

274
    -2
284
     1
 64
     0
275
    -2
285
     1
 65
     0
276
    -2
286
     1
 66
     0
277
    -2
287
     1
 67
     0
278
    -2
288
     1
 68
     0
279
    -2
289
     1
 69
     0
  0
VISUALSTYLE
  5
13C
102
{ACAD_REACTORS
330
137
102
}
330
137
100
AcDbVisualStyle
  2
2dWireframe
 70
     4
177
     3
291
     0
 70
    58
 90
        0
176
     1
 90
        2
176
     1
 90
        0
176
     1
 90
        0
176
     1
 40
-0.6
176
     1
 40
-30.0
176
     1
 62
     7
176
     1
 90
        1
176
     1
 90
        4
176
     1
 62
     7
176
     1
 62
   257
176
     1
 90
        1
176
     1
 90
        1
176
     1
 40
1.0
176
     1
 90
        0
176
     1
 62
   257
176
     1
 40
1.0
176
     1
 90
        1
176
     1
 90
        6
176
     1
 90
        2
176
     1
 62
     7
176
     1
 90
        5
176
     1
 90
        0
176
     1
 90
        0
176
     1
290
     0
176
     1
 90
        1
176
     1
 40
0.0
176
     1
 90
        0
176
     1
290
     1
176
     1
290
     1
176
     1
290
     0
176
     1
290
     0
176
     1
290
     0
176
     1
290
     0
176
     1
290
     0
176
     1
290
     0
176
     1
290
     0
176
     1
 90
       50
176
     1
 40
0.0
176
     1
 40
1.0
176
     1
 90
        0
176
     1
 62
    18
420
        0
176
     1
 90
       50
176
     1
 90
        3
176
     1
 62
     5
420
      255
176
     1
290
     0
176
     1
 90
       50
176
     1
 90
       50
176
     1
 90
       50
176
     1
290
     0
176
     1
 90
       50
176
     1
 62
   256
176
     0
 40
1.0
176
     0
 90
        2
176
     1
  1
strokes_ogs.tif
176
     1
290
     0
176
     1
 40
1.0
176
     1
 40
1.0
176
     1
  0
VISUALSTYLE
  5
13E
102
{ACAD_REACTORS
330
137
102
}
330
137
100
AcDbVisualStyle
  2
3D Hidden
 70
     6
177
     3
291
     0
 70
    58
 90
        1
176
     1
 90
        2
176
     1
 90
        2
176
     1
 90
        0
176
     1
 40
-0.6
176
     1
 40
-30.0
176
     1
 62
     7
176
     1
 90
        2
176
     1
 90
        2
176
     1
 62
     7
176
     1
 62
   257
176
     1
 90
        2
176
     1
 90
        1
176
     1
 40
40.0
176
     1
 90
        0
176
     1
 62
   257
176
     1
 40
1.0
176
     1
 90
        1
176
     1
 90
        6
176
     1
 90
        2
176
     1
 62
     7
176
     1
 90
        3
176
     1
 90
        0
176
     1
 90
        0
176
     1
290
     0
176
     1
 90
        1
176
     1
 40
0.0
176
     1
 90
        0
176
     1
290
     0
176
     1
290
     1
176
     1
290
     1
176
     1
290
     0
176
     1
290
     0
176
     1
290
     0
176
     1
290
     0
176
     1
290
     0
176
     1
290
     0
176
     1
 90
       50
176
     1
 40
0.0
176
     1
 40
1.0
176
     1
 90
        0
176
     1
 62
    18
420
        0
176
     1
 90
       50
176
     1
 90
        3
176
     1
 62
     5
420
      255
176
     1
290
     0
176
     1
 90
       50
176
     1
 90
       50
176
     1
 90
       50
176
     1
290
     0
176
     1
 90
       50
176
     1
 62
   256
176
     0
 40
1.0
176
     0
 90
        2
176
     1
  1
strokes_ogs.tif
176
     1
290
     0
176
     1
 40
1.0
176
     1
 40
1.0
176
     1
  0
VISUALSTYLE
  5
13D
102
{ACAD_REACTORS
330
137
102
}
330
137
100
AcDbVisualStyle
  2
3dWireframe
 70
     5
177
     3
291
     0
 70
    58
 90
        0
176
     1
 90
        2
176
     1
 90
        0
176
     1
 90
        0
176
     1
 40
-0.6
176
     1
 40
-30.0
176
     1
 62
     7
176
     1
 90
        1
176
     1
 90
        4
176
     1
 62
     7
176
     1
 62
   257
176
     1
 90
        1
176
     1
 90
        1
176
     1
 40
1.0
176
     1
 90
        0
176
     1
 62
   257
176
     1
 40
1.0
176
     1
 90
        1
176
     1
 90
        6
176
     1
 90
        2
176
     1
 62
     7
176
     1
 90
        5
176
     1
 90
        0
176
     1
 90
        0
176
     1
290
     0
176
     1
 90
        1
176
     1
 40
0.0
176
     1
 90
        0
176
     1
290
     0
176
     1
290
     1
176
     1
290
     1
176
     1
290
     0
176
     1
290
     0
176
     1
290
     0
176
     1
290
     0
176
     1
290
     0
176
     1
290
     0
176
     1
 90
       50
176
     1
 40
0.0
176
     1
 40
1.0
176
     1
 90
        0
176
     1
 62
    18
420
        0
176
     1
 90
       50
176
     1
 90
        3
176
     1
 62
     5
420
      255
176
     1
290
     0
176
     1
 90
       50
176
     1
 90
       50
176
     1
 90
       50
176
     1
290
     0
176
     1
 90
       50
176
     1
 62
   256
176
     0
 40
1.0
176
     0
 90
        2
176
     1
  1
strokes_ogs.tif
176
     1
290
     0
176
     1
 40
1.0
176
     1
 40
1.0
176
     1
  0
VISUALSTYLE
  5
13F
102
{ACAD_REACTORS
330
137
102
}
330
137
100
AcDbVisualStyle
  2
Basic
 70
     7
177
     3
291
     1
 70
    58
 90
        1
176
     1
 90
        0
176
     1
 90
        1
176
     1
 90
        0
176
     1
 40
-0.6
176
     1
 40
-30.0
176
     1
 62
     7
176
     1
 90
        0
176
     1
 90
        4
176
     1
 62
     7
176
     1
 62
   257
176
     1
 90
        1
176
     1
 90
        1
176
     1
 40
1.0
176
     1
 90
        8
176
     1
 62
     7
176
     1
 40
1.0
176
     1
 90
        1
176
     1
 90
        6
176
     1
 90
        2
176
     1
 62
     7
176
     1
 90
        5
176
     1
 90
        0
176
     1
 90
        0
176
     1
290
     0
176
     1
 90
        1
176
     1
 40
0.0
176
     1
 90
        0
176
     1
290
     0
176
     1
290
     1
176
     1
290
     1
176
     1
290
     0
176
     1
290
     0
176
     1
290
     0
176
     1
290
     0
176
     1
290
     0
176
     1
290
     0
176
     1
 90
       50
176
     1
 40
0.0
176
     1
 40
1.0
176
     1
 90
        0
176
     1
 62
    18
420
        0
176
     1
 90
       50
176
     1
 90
        3
176
     1
 62
     5
420
      255
176
     1
290
     0
176
     1
 90
       50
176
     1
 90
       50
176
     1
 90
       50
176
     1
290
     0
176
     1
 90
       50
176
     1
 62
   256
176
     0
 40
1.0
176
     0
 90
        2
176
     1
  1
strokes_ogs.tif
176
     1
290
     0
176
     1
 40
1.0
176
     1
 40
1.0
176
     1
  0
VISUALSTYLE
  5
143
102
{ACAD_REACTORS
330
137
102
}
330
137
100
AcDbVisualStyle
  2
Brighten
 70
    12
177
     3
291
     1
 70
    58
 90
        2
176
     1
 90
        2
176
     1
 90
        0
176
     1
 90
        0
176
     1
 40
-0.6
176
     1
 40
-30.0
176
     1
 62
     7
176
     1
 90
        1
176
     1
 90
        4
176
     1
 62
     7
176
     1
 62
   257
176
     1
 90
        1
176
     1
 90
        1
176
     1
 40
1.0
176
     1
 90
        8
176
     1
 62
     7
176
     1
 40
1.0
176
     1
 90
        1
176
     1
 90
        6
176
     1
 90
        2
176
     1
 62
     7
176
     1
 90
        5
176
     1
 90
        0
176
     1
 90
        0
176
     1
290
     0
176
     1
 90
        1
176
     1
 40
50.0
176
     1
 90
        0
176
     1
290
     0
176
     1
290
     1
176
     1
290
     1
176
     1
290
     0
176
     1
290
     0
176
     1
290
     0
176
     1
290
     0
176
     1
290
     0
176
     1
290
     0
176
     1
 90
       50
176
     1
 40
0.0
176
     1
 40
1.0
176
     1
 90
        0
176
     1
 62
    18
420
        0
176
     1
 90
       50
176
     1
 90
        3
176
     1
 62
     5
420
      255
176
     1
290
     0
176
     1
 90
       50
176
     1
 90
       50
176
     1
 90
       50
176
     1
290
     0
176
     1
 90
       50
176
     1
 62
   256
176
     0
 40
1.0
176
     0
 90
        2
176
     1
  1
strokes_ogs.tif
176
     1
290
     0
176
     1
 40
1.0
176
     1
 40
1.0
176
     1
  0
VISUALSTYLE
  5
147
102
{ACAD_REACTORS
330
137
102
}
330
137
100
AcDbVisualStyle
  2
ColorChange
 70
    16
177
     3
291
     1
 70
    58
 90
        2
176
     1
 90
        2
176
     1
 90
        3
176
     1
 90
        0
176
     1
 40
-0.6
176
     1
 40
-30.0
176
     1
 62
     8
176
     1
 90
        1
176
     1
 90
        4
176
     1
 62
     7
176
     1
 62
   257
176
     1
 90
        1
176
     1
 90
        1
176
     1
 40
1.0
176
     1
 90
        8
176
     1
 62
     8
176
     1
 40
1.0
176
     1
 90
        1
176
     1
 90
        6
176
     1
 90
        2
176
     1
 62
     7
176
     1
 90
        5
176
     1
 90
        0
176
     1
 90
        0
176
     1
290
     0
176
     1
 90
        1
176
     1
 40
0.0
176
     1
 90
        0
176
     1
290
     0
176
     1
290
     1
176
     1
290
     1
176
     1
290
     0
176
     1
290
     0
176
     1
290
     0
176
     1
290
     0
176
     1
290
     0
176
     1
290
     0
176
     1
 90
       50
176
     1
 40
0.0
176
     1
 40
1.0
176
     1
 90
        0
176
     1
 62
    18
420
        0
176
     1
 90
       50
176
     1
 90
        3
176
     1
 62
     5
420
      255
176
     1
290
     0
176
     1
 90
       50
176
     1
 90
       50
176
     1
 90
       50
176
     1
290
     0
176
     1
 90
       50
176
     1
 62
   256
176
     0
 40
1.0
176
     0
 90
        2
176
     1
  1
strokes_ogs.tif
176
     1
290
     0
176
     1
 40
1.0
176
     1
 40
1.0
176
     1
  0
VISUALSTYLE
  5
141
102
{ACAD_REACTORS
330
137
102
}
330
137
100
AcDbVisualStyle
  2
Conceptual
 70
     9
177
     3
291
     0
 70
    58
 90
        3
176
     1
 90
        2
176
     1
 90
        0
176
     1
 90
        0
176
     1
 40
-0.6
176
     1
 40
-30.0
176
     1
 62
     7
176
     1
 90
        2
176
     1
 90
        2
176
     1
 62
     7
176
     1
 62
   257
176
     1
 90
        1
176
     1
 90
        1
176
     1
 40
40.0
176
     1
 90
        8
176
     1
 62
     7
176
     1
 40
1.0
176
     1
 90
        1
176
     1
 90
        6
176
     1
 90
        2
176
     1
 62
     7
176
     1
 90
        3
176
     1
 90
        0
176
     1
 90
        0
176
     1
290
     0
176
     1
 90
        1
176
     1
 40
0.0
176
     1
 90
        0
176
     1
290
     0
176
     1
290
     1
176
     1
290
     1
176
     1
290
     0
176
     1
290
     0
176
     1
290
     0
176
     1
290
     0
176
     1
290
     0
176
     1
290
     0
176
     1
 90
       50
176
     1
 40
0.0
176
     1
 40
1.0
176
     1
 90
        0
176
     1
 62
    18
420
        0
176
     1
 90
       50
176
     1
 90
        3
176
     1
 62
     5
420
      255
176
     1
290
     0
176
     1
 90
       50
176
     1
 90
       50
176
     1
 90
       50
176
     1
290
     0
176
     1
 90
       50
176
     1
 62
   256
176
     0
 40
1.0
176
     0
 90
        2
176
     1
  1
strokes_ogs.tif
176
     1
290
     0
176
     1
 40
1.0
176
     1
 40
1.0
176
     1
  0
VISUALSTYLE
  5
142
102
{ACAD_REACTORS
330
137
102
}
330
137
100
AcDbVisualStyle
  2
Dim
 70
    11
177
     3
291
     1
 70
    58
 90
        2
176
     1
 90
        2
176
     1
 90
        0
176
     1
 90
        0
176
     1
 40
-0.6
176
     1
 40
-30.0
176
     1
 62
     7
176
     1
 90
        1
176
     1
 90
        4
176
     1
 62
     7
176
     1
 62
   257
176
     1
 90
        1
176
     1
 90
        1
176
     1
 40
1.0
176
     1
 90
        8
176
     1
 62
     7
176
     1
 40
1.0
176
     1
 90
        1
176
     1
 90
        6
176
     1
 90
        2
176
     1
 62
     7
176
     1
 90
        5
176
     1
 90
        0
176
     1
 90
        0
176
     1
290
     0
176
     1
 90
        1
176
     1
 40
-50.0
176
     1
 90
        0
176
     1
290
     0
176
     1
290
     1
176
     1
290
     1
176
     1
290
     0
176
     1
290
     0
176
     1
290
     0
176
     1
290
     0
176
     1
290
     0
176
     1
290
     0
176
     1
 90
       50
176
     1
 40
0.0
176
     1
 40
1.0
176
     1
 90
        0
176
     1
 62
    18
420
        0
176
     1
 90
       50
176
     1
 90
        3
176
     1
 62
     5
420
      255
176
     1
290
     0
176
     1
 90
       50
176
     1
 90
       50
176
     1
 90
       50
176
     1
290
     0
176
     1
 90
       50
176
     1
 62
   256
176
     0
 40
1.0
176
     0
 90
        2
176
     1
  1
strokes_ogs.tif
176
     1
290
     0
176
     1
 40
1.0
176
     1
 40
1.0
176
     1
  0
VISUALSTYLE
  5
198
102
{ACAD_REACTORS
330
137
102
}
330
137
100
AcDbVisualStyle
  2
EdgeColorOff
 70
    22
177
     3
291
     1
 70
    58
 90
        2
176
     0
 90
        2
176
     0
 90
        0
176
     0
 90
        0
176
     0
 40
0.6
176
     0
 40
30.0
176
     0
 62
     7
420
 16777215
176
     0
 90
        1
176
     0
 90
        4
176
     0
 62
     7
176
     0
 62
   257
176
     0
 90
        1
176
     0
 90
        1
176
     0
 40
1.0
176
     0
 90
        8
176
     2
 62
     7
176
     0
 40
1.0
176
     0
 90
        1
176
     0
 90
        6
176
     0
 90
        2
176
     0
 62
     7
176
     0
 90
        5
176
     0
 90
        0
176
     0
 90
        0
176
     0
290
     0
176
     0
 90
        1
176
     0
 40
0.0
176
     0
 90
        0
176
     0
290
     0
176
     0
290
     1
176
     0
290
     1
176
     0
290
     0
176
     0
290
     0
176
     0
290
     0
176
     0
290
     0
176
     0
290
     0
176
     0
290
     0
176
     0
 90
       50
176
     0
 40
0.0
176
     0
 40
1.0
176
     0
 90
        0
176
     0
 62
    18
420
        0
176
     0
 90
       50
176
     0
 90
        3
176
     0
 62
     5
420
      255
176
     0
290
     0
176
     0
 90
       50
176
     0
 90
       50
176
     0
 90
       50
176
     0
290
     0
176
     0
 90
       50
176
     0
 62
   256
176
     0
 40
1.0
176
     0
 90
        2
176
     0
  1
strokes_ogs.tif
176
     0
290
     0
176
     0
 40
1.0
176
     0
 40
1.0
176
     0
  0
VISUALSTYLE
  5
146
102
{ACAD_REACTORS
330
137
102
}
330
137
100
AcDbVisualStyle
  2
Facepattern
 70
    15
177
     3
291
     1
 70
    58
 90
        2
176
     1
 90
        2
176
     1
 90
        0
176
     1
 90
        0
176
     1
 40
-0.6
176
     1
 40
-30.0
176
     1
 62
     7
176
     1
 90
        1
176
     1
 90
        4
176
     1
 62
     7
176
     1
 62
   257
176
     1
 90
        1
176
     1
 90
        1
176
     1
 40
1.0
176
     1
 90
        8
176
     1
 62
     7
176
     1
 40
1.0
176
     1
 90
        1
176
     1
 90
        6
176
     1
 90
        2
176
     1
 62
     7
176
     1
 90
        5
176
     1
 90
        0
176
     1
 90
        0
176
     1
290
     0
176
     1
 90
        1
176
     1
 40
0.0
176
     1
 90
        0
176
     1
290
     0
176
     1
290
     1
176
     1
290
     1
176
     1
290
     0
176
     1
290
     0
176
     1
290
     0
176
     1
290
     0
176
     1
290
     0
176
     1
290
     0
176
     1
 90
       50
176
     1
 40
0.0
176
     1
 40
1.0
176
     1
 90
        0
176
     1
 62
    18
420
        0
176
     1
 90
       50
176
     1
 90
        3
176
     1
 62
     5
420
      255
176
     1
290
     0
176
     1
 90
       50
176
     1
 90
       50
176
     1
 90
       50
176
     1
290
     0
176
     1
 90
       50
176
     1
 62
   256
176
     0
 40
1.0
176
     0
 90
        2
176
     1
  1
strokes_ogs.tif
176
     1
290
     0
176
     1
 40
1.0
176
     1
 40
1.0
176
     1
  0
VISUALSTYLE
  5
138
102
{ACAD_REACTORS
330
137
102
}
330
137
100
AcDbVisualStyle
  2
Flat
 70
     0
177
     3
291
     1
 70
    58
 90
        2
176
     1
 90
        1
176
     1
 90
        1
176
     1
 90
        2
176
     1
 40
-0.6
176
     1
 40
30.0
176
     1
 62
     7
176
     1
 90
        0
176
     1
 90
        4
176
     1
 62
     7
176
     1
 62
   257
176
     1
 90
        1
176
     1
 90
        1
176
     1
 40
1.0
176
     1
 90
        8
176
     1
 62
     7
176
     1
 40
1.0
176
     1
 90
        1
176
     1
 90
        6
176
     1
 90
        2
176
     1
 62
     7
176
     1
 90
        5
176
     1
 90
        0
176
     1
 90
        0
176
     1
290
     0
176
     1
 90
       13
176
     1
 40
0.0
176
     1
 90
        0
176
     1
290
     0
176
     1
290
     1
176
     1
290
     1
176
     1
290
     0
176
     1
290
     0
176
     1
290
     0
176
     1
290
     0
176
     1
290
     0
176
     1
290
     0
176
     1
 90
       50
176
     1
 40
0.0
176
     1
 40
1.0
176
     1
 90
        0
176
     1
 62
    18
420
        0
176
     1
 90
       50
176
     1
 90
        3
176
     1
 62
     5
420
      255
176
     1
290
     0
176
     1
 90
       50
176
     1
 90
       50
176
     1
 90
       50
176
     1
290
     0
176
     1
 90
       50
176
     1
 62
   256
176
     0
 40
1.0
176
     0
 90
        2
176
     1
  1
strokes_ogs.tif
176
     1
290
     0
176
     1
 40
1.0
176
     1
 40
1.0
176
     1
  0
VISUALSTYLE
  5
139
102
{ACAD_REACTORS
330
137
102
}
330
137
100
AcDbVisualStyle
  2
FlatWithEdges
 70
     1
177
     3
291
     1
 70
    58
 90
        2
176
     1
 90
        1
176
     1
 90
        1
176
     1
 90
        2
176
     1
 40
-0.6
176
     1
 40
30.0
176
     1
 62
     7
176
     1
 90
        1
176
     1
 90
        4
176
     1
 62
     7
176
     1
 62
   257
176
     1
 90
        1
176
     1
 90
        1
176
     1
 40
1.0
176
     1
 90
        0
176
     1
 62
   257
176
     1
 40
1.0
176
     1
 90
        1
176
     1
 90
        6
176
     1
 90
        2
176
     1
 62
     7
176
     1
 90
        5
176
     1
 90
        0
176
     1
 90
        0
176
     1
290
     0
176
     1
 90
       13
176
     1
 40
0.0
176
     1
 90
        0
176
     1
290
     0
176
     1
290
     1
176
     1
290
     1
176
     1
290
     0
176
     1
290
     0
176
     1
290
     0
176
     1
290
     0
176
     1
290
     0
176
     1
290
     0
176
     1
 90
       50
176
     1
 40
0.0
176
     1
 40
1.0
176
     1
 90
        0
176
     1
 62
    18
420
        0
176
     1
 90
       50
176
     1
 90
        3
176
     1
 62
     5
420
      255
176
     1
290
     0
176
     1
 90
       50
176
     1
 90
       50
176
     1
 90
       50
176
     1
290
     0
176
     1
 90
       50
176
     1
 62
   256
176
     0
 40
1.0
176
     0
 90
        2
176
     1
  1
strokes_ogs.tif
176
     1
290
     0
176
     1
 40
1.0
176
     1
 40
1.0
176
     1
  0
VISUALSTYLE
  5
13A
102
{ACAD_REACTORS
330
137
102
}
330
137
100
AcDbVisualStyle
  2
Gouraud
 70
     2
177
     3
291
     1
 70
    58
 90
        2
176
     1
 90
        2
176
     1
 90
        1
176
     1
 90
        2
176
     1
 40
-0.6
176
     1
 40
30.0
176
     1
 62
     7
176
     1
 90
        0
176
     1
 90
        4
176
     1
 62
     7
176
     1
 62
   257
176
     1
 90
        1
176
     1
 90
        1
176
     1
 40
1.0
176
     1
 90
        0
176
     1
 62
     7
176
     1
 40
1.0
176
     1
 90
        1
176
     1
 90
        6
176
     1
 90
        2
176
     1
 62
     7
176
     1
 90
        5
176
     1
 90
        0
176
     1
 90
        0
176
     1
290
     0
176
     1
 90
       13
176
     1
 40
0.0
176
     1
 90
        0
176
     1
290
     0
176
     1
290
     1
176
     1
290
     1
176
     1
290
     0
176
     1
290
     0
176
     1
290
     0
176
     1
290
     0
176
     1
290
     0
176
     1
290
     0
176
     1
 90
       50
176
     1
 40
0.0
176
     1
 40
1.0
176
     1
 90
        0
176
     1
 62
    18
420
        0
176
     1
 90
       50
176
     1
 90
        3
176
     1
 62
     5
420
      255
176
     1
290
     0
176
     1
 90
       50
176
     1
 90
       50
176
     1
 90
       50
176
     1
290
     0
176
     1
 90
       50
176
     1
 62
   256
176
     0
 40
1.0
176
     0
 90
        2
176
     1
  1
strokes_ogs.tif
176
     1
290
     0
176
     1
 40
1.0
176
     1
 40
1.0
176
     1
  0
VISUALSTYLE
  5
13B
102
{ACAD_REACTORS
330
137
102
}
330
137
100
AcDbVisualStyle
  2
GouraudWithEdges
 70
     3
177
     3
291
     1
 70
    58
 90
        2
176
     1
 90
        2
176
     1
 90
        1
176
     1
 90
        2
176
     1
 40
-0.6
176
     1
 40
30.0
176
     1
 62
     7
176
     1
 90
        1
176
     1
 90
        4
176
     1
 62
     7
176
     1
 62
   257
176
     1
 90
        1
176
     1
 90
        1
176
     1
 40
1.0
176
     1
 90
        0
176
     1
 62
   257
176
     1
 40
1.0
176
     1
 90
        1
176
     1
 90
        6
176
     1
 90
        2
176
     1
 62
     7
176
     1
 90
        5
176
     1
 90
        0
176
     1
 90
        0
176
     1
290
     0
176
     1
 90
       13
176
     1
 40
0.0
176
     1
 90
        0
176
     1
290
     0
176
     1
290
     1
176
     1
290
     1
176
     1
290
     0
176
     1
290
     0
176
     1
290
     0
176
     1
290
     0
176
     1
290
     0
176
     1
290
     0
176
     1
 90
       50
176
     1
 40
0.0
176
     1
 40
1.0
176
     1
 90
        0
176
     1
 62
    18
420
        0
176
     1
 90
       50
176
     1
 90
        3
176
     1
 62
     5
420
      255
176
     1
290
     0
176
     1
 90
       50
176
     1
 90
       50
176
     1
 90
       50
176
     1
290
     0
176
     1
 90
       50
176
     1
 62
   256
176
     0
 40
1.0
176
     0
 90
        2
176
     1
  1
strokes_ogs.tif
176
     1
290
     0
176
     1
 40
1.0
176
     1
 40
1.0
176
     1
  0
VISUALSTYLE
  5
195
102
{ACAD_REACTORS
330
137
102
}
330
137
100
AcDbVisualStyle
  2
Hidden
 70
     6
177
     3
291
     0
 70
    58
 90
        1
176
     1
 90
        2
176
     1
 90
        2
176
     1
 90
        0
176
     1
 40
0.6
176
     1
 40
30.0
176
     1
 62
     7
420
 16777215
176
     1
 90
        2
176
     1
 90
        2
176
     1
 62
     7
176
     1
 62
   257
176
     1
 90
        2
176
     1
 90
        1
176
     1
 40
40.0
176
     1
 90
        0
176
     1
 62
   257
176
     1
 40
1.0
176
     1
 90
        1
176
     1
 90
        6
176
     1
 90
        2
176
     1
 62
     7
176
     1
 90
        3
176
     1
 90
        0
176
     1
 90
        0
176
     1
290
     0
176
     1
 90
        1
176
     1
 40
0.0
176
     1
 90
        0
176
     1
290
     0
176
     1
290
     1
176
     1
290
     1
176
     1
290
     0
176
     1
290
     0
176
     1
290
     0
176
     1
290
     0
176
     1
290
     0
176
     1
290
     0
176
     1
 90
       50
176
     1
 40
0.0
176
     1
 40
1.0
176
     1
 90
        0
176
     1
 62
    18
420
        0
176
     1
 90
       50
176
     1
 90
        3
176
     1
 62
     5
420
      255
176
     1
290
     0
176
     1
 90
       50
176
     1
 90
       50
176
     1
 90
       50
176
     1
290
     0
176
     1
 90
       50
176
     1
 62
   256
176
     0
 40
1.0
176
     0
 90
        2
176
     1
  1
strokes_ogs.tif
176
     1
290
     0
176
     1
 40
1.0
176
     1
 40
1.0
176
     1
  0
VISUALSTYLE
  5
196
102
{ACAD_REACTORS
330
137
102
}
330
137
100
AcDbVisualStyle
  2
JitterOff
 70
    20
177
     3
291
     1
 70
    58
 90
        2
176
     0
 90
        2
176
     0
 90
        0
176
     0
 90
        0
176
     0
 40
0.6
176
     0
 40
30.0
176
     0
 62
     7
420
 16777215
176
     0
 90
        1
176
     0
 90
        4
176
     0
 62
     7
176
     0
 62
   257
176
     0
 90
        1
176
     0
 90
        1
176
     0
 40
1.0
176
     0
 90
       10
176
     2
 62
     7
176
     0
 40
1.0
176
     0
 90
        1
176
     0
 90
        6
176
     0
 90
        2
176
     0
 62
     7
176
     0
 90
        5
176
     0
 90
        0
176
     0
 90
        0
176
     0
290
     0
176
     0
 90
        1
176
     0
 40
0.0
176
     0
 90
        0
176
     0
290
     0
176
     0
290
     1
176
     0
290
     1
176
     0
290
     0
176
     0
290
     0
176
     0
290
     0
176
     0
290
     0
176
     0
290
     0
176
     0
290
     0
176
     0
 90
       50
176
     0
 40
0.0
176
     0
 40
1.0
176
     0
 90
        0
176
     0
 62
    18
420
        0
176
     0
 90
       50
176
     0
 90
        3
176
     0
 62
     5
420
      255
176
     0
290
     0
176
     0
 90
       50
176
     0
 90
       50
176
     0
 90
       50
176
     0
290
     0
176
     0
 90
       50
176
     0
 62
   256
176
     0
 40
1.0
176
     0
 90
        2
176
     0
  1
strokes_ogs.tif
176
     0
290
     0
176
     0
 40
1.0
176
     0
 40
1.0
176
     0
  0
VISUALSTYLE
  5
145
102
{ACAD_REACTORS
330
137
102
}
330
137
100
AcDbVisualStyle
  2
Linepattern
 70
    14
177
     3
291
     1
 70
    58
 90
        2
176
     1
 90
        2
176
     1
 90
        0
176
     1
 90
        0
176
     1
 40
-0.6
176
     1
 40
-30.0
176
     1
 62
     7
176
     1
 90
        1
176
     1
 90
        4
176
     1
 62
     7
176
     1
 62
   257
176
     1
 90
        7
176
     1
 90
        7
176
     1
 40
1.0
176
     1
 90
        8
176
     1
 62
     7
176
     1
 40
1.0
176
     1
 90
        1
176
     1
 90
        6
176
     1
 90
        2
176
     1
 62
     7
176
     1
 90
        5
176
     1
 90
        0
176
     1
 90
        0
176
     1
290
     0
176
     1
 90
        1
176
     1
 40
0.0
176
     1
 90
        0
176
     1
290
     0
176
     1
290
     1
176
     1
290
     1
176
     1
290
     0
176
     1
290
     0
176
     1
290
     0
176
     1
290
     0
176
     1
290
     0
176
     1
290
     0
176
     1
 90
       50
176
     1
 40
0.0
176
     1
 40
1.0
176
     1
 90
        0
176
     1
 62
    18
420
        0
176
     1
 90
       50
176
     1
 90
        3
176
     1
 62
     5
420
      255
176
     1
290
     0
176
     1
 90
       50
176
     1
 90
       50
176
     1
 90
       50
176
     1
290
     0
176
     1
 90
       50
176
     1
 62
   256
176
     0
 40
1.0
176
     0
 90
        2
176
     1
  1
strokes_ogs.tif
176
     1
290
     0
176
     1
 40
1.0
176
     1
 40
1.0
176
     1
  0
VISUALSTYLE
  5
197
102
{ACAD_REACTORS
330
137
102
}
330
137
100
AcDbVisualStyle
  2
OverhangOff
 70
    21
177
     3
291
     1
 70
    58
 90
        2
176
     0
 90
        2
176
     0
 90
        0
176
     0
 90
        0
176
     0
 40
0.6
176
     0
 40
30.0
176
     0
 62
     7
420
 16777215
176
     0
 90
        1
176
     0
 90
        4
176
     0
 62
     7
176
     0
 62
   257
176
     0
 90
        1
176
     0
 90
        1
176
     0
 40
1.0
176
     0
 90
        9
176
     2
 62
     7
176
     0
 40
1.0
176
     0
 90
        1
176
     0
 90
        6
176
     0
 90
        2
176
     0
 62
     7
176
     0
 90
        5
176
     0
 90
        0
176
     0
 90
        0
176
     0
290
     0
176
     0
 90
        1
176
     0
 40
0.0
176
     0
 90
        0
176
     0
290
     0
176
     0
290
     1
176
     0
290
     1
176
     0
290
     0
176
     0
290
     0
176
     0
290
     0
176
     0
290
     0
176
     0
290
     0
176
     0
290
     0
176
     0
 90
       50
176
     0
 40
0.0
176
     0
 40
1.0
176
     0
 90
        0
176
     0
 62
    18
420
        0
176
     0
 90
       50
176
     0
 90
        3
176
     0
 62
     5
420
      255
176
     0
290
     0
176
     0
 90
       50
176
     0
 90
       50
176
     0
 90
       50
176
     0
290
     0
176
     0
 90
       50
176
     0
 62
   256
176
     0
 40
1.0
176
     0
 90
        2
176
     0
  1
strokes_ogs.tif
176
     0
290
     0
176
     0
 40
1.0
176
     0
 40
1.0
176
     0
  0
VISUALSTYLE
  5
140
102
{ACAD_REACTORS
330
137
102
}
330
137
100
AcDbVisualStyle
  2
Realistic
 70
     8
177
     3
291
     0
 70
    58
 90
        2
176
     1
 90
        2
176
     1
 90
        0
176
     1
 90
        0
176
     1
 40
-0.6
176
     1
 40
-30.0
176
     1
 62
     7
176
     1
 90
        1
176
     1
 90
        0
176
     1
 62
     7
176
     1
 62
   257
176
     1
 90
        1
176
     1
 90
        1
176
     1
 40
1.0
176
     1
 90
        8
176
     1
 62
     8
176
     1
 40
1.0
176
     1
 90
        1
176
     1
 90
        6
176
     1
 90
        2
176
     1
 62
     7
176
     1
 90
        5
176
     1
 90
        0
176
     1
 90
        0
176
     1
290
     0
176
     1
 90
       13
176
     1
 40
0.0
176
     1
 90
        0
176
     1
290
     0
176
     1
290
     1
176
     1
290
     1
176
     1
290
     0
176
     1
290
     0
176
     1
290
     0
176
     1
290
     0
176
     1
290
     0
176
     1
290
     0
176
     1
 90
       50
176
     1
 40
0.0
176
     1
 40
1.0
176
     1
 90
        0
176
     1
 62
    18
420
        0
176
     1
 90
       50
176
     1
 90
        3
176
     1
 62
     5
420
      255
176
     1
290
     0
176
     1
 90
       50
176
     1
 90
       50
176
     1
 90
       50
176
     1
290
     0
176
     1
 90
       50
176
     1
 62
   256
176
     0
 40
1.0
176
     0
 90
        2
176
     1
  1
strokes_ogs.tif
176
     1
290
     0
176
     1
 40
1.0
176
     1
 40
1.0
176
     1
  0
VISUALSTYLE
  5
19D
102
{ACAD_REACTORS
330
137
102
}
330
137
100
AcDbVisualStyle
  2
Shaded
 70
    27
177
     3
291
     0
 70
    58
 90
        2
176
     1
 90
        2
176
     1
 90
        1
176
     1
 90
        2
176
     1
 40
0.6
176
     1
 40
30.0
176
     1
 62
     7
420
 16777215
176
     1
 90
        0
176
     1
 90
        4
176
     1
 62
     7
176
     1
 62
   257
176
     1
 90
        1
176
     1
 90
        1
176
     1
 40
1.0
176
     1
 90
        8
176
     1
 62
   257
176
     1
 40
1.0
176
     1
 90
        1
176
     1
 90
        6
176
     1
 90
        2
176
     1
 62
     8
420
  7895160
176
     1
 90
        3
176
     1
 90
        0
176
     1
 90
        0
176
     1
290
     0
176
     1
 90
        5
176
     1
 40
0.0
176
     1
 90
        0
176
     1
290
     0
176
     1
290
     1
176
     1
290
     1
176
     1
290
     0
176
     1
290
     0
176
     1
290
     0
176
     1
290
     0
176
     1
290
     0
176
     1
290
     0
176
     1
 90
       50
176
     1
 40
0.0
176
     1
 40
1.0
176
     1
 90
        0
176
     1
 62
    18
420
        0
176
     1
 90
       50
176
     1
 90
        3
176
     1
 62
     5
420
      255
176
     1
290
     0
176
     1
 90
       50
176
     1
 90
       50
176
     1
 90
       50
176
     1
290
     0
176
     1
 90
       50
176
     1
 62
   256
176
     0
 40
1.0
176
     0
 90
        2
176
     1
  1
strokes_ogs.tif
176
     1
290
     0
176
     1
 40
1.0
176
     1
 40
1.0
176
     1
  0
VISUALSTYLE
  5
19C
102
{ACAD_REACTORS
330
137
102
}
330
137
100
AcDbVisualStyle
  2
Shaded with edges
 70
    26
177
     3
291
     0
 70
    58
 90
        2
176
     1
 90
        2
176
     1
 90
        1
176
     1
 90
        2
176
     1
 40
0.6
176
     1
 40
30.0
176
     1
 62
     7
420
 16777215
176
     1
 90
        1
176
     1
 90
       10
176
     1
 62
     7
176
     1
 62
   257
176
     1
 90
        2
176
     1
 90
        1
176
     1
 40
1.0
176
     1
 90
        8
176
     1
 62
   257
176
     1
 40
1.0
176
     1
 90
        1
176
     1
 90
        6
176
     1
 90
        2
176
     1
 62
     7
176
     1
 90
        3
176
     1
 90
        0
176
     1
 90
        0
176
     1
290
     0
176
     1
 90
        5
176
     1
 40
0.0
176
     1
 90
        0
176
     1
290
     0
176
     1
290
     1
176
     1
290
     1
176
     1
290
     0
176
     1
290
     0
176
     1
290
     0
176
     1
290
     0
176
     1
290
     0
176
     1
290
     0
176
     1
 90
       50
176
     1
 40
0.0
176
     1
 40
1.0
176
     1
 90
        0
176
     1
 62
    18
420
        0
176
     1
 90
       50
176
     1
 90
        3
176
     1
 62
     5
420
      255
176
     1
290
     0
176
     1
 90
       50
176
     1
 90
       50
176
     1
 90
       50
176
     1
290
     0
176
     1
 90
       50
176
     1
 62
   256
176
     0
 40
1.0
176
     0
 90
        2
176
     1
  1
strokes_ogs.tif
176
     1
290
     0
176
     1
 40
1.0
176
     1
 40
1.0
176
     1
  0
VISUALSTYLE
  5
199
102
{ACAD_REACTORS
330
137
102
}
330
137
100
AcDbVisualStyle
  2
Shades of Gray
 70
    23
177
     3
291
     0
 70
    58
 90
        2
176
     1
 90
        2
176
     1
 90
        3
176
     1
 90
        0
176
     1
 40
0.6
176
     1
 40
30.0
176
     1
 62
     7
420
 16777215
176
     1
 90
        2
176
     1
 90
        2
176
     1
 62
     7
176
     1
 62
     7
176
     1
 90
        1
176
     1
 90
        1
176
     1
 40
40.0
176
     1
 90
        8
176
     1
 62
     7
176
     1
 40
1.0
176
     1
 90
        1
176
     1
 90
        6
176
     1
 90
        2
176
     1
 62
     7
176
     1
 90
        3
176
     1
 90
        0
176
     1
 90
        0
176
     1
290
     0
176
     1
 90
        1
176
     1
 40
0.0
176
     1
 90
        0
176
     1
290
     0
176
     1
290
     1
176
     1
290
     1
176
     1
290
     0
176
     1
290
     0
176
     1
290
     0
176
     1
290
     0
176
     1
290
     0
176
     1
290
     0
176
     1
 90
       50
176
     1
 40
0.0
176
     1
 40
1.0
176
     1
 90
        0
176
     1
 62
    18
420
        0
176
     1
 90
       50
176
     1
 90
        3
176
     1
 62
     5
420
      255
176
     1
290
     0
176
     1
 90
       50
176
     1
 90
       50
176
     1
 90
       50
176
     1
290
     0
176
     1
 90
       50
176
     1
 62
   256
176
     0
 40
1.0
176
     0
 90
        2
176
     1
  1
strokes_ogs.tif
176
     1
290
     0
176
     1
 40
1.0
176
     1
 40
1.0
176
     1
  0
VISUALSTYLE
  5
19A
102
{ACAD_REACTORS
330
137
102
}
330
137
100
AcDbVisualStyle
  2
Sketchy
 70
    24
177
     3
291
     0
 70
    58
 90
        1
176
     1
 90
        2
176
     1
 90
        2
176
     1
 90
        0
176
     1
 40
0.6
176
     1
 40
30.0
176
     1
 62
     7
420
 16777215
176
     1
 90
        2
176
     1
 90
        2
176
     1
 62
     7
176
     1
 62
     7
176
     1
 90
        1
176
     1
 90
        1
176
     1
 40
40.0
176
     1
 90
       11
176
     1
 62
     7
176
     1
 40
1.0
176
     1
 90
        1
176
     1
 90
        6
176
     1
 90
        2
176
     1
 62
     7
176
     1
 90
        6
176
     1
 90
        0
176
     1
 90
        0
176
     1
290
     0
176
     1
 90
        1
176
     1
 40
0.0
176
     1
 90
        0
176
     1
290
     0
176
     1
290
     1
176
     1
290
     1
176
     1
290
     0
176
     1
290
     0
176
     1
290
     0
176
     1
290
     0
176
     1
290
     0
176
     1
290
     0
176
     1
 90
       50
176
     1
 40
0.0
176
     1
 40
1.0
176
     1
 90
        0
176
     1
 62
    18
420
        0
176
     1
 90
       50
176
     1
 90
        3
176
     1
 62
     5
420
      255
176
     1
290
     0
176
     1
 90
       50
176
     1
 90
       50
176
     1
 90
       50
176
     1
290
     0
176
     1
 90
       50
176
     1
 62
   256
176
     0
 40
1.0
176
     0
 90
        2
176
     1
  1
strokes_ogs.tif
176
     1
290
     0
176
     1
 40
1.0
176
     1
 40
1.0
176
     1
  0
VISUALSTYLE
  5
144
102
{ACAD_REACTORS
330
137
102
}
330
137
100
AcDbVisualStyle
  2
Thicken
 70
    13
177
     3
291
     1
 70
    58
 90
        2
176
     1
 90
        2
176
     1
 90
        0
176
     1
 90
        0
176
     1
 40
-0.6
176
     1
 40
-30.0
176
     1
 62
     7
176
     1
 90
        1
176
     1
 90
        4
176
     1
 62
     7
176
     1
 62
   257
176
     1
 90
        1
176
     1
 90
        1
176
     1
 40
1.0
176
     1
 90
       12
176
     1
 62
     7
176
     1
 40
1.0
176
     1
 90
        1
176
     1
 90
        6
176
     1
 90
        2
176
     1
 62
     7
176
     1
 90
        5
176
     1
 90
        0
176
     1
 90
        0
176
     1
290
     0
176
     1
 90
        1
176
     1
 40
0.0
176
     1
 90
        0
176
     1
290
     0
176
     1
290
     1
176
     1
290
     1
176
     1
290
     0
176
     1
290
     0
176
     1
290
     0
176
     1
290
     0
176
     1
290
     0
176
     1
290
     0
176
     1
 90
       50
176
     1
 40
0.0
176
     1
 40
1.0
176
     1
 90
        0
176
     1
 62
    18
420
        0
176
     1
 90
       50
176
     1
 90
        3
176
     1
 62
     5
420
      255
176
     1
290
     0
176
     1
 90
       50
176
     1
 90
       50
176
     1
 90
       50
176
     1
290
     0
176
     1
 90
       50
176
     1
 62
   256
176
     0
 40
1.0
176
     0
 90
        2
176
     1
  1
strokes_ogs.tif
176
     1
290
     0
176
     1
 40
1.0
176
     1
 40
1.0
176
     1
  0
VISUALSTYLE
  5
194
102
{ACAD_REACTORS
330
137
102
}
330
137
100
AcDbVisualStyle
  2
Wireframe
 70
     5
177
     3
291
     0
 70
    58
 90
        0
176
     1
 90
        2
176
     1
 90
        0
176
     1
 90
        0
176
     1
 40
0.6
176
     1
 40
30.0
176
     1
 62
     7
420
 16777215
176
     1
 90
        1
176
     1
 90
        4
176
     1
 62
     7
176
     1
 62
   257
176
     1
 90
        1
176
     1
 90
        1
176
     1
 40
1.0
176
     1
 90
        0
176
     1
 62
   257
176
     1
 40
1.0
176
     1
 90
        1
176
     1
 90
        6
176
     1
 90
        2
176
     1
 62
     7
176
     1
 90
        3
176
     1
 90
        0
176
     1
 90
        0
176
     1
290
     0
176
     1
 90
        1
176
     1
 40
0.0
176
     1
 90
        0
176
     1
290
     0
176
     1
290
     1
176
     1
290
     1
176
     1
290
     0
176
     1
290
     0
176
     1
290
     0
176
     1
290
     0
176
     1
290
     0
176
     1
290
     0
176
     1
 90
       50
176
     1
 40
0.0
176
     1
 40
1.0
176
     1
 90
        0
176
     1
 62
    18
420
        0
176
     1
 90
       50
176
     1
 90
        3
176
     1
 62
     5
420
      255
176
     1
290
     0
176
     1
 90
       50
176
     1
 90
       50
176
     1
 90
       50
176
     1
290
     0
176
     1
 90
       50
176
     1
 62
   256
176
     0
 40
1.0
176
     0
 90
        2
176
     1
  1
strokes_ogs.tif
176
     1
290
     0
176
     1
 40
1.0
176
     1
 40
1.0
176
     1
  0
VISUALSTYLE
  5
19B
102
{ACAD_REACTORS
330
137
102
}
330
137
100
AcDbVisualStyle
  2
X-Ray
 70
    25
177
     3
291
     0
 70
    58
 90
        2
176
     1
 90
        2
176
     1
 90
        1
176
     1
 90
        1
176
     1
 40
0.5
176
     1
 40
30.0
176
     1
 62
     7
420
 16777215
176
     1
 90
        1
176
     1
 90
        0
176
     1
 62
     7
176
     1
 62
   257
176
     1
 90
        1
176
     1
 90
        1
176
     1
 40
1.0
176
     1
 90
        8
176
     1
 62
     7
176
     1
 40
1.0
176
     1
 90
        1
176
     1
 90
        6
176
     1
 90
        2
176
     1
 62
     7
176
     1
 90
        3
176
     1
 90
        0
176
     1
 90
        0
176
     1
290
     0
176
     1
 90
       13
176
     1
 40
0.0
176
     1
 90
        0
176
     1
290
     0
176
     1
290
     1
176
     1
290
     1
176
     1
290
     0
176
     1
290
     0
176
     1
290
     0
176
     1
290
     0
176
     1
290
     0
176
     1
290
     0
176
     1
 90
       50
176
     1
 40
0.0
176
     1
 40
1.0
176
     1
 90
        0
176
     1
 62
    18
420
        0
176
     1
 90
       50
176
     1
 90
        3
176
     1
 62
     5
420
      255
176
     1
290
     0
176
     1
 90
       50
176
     1
 90
       50
176
     1
 90
       50
176
     1
290
     0
176
     1
 90
       50
176
     1
 62
   256
176
     0
 40
1.0
176
     0
 90
        2
176
     1
  1
strokes_ogs.tif
176
     1
290
     0
176
     1
 40
1.0
176
     1
 40
1.0
176
     1
  0
DICTIONARYVAR
  5
1A2
102
{ACAD_REACTORS
330
153
102
}
330
153
100
DictionaryVariables
280
     0
  1
1:1
  0
DICTIONARYVAR
  5
1A4
102
{ACAD_REACTORS
330
153
102
}
330
153
100
DictionaryVariables
280
     0
  1
Standard
  0
DICTIONARYVAR
  5
1A3
102
{ACAD_REACTORS
330
153
102
}
330
153
100
DictionaryVariables
280
     0
  1
Standard
  0
DICTIONARYVAR
  5
157
102
{ACAD_REACTORS
330
153
102
}
330
153
100
DictionaryVariables
280
     0
  1
2
  0
DICTIONARYVAR
  5
158
102
{ACAD_REACTORS
330
153
102
}
330
153
100
DictionaryVariables
280
     0
  1
1
  0
DICTIONARYVAR
  5
156
102
{ACAD_REACTORS
330
153
102
}
330
153
100
DictionaryVariables
280
     0
  1
0
  0
DICTIONARY
  5
265
330
19F
100
AcDbDictionary
280
     1
281
     1
  3
ACAD_ROUNDTRIP_2008_TABLESTYLE_CELLSTYLEMAP
360
266
  0
CELLSTYLEMAP
  5
266
102
{ACAD_REACTORS
330
265
102
}
330
265
100
AcDbCellStyleMap
 90
        3
300
CELLSTYLE
  1
TABLEFORMAT_BEGIN
 90
        5
170
     1
 91
        0
 92
    32768
 62
   257
 93
        1
300
CONTENTFORMAT
  1
CONTENTFORMAT_BEGIN
 90
        0
 91
        0
 92
        4
 93
        0
300

 40
0.0
140
1.0
 94
        5
 62
     0
340
11
144
0.25
309
CONTENTFORMAT_END
171
     1
301
MARGIN
  1
CELLMARGIN_BEGIN
 40
0.06
 40
0.06
 40
0.06
 40
0.06
 40
0.06
 40
0.06
309
CELLMARGIN_END
 94
        6
 95
        1
302
GRIDFORMAT
  1
GRIDFORMAT_BEGIN
 90
        0
 91
        1
 62
     0
 92
       -2
340
14
 93
        0
 40
0.045
309
GRIDFORMAT_END
 95
        2
302
GRIDFORMAT
  1
GRIDFORMAT_BEGIN
 90
        0
 91
        1
 62
     0
 92
       -2
340
14
 93
        0
 40
0.045
309
GRIDFORMAT_END
 95
        4
302
GRIDFORMAT
  1
GRIDFORMAT_BEGIN
 90
        0
 91
        1
 62
     0
 92
       -2
340
14
 93
        0
 40
0.045
309
GRIDFORMAT_END
 95
        8
302
GRIDFORMAT
  1
GRIDFORMAT_BEGIN
 90
        0
 91
        1
 62
     0
 92
       -2
340
14
 93
        0
 40
0.045
309
GRIDFORMAT_END
 95
       16
302
GRIDFORMAT
  1
GRIDFORMAT_BEGIN
 90
        0
 91
        1
 62
     0
 92
       -2
340
14
 93
        0
 40
0.045
309
GRIDFORMAT_END
 95
       32
302
GRIDFORMAT
  1
GRIDFORMAT_BEGIN
 90
        0
 91
        1
 62
     0
 92
       -2
340
14
 93
        0
 40
0.045
309
GRIDFORMAT_END
309
TABLEFORMAT_END
  1
CELLSTYLE_BEGIN
 90
        1
 91
        1
300
_TITLE
309
CELLSTYLE_END
300
CELLSTYLE
  1
TABLEFORMAT_BEGIN
 90
        5
170
     1
 91
        0
 92
        0
 62
   257
 93
        1
300
CONTENTFORMAT
  1
CONTENTFORMAT_BEGIN
 90
        0
 91
        0
 92
        4
 93
        0
300

 40
0.0
140
1.0
 94
        5
 62
     0
340
11
144
0.18
309
CONTENTFORMAT_END
171
     1
301
MARGIN
  1
CELLMARGIN_BEGIN
 40
0.06
 40
0.06
 40
0.06
 40
0.06
 40
0.06
 40
0.06
309
CELLMARGIN_END
 94
        6
 95
        1
302
GRIDFORMAT
  1
GRIDFORMAT_BEGIN
 90
        0
 91
        1
 62
     0
 92
       -2
340
14
 93
        0
 40
0.045
309
GRIDFORMAT_END
 95
        2
302
GRIDFORMAT
  1
GRIDFORMAT_BEGIN
 90
        0
 91
        1
 62
     0
 92
       -2
340
14
 93
        0
 40
0.045
309
GRIDFORMAT_END
 95
        4
302
GRIDFORMAT
  1
GRIDFORMAT_BEGIN
 90
        0
 91
        1
 62
     0
 92
       -2
340
14
 93
        0
 40
0.045
309
GRIDFORMAT_END
 95
        8
302
GRIDFORMAT
  1
GRIDFORMAT_BEGIN
 90
        0
 91
        1
 62
     0
 92
       -2
340
14
 93
        0
 40
0.045
309
GRIDFORMAT_END
 95
       16
302
GRIDFORMAT
  1
GRIDFORMAT_BEGIN
 90
        0
 91
        1
 62
     0
 92
       -2
340
14
 93
        0
 40
0.045
309
GRIDFORMAT_END
 95
       32
302
GRIDFORMAT
  1
GRIDFORMAT_BEGIN
 90
        0
 91
        1
 62
     0
 92
       -2
340
14
 93
        0
 40
0.045
309
GRIDFORMAT_END
309
TABLEFORMAT_END
  1
CELLSTYLE_BEGIN
 90
        2
 91
        1
300
_HEADER
309
CELLSTYLE_END
300
CELLSTYLE
  1
TABLEFORMAT_BEGIN
 90
        5
170
     1
 91
        0
 92
        0
 62
   257
 93
        1
300
CONTENTFORMAT
  1
CONTENTFORMAT_BEGIN
 90
        0
 91
        0
 92
        4
 93
        0
300

 40
0.0
140
1.0
 94
        2
 62
     0
340
11
144
0.18
309
CONTENTFORMAT_END
171
     1
301
MARGIN
  1
CELLMARGIN_BEGIN
 40
0.06
 40
0.06
 40
0.06
 40
0.06
 40
0.06
 40
0.06
309
CELLMARGIN_END
 94
        6
 95
        1
302
GRIDFORMAT
  1
GRIDFORMAT_BEGIN
 90
        0
 91
        1
 62
     0
 92
       -2
340
14
 93
        0
 40
0.045
309
GRIDFORMAT_END
 95
        2
302
GRIDFORMAT
  1
GRIDFORMAT_BEGIN
 90
        0
 91
        1
 62
     0
 92
       -2
340
14
 93
        0
 40
0.045
309
GRIDFORMAT_END
 95
        4
302
GRIDFORMAT
  1
GRIDFORMAT_BEGIN
 90
        0
 91
        1
 62
     0
 92
       -2
340
14
 93
        0
 40
0.045
309
GRIDFORMAT_END
 95
        8
302
GRIDFORMAT
  1
GRIDFORMAT_BEGIN
 90
        0
 91
        1
 62
     0
 92
       -2
340
14
 93
        0
 40
0.045
309
GRIDFORMAT_END
 95
       16
302
GRIDFORMAT
  1
GRIDFORMAT_BEGIN
 90
        0
 91
        1
 62
     0
 92
       -2
340
14
 93
        0
 40
0.045
309
GRIDFORMAT_END
 95
       32
302
GRIDFORMAT
  1
GRIDFORMAT_BEGIN
 90
        0
 91
        1
 62
     0
 92
       -2
340
14
 93
        0
 40
0.045
309
GRIDFORMAT_END
309
TABLEFORMAT_END
  1
CELLSTYLE_BEGIN
 90
        3
 91
        2
300
_DATA
309
CELLSTYLE_END
  0
ENDSEC
  0
EOF
