  0
SECTION
  2
HEADER
  9
$ACADVER
  1
AC1015
  9
$ACADMAINTVER
 70
     6
  9
$DWGCODEPAGE
  3
ANSI_1252
  9
$INSBASE
 10
0.0
 20
0.0
 30
0.0
  9
$EXTMIN
 10
0.0
 20
0.0
 30
0.0
  9
$EXTMAX
 10
210.0
 20
297.0
 30
0.0
  9
$LIMMIN
 10
0.0
 20
0.0
  9
$LIMMAX
 10
0.0
 20
0.0
  9
$ORTHOMODE
 70
     0
  9
$REGENMODE
 70
     1
  9
$FILLMODE
 70
     1
  9
$QTEXTMODE
 70
     0
  9
$MIRRTEXT
 70
     1
  9
$LTSCALE
 40
1.0
  9
$ATTMODE
 70
     1
  9
$TEXTSIZE
 40
0.0
  9
$TRACEWID
 40
0.05
  9
$TEXTSTYLE
  7
STANDARD
  9
$CLAYER
  8
0
  9
$CELTYPE
  6
CONTINUOUS
  9
$CECOLOR
 62
   256
  9
$CELTSCALE
 40
1.0
  9
$DISPSILH
 70
     0
  9
$DIMSCALE
 40
1.0
  9
$DIMASZ
 40
0.0
  9
$DIMEXO
 40
0.0
  9
$DIMDLI
 40
0.38
  9
$DIMRND
 40
0.0
  9
$DIMDLE
 40
1000.0
  9
$DIMEXE
 40
0.18
  9
$DIMTP
 40
0.0
  9
$DIMTM
 40
0.0
  9
$DIMTXT
 40
3.5
  9
$DIMCEN
 40
0.09
  9
$DIMTSZ
 40
0.0
  9
$DIMTOL
 70
     0
  9
$DIMLIM
 70
     0
  9
$DIMTIH
 70
     1
  9
$DIMTOH
 70
     1
  9
$DIMSE1
 70
     0
  9
$DIMSE2
 70
     0
  9
$DIMTAD
 70
     1
  9
$DIMZIN
 70
     0
  9
$DIMBLK
  1

  9
$DIMASO
 70
     1
  9
$DIMSHO
 70
     1
  9
$DIMPOST
  1

  9
$DIMAPOST
  1

  9
$DIMALT
 70
     0
  9
$DIMALTD
 70
     2
  9
$DIMALTF
 40
0.0394
  9
$DIMLFAC
 40
1.0
  9
$DIMTOFL
 70
     0
  9
$DIMTVP
 40
0.0
  9
$DIMTIX
 70
     0
  9
$DIMSOXD
 70
     0
  9
$DIMSAH
 70
     0
  9
$DIMBLK1
  1

  9
$DIMBLK2
  1

  9
$DIMSTYLE
  2
STANDARD
  9
$DIMCLRD
 70
     0
  9
$DIMCLRE
 70
     0
  9
$DIMCLRT
 70
     0
  9
$DIMTFAC
 40
1.0
  9
$DIMGAP
 40
0.0
  9
$DIMJUST
 70
     0
  9
$DIMSD1
 70
     0
  9
$DIMSD2
 70
     0
  9
$DIMTOLJ
 70
     1
  9
$DIMTZIN
 70
     0
  9
$DIMALTZ
 70
     0
  9
$DIMALTTZ
 70
     0
  9
$DIMUPT
 70
     0
  9
$DIMDEC
 70
     4
  9
$DIMTDEC
 70
     4
  9
$DIMALTU
 70
     2
  9
$DIMALTTD
 70
     2
  9
$DIMTXSTY
  7
STANDARD
  9
$DIMAUNIT
 70
     0
  9
$DIMADEC
 70
     0
  9
$DIMALTRND
 40
0.0
  9
$DIMAZIN
 70
     0
  9
$DIMDSEP
 70
    46
  9
$DIMATFIT
 70
     3
  9
$DIMFRAC
 70
     0
  9
$DIMLDRBLK
  1

  9
$DIMLUNIT
 70
     2
  9
$DIMLWD
 70
    -2
  9
$DIMLWE
 70
    -2
  9
$DIMTMOVE
 70
     2
  9
$LUNITS
 70
     2
  9
$LUPREC
 70
     2
  9
$SKETCHINC
 40
0.1
  9
$FILLETRAD
 40
0.0
  9
$AUNITS
 70
     0
  9
$AUPREC
 70
     2
  9
$MENU
  1
acad
  9
$ELEVATION
 40
0.0
  9
$PELEVATION
 40
0.0
  9
$THICKNESS
 40
0.0
  9
$LIMCHECK
 70
     0
  9
$CHAMFERA
 40
0.0
  9
$CHAMFERB
 40
0.0
  9
$CHAMFERC
 40
0.0
  9
$CHAMFERD
 40
0.0
  9
$SKPOLY
 70
     0
  9
$TDCREATE
 40
2447893.0
  9
$TDUCREATE
 40
2447892.916666667
  9
$TDUPDATE
 40
2458327.548795
  9
$TDUUPDATE
 40
2458327.465461667
  9
$TDINDWG
 40
0.0
  9
$TDUSRTIMER
 40
0.0
  9
$USRTIMER
 70
     1
  9
$ANGBASE
 50
0.0
  9
$ANGDIR
 70
     0
  9
$PDMODE
 70
     0
  9
$PDSIZE
 40
-1.0
  9
$PLINEWID
 40
0.0
  9
$SPLFRAME
 70
     0
  9
$SPLINETYPE
 70
     6
  9
$SPLINESEGS
 70
     8
  9
$HANDSEED
  5
404
  9
$SURFTAB1
 70
     6
  9
$SURFTAB2
 70
     6
  9
$SURFTYPE
 70
     6
  9
$SURFU
 70
     6
  9
$SURFV
 70
     6
  9
$UCSBASE
  2

  9
$UCSNAME
  2

  9
$UCSORG
 10
0.0
 20
0.0
 30
0.0
  9
$UCSXDIR
 10
1.0
 20
0.0
 30
0.0
  9
$UCSYDIR
 10
0.0
 20
1.0
 30
0.0
  9
$UCSORTHOREF
  2

  9
$UCSORTHOVIEW
 70
     0
  9
$UCSORGTOP
 10
0.0
 20
0.0
 30
0.0
  9
$UCSORGBOTTOM
 10
0.0
 20
0.0
 30
0.0
  9
$UCSORGLEFT
 10
0.0
 20
0.0
 30
0.0
  9
$UCSORGRIGHT
 10
0.0
 20
0.0
 30
0.0
  9
$UCSORGFRONT
 10
0.0
 20
0.0
 30
0.0
  9
$UCSORGBACK
 10
0.0
 20
0.0
 30
0.0
  9
$PUCSBASE
  2

  9
$PUCSNAME
  2

  9
$PUCSORG
 10
0.0
 20
0.0
 30
0.0
  9
$PUCSXDIR
 10
1.0
 20
0.0
 30
0.0
  9
$PUCSYDIR
 10
0.0
 20
1.0
 30
0.0
  9
$PUCSORTHOREF
  2

  9
$PUCSORTHOVIEW
 70
     0
  9
$PUCSORGTOP
 10
0.0
 20
0.0
 30
0.0
  9
$PUCSORGBOTTOM
 10
0.0
 20
0.0
 30
0.0
  9
$PUCSORGLEFT
 10
0.0
 20
0.0
 30
0.0
  9
$PUCSORGRIGHT
 10
0.0
 20
0.0
 30
0.0
  9
$PUCSORGFRONT
 10
0.0
 20
0.0
 30
0.0
  9
$PUCSORGBACK
 10
0.0
 20
0.0
 30
0.0
  9
$USERI1
 70
     0
  9
$USERI2
 70
     0
  9
$USERI3
 70
     0
  9
$USERI4
 70
     0
  9
$USERI5
 70
     0
  9
$USERR1
 40
0.0
  9
$USERR2
 40
0.0
  9
$USERR3
 40
0.0
  9
$USERR4
 40
0.0
  9
$USERR5
 40
0.0
  9
$WORLDVIEW
 70
     1
  9
$SHADEDGE
 70
     3
  9
$SHADEDIF
 70
    70
  9
$TILEMODE
 70
     1
  9
$MAXACTVP
 70
    16
  9
$PINSBASE
 10
0.0
 20
0.0
 30
0.0
  9
$PLIMCHECK
 70
     0
  9
$PEXTMIN
 10
1.000000000000000E+20
 20
1.000000000000000E+20
 30
1.000000000000000E+20
  9
$PEXTMAX
 10
-1.000000000000000E+20
 20
-1.000000000000000E+20
 30
-1.000000000000000E+20
  9
$PLIMMIN
 10
0.0
 20
0.0
  9
$PLIMMAX
 10
12.0
 20
9.0
  9
$UNITMODE
 70
     0
  9
$VISRETAIN
 70
     0
  9
$PLINEGEN
 70
     1
  9
$PSLTSCALE
 70
     1
  9
$TREEDEPTH
 70
  3020
  9
$CMLSTYLE
  2
STANDARD
  9
$CMLJUST
 70
     0
  9
$CMLSCALE
 40
1.0
  9
$PROXYGRAPHICS
 70
     1
  9
$MEASUREMENT
 70
     0
  9
$CELWEIGHT
370
    -1
  9
$ENDCAPS
280
     0
  9
$JOINSTYLE
280
     0
  9
$LWDISPLAY
290
     0
  9
$INSUNITS
 70
     0
  9
$HYPERLINKBASE
  1

  9
$STYLESHEET
  1

  9
$XEDIT
290
     1
  9
$CEPSNTYPE
380
     0
  9
$PSTYLEMODE
290
     1
  9
$FINGERPRINTGUID
  2
{0F9D1FBE-5135-436B-9053-11A6776262F2}
  9
$VERSIONGUID
  2
{FAEB1C32-E019-11D5-929B-00C0DF256EC4}
  9
$EXTNAMES
290
     1
  9
$PSVPSCALE
 40
0.0
  9
$OLESTARTUP
290
     0
  0
ENDSEC
  0
SECTION
  2
CLASSES
  0
CLASS
  1
LWPOLYLINE
  2
AcDbPolyline
  3
ObjectDBX Classes
 90
        0
280
     0
281
     1
  0
CLASS
  1
IMAGE
  2
AcDbRasterImage
  3
ISM
 90
      127
280
     0
281
     1
  0
CLASS
  1
OLE2FRAME
  2
AcDbOle2Frame
  3
ObjectDBX Classes
 90
        0
280
     0
281
     1
  0
CLASS
  1
HATCH
  2
AcDbHatch
  3
ObjectDBX Classes
 90
        0
280
     0
281
     1
  0
CLASS
  1
DICTIONARYVAR
  2
AcDbDictionaryVar
  3
ObjectDBX Classes
 90
        0
280
     0
281
     0
  0
CLASS
  1
RASTERVARIABLES
  2
AcDbRasterVariables
  3
ISM
 90
        0
280
     0
281
     0
  0
CLASS
  1
IMAGEDEF
  2
AcDbRasterImageDef
  3
ISM
 90
        0
280
     0
281
     0
  0
CLASS
  1
IMAGEDEF_REACTOR
  2
AcDbRasterImageDefReactor
  3
ISM
 90
        1
280
     0
281
     0
  0
CLASS
  1
IDBUFFER
  2
AcDbIdBuffer
  3
ObjectDBX Classes
 90
        0
280
     0
281
     0
  0
CLASS
  1
SPATIAL_FILTER
  2
AcDbSpatialFilter
  3
ObjectDBX Classes
 90
        0
280
     0
281
     0
  0
CLASS
  1
XRECORD
  2
AcDbXrecord
  3
ObjectDBX Classes
 90
        0
280
     0
281
     0
  0
CLASS
  1
SORTENTSTABLE
  2
AcDbSortentsTable
  3
ObjectDBX Classes
 90
        0
280
     0
281
     0
  0
CLASS
  1
LAYER_INDEX
  2
AcDbLayerIndex
  3
ObjectDBX Classes
 90
        0
280
     0
281
     0
  0
CLASS
  1
SPATIAL_INDEX
  2
AcDbSpatialIndex
  3
AutoCAD 2000
 90
        0
280
     0
281
     0
  0
CLASS
  1
OBJECT_PTR
  2
CAseDLPNTableRecord
  3
ASE-LPNTableRecord
 90
        1
280
     0
281
     0
  0
CLASS
  1
LAYOUT
  2
AcDbLayout
  3
ObjectDBX Classes
 90
        0
280
     0
281
     0
  0
CLASS
  1
PLOTSETTINGS
  2
AcDbPlotSettings
  3
ObjectDBX Classes
 90
        0
280
     0
281
     0
  0
CLASS
  1
ACDBDICTIONARYWDFLT
  2
AcDbDictionaryWithDefault
  3
ObjectDBX Classes
 90
        0
280
     0
281
     0
  0
CLASS
  1
ACDBPLACEHOLDER
  2
AcDbPlaceHolder
  3
ObjectDBX Classes
 90
        0
280
     0
281
     0
  0
CLASS
  1
VBA_PROJECT
  2
AcDbVbaProject
  3
ObjectDBX Classes
 90
        0
280
     0
281
     0
  0
CLASS
  1
WIPEOUT
  2
AcDbWipeout
  3
WipeOut|AutoCAD Express Tool|expresstools@autodesk.com
 90
      127
280
     0
281
     1
  0
CLASS
  1
WIPEOUTVARIABLES
  2
AcDbWipeoutVariables
  3
WipeOut|AutoCAD Express Tool|expresstools@autodesk.com
 90
        0
280
     0
281
     0
  0
CLASS
  1
RTEXT
  2
RText
  3
RText|AutoCAD Express Tool|expresstools@autodesk.com
 90
        0
280
     0
281
     1
  0
CLASS
  1
ARCALIGNEDTEXT
  2
AcDbArcAlignedText
  3
ATEXT|AutoCAD Express Tool|expresstools@autodesk.com
 90
        0
280
     0
281
     1
  0
CLASS
  1
SCALE
  2
AcDbScale
  3
ObjectDBX Classes
 90
     1153
280
     0
281
     0
  0
CLASS
  1
VISUALSTYLE
  2
AcDbVisualStyle
  3
ObjectDBX Classes
 90
     4095
280
     0
281
     0
  0
CLASS
  1
MATERIAL
  2
AcDbMaterial
  3
ObjectDBX Classes
 90
     1153
280
     0
281
     0
  0
ENDSEC
  0
SECTION
  2
TABLES
  0
TABLE
  2
VPORT
  5
7
102
{ACAD_XDICTIONARY
360
3C9
102
}
330
0
100
AcDbSymbolTable
 70
     1
  0
VPORT
  5
15
330
7
100
AcDbSymbolTableRecord
100
AcDbViewportTableRecord
  2
*ACTIVE
 70
     0
 10
0.0
 20
0.0
 11
1.0
 21
1.0
 12
105.0
 22
148.5
 13
0.0
 23
0.0
 14
1.0
 24
1.0
 15
0.0
 25
0.0
 16
0.0
 26
0.0
 36
1.0
 17
0.0
 27
0.0
 37
0.0
 40
297.0
 41
1.4142857143
 42
50.0
 43
0.0
 44
0.0
 50
0.0
 51
0.0
 71
     0
 72
  2000
 73
     1
 74
     1
 75
     0
 76
     0
 77
     0
 78
     0
281
     0
 65
     1
110
0.0
120
0.0
130
0.0
111
1.0
121
0.0
131
0.0
112
0.0
122
1.0
132
0.0
 79
     0
146
0.0
  0
ENDTAB
  0
TABLE
  2
LTYPE
  5
4
330
0
100
AcDbSymbolTable
 70
     6
  0
LTYPE
  5
11
330
4
100
AcDbSymbolTableRecord
100
AcDbLinetypeTableRecord
  2
BYBLOCK
 70
     0
  3

 72
    65
 73
     0
 40
0.0
  0
LTYPE
  5
12
330
4
100
AcDbSymbolTableRecord
100
AcDbLinetypeTableRecord
  2
BYLAYER
 70
     0
  3

 72
    65
 73
     0
 40
0.0
  0
LTYPE
  5
13
330
4
100
AcDbSymbolTableRecord
100
AcDbLinetypeTableRecord
  2
CONTINUOUS
 70
     0
  3
Solid line
 72
    65
 73
     0
 40
0.0
  0
LTYPE
  5
1D
330
4
100
AcDbSymbolTableRecord
100
AcDbLinetypeTableRecord
  2
HIDDEN
 70
     0
  3
Hidden __ __ __ __ __ __ __ __ __ __ __ __ __ __
 72
    65
 73
     2
 40
1.905
 49
1.27
 74
     0
 49
-0.635
 74
     0
  0
LTYPE
  5
1E
330
4
100
AcDbSymbolTableRecord
100
AcDbLinetypeTableRecord
  2
PHANTOM
 70
     0
  3
Phantom ______  __  __  ______  __  __  ______
 72
    65
 73
     6
 40
12.7
 49
6.35
 74
     0
 49
-1.27
 74
     0
 49
1.27
 74
     0
 49
-1.27
 74
     0
 49
1.27
 74
     0
 49
-1.27
 74
     0
  0
LTYPE
  5
1F
330
4
100
AcDbSymbolTableRecord
100
AcDbLinetypeTableRecord
  2
CENTER
 70
     0
  3
Center ____ _ ____ _ ____ _ ____ _ ____ _ ____
 72
    65
 73
     4
 40
10.16
 49
6.35
 74
     0
 49
-1.27
 74
     0
 49
1.27
 74
     0
 49
-1.27
 74
     0
  0
LTYPE
  5
20
330
4
100
AcDbSymbolTableRecord
100
AcDbLinetypeTableRecord
  2
CENTERX2
 70
     0
  3
Center (2x) ________  __  ________  __  _____
 72
    65
 73
     4
 40
20.32
 49
12.7
 74
     0
 49
-2.54
 74
     0
 49
2.54
 74
     0
 49
-2.54
 74
     0
  0
LTYPE
  5
21
330
4
100
AcDbSymbolTableRecord
100
AcDbLinetypeTableRecord
  2
DOT2
 70
     0
  3
Dot (.5x) ........................................
 72
    65
 73
     2
 40
0.635
 49
0.0
 74
     0
 49
-0.635
 74
     0
  0
LTYPE
  5
3F3
330
5
100
AcDbSymbolTableRecord
100
AcDbLinetypeTableRecord
  2
DASH
 70
     0
  3
DASH _ _ _ _ _
 72
    65
 73
     2
 40
0.75
 49
0.40
 74
     0
 49
-0.35
 74
     0
  0
LTYPE
  5
3F4
330
5
100
AcDbSymbolTableRecord
100
AcDbLinetypeTableRecord
  2
LONGDASH_DASH
 70
     0
  3
LONGDASH_DASH __ . __ . __
 72
    65
 73
     4
 40
0.85
 49
0.40
 74
     0
 49
-0.20
 74
     0
 49
0.05
 74
     0
 49
-0.20
 74
     0
  0
LTYPE
  5
3F5
330
5
100
AcDbSymbolTableRecord
100
AcDbLinetypeTableRecord
  2
LONGDASH_DASH_DASH
 70
     0
  3
LONGDASH_DASH_DASH __ . . __ . . __
 72
    65
 73
     6
 40
1.10
 49
0.40
 74
     0
 49
-0.20
 74
     0
 49
0.05
 74
     0
 49
-0.20
 74
     0
 49
0.05
 74
     0
 49
-0.20
 74
     0
  0
ENDTAB
  0
TABLE
  2
LAYER
  5
2
330
0
100
AcDbSymbolTable
 70
     8
  0
LAYER
  5
23
330
2
100
AcDbSymbolTableRecord
100
AcDbLayerTableRecord
  2
DEFPOINTS
 70
     0
 62
     7
  6
CONTINUOUS
290
     0
370
    -3
390
0
  0
LAYER
  5
3F6
330
2
100
AcDbSymbolTableRecord
100
AcDbLayerTableRecord
  2
0
 70
     0
 62
     -1
  6
CONTINUOUS
370
    -3
390
F
  0
LAYER
  5
3F7
330
2
100
AcDbSymbolTableRecord
100
AcDbLayerTableRecord
  2
1
 70
     0
 62
     4
  6
CONTINUOUS
370
    50
390
F
  0
LAYER
  5
3F8
330
2
100
AcDbSymbolTableRecord
100
AcDbLayerTableRecord
  2
2
 70
     0
 62
     7
  6
CONTINUOUS
370
    25
390
F
  0
LAYER
  5
3F9
330
2
100
AcDbSymbolTableRecord
100
AcDbLayerTableRecord
  2
3
 70
     0
 62
     1
  6
DASH
370
    35
390
F
  0
LAYER
  5
3FA
330
2
100
AcDbSymbolTableRecord
100
AcDbLayerTableRecord
  2
4
 70
     0
 62
     2
  6
LONGDASH_DASH
370
    25
390
F
  0
LAYER
  5
3FB
330
2
100
AcDbSymbolTableRecord
100
AcDbLayerTableRecord
  2
6
 70
     0
 62
     5
  6
CONTINUOUS
370
    -3
390
F
  0
LAYER
  5
3FC
330
2
100
AcDbSymbolTableRecord
100
AcDbLayerTableRecord
  2
CUT
 70
     0
 62
     1
  6
CONTINUOUS
370
    25
390
F
  0
LAYER
  5
3FD
330
2
100
AcDbSymbolTableRecord
100
AcDbLayerTableRecord
  2
NOCUT
 70
     0
 62
     7
  6
CONTINUOUS
370
    25
390
F
  0
LAYER
  5
3FE
330
2
100
AcDbSymbolTableRecord
100
AcDbLayerTableRecord
  2
SK1
 70
     0
 62
     4
  6
CONTINUOUS
370
    50
390
F
  0
LAYER
  5
3FF
330
2
100
AcDbSymbolTableRecord
100
AcDbLayerTableRecord
  2
SK2
 70
     0
 62
     7
  6
CONTINUOUS
370
    25
390
F
  0
LAYER
  5
400
330
2
100
AcDbSymbolTableRecord
100
AcDbLayerTableRecord
  2
SK3
 70
     0
 62
     1
  6
DASH
370
    35
390
F
  0
LAYER
  5
401
330
2
100
AcDbSymbolTableRecord
100
AcDbLayerTableRecord
  2
SK4
 70
     0
 62
     2
  6
LONGDASH_DASH
370
    25
390
F
  0
LAYER
  5
402
330
2
100
AcDbSymbolTableRecord
100
AcDbLayerTableRecord
  2
SK6
 70
     0
 62
     5
  6
CONTINUOUS
370
    -3
390
F
  0
LAYER
  5
403
330
2
100
AcDbSymbolTableRecord
100
AcDbLayerTableRecord
  2
INFTOTAL
 70
     0
 62
     9
  6
CONTINUOUS
370
    18
390
F
  0
ENDTAB
  0
TABLE
  2
STYLE
  5
3
330
0
100
AcDbSymbolTable
 70
     2
  0
STYLE
  5
17
330
3
100
AcDbSymbolTableRecord
100
AcDbTextStyleTableRecord
  2
STANDARD
 70
     0
 40
0.0
 41
1.0
 50
0.0
 71
     0
 42
0.2
  3
txt
  4

  0
STYLE
  5
3C1
330
3
100
AcDbSymbolTableRecord
100
AcDbTextStyleTableRecord
  2
BMG_Text
 70
     0
 40
3.5
 41
1.0
 50
0.0
 71
     0
 42
0.0
  3
monos.ttf
  4

1001
ACAD
1000
Monospac821 BT
1071
       49
  0
ENDTAB
  0
TABLE
  2
VIEW
  5
5
330
0
100
AcDbSymbolTable
 70
     0
  0
ENDTAB
  0
TABLE
  2
UCS
  5
6
330
0
100
AcDbSymbolTable
 70
     0
  0
ENDTAB
  0
TABLE
  2
APPID
  5
8
330
0
100
AcDbSymbolTable
 70
     1
  0
APPID
  5
16
330
8
100
AcDbSymbolTableRecord
100
AcDbRegAppTableRecord
  2
ACAD
 70
     0
  0
ENDTAB
  0
TABLE
  2
DIMSTYLE
  5
9
330
0
100
AcDbSymbolTable
 70
     1
100
AcDbDimStyleTable
  0
DIMSTYLE
105
18
330
9
100
AcDbSymbolTableRecord
100
AcDbDimStyleTableRecord
  2
STANDARD
 70
     0
178
     0
340
17
  0
ENDTAB
  0
TABLE
  2
BLOCK_RECORD
  5
1
330
0
100
AcDbSymbolTable
 70
     0
  0
BLOCK_RECORD
  5
A
330
1
100
AcDbSymbolTableRecord
100
AcDbBlockTableRecord
  2
*MODEL_SPACE
340
3AA
  0
BLOCK_RECORD
  5
B
330
1
100
AcDbSymbolTableRecord
100
AcDbBlockTableRecord
  2
*PAPER_SPACE
340
3AB
  0
ENDTAB
  0
ENDSEC
  0
SECTION
  2
BLOCKS
  0
BLOCK
  5
D
330
A
100
AcDbEntity
  8
0
100
AcDbBlockBegin
  2
*MODEL_SPACE
 70
     0
 10
0.0
 20
0.0
 30
0.0
  3
*MODEL_SPACE
  1

  0
ENDBLK
  5
E
330
A
100
AcDbEntity
  8
0
100
AcDbBlockEnd
  0
BLOCK
  5
F
330
B
100
AcDbEntity
 67
     1
  8
0
100
AcDbBlockBegin
  2
*PAPER_SPACE
 70
     0
 10
0.0
 20
0.0
 30
0.0
  3
*PAPER_SPACE
  1

  0
ENDBLK
  5
10
330
B
100
AcDbEntity
 67
     1
  8
0
100
AcDbBlockEnd
  0
ENDSEC
  0
SECTION
  2
ENTITIES
  0
ARC
  5
29
330
A
100
AcDbEntity
  8
1
  6
CONTINUOUS
370
    50
100
AcDbCircle
 10
103.169787268
 20
131.7092749879
 30
0.0
 40
5.0
100
AcDbArc
 50
81.890385544
 51
180.0
  0
ARC
  5
2A
330
A
100
AcDbEntity
  8
1
  6
CONTINUOUS
370
    50
100
AcDbCircle
 10
103.169787268
 20
202.6092749879
 30
0.0
 40
5.0
100
AcDbArc
 50
180.0
 51
278.109614456
  0
ARC
  5
2B
330
A
100
AcDbEntity
  8
1
  6
CONTINUOUS
370
    50
100
AcDbCircle
 10
80.419787268
 20
132.0342749879
 30
0.0
 40
0.5
100
AcDbArc
 50
66.4218215218
 51
90.0
  0
ARC
  5
2C
330
A
100
AcDbEntity
  8
1
  6
CONTINUOUS
370
    50
100
AcDbCircle
 10
80.419787268
 20
202.2842749879
 30
0.0
 40
0.5
100
AcDbArc
 50
270.0
 51
293.5781784782001
  0
LINE
  5
2D
330
A
100
AcDbEntity
  8
1
  6
CONTINUOUS
370
    50
100
AcDbLine
 10
79.119787268
 20
202.0842749879
 30
0.0
 11
-20.6268726679
 21
187.5378870806
 31
0.0
  0
LINE
  5
2E
330
A
100
AcDbEntity
  8
1
  6
CONTINUOUS
370
    50
100
AcDbLine
 10
-20.6268726679
 20
146.7806628952
 30
0.0
 11
79.119787268
 21
132.2342749879
 31
0.0
  0
LINE
  5
2F
330
A
100
AcDbEntity
  8
1
  6
CONTINUOUS
370
    50
100
AcDbLine
 10
79.119787268
 20
132.2342749879
 30
0.0
 11
79.6626775446
 21
132.4874288814
 31
0.0
  0
LINE
  5
30
330
A
100
AcDbEntity
  8
1
  6
CONTINUOUS
370
    50
100
AcDbLine
 10
79.6626775446
 20
201.8311210944
 30
0.0
 11
79.119787268
 21
202.0842749879
 31
0.0
  0
LINE
  5
31
330
A
100
AcDbEntity
  8
1
  6
CONTINUOUS
370
    50
100
AcDbLine
 10
79.8739866755
 20
132.5342749879
 30
0.0
 11
80.419787268
 21
132.5342749879
 31
0.0
  0
LINE
  5
32
330
A
100
AcDbEntity
  8
1
  6
CONTINUOUS
370
    50
100
AcDbLine
 10
80.419787268
 20
201.7842749879
 30
0.0
 11
79.8739866755
 21
201.7842749879
 31
0.0
  0
LINE
  5
33
330
A
100
AcDbEntity
  8
1
  6
CONTINUOUS
370
    50
100
AcDbLine
 10
103.875124067
 20
136.6592749879
 30
0.0
 11
124.7392009312
 21
136.6592749879
 31
0.0
  0
LINE
  5
34
330
A
100
AcDbEntity
  8
1
  6
CONTINUOUS
370
    50
100
AcDbLine
 10
124.7392009312
 20
197.6592749879
 30
0.0
 11
103.875124067
 21
197.6592749879
 31
0.0
  0
LINE
  5
35
330
A
100
AcDbEntity
  8
1
  6
CONTINUOUS
370
    50
100
AcDbLine
 10
124.7392009312
 20
136.6592749879
 30
0.0
 11
181.9418659553
 21
140.6592749879
 31
0.0
  0
LINE
  5
36
330
A
100
AcDbEntity
  8
1
  6
CONTINUOUS
370
    50
100
AcDbLine
 10
181.9418659553
 20
193.6592749879
 30
0.0
 11
124.7392009312
 21
197.6592749879
 31
0.0
  0
LINE
  5
37
330
A
100
AcDbEntity
  8
1
  6
CONTINUOUS
370
    50
100
AcDbLine
 10
181.9418659553
 20
140.6592749879
 30
0.0
 11
238.086659164
 21
145.0779660428
 31
0.0
  0
LINE
  5
38
330
A
100
AcDbEntity
  8
1
  6
CONTINUOUS
370
    50
100
AcDbLine
 10
238.086659164
 20
189.2405839331
 30
0.0
 11
181.9418659553
 21
193.6592749879
 31
0.0
  0
ARC
  5
39
330
A
100
AcDbEntity
  8
1
  6
CONTINUOUS
370
    50
100
AcDbCircle
 10
237.119787268
 20
146.828725517
 30
0.0
 40
2.0
100
AcDbArc
 50
298.9100507074
 51
0.0
  0
ARC
  5
3A
330
A
100
AcDbEntity
  8
1
  6
CONTINUOUS
370
    50
100
AcDbCircle
 10
237.119787268
 20
187.4898244588
 30
0.0
 40
2.0
100
AcDbArc
 50
0.0
 51
61.0899492926
  0
ARC
  5
3B
330
A
100
AcDbEntity
  8
1
  6
CONTINUOUS
370
    50
100
AcDbCircle
 10
-20.230212732
 20
148.9966165616
 30
0.0
 40
2.25
100
AcDbArc
 50
180.0
 51
258.0
  0
ARC
  5
3C
330
A
100
AcDbEntity
  8
1
  6
CONTINUOUS
370
    50
100
AcDbCircle
 10
-20.230212732
 20
185.3219334143
 30
0.0
 40
2.25
100
AcDbArc
 50
102.0
 51
180.0
  0
LINE
  5
3D
330
A
100
AcDbEntity
  8
1
  6
CONTINUOUS
370
    50
100
AcDbLine
 10
92.144787268
 20
197.0092749879
 30
0.0
 11
92.144787268
 21
122.5124995092
 31
0.0
  0
LINE
  5
3E
330
A
100
AcDbEntity
  8
1
  6
CONTINUOUS
370
    50
100
AcDbLine
 10
93.4529487755
 20
197.0092749879
 30
0.0
 11
92.144787268
 21
197.0092749879
 31
0.0
  0
LINE
  5
3F
330
A
100
AcDbEntity
  8
1
  6
CONTINUOUS
370
    50
100
AcDbLine
 10
93.4529487755
 20
197.0092749879
 30
0.0
 11
93.4529487755
 21
120.3999376857
 31
0.0
  0
LINE
  5
40
330
A
100
AcDbEntity
  8
1
  6
CONTINUOUS
370
    50
100
AcDbLine
 10
92.8460293615
 20
121.2499376879
 30
0.0
 11
93.4529487755
 21
120.3999376857
 31
0.0
  0
LINE
  5
41
330
A
100
AcDbEntity
  8
1
  6
CONTINUOUS
370
    50
100
AcDbLine
 10
92.144787268
 20
122.5124995092
 30
0.0
 11
92.8460293615
 21
121.2499376879
 31
0.0
  0
LINE
  5
42
330
A
100
AcDbEntity
  8
1
  6
CONTINUOUS
370
    50
100
AcDbLine
 10
80.619787268
 20
121.3428136994
 30
0.0
 11
80.619787268
 21
197.0092749879
 31
0.0
  0
LINE
  5
43
330
A
100
AcDbEntity
  8
1
  6
CONTINUOUS
370
    50
100
AcDbLine
 10
80.619787268
 20
197.0092749879
 30
0.0
 11
81.119787268
 21
197.0092749879
 31
0.0
  0
LINE
  5
44
330
A
100
AcDbEntity
  8
1
  6
CONTINUOUS
370
    50
100
AcDbLine
 10
81.119787268
 20
197.0092749879
 30
0.0
 11
81.119787268
 21
120.657413466
 31
0.0
  0
LINE
  5
45
330
A
100
AcDbEntity
  8
1
  6
CONTINUOUS
370
    50
100
AcDbLine
 10
81.119787268
 20
120.657413466
 30
0.0
 11
80.619787268
 21
121.3428136994
 31
0.0
  0
LINE
  5
46
330
A
100
AcDbEntity
  8
1
  6
CONTINUOUS
370
    50
100
AcDbLine
 10
88.294787268
 20
197.0092749879
 30
0.0
 11
86.9866257606
 21
197.0092749879
 31
0.0
  0
LINE
  5
47
330
A
100
AcDbEntity
  8
1
  6
CONTINUOUS
370
    50
100
AcDbLine
 10
88.294787268
 20
122.5124995092
 30
0.0
 11
88.294787268
 21
197.0092749879
 31
0.0
  0
LWPOLYLINE
  5
48
330
A
100
AcDbEntity
  8
1
  6
CONTINUOUS
370
    50
100
AcDbPolyline
 90
        3
 70
   128
 43
0.0
 10
87.5935451746
 20
121.2499376879
 10
87.6408573389
 20
121.3350399974
 10
88.294787268
 20
122.5124995092
  0
LINE
  5
4D
330
A
100
AcDbEntity
  8
1
  6
CONTINUOUS
370
    50
100
AcDbLine
 10
86.9866257606
 20
120.3999376857
 30
0.0
 11
87.5935451746
 21
121.2499376879
 31
0.0
  0
LINE
  5
4E
330
A
100
AcDbEntity
  8
1
  6
CONTINUOUS
370
    50
100
AcDbLine
 10
86.9866257606
 20
120.3999376857
 30
0.0
 11
86.9866257606
 21
197.0092749879
 31
0.0
  0
LINE
  5
4F
330
A
100
AcDbEntity
  8
1
  6
CONTINUOUS
370
    50
100
AcDbLine
 10
81.9697872659
 20
120.3999376857
 30
0.0
 11
86.9866257606
 21
120.3999376857
 31
0.0
  0
LINE
  5
50
330
A
100
AcDbEntity
  8
1
  6
CONTINUOUS
370
    50
100
AcDbLine
 10
81.119787268
 20
120.657413466
 30
0.0
 11
81.9697872659
 21
120.3999376857
 31
0.0
  0
LINE
  5
51
330
A
100
AcDbEntity
  8
1
  6
CONTINUOUS
370
    50
100
AcDbLine
 10
86.9866257606
 20
197.0092749879
 30
0.0
 11
81.119787268
 21
197.0092749879
 31
0.0
  0
LINE
  5
52
330
A
100
AcDbEntity
  8
1
  6
CONTINUOUS
370
    50
100
AcDbLine
 10
97.669787268
 20
120.3999376857
 30
0.0
 11
97.669787268
 21
197.0092749879
 31
0.0
  0
LINE
  5
53
330
A
100
AcDbEntity
  8
1
  6
CONTINUOUS
370
    50
100
AcDbLine
 10
97.669787268
 20
197.0092749879
 30
0.0
 11
98.169787268
 21
197.0092749879
 31
0.0
  0
LINE
  5
54
330
A
100
AcDbEntity
  8
1
  6
CONTINUOUS
370
    50
100
AcDbLine
 10
98.169787268
 20
197.0092749879
 30
0.0
 11
98.169787268
 21
120.803520996
 31
0.0
  0
LINE
  5
55
330
A
100
AcDbEntity
  8
1
  6
CONTINUOUS
370
    50
100
AcDbLine
 10
98.169787268
 20
120.803520996
 30
0.0
 11
97.669787268
 21
120.3999376857
 31
0.0
  0
LINE
  5
56
330
A
100
AcDbEntity
  8
1
  6
CONTINUOUS
370
    50
100
AcDbLine
 10
97.669787268
 20
197.0092749879
 30
0.0
 11
93.4529487755
 21
197.0092749879
 31
0.0
  0
LINE
  5
57
330
A
100
AcDbEntity
  8
1
  6
CONTINUOUS
370
    50
100
AcDbLine
 10
93.4529487755
 20
120.3999376857
 30
0.0
 11
97.669787268
 21
120.3999376857
 31
0.0
  0
ARC
  5
58
330
A
100
AcDbEntity
  8
1
  6
CONTINUOUS
370
    50
100
AcDbCircle
 10
88.8062687854
 20
123.0000672674
 30
0.0
 40
0.5115703146
100
AcDbArc
 50
91.2860357724
 51
181.067557136
  0
LINE
  5
59
330
A
100
AcDbEntity
  8
1
  6
CONTINUOUS
370
    50
100
AcDbLine
 10
88.294787268
 20
197.0092749879
 30
0.0
 11
88.794787268
 21
197.0092749879
 31
0.0
  0
LINE
  5
5A
330
A
100
AcDbEntity
  8
1
  6
CONTINUOUS
370
    50
100
AcDbLine
 10
88.794787268
 20
197.0092749879
 30
0.0
 11
88.794787268
 21
123.511508722
 31
0.0
  0
ARC
  5
5B
330
A
100
AcDbEntity
  8
1
  6
CONTINUOUS
370
    50
100
AcDbCircle
 10
91.6348943421
 20
123.0015919072
 30
0.0
 40
0.5100127724
100
AcDbArc
 50
358.7578664214
 51
88.8885406702
  0
LINE
  5
5C
330
A
100
AcDbEntity
  8
1
  6
CONTINUOUS
370
    50
100
AcDbLine
 10
91.644787268
 20
197.0092749879
 30
0.0
 11
91.644787268
 21
123.511508722
 31
0.0
  0
LINE
  5
5D
330
A
100
AcDbEntity
  8
1
  6
CONTINUOUS
370
    50
100
AcDbLine
 10
91.644787268
 20
197.0092749879
 30
0.0
 11
92.144787268
 21
197.0092749879
 31
0.0
  0
LINE
  5
5E
330
A
100
AcDbEntity
  8
1
  6
CONTINUOUS
370
    50
100
AcDbLine
 10
91.644787268
 20
123.511508722
 30
0.0
 11
88.794787268
 21
123.511508722
 31
0.0
  0
LINE
  5
5F
330
A
100
AcDbEntity
  8
1
  6
CONTINUOUS
370
    50
100
AcDbLine
 10
88.794787268
 20
197.0092749879
 30
0.0
 11
91.644787268
 21
197.0092749879
 31
0.0
  0
LINE
  5
60
330
A
100
AcDbEntity
  8
1
  6
CONTINUOUS
370
    50
100
AcDbLine
 10
103.875124067
 20
136.6592749879
 30
0.0
 11
103.875124067
 21
197.6592749879
 31
0.0
  0
LINE
  5
61
330
A
100
AcDbEntity
  8
1
  6
CONTINUOUS
370
    50
100
AcDbLine
 10
-20.6268726679
 20
187.5378870806
 30
0.0
 11
-20.6268726679
 21
146.7806628952
 31
0.0
  0
LINE
  5
62
330
A
100
AcDbEntity
  8
1
  6
CONTINUOUS
370
    50
100
AcDbLine
 10
79.119787268
 20
132.2342749879
 30
0.0
 11
79.119787268
 21
202.0842749879
 31
0.0
  0
LINE
  5
63
330
A
100
AcDbEntity
  8
1
  6
CONTINUOUS
370
    50
100
AcDbLine
 10
124.7392009312
 20
136.6592749879
 30
0.0
 11
124.7392009312
 21
197.6592749879
 31
0.0
  0
LINE
  5
64
330
A
100
AcDbEntity
  8
1
  6
CONTINUOUS
370
    50
100
AcDbLine
 10
181.9418659553
 20
140.6592749879
 30
0.0
 11
181.9418659553
 21
193.6592749879
 31
0.0
  0
LINE
  5
65
330
A
100
AcDbEntity
  8
1
  6
CONTINUOUS
370
    50
100
AcDbLine
 10
86.9866257606
 20
205.6703529396
 30
0.0
 11
88.294787268
 21
202.7603221726
 31
0.0
  0
LINE
  5
66
330
A
100
AcDbEntity
  8
1
  6
CONTINUOUS
370
    50
100
AcDbLine
 10
88.294787268
 20
202.1589535579
 30
0.0
 11
88.294787268
 21
202.7603221726
 31
0.0
  0
ARC
  5
67
330
A
100
AcDbEntity
  8
1
  6
CONTINUOUS
370
    50
100
AcDbCircle
 10
88.8915328134
 20
202.0918223394
 30
0.0
 40
0.6005096556
100
AcDbArc
 50
173.581465034
 51
260.7289175409
  0
LINE
  5
68
330
A
100
AcDbEntity
  8
1
  6
CONTINUOUS
370
    50
100
AcDbLine
 10
91.644787268
 20
201.4991570494
 30
0.0
 11
88.794787268
 21
201.4991570494
 31
0.0
  0
ARC
  5
69
330
A
100
AcDbEntity
  8
1
  6
CONTINUOUS
370
    50
100
AcDbCircle
 10
91.5797133454
 20
202.0678212857
 30
0.0
 40
0.5723754266
100
AcDbArc
 50
276.5281284846
 51
9.161488940500002
  0
LINE
  5
6A
330
A
100
AcDbEntity
  8
1
  6
CONTINUOUS
370
    50
100
AcDbLine
 10
92.144787268
 20
202.7603221726
 30
0.0
 11
92.144787268
 21
202.1589535579
 31
0.0
  0
LWPOLYLINE
  5
6B
330
A
100
AcDbEntity
  8
1
  6
CONTINUOUS
370
    50
100
AcDbPolyline
 90
        3
 70
   128
 43
0.0
 10
92.144787268
 20
202.7603221726
 10
92.2330868184
 20
202.9596775855
 10
93.4529487755
 20
205.6703529396
  0
LINE
  5
70
330
A
100
AcDbEntity
  8
1
  6
CONTINUOUS
370
    50
100
AcDbLine
 10
93.4529487755
 20
205.6703529396
 30
0.0
 11
97.669787268
 21
205.6703529396
 31
0.0
  0
LINE
  5
71
330
A
100
AcDbEntity
  8
1
  6
CONTINUOUS
370
    50
100
AcDbLine
 10
98.169787268
 20
205.0357601073
 30
0.0
 11
97.669787268
 21
205.6703529396
 31
0.0
  0
LINE
  5
72
330
A
100
AcDbEntity
  8
1
  6
CONTINUOUS
370
    50
100
AcDbLine
 10
81.119787268
 20
205.6703529396
 30
0.0
 11
80.619787268
 21
205.0357601073
 31
0.0
  0
LINE
  5
73
330
A
100
AcDbEntity
  8
1
  6
CONTINUOUS
370
    50
100
AcDbLine
 10
81.119787268
 20
205.6703529396
 30
0.0
 11
86.9866257606
 21
205.6703529396
 31
0.0
  0
LINE
  5
74
330
A
100
AcDbEntity
  8
1
  6
CONTINUOUS
370
    50
100
AcDbLine
 10
80.619787268
 20
205.0357601073
 30
0.0
 11
80.619787268
 21
197.0092749879
 31
0.0
  0
LINE
  5
75
330
A
100
AcDbEntity
  8
1
  6
CONTINUOUS
370
    50
100
AcDbLine
 10
98.169787268
 20
205.0357601073
 30
0.0
 11
98.169787268
 21
197.0092749879
 31
0.0
  0
LINE
  5
76
330
A
100
AcDbEntity
  8
1
  6
CONTINUOUS
370
    50
100
AcDbLine
 10
91.644787268
 20
210.8070412538
 30
0.0
 11
91.644787268
 21
201.4991570494
 31
0.0
  0
ARC
  5
77
330
A
100
AcDbEntity
  8
1
  6
CONTINUOUS
370
    50
100
AcDbCircle
 10
91.6372280563
 20
211.3147183022
 30
0.0
 40
0.5077333229
100
AcDbArc
 50
270.8530598863
 51
1.5005330221
  0
LINE
  5
78
330
A
100
AcDbEntity
  8
1
  6
CONTINUOUS
370
    50
100
AcDbLine
 10
88.794787268
 20
210.8070412538
 30
0.0
 11
88.794787268
 21
201.4991570494
 31
0.0
  0
ARC
  5
79
330
A
100
AcDbEntity
  8
1
  6
CONTINUOUS
370
    50
100
AcDbCircle
 10
88.8040244413
 20
211.3163287145
 30
0.0
 40
0.5093712232
100
AcDbArc
 50
178.6854922084
 51
268.9609148832001
  0
LINE
  5
7A
330
A
100
AcDbEntity
  8
1
  6
CONTINUOUS
370
    50
100
AcDbLine
 10
91.644787268
 20
210.8070412538
 30
0.0
 11
88.794787268
 21
210.8070412538
 31
0.0
  0
LINE
  5
7B
330
A
100
AcDbEntity
  8
1
  6
CONTINUOUS
370
    50
100
AcDbLine
 10
92.144787268
 20
211.8060504666
 30
0.0
 11
92.144787268
 21
202.7603221726
 31
0.0
  0
LINE
  5
7C
330
A
100
AcDbEntity
  8
1
  6
CONTINUOUS
370
    50
100
AcDbLine
 10
92.144787268
 20
211.8060504666
 30
0.0
 11
92.8460293615
 21
213.0686122879
 31
0.0
  0
LINE
  5
7D
330
A
100
AcDbEntity
  8
1
  6
CONTINUOUS
370
    50
100
AcDbLine
 10
93.4529487755
 20
213.9186122901
 30
0.0
 11
92.8460293615
 21
213.0686122879
 31
0.0
  0
LINE
  5
7E
330
A
100
AcDbEntity
  8
1
  6
CONTINUOUS
370
    50
100
AcDbLine
 10
93.4529487755
 20
213.9186122901
 30
0.0
 11
93.4529487755
 21
205.6703529396
 31
0.0
  0
LINE
  5
7F
330
A
100
AcDbEntity
  8
1
  6
CONTINUOUS
370
    50
100
AcDbLine
 10
88.294787268
 20
202.7603221726
 30
0.0
 11
88.294787268
 21
211.8060504666
 31
0.0
  0
LINE
  5
80
330
A
100
AcDbEntity
  8
1
  6
CONTINUOUS
370
    50
100
AcDbLine
 10
86.9866257606
 20
205.6703529396
 30
0.0
 11
86.9866257606
 21
213.9186122901
 31
0.0
  0
LINE
  5
81
330
A
100
AcDbEntity
  8
1
  6
CONTINUOUS
370
    50
100
AcDbLine
 10
87.5935451746
 20
213.0686122879
 30
0.0
 11
86.9866257606
 21
213.9186122901
 31
0.0
  0
LINE
  5
82
330
A
100
AcDbEntity
  8
1
  6
CONTINUOUS
370
    50
100
AcDbLine
 10
87.5935451746
 20
213.0686122879
 30
0.0
 11
88.294787268
 21
211.8060504666
 31
0.0
  0
LINE
  5
83
330
A
100
AcDbEntity
  8
1
  6
CONTINUOUS
370
    50
100
AcDbLine
 10
97.669787268
 20
205.6703529396
 30
0.0
 11
97.669787268
 21
213.9186122901
 31
0.0
  0
LINE
  5
84
330
A
100
AcDbEntity
  8
1
  6
CONTINUOUS
370
    50
100
AcDbLine
 10
97.669787268
 20
213.9186122901
 30
0.0
 11
98.169787268
 21
213.5150289798
 31
0.0
  0
LINE
  5
85
330
A
100
AcDbEntity
  8
1
  6
CONTINUOUS
370
    50
100
AcDbLine
 10
98.169787268
 20
213.5150289798
 30
0.0
 11
98.169787268
 21
205.0357601073
 31
0.0
  0
LINE
  5
86
330
A
100
AcDbEntity
  8
1
  6
CONTINUOUS
370
    50
100
AcDbLine
 10
80.619787268
 20
212.9757362764
 30
0.0
 11
81.119787268
 21
213.6611365098
 31
0.0
  0
LINE
  5
87
330
A
100
AcDbEntity
  8
1
  6
CONTINUOUS
370
    50
100
AcDbLine
 10
81.119787268
 20
213.6611365098
 30
0.0
 11
81.119787268
 21
205.6703529396
 31
0.0
  0
LINE
  5
88
330
A
100
AcDbEntity
  8
1
  6
CONTINUOUS
370
    50
100
AcDbLine
 10
80.619787268
 20
205.0357601073
 30
0.0
 11
80.619787268
 21
212.9757362764
 31
0.0
  0
LINE
  5
89
330
A
100
AcDbEntity
  8
1
  6
CONTINUOUS
370
    50
100
AcDbLine
 10
97.669787268
 20
213.9186122901
 30
0.0
 11
93.4529487755
 21
213.9186122901
 31
0.0
  0
LINE
  5
8A
330
A
100
AcDbEntity
  8
1
  6
CONTINUOUS
370
    50
100
AcDbLine
 10
86.9866257606
 20
213.9186122901
 30
0.0
 11
81.9697872659
 21
213.9186122901
 31
0.0
  0
LINE
  5
8B
330
A
100
AcDbEntity
  8
1
  6
CONTINUOUS
370
    50
100
AcDbLine
 10
81.119787268
 20
213.6611365098
 30
0.0
 11
81.9697872659
 21
213.9186122901
 31
0.0
  0
LINE
  5
8C
330
A
100
AcDbEntity
  8
1
  6
CONTINUOUS
370
    50
100
AcDbLine
 10
238.086659164
 20
189.2405839331
 30
0.0
 11
238.086659164
 21
145.0779660428
 31
0.0
  0
LINE
  5
8D
330
A
100
AcDbEntity
  8
1
  6
CONTINUOUS
370
    50
100
AcDbLine
 10
239.119787268
 20
146.8287255576
 30
0.0
 11
239.119787268
 21
187.4898244588
 31
0.0
  0
LINE
  5
8E
330
A
100
AcDbEntity
  8
1
  6
CONTINUOUS
370
    50
100
AcDbLine
 10
-22.480212732
 20
148.9966165798
 30
0.0
 11
-22.480212732
 21
185.3219334143
 31
0.0
  0
LINE
  5
8F
330
A
100
AcDbEntity
  8
1
  6
CONTINUOUS
370
    50
100
AcDbLine
 10
80.419787268
 20
132.5342749879
 30
0.0
 11
80.419787268
 21
201.7842749879
 31
0.0
  0
LINE
  5
90
330
A
100
AcDbEntity
  8
1
  6
CONTINUOUS
370
    50
100
AcDbLine
 10
79.6626775446
 20
132.4874288814
 30
0.0
 11
79.6626775446
 21
201.8311210944
 31
0.0
  0
LINE
  5
91
330
A
100
AcDbEntity
  8
1
  6
CONTINUOUS
370
    50
100
AcDbLine
 10
79.8739866755
 20
132.5342749879
 30
0.0
 11
79.8739866755
 21
201.7842749879
 31
0.0
  0
LINE
  5
92
330
A
100
AcDbEntity
  8
1
  6
CONTINUOUS
370
    50
100
AcDbLine
 10
-20.6980140363
 20
146.7957844599
 30
0.0
 11
-20.6980140363
 21
187.5227655159
 31
0.0
  0
LWPOLYLINE
  5
93
330
A
100
AcDbEntity
  8
1
  6
CONTINUOUS
370
    50
100
AcDbPolyline
 90
       23
 70
   128
 43
0.0
 10
97.3423398776
 20
153.4939049693
 10
97.1506734279
 20
152.7793213993
 10
96.8441145995
 20
152.1226291404
 10
96.4474989654
 20
151.5770294938
 10
95.9929579655
 20
151.1867236981
 10
95.5173158084
 20
150.9833320077
 10
95.0591061929
 20
150.9833320077
 10
94.655450537
 20
151.1867236981
 10
94.3390506213
 20
151.5770294938
 10
94.1355392852
 20
152.1226291404
 10
94.0614038069
 20
152.7793213993
 10
94.1226502019
 20
153.4939049693
 10
94.3143166516
 20
154.2084885394
 10
94.62087548
 20
154.8651807983
 10
95.0174911141
 20
155.4107804449
 10
95.472032114
 20
155.8010862406
 10
95.9476742711
 20
156.004477931
 10
96.4058838866
 20
156.004477931
 10
96.8095395425
 20
155.8010862406
 10
97.1259394582
 20
155.4107804449
 10
97.3294507943
 20
154.8651807983
 10
97.4035862726
 20
154.2084885394
 10
97.3423398776
 20
153.4939049693
  0
LWPOLYLINE
  5
AC
330
A
100
AcDbEntity
  8
1
  6
CONTINUOUS
370
    50
100
AcDbPolyline
 90
       26
 70
   128
 43
0.0
 10
89.233874611
 20
154.9289560476
 10
89.2392142521
 20
154.4144538777
 10
89.2336276398
 20
153.9608484182
 10
89.2161106527
 20
153.6124627201
 10
89.1763941341
 20
153.360918357
 10
89.0704475673
 20
153.2443532102
 10
88.949096225
 20
153.2580531567
 10
88.7810694742
 20
153.3041176244
 10
88.5398450856
 20
153.3733921482
 10
88.1307087321
 20
153.4986188835
 10
87.2903672625
 20
153.866209873
 10
86.6918118475
 20
154.3320381121
 10
86.3984757117
 20
154.7605532702
 10
86.287207071
 20
155.1744957958
 10
86.3320171348
 20
155.5981102281
 10
86.5109534408
 20
155.969156418
 10
86.9463362956
 20
156.4133679591
 10
87.7567078334
 20
156.818572241
 10
88.2855766235
 20
156.9260654763
 10
88.6015927928
 20
156.919612664
 10
88.8149267309
 20
156.8519489269
 10
88.962315586
 20
156.72808939
 10
89.1054853935
 20
156.4102242983
 10
89.1965355171
 20
155.7746067202
 10
89.2272852701
 20
155.1789554407
 10
89.233874611
 20
154.9289560476
  0
LWPOLYLINE
  5
C8
330
A
100
AcDbEntity
  8
1
  6
CONTINUOUS
370
    50
100
AcDbPolyline
 90
       21
 70
   128
 43
0.0
 10
96.6497321103
 20
153.6038281245
 10
96.4740634509
 20
152.9707689594
 10
96.1883120248
 20
152.3996780362
 10
95.8204491727
 20
151.9464577134
 10
95.4064838735
 20
151.655472354
 10
94.986937935
 20
151.5552056324
 10
94.6028794368
 20
151.655472354
 10
94.2919027006
 20
151.9464577134
 10
94.084448296
 20
152.3996780362
 10
94.0008233056
 20
152.9707689594
 10
94.0492135261
 20
153.6038281245
 10
94.2248821855
 20
154.2368872897
 10
94.5106336116
 20
154.8079782129
 10
94.8784964637
 20
155.2611985357
 10
95.2924617629
 20
155.5521838951
 10
95.7120077014
 20
155.6524506166
 10
96.0960661996
 20
155.5521838951
 10
96.4070429358
 20
155.2611985357
 10
96.6144973404
 20
154.8079782129
 10
96.6981223308
 20
154.2368872897
 10
96.6497321103
 20
153.6038281245
  0
LWPOLYLINE
  5
DF
330
A
100
AcDbEntity
  8
1
  6
CONTINUOUS
370
    50
100
AcDbPolyline
 90
       21
 70
   128
 43
0.0
 10
87.4648592373
 20
156.2397853862
 10
87.2891905779
 20
155.606726221
 10
87.0034391518
 20
155.0356352978
 10
86.6355762997
 20
154.582414975
 10
86.2216110005
 20
154.2914296156
 10
85.802065062
 20
154.191162894
 10
85.4180065638
 20
154.2914296156
 10
85.1070298276
 20
154.582414975
 10
84.899575423
 20
155.0356352978
 10
84.8159504326
 20
155.606726221
 10
84.8643406531
 20
156.2397853862
 10
85.0400093125
 20
156.8728445513
 10
85.3257607386
 20
157.4439354745
 10
85.6936235907
 20
157.8971557973
 10
86.1075888899
 20
158.1881411567
 10
86.5271348284
 20
158.2884078783
 10
86.9111933266
 20
158.1881411567
 10
87.2221700628
 20
157.8971557973
 10
87.4296244674
 20
157.4439354745
 10
87.5132494578
 20
156.8728445513
 10
87.4648592373
 20
156.2397853862
  0
LINE
  5
F6
330
A
100
AcDbEntity
  8
1
  6
CONTINUOUS
370
    50
100
AcDbLine
 10
80.8729411616
 20
131.8592749879
 30
0.0
 11
80.8729411616
 21
203.4019340193
 31
0.0
  0
LINE
  5
F7
330
A
100
AcDbEntity
  8
1
  6
CONTINUOUS
370
    50
100
AcDbLine
 10
80.919787268
 20
131.8592749879
 30
0.0
 11
80.919787268
 21
203.1906248884
 31
0.0
  0
LWPOLYLINE
  5
F8
330
A
100
AcDbEntity
  8
1
  6
CONTINUOUS
370
    50
100
AcDbPolyline
 90
       23
 70
   128
 43
0.0
 10
87.7048672295
 20
156.2419838493
 10
87.5205725663
 20
155.5548842627
 10
87.225804462
 20
154.9234493983
 10
86.8444432754
 20
154.3988343535
 10
86.4073846217
 20
154.0235403192
 10
85.9500363937
 20
153.8279713862
 10
85.5094502249
 20
153.8279713862
 10
85.1213197866
 20
154.0235403192
 10
84.8170890984
 20
154.3988343535
 10
84.6214051214
 20
154.9234493983
 10
84.5501210076
 20
155.5548842627
 10
84.6090117721
 20
156.2419838493
 10
84.7933064352
 20
156.9290834358
 10
85.0880745395
 20
157.5605183002
 10
85.4694357261
 20
158.085133345
 10
85.9064943799
 20
158.4604273793
 10
86.3638426078
 20
158.6559963124
 10
86.8044287766
 20
158.6559963124
 10
87.1925592149
 20
158.4604273793
 10
87.4967899031
 20
158.085133345
 10
87.6924738801
 20
157.5605183002
 10
87.7637579939
 20
156.9290834358
 10
87.7048672295
 20
156.2419838493
  0
LWPOLYLINE
  5
111
330
A
100
AcDbEntity
  8
1
  6
CONTINUOUS
370
    50
100
AcDbPolyline
 90
       23
 70
   128
 43
0.0
 10
87.7125276739
 20
156.2397853862
 10
87.5282330107
 20
155.5526857996
 10
87.2334649065
 20
154.9212509352
 10
86.8521037198
 20
154.3966358904
 10
86.4150450661
 20
154.0213418561
 10
85.9576968381
 20
153.8257729231
 10
85.5171106694
 20
153.8257729231
 10
85.128980231
 20
154.0213418561
 10
84.8247495428
 20
154.3966358904
 10
84.6290655658
 20
154.9212509352
 10
84.557781452
 20
155.5526857996
 10
84.6166722165
 20
156.2397853862
 10
84.8009668796
 20
156.9268849727
 10
85.0957349839
 20
157.5583198371
 10
85.4770961706
 20
158.0829348819
 10
85.9141548243
 20
158.4582289162
 10
86.3715030523
 20
158.6537978493
 10
86.812089221
 20
158.6537978493
 10
87.2002196594
 20
158.4582289162
 10
87.5044503476
 20
158.0829348819
 10
87.7001343246
 20
157.5583198371
 10
87.7714184383
 20
156.9268849727
 10
87.7125276739
 20
156.2397853862
  0
LWPOLYLINE
  5
12A
330
A
100
AcDbEntity
  8
1
  6
CONTINUOUS
370
    50
100
AcDbPolyline
 90
       21
 70
   128
 43
0.0
 10
87.4571987929
 20
156.2419838493
 10
87.2815301334
 20
155.6089246841
 10
86.9957787074
 20
155.0378337609
 10
86.6279158553
 20
154.5846134381
 10
86.2139505561
 20
154.2936280787
 10
85.7944046176
 20
154.1933613572
 10
85.4103461194
 20
154.2936280787
 10
85.0993693831
 20
154.5846134381
 10
84.8919149786
 20
155.0378337609
 10
84.8082899882
 20
155.6089246841
 10
84.8566802086
 20
156.2419838493
 10
85.0323488681
 20
156.8750430144
 10
85.3181002941
 20
157.4461339376
 10
85.6859631463
 20
157.8993542604
 10
86.0999284454
 20
158.1903396198
 10
86.5194743839
 20
158.2906063414
 10
86.9035328822
 20
158.1903396198
 10
87.2145096184
 20
157.8993542604
 10
87.4219640229
 20
157.4461339376
 10
87.5055890133
 20
156.8750430144
 10
87.4571987929
 20
156.2419838493
  0
LWPOLYLINE
  5
141
330
A
100
AcDbEntity
  8
1
  6
CONTINUOUS
370
    50
100
AcDbPolyline
 90
       21
 70
   128
 43
0.0
 10
63.7584709644
 20
163.0432574841
 10
63.3119804682
 20
162.5281849041
 10
62.4302717128
 20
162.0363168468
 10
60.8454093741
 20
161.6857549242
 10
59.1739899963
 20
161.8042581503
 10
58.3139394369
 20
162.13607412
 10
57.756360033
 20
162.5778071327
 10
57.4603934472
 20
163.0535978825
 10
57.3630972288
 20
163.6080843914
 10
57.4676599286
 20
164.1113717271
 10
57.7322556991
 20
164.5661478373
 10
58.2809699553
 20
165.0592090384
 10
59.2140633419
 20
165.4669505183
 10
60.6700800293
 20
165.6055312302
 10
62.151248458
 20
165.3039632799
 10
63.0739868379
 20
164.8350044746
 10
63.5816046672
 20
164.3715458688
 10
63.8214514232
 20
163.9632412271
 10
63.8964269524
 20
163.5852129784
 10
63.8332066248
 20
163.2098803058
 10
63.7584709644
 20
163.0432574841
  0
LINE
  5
158
330
A
100
AcDbEntity
  8
1
  6
CONTINUOUS
370
    50
100
AcDbLine
 10
80.619787268
 20
131.1092749879
 30
0.0
 11
82.819787268
 21
131.1092749879
 31
0.0
  0
LINE
  5
159
330
A
100
AcDbEntity
  8
1
  6
CONTINUOUS
370
    50
100
AcDbLine
 10
82.819787268
 20
205.4092749879
 30
0.0
 11
80.619787268
 21
205.4092749879
 31
0.0
  0
LINE
  5
15A
330
A
100
AcDbEntity
  8
1
  6
CONTINUOUS
370
    50
100
AcDbLine
 10
-21.7197412392
 20
154.2288510707
 30
0.0
 11
-21.7197412392
 21
180.0896989051
 31
0.0
  0
LINE
  5
15B
330
A
100
AcDbEntity
  8
1
  6
CONTINUOUS
370
    50
100
AcDbLine
 10
82.5091270963
 20
131.8592749879
 30
0.0
 11
80.619787268
 21
131.8592749879
 31
0.0
  0
LINE
  5
15C
330
A
100
AcDbEntity
  8
1
  6
CONTINUOUS
370
    50
100
AcDbLine
 10
80.619787268
 20
204.6592749879
 30
0.0
 11
82.5091270963
 21
204.6592749879
 31
0.0
  0
LINE
  5
15D
330
A
100
AcDbEntity
  8
1
  6
CONTINUOUS
370
    50
100
AcDbLine
 10
238.0565652437
 20
154.6592749879
 30
0.0
 11
238.0565652437
 21
179.6592749879
 31
0.0
  0
LINE
  5
15E
330
A
100
AcDbEntity
  8
1
  6
CONTINUOUS
370
    50
100
AcDbLine
 10
81.9697872659
 20
120.3999376857
 30
0.0
 11
82.819787268
 21
121.2499376879
 31
0.0
  0
LINE
  5
15F
330
A
100
AcDbEntity
  8
1
  6
CONTINUOUS
370
    50
100
AcDbLine
 10
81.9697872659
 20
213.9186122901
 30
0.0
 11
82.819787268
 21
213.0686122879
 31
0.0
  0
LINE
  5
160
330
A
100
AcDbEntity
  8
1
  6
CONTINUOUS
370
    50
100
AcDbLine
 10
-21.2197412392
 20
154.5175262053
 30
0.0
 11
-21.2197412392
 21
179.8010237705
 31
0.0
  0
LINE
  5
161
330
A
100
AcDbEntity
  8
1
  6
CONTINUOUS
370
    50
100
AcDbLine
 10
92.8460293615
 20
121.2499376879
 30
0.0
 11
98.169787268
 21
121.2499376879
 31
0.0
  0
LINE
  5
162
330
A
100
AcDbEntity
  8
1
  6
CONTINUOUS
370
    50
100
AcDbLine
 10
82.819787268
 20
121.2499376879
 30
0.0
 11
87.5935451746
 21
121.2499376879
 31
0.0
  0
LINE
  5
163
330
A
100
AcDbEntity
  8
1
  6
CONTINUOUS
370
    50
100
AcDbLine
 10
82.819787268
 20
121.2499376879
 30
0.0
 11
82.819787268
 21
131.1092749879
 31
0.0
  0
LINE
  5
164
330
A
100
AcDbEntity
  8
1
  6
CONTINUOUS
370
    50
100
AcDbLine
 10
82.819787268
 20
131.1092749879
 30
0.0
 11
98.169787268
 21
131.1092749879
 31
0.0
  0
LINE
  5
165
330
A
100
AcDbEntity
  8
1
  6
CONTINUOUS
370
    50
100
AcDbLine
 10
97.119787268
 20
131.8592749879
 30
0.0
 11
82.5091270963
 21
131.8592749879
 31
0.0
  0
LINE
  5
166
330
A
100
AcDbEntity
  8
1
  6
CONTINUOUS
370
    50
100
AcDbLine
 10
82.819787268
 20
131.1092749879
 30
0.0
 11
82.5091270963
 21
131.8592749879
 31
0.0
  0
LINE
  5
167
330
A
100
AcDbEntity
  8
1
  6
CONTINUOUS
370
    50
100
AcDbLine
 10
92.8460293615
 20
213.0686122879
 30
0.0
 11
98.169787268
 21
213.0686122879
 31
0.0
  0
LINE
  5
168
330
A
100
AcDbEntity
  8
1
  6
CONTINUOUS
370
    50
100
AcDbLine
 10
82.819787268
 20
213.0686122879
 30
0.0
 11
87.5935451746
 21
213.0686122879
 31
0.0
  0
LINE
  5
169
330
A
100
AcDbEntity
  8
1
  6
CONTINUOUS
370
    50
100
AcDbLine
 10
82.819787268
 20
213.0686122879
 30
0.0
 11
82.819787268
 21
205.4092749879
 31
0.0
  0
LINE
  5
16A
330
A
100
AcDbEntity
  8
1
  6
CONTINUOUS
370
    50
100
AcDbLine
 10
98.169787268
 20
205.4092749879
 30
0.0
 11
82.819787268
 21
205.4092749879
 31
0.0
  0
LINE
  5
16B
330
A
100
AcDbEntity
  8
1
  6
CONTINUOUS
370
    50
100
AcDbLine
 10
82.5091270963
 20
204.6592749879
 30
0.0
 11
98.169787268
 21
204.6592749879
 31
0.0
  0
LINE
  5
16C
330
A
100
AcDbEntity
  8
1
  6
CONTINUOUS
370
    50
100
AcDbLine
 10
82.819787268
 20
205.4092749879
 30
0.0
 11
82.5091270963
 21
204.6592749879
 31
0.0
  0
LINE
  5
16D
330
A
100
AcDbEntity
  8
1
  6
CONTINUOUS
370
    50
100
AcDbLine
 10
191.004317218
 20
154.4592749879
 30
0.0
 11
191.004317218
 21
179.8592749879
 31
0.0
  0
LINE
  5
16E
330
A
100
AcDbEntity
  8
1
  6
CONTINUOUS
370
    50
100
AcDbLine
 10
181.619787268
 20
179.8592749879
 30
0.0
 11
181.619787268
 21
154.4853685
 31
0.0
  0
LINE
  5
16F
330
A
100
AcDbEntity
  8
1
  6
CONTINUOUS
370
    50
100
AcDbLine
 10
181.119787268
 20
179.3592749879
 30
0.0
 11
181.119787268
 21
154.9592749879
 31
0.0
  0
LINE
  5
170
330
A
100
AcDbEntity
  8
1
  6
CONTINUOUS
370
    50
100
AcDbLine
 10
191.1197872719
 20
179.6592749879
 30
0.0
 11
191.1197872719
 21
154.6592749879
 31
0.0
  0
LINE
  5
171
330
A
100
AcDbEntity
  8
1
  6
CONTINUOUS
370
    50
100
AcDbLine
 10
-10.780212732
 20
179.8092749879
 30
0.0
 11
-10.780212732
 21
154.5092749879
 31
0.0
  0
LINE
  5
172
330
A
100
AcDbEntity
  8
1
  6
CONTINUOUS
370
    50
100
AcDbLine
 10
-13.4905013003
 20
179.8092749879
 30
0.0
 11
-13.4905013003
 21
154.5092749879
 31
0.0
  0
LINE
  5
173
330
A
100
AcDbEntity
  8
1
  6
CONTINUOUS
370
    50
100
AcDbLine
 10
-13.7503089214
 20
179.6592749879
 30
0.0
 11
-13.7503089214
 21
154.6592749879
 31
0.0
  0
LINE
  5
174
330
A
100
AcDbEntity
  8
1
  6
CONTINUOUS
370
    50
100
AcDbLine
 10
-9.574994045
 20
177.7217749879
 30
0.0
 11
-9.574994045
 21
156.5967749879
 31
0.0
  0
LINE
  5
175
330
A
100
AcDbEntity
  8
1
  6
CONTINUOUS
370
    50
100
AcDbLine
 10
-20.480212732
 20
179.6592749879
 30
0.0
 11
-20.480212732
 21
154.6849575785
 31
0.0
  0
LINE
  5
176
330
A
100
AcDbEntity
  8
1
  6
CONTINUOUS
370
    50
100
AcDbLine
 10
97.119787268
 20
129.6592749879
 30
0.0
 11
97.119787268
 21
131.7146739218
 31
0.0
  0
LINE
  5
177
330
A
100
AcDbEntity
  8
1
  6
CONTINUOUS
370
    50
100
AcDbLine
 10
98.169787268
 20
131.7146739218
 30
0.0
 11
97.119787268
 21
131.7146739218
 31
0.0
  0
LINE
  5
178
330
A
100
AcDbEntity
  8
1
  6
CONTINUOUS
370
    50
100
AcDbLine
 10
97.119787268
 20
131.7146739218
 30
0.0
 11
97.119787268
 21
131.8592749879
 31
0.0
  0
LINE
  5
179
330
A
100
AcDbEntity
  8
1
  6
CONTINUOUS
370
    50
100
AcDbLine
 10
26.529787268
 20
179.1592749879
 30
0.0
 11
26.529787268
 21
155.1592749879
 31
0.0
  0
LINE
  5
17A
330
A
100
AcDbEntity
  8
1
  6
CONTINUOUS
370
    50
100
AcDbLine
 10
26.519787268
 20
179.1592749879
 30
0.0
 11
26.519787268
 21
155.1592749879
 31
0.0
  0
LINE
  5
17B
330
A
100
AcDbEntity
  8
1
  6
CONTINUOUS
370
    50
100
AcDbLine
 10
41.519787268
 20
177.7217749879
 30
0.0
 11
41.519787268
 21
156.5967749879
 31
0.0
  0
LINE
  5
17C
330
A
100
AcDbEntity
  8
1
  6
CONTINUOUS
370
    50
100
AcDbLine
 10
41.5425354077
 20
177.6592749879
 30
0.0
 11
41.5425354077
 21
156.6592749879
 31
0.0
  0
LINE
  5
17D
330
A
100
AcDbEntity
  8
1
  6
CONTINUOUS
370
    50
100
AcDbLine
 10
88.3858126718
 20
158.1592749879
 30
0.0
 11
88.3858126718
 21
176.1592749879
 31
0.0
  0
LINE
  5
17E
330
A
100
AcDbEntity
  8
1
  6
CONTINUOUS
370
    50
100
AcDbLine
 10
87.519787268
 20
177.6592749879
 30
0.0
 11
87.519787268
 21
156.6592749879
 31
0.0
  0
LWPOLYLINE
  5
17F
330
A
100
AcDbEntity
  8
1
  6
CONTINUOUS
370
    50
100
AcDbPolyline
 90
       38
 70
   128
 43
0.0
 10
63.7584709644
 20
171.2752924917
 10
63.5663846398
 20
171.5484103601
 10
63.3119804682
 20
171.7903650717
 10
62.8983278101
 20
172.0647434794
 10
62.4302717128
 20
172.2822331291
 10
61.6653842733
 20
172.5115539497
 10
60.8454093741
 20
172.6327950516
 10
60.0168316678
 20
172.6399667201
 10
59.1739899963
 20
172.5142918255
 10
58.7343423321
 20
172.3785898599
 10
58.3139394369
 20
172.1824758558
 10
58.0186341319
 20
171.9857051818
 10
57.756360033
 20
171.7407428431
 10
57.5888989734
 20
171.5184336605
 10
57.4603934472
 20
171.2649520933
 10
57.3846782243
 20
170.9984643817
 10
57.3630972288
 20
170.7104655844
 10
57.3925032193
 20
170.4593740512
 10
57.4676599286
 20
170.2071782488
 10
57.5809207461
 20
169.9736787485
 10
57.7322556991
 20
169.7524021386
 10
57.9819732786
 20
169.4881779289
 10
58.2809699553
 20
169.2593409375
 10
58.724344833
 20
169.0217509787
 10
59.2140633419
 20
168.8515994576
 10
59.9262947494
 20
168.7252639125
 10
60.6700800293
 20
168.7130187456
 10
61.413900577
 20
168.8088015539
 10
62.151248458
 20
169.014586696
 10
62.6246548828
 20
169.2175793968
 10
63.0739868379
 20
169.4835455012
 10
63.3424847356
 20
169.6960086046
 10
63.5816046672
 20
169.947004107
 10
63.7167172201
 20
170.1404419874
 10
63.8214514232
 20
170.3553087487
 10
63.8964269524
 20
170.7333369975
 10
63.8332066248
 20
171.1086696701
 10
63.7584709644
 20
171.2752924917
  0
LINE
  5
1A7
330
A
100
AcDbEntity
  8
1
  6
CONTINUOUS
370
    50
100
AcDbLine
 10
147.519787268
 20
158.1592749879
 30
0.0
 11
147.519787268
 21
176.1592749879
 31
0.0
  0
LINE
  5
1A8
330
A
100
AcDbEntity
  8
1
  6
CONTINUOUS
370
    50
100
AcDbLine
 10
148.3858126718
 20
159.6592749879
 30
0.0
 11
148.3858126718
 21
174.6592749879
 31
0.0
  0
LINE
  5
1A9
330
A
100
AcDbEntity
  8
1
  6
CONTINUOUS
370
    50
100
AcDbLine
 10
85.219787268
 20
204.4592749879
 30
0.0
 11
95.219787268
 21
204.4592749879
 31
0.0
  0
LINE
  5
1AA
330
A
100
AcDbEntity
  8
1
  6
CONTINUOUS
370
    50
100
AcDbLine
 10
85.5197878342
 20
199.9592749879
 30
0.0
 11
94.919787268
 21
199.9592749879
 31
0.0
  0
LINE
  5
1AB
330
A
100
AcDbEntity
  8
1
  6
CONTINUOUS
370
    50
100
AcDbLine
 10
95.219787268
 20
200.2592749879
 30
0.0
 11
85.2454406511
 21
200.2592749879
 31
0.0
  0
LINE
  5
1AC
330
A
100
AcDbEntity
  8
1
  6
CONTINUOUS
370
    50
100
AcDbLine
 10
89.119787268
 20
199.5592749879
 30
0.0
 11
91.319787268
 21
199.5592749879
 31
0.0
  0
LINE
  5
1AD
330
A
100
AcDbEntity
  8
1
  6
CONTINUOUS
370
    50
100
AcDbLine
 10
88.969787268
 20
196.1492749879
 30
0.0
 11
91.469787268
 21
196.1492749879
 31
0.0
  0
LINE
  5
1AE
330
A
100
AcDbEntity
  8
1
  6
CONTINUOUS
370
    50
100
AcDbLine
 10
88.969787268
 20
196.1592749879
 30
0.0
 11
91.469787268
 21
196.1592749879
 31
0.0
  0
LINE
  5
1AF
330
A
100
AcDbEntity
  8
1
  6
CONTINUOUS
370
    50
100
AcDbLine
 10
89.119787268
 20
193.5592749879
 30
0.0
 11
91.319787268
 21
193.5592749879
 31
0.0
  0
LWPOLYLINE
  5
1B0
330
A
100
AcDbEntity
  8
1
  6
CONTINUOUS
370
    50
100
AcDbPolyline
 90
       21
 70
   128
 43
0.0
 10
87.4571987929
 20
178.0765661266
 10
87.2815301334
 20
178.7096252917
 10
86.9957787074
 20
179.2807162149
 10
86.6279158553
 20
179.7339365377
 10
86.2139505561
 20
180.0249218971
 10
85.7944046176
 20
180.1251886187
 10
85.4103461194
 20
180.0249218971
 10
85.0993693831
 20
179.7339365377
 10
84.8919149786
 20
179.2807162149
 10
84.8082899882
 20
178.7096252917
 10
84.8566802086
 20
178.0765661266
 10
85.0323488681
 20
177.4435069615
 10
85.3181002941
 20
176.8724160382
 10
85.6859631463
 20
176.4191957154
 10
86.0999284454
 20
176.128210356
 10
86.5194743839
 20
176.0279436345
 10
86.9035328822
 20
176.128210356
 10
87.2145096184
 20
176.4191957154
 10
87.4219640229
 20
176.8724160382
 10
87.5055890133
 20
177.4435069615
 10
87.4571987929
 20
178.0765661266
  0
LINE
  5
1C7
330
A
100
AcDbEntity
  8
1
  6
CONTINUOUS
370
    50
100
AcDbLine
 10
88.794787268
 20
123.511508722
 30
0.0
 11
88.794787268
 21
210.8070412538
 31
0.0
  0
LINE
  5
1C8
330
A
100
AcDbEntity
  8
1
  6
CONTINUOUS
370
    50
100
AcDbLine
 10
88.294787268
 20
197.0092749879
 30
0.0
 11
88.294787268
 21
202.1589535579
 31
0.0
  0
LINE
  5
1C9
330
A
100
AcDbEntity
  8
1
  6
CONTINUOUS
370
    50
100
AcDbLine
 10
91.644787268
 20
123.511508722
 30
0.0
 11
91.644787268
 21
210.8070412538
 31
0.0
  0
LINE
  5
1CA
330
A
100
AcDbEntity
  8
1
  6
CONTINUOUS
370
    50
100
AcDbLine
 10
92.144787268
 20
197.0092749879
 30
0.0
 11
92.144787268
 21
202.1589535579
 31
0.0
  0
LINE
  5
1CB
330
A
100
AcDbEntity
  8
1
  6
CONTINUOUS
370
    50
100
AcDbLine
 10
86.9866257606
 20
205.6703529396
 30
0.0
 11
86.9866257606
 21
197.0092749879
 31
0.0
  0
LINE
  5
1CC
330
A
100
AcDbEntity
  8
1
  6
CONTINUOUS
370
    50
100
AcDbLine
 10
97.669787268
 20
205.6703529396
 30
0.0
 11
97.669787268
 21
197.0092749879
 31
0.0
  0
LINE
  5
1CD
330
A
100
AcDbEntity
  8
1
  6
CONTINUOUS
370
    50
100
AcDbLine
 10
93.4529487755
 20
197.0092749879
 30
0.0
 11
93.4529487755
 21
205.6703529396
 31
0.0
  0
LINE
  5
1CE
330
A
100
AcDbEntity
  8
1
  6
CONTINUOUS
370
    50
100
AcDbLine
 10
81.119787268
 20
197.0092749879
 30
0.0
 11
81.119787268
 21
205.6703529396
 31
0.0
  0
LWPOLYLINE
  5
1CF
330
A
100
AcDbEntity
  8
1
  6
CONTINUOUS
370
    50
100
AcDbPolyline
 90
       13
 70
   128
 43
0.0
 10
98.169787268
 20
187.0312324067
 10
97.0384559006
 20
188.2235582861
 10
96.093456447
 20
189.4997159082
 10
95.3462741171
 20
190.8441952767
 10
94.805989917
 20
192.2406560355
 10
94.4791702815
 20
193.672126064
 10
94.369787268
 20
195.1212077505
 10
94.4791702815
 20
196.5702894369
 10
94.805989917
 20
198.0017594654
 10
95.3462741171
 20
199.3982202243
 10
96.093456447
 20
200.7426995928
 10
97.0384559006
 20
202.0188572149
 10
98.169787268
 20
203.2111830943
  0
LWPOLYLINE
  5
1DE
330
A
100
AcDbEntity
  8
1
  6
CONTINUOUS
370
    50
100
AcDbPolyline
 90
       13
 70
   128
 43
0.0
 10
98.169787268
 20
183.6212406063
 10
97.0384559006
 20
184.8135664858
 10
96.093456447
 20
186.0897241079
 10
95.3462741171
 20
187.4342034764
 10
94.805989917
 20
188.8306642352
 10
94.4791702815
 20
190.2621342637
 10
94.369787268
 20
191.7112159502
 10
94.4791702815
 20
193.1602976366
 10
94.805989917
 20
194.5917676651
 10
95.3462741171
 20
195.988228424
 10
96.093456447
 20
197.3327077925
 10
97.0384559006
 20
198.6088654146
 10
98.169787268
 20
199.801191294
  0
LWPOLYLINE
  5
1ED
330
A
100
AcDbEntity
  8
1
  6
CONTINUOUS
370
    50
100
AcDbPolyline
 90
       13
 70
   128
 43
0.0
 10
98.169787268
 20
141.919762159
 10
97.0384559006
 20
143.3973156694
 10
96.093456447
 20
144.9787551123
 10
95.3462741171
 20
146.6448601972
 10
94.805989917
 20
148.3753816361
 10
94.4791702815
 20
150.1492872455
 10
94.369787268
 20
151.9450175653
 10
94.4791702815
 20
153.740747885
 10
94.805989917
 20
155.5146534944
 10
95.3462741171
 20
157.2451749333
 10
96.093456447
 20
158.9112800182
 10
97.0384559006
 20
160.4927194611
 10
98.169787268
 20
161.9702729715
  0
LWPOLYLINE
  5
1FC
330
A
100
AcDbEntity
  8
1
  6
CONTINUOUS
370
    50
100
AcDbPolyline
 90
       13
 70
   128
 43
0.0
 10
98.169787268
 20
139.8066708503
 10
97.0384559006
 20
141.2842243607
 10
96.093456447
 20
142.8656638036
 10
95.3462741171
 20
144.5317688885
 10
94.805989917
 20
146.2622903274
 10
94.4791702815
 20
148.0361959368
 10
94.369787268
 20
149.8319262565
 10
94.4791702815
 20
151.6276565763
 10
94.805989917
 20
153.4015621857
 10
95.3462741171
 20
155.1320836246
 10
96.093456447
 20
156.7981887095
 10
97.0384559006
 20
158.3796281524
 10
98.169787268
 20
159.8571816628
  0
LWPOLYLINE
  5
20B
330
A
100
AcDbEntity
  8
1
  6
CONTINUOUS
370
    50
100
AcDbPolyline
 90
       23
 70
   128
 43
0.0
 10
87.7048672295
 20
178.0765661266
 10
87.5205725663
 20
178.7636657131
 10
87.225804462
 20
179.3951005775
 10
86.8444432754
 20
179.9197156223
 10
86.4073846217
 20
180.2950096566
 10
85.9500363937
 20
180.4905785897
 10
85.5094502249
 20
180.4905785897
 10
85.1213197866
 20
180.2950096566
 10
84.8170890984
 20
179.9197156223
 10
84.6214051214
 20
179.3951005775
 10
84.5501210076
 20
178.7636657131
 10
84.6090117721
 20
178.0765661266
 10
84.7933064352
 20
177.38946654
 10
85.0880745395
 20
176.7580316756
 10
85.4694357261
 20
176.2334166308
 10
85.9064943799
 20
175.8581225966
 10
86.3638426078
 20
175.6625536635
 10
86.8044287766
 20
175.6625536635
 10
87.1925592149
 20
175.8581225966
 10
87.4967899031
 20
176.2334166308
 10
87.6924738801
 20
176.7580316756
 10
87.7637579939
 20
177.38946654
 10
87.7048672295
 20
178.0765661266
  0
LWPOLYLINE
  5
224
330
A
100
AcDbEntity
  8
1
  6
CONTINUOUS
370
    50
100
AcDbPolyline
 90
       23
 70
   128
 43
0.0
 10
87.7125276739
 20
178.0787645897
 10
87.5282330107
 20
178.7658641762
 10
87.2334649065
 20
179.3972990406
 10
86.8521037198
 20
179.9219140854
 10
86.4150450661
 20
180.2972081197
 10
85.9576968381
 20
180.4927770528
 10
85.5171106694
 20
180.4927770528
 10
85.128980231
 20
180.2972081197
 10
84.8247495428
 20
179.9219140854
 10
84.6290655658
 20
179.3972990406
 10
84.557781452
 20
178.7658641762
 10
84.6166722165
 20
178.0787645897
 10
84.8009668796
 20
177.3916650031
 10
85.0957349839
 20
176.7602301387
 10
85.4770961706
 20
176.2356150939
 10
85.9141548243
 20
175.8603210597
 10
86.3715030523
 20
175.6647521266
 10
86.812089221
 20
175.6647521266
 10
87.2002196594
 20
175.8603210597
 10
87.5044503476
 20
176.2356150939
 10
87.7001343246
 20
176.7602301387
 10
87.7714184383
 20
177.3916650031
 10
87.7125276739
 20
178.0787645897
  0
LWPOLYLINE
  5
23D
330
A
100
AcDbEntity
  8
1
  6
CONTINUOUS
370
    50
100
AcDbPolyline
 90
       21
 70
   128
 43
0.0
 10
87.4648592373
 20
178.0787645897
 10
87.2891905779
 20
178.7118237548
 10
87.0034391518
 20
179.2829146781
 10
86.6355762997
 20
179.7361350009
 10
86.2216110005
 20
180.0271203602
 10
85.802065062
 20
180.1273870818
 10
85.4180065638
 20
180.0271203602
 10
85.1070298276
 20
179.7361350009
 10
84.899575423
 20
179.2829146781
 10
84.8159504326
 20
178.7118237548
 10
84.8643406531
 20
178.0787645897
 10
85.0400093125
 20
177.4457054246
 10
85.3257607386
 20
176.8746145013
 10
85.6936235907
 20
176.4213941785
 10
86.1075888899
 20
176.1304088191
 10
86.5271348284
 20
176.0301420976
 10
86.9111933266
 20
176.1304088191
 10
87.2221700628
 20
176.4213941785
 10
87.4296244674
 20
176.8746145013
 10
87.5132494578
 20
177.4457054246
 10
87.4648592373
 20
178.0787645897
  0
LWPOLYLINE
  5
254
330
A
100
AcDbEntity
  8
1
  6
CONTINUOUS
370
    50
100
AcDbPolyline
 90
       25
 70
   128
 43
0.0
 10
89.233874611
 20
179.3895939282
 10
89.2110688764
 20
178.7640140558
 10
89.1619193095
 20
178.2078242974
 10
89.0248309512
 20
177.6882501243
 10
88.8889346422
 20
177.5159091725
 10
88.7037275326
 20
177.4214082595
 10
88.4637156758
 20
177.3869384221
 10
87.9716459917
 20
177.4421477116
 10
87.0712256621
 20
177.8184559482
 10
86.5934655732
 20
178.238712187
 10
86.352105587
 20
178.65902587
 10
86.2867788098
 20
179.1387190792
 10
86.3916856109
 20
179.5430250404
 10
86.6920917526
 20
179.9868128445
 10
87.3009575206
 20
180.4584658846
 10
88.2181831489
 20
180.8484124802
 10
88.5453938229
 20
180.9467587179
 10
88.7754913624
 20
181.012831354
 10
88.939975177
 20
181.0582835742
 10
89.086272033
 20
181.0710207859
 10
89.1885655909
 20
180.9103868104
 10
89.2247120112
 20
180.5808726041
 10
89.2375161784
 20
180.164226656
 10
89.2378935143
 20
179.6481311157
 10
89.233874611
 20
179.3895939282
  0
LWPOLYLINE
  5
26F
330
A
100
AcDbEntity
  8
1
  6
CONTINUOUS
370
    50
100
AcDbPolyline
 90
       21
 70
   128
 43
0.0
 10
96.6497321103
 20
180.7147218513
 10
96.4740634509
 20
181.3477810164
 10
96.1883120248
 20
181.9188719397
 10
95.8204491727
 20
182.3720922625
 10
95.4064838735
 20
182.6630776218
 10
94.986937935
 20
182.7633443434
 10
94.6028794368
 20
182.6630776218
 10
94.2919027006
 20
182.3720922625
 10
94.084448296
 20
181.9188719397
 10
94.0008233056
 20
181.3477810164
 10
94.0492135261
 20
180.7147218513
 10
94.2248821855
 20
180.0816626862
 10
94.5106336116
 20
179.5105717629
 10
94.8784964637
 20
179.0573514401
 10
95.2924617629
 20
178.7663660807
 10
95.7120077014
 20
178.6660993592
 10
96.0960661996
 20
178.7663660807
 10
96.4070429358
 20
179.0573514401
 10
96.6144973404
 20
179.5105717629
 10
96.6981223308
 20
180.0816626862
 10
96.6497321103
 20
180.7147218513
  0
LWPOLYLINE
  5
286
330
A
100
AcDbEntity
  8
1
  6
CONTINUOUS
370
    50
100
AcDbPolyline
 90
       23
 70
   128
 43
0.0
 10
97.3423398776
 20
180.8246450065
 10
97.1506734279
 20
181.5392285765
 10
96.8441145995
 20
182.1959208355
 10
96.4474989654
 20
182.7415204821
 10
95.9929579655
 20
183.1318262777
 10
95.5173158084
 20
183.3352179681
 10
95.0591061929
 20
183.3352179681
 10
94.655450537
 20
183.1318262777
 10
94.3390506213
 20
182.7415204821
 10
94.1355392852
 20
182.1959208355
 10
94.0614038069
 20
181.5392285765
 10
94.1226502019
 20
180.8246450065
 10
94.3143166516
 20
180.1100614365
 10
94.62087548
 20
179.4533691775
 10
95.0174911141
 20
178.9077695309
 10
95.472032114
 20
178.5174637353
 10
95.9476742711
 20
178.3140720449
 10
96.4058838866
 20
178.3140720449
 10
96.8095395425
 20
178.5174637353
 10
97.1259394582
 20
178.9077695309
 10
97.3294507943
 20
179.4533691775
 10
97.4035862726
 20
180.1100614365
 10
97.3423398776
 20
180.8246450065
  0
LINE
  5
29F
330
A
100
AcDbEntity
  8
1
  6
CONTINUOUS
370
    50
100
AcDbLine
 10
81.819787268
 20
147.1592749879
 30
0.0
 11
86.419787268
 21
147.1592749879
 31
0.0
  0
LINE
  5
2A0
330
A
100
AcDbEntity
  8
1
  6
CONTINUOUS
370
    50
100
AcDbLine
 10
86.419787268
 20
147.1592749879
 30
0.0
 11
86.419787268
 21
187.1592749879
 31
0.0
  0
LINE
  5
2A1
330
A
100
AcDbEntity
  8
1
  6
CONTINUOUS
370
    50
100
AcDbLine
 10
95.219787268
 20
187.1592749879
 30
0.0
 11
95.219787268
 21
147.1592749879
 31
0.0
  0
LINE
  5
2A2
330
A
100
AcDbEntity
  8
1
  6
CONTINUOUS
370
    50
100
AcDbLine
 10
95.219787268
 20
147.1592749879
 30
0.0
 11
97.219787268
 21
147.1592749879
 31
0.0
  0
LINE
  5
2A3
330
A
100
AcDbEntity
  8
1
  6
CONTINUOUS
370
    50
100
AcDbLine
 10
97.219787268
 20
147.1592749879
 30
0.0
 11
97.219787268
 21
187.1592749879
 31
0.0
  0
LINE
  5
2A4
330
A
100
AcDbEntity
  8
1
  6
CONTINUOUS
370
    50
100
AcDbLine
 10
81.819787268
 20
187.1592749879
 30
0.0
 11
81.819787268
 21
147.1592749879
 31
0.0
  0
LINE
  5
2A5
330
A
100
AcDbEntity
  8
1
  6
CONTINUOUS
370
    50
100
AcDbLine
 10
97.219787268
 20
187.1592749879
 30
0.0
 11
95.219787268
 21
187.1592749879
 31
0.0
  0
LINE
  5
2A6
330
A
100
AcDbEntity
  8
1
  6
CONTINUOUS
370
    50
100
AcDbLine
 10
86.419787268
 20
187.1592749879
 30
0.0
 11
81.819787268
 21
187.1592749879
 31
0.0
  0
LINE
  5
2A7
330
A
100
AcDbEntity
  8
1
  6
CONTINUOUS
370
    50
100
AcDbLine
 10
95.0152754227
 20
150.9947859204
 30
0.0
 11
98.169787268
 21
150.0894757957
 31
0.0
  0
LINE
  5
2A8
330
A
100
AcDbEntity
  8
1
  6
CONTINUOUS
370
    50
100
AcDbLine
 10
98.169787268
 20
155.4993821408
 30
0.0
 11
96.4497146568
 21
155.9930240183
 31
0.0
  0
LINE
  5
2A9
330
A
100
AcDbEntity
  8
1
  6
CONTINUOUS
370
    50
100
AcDbLine
 10
80.619787268
 20
150.8177324191
 30
0.0
 11
89.0858113743
 21
153.2473880092
 31
0.0
  0
LINE
  5
2AA
330
A
100
AcDbEntity
  8
1
  6
CONTINUOUS
370
    50
100
AcDbLine
 10
87.8163254945
 20
156.8364526546
 30
0.0
 11
80.619787268
 21
154.7711255174
 31
0.0
  0
LINE
  5
2AB
330
A
100
AcDbEntity
  8
1
  6
CONTINUOUS
370
    50
100
AcDbLine
 10
95.0563150382
 20
155.4525878103
 30
0.0
 11
94.8033274323
 21
155.1858411884
 31
0.0
  0
LINE
  5
2AC
330
A
100
AcDbEntity
  8
1
  6
CONTINUOUS
370
    50
100
AcDbLine
 10
94.0475025571
 20
152.552203878
 30
0.0
 11
94.1205318594
 21
152.1918939974
 31
0.0
  0
LINE
  5
2AD
330
A
100
AcDbEntity
  8
1
  6
CONTINUOUS
370
    50
100
AcDbLine
 10
88.7002943783
 20
153.3272991669
 30
0.0
 11
94.7701800506
 21
151.5853088927
 31
0.0
  0
LINE
  5
2AE
330
A
100
AcDbEntity
  8
1
  6
CONTINUOUS
370
    50
100
AcDbLine
 10
85.5853071776
 20
154.2212661543
 30
0.0
 11
88.7002943783
 21
153.3272991669
 31
0.0
  0
LINE
  5
2AF
330
A
100
AcDbEntity
  8
1
  6
CONTINUOUS
370
    50
100
AcDbLine
 10
95.9287655858
 20
155.6223473564
 30
0.0
 11
86.7438927128
 21
158.258304618
 31
0.0
  0
LINE
  5
2B0
330
A
100
AcDbEntity
  8
1
  6
CONTINUOUS
370
    50
100
AcDbLine
 10
80.8729411616
 20
203.4019340193
 30
0.0
 11
80.619787268
 21
203.9448242959
 31
0.0
  0
ARC
  5
2B1
330
A
100
AcDbEntity
  8
1
  6
CONTINUOUS
370
    50
100
AcDbCircle
 10
80.419787268
 20
132.0342749879
 30
0.0
 40
0.5
100
AcDbArc
 50
0.0
 51
66.4218215218
  0
ARC
  5
2B2
330
A
100
AcDbEntity
  8
1
  6
CONTINUOUS
370
    50
100
AcDbCircle
 10
80.419787268
 20
202.2842749879
 30
0.0
 40
0.5
100
AcDbArc
 50
293.5781784782001
 51
0.0
  0
LINE
  5
2B3
330
A
100
AcDbEntity
  8
1
  6
CONTINUOUS
370
    50
100
AcDbLine
 10
59.0313683664
 20
161.8419538657
 30
0.0
 11
85.5776467331
 21
154.2234646174
 31
0.0
  0
LINE
  5
2B4
330
A
100
AcDbEntity
  8
1
  6
CONTINUOUS
370
    50
100
AcDbLine
 10
86.7362322684
 20
158.2605030811
 30
0.0
 11
61.8216283026
 21
165.4107197637
 31
0.0
  0
ARC
  5
2B5
330
A
100
AcDbEntity
  8
1
  6
CONTINUOUS
370
    50
100
AcDbCircle
 10
-20.480212732
 20
152.6592749879
 30
0.0
 40
2.0
100
AcDbArc
 50
128.2989210679
 51
180.0
  0
ARC
  5
2B6
330
A
100
AcDbEntity
  8
1
  6
CONTINUOUS
370
    50
100
AcDbCircle
 10
-20.480212732
 20
181.6592749879
 30
0.0
 40
2.0
100
AcDbArc
 50
180.0
 51
231.7010789321
  0
ARC
  5
2B7
330
A
100
AcDbEntity
  8
1
  6
CONTINUOUS
370
    50
100
AcDbCircle
 10
237.619787268
 20
153.2242749879
 30
0.0
 40
1.5
100
AcDbArc
 50
0.0
 51
73.0710674448
  0
ARC
  5
2B8
330
A
100
AcDbEntity
  8
1
  6
CONTINUOUS
370
    50
100
AcDbCircle
 10
237.619787268
 20
181.0942749879
 30
0.0
 40
1.5
100
AcDbArc
 50
286.9289325552
 51
0.0
  0
LINE
  5
2B9
330
A
100
AcDbEntity
  8
1
  6
CONTINUOUS
370
    50
100
AcDbLine
 10
-21.7197412392
 20
154.2288510707
 30
0.0
 11
-21.2197412392
 21
154.5175262053
 31
0.0
  0
LINE
  5
2BA
330
A
100
AcDbEntity
  8
1
  6
CONTINUOUS
370
    50
100
AcDbLine
 10
-21.2197412392
 20
179.8010237705
 30
0.0
 11
-21.7197412392
 21
180.0896989051
 31
0.0
  0
LINE
  5
2BB
330
A
100
AcDbEntity
  8
1
  6
CONTINUOUS
370
    50
100
AcDbLine
 10
181.619787268
 20
154.4592749879
 30
0.0
 11
191.004317218
 21
154.4592749879
 31
0.0
  0
LINE
  5
2BC
330
A
100
AcDbEntity
  8
1
  6
CONTINUOUS
370
    50
100
AcDbLine
 10
191.004317218
 20
179.8592749879
 30
0.0
 11
181.619787268
 21
179.8592749879
 31
0.0
  0
ARC
  5
2BD
330
A
100
AcDbEntity
  8
1
  6
CONTINUOUS
370
    50
100
AcDbCircle
 10
181.619787268
 20
154.9592749879
 30
0.0
 40
0.5
100
AcDbArc
 50
180.0
 51
270.0
  0
ARC
  5
2BE
330
A
100
AcDbEntity
  8
1
  6
CONTINUOUS
370
    50
100
AcDbCircle
 10
181.619787268
 20
179.3592749879
 30
0.0
 40
0.5
100
AcDbArc
 50
90.0
 51
180.0
  0
LINE
  5
2BF
330
A
100
AcDbEntity
  8
1
  6
CONTINUOUS
370
    50
100
AcDbLine
 10
191.004317218
 20
154.4592749879
 30
0.0
 11
191.1197872719
 21
154.6592749879
 31
0.0
  0
LINE
  5
2C0
330
A
100
AcDbEntity
  8
1
  6
CONTINUOUS
370
    50
100
AcDbLine
 10
191.1197872719
 20
179.6592749879
 30
0.0
 11
191.004317218
 21
179.8592749879
 31
0.0
  0
LINE
  5
2C1
330
A
100
AcDbEntity
  8
1
  6
CONTINUOUS
370
    50
100
AcDbLine
 10
-10.780212732
 20
179.8092749879
 30
0.0
 11
-13.4905013003
 21
179.8092749879
 31
0.0
  0
LINE
  5
2C2
330
A
100
AcDbEntity
  8
1
  6
CONTINUOUS
370
    50
100
AcDbLine
 10
-13.4905013003
 20
154.5092749879
 30
0.0
 11
-10.780212732
 21
154.5092749879
 31
0.0
  0
LINE
  5
2C3
330
A
100
AcDbEntity
  8
1
  6
CONTINUOUS
370
    50
100
AcDbLine
 10
-13.4905013003
 20
179.8092749879
 30
0.0
 11
-13.7503089214
 21
179.6592749879
 31
0.0
  0
LINE
  5
2C4
330
A
100
AcDbEntity
  8
1
  6
CONTINUOUS
370
    50
100
AcDbLine
 10
-13.7503089214
 20
154.6592749879
 30
0.0
 11
-13.4905013003
 21
154.5092749879
 31
0.0
  0
LINE
  5
2C5
330
A
100
AcDbEntity
  8
1
  6
CONTINUOUS
370
    50
100
AcDbLine
 10
-10.780212732
 20
154.5092749879
 30
0.0
 11
-9.574994045
 21
156.5967749879
 31
0.0
  0
LINE
  5
2C6
330
A
100
AcDbEntity
  8
1
  6
CONTINUOUS
370
    50
100
AcDbLine
 10
-9.574994045
 20
177.7217749879
 30
0.0
 11
-10.780212732
 21
179.8092749879
 31
0.0
  0
ARC
  5
2C7
330
A
100
AcDbEntity
  8
1
  6
CONTINUOUS
370
    50
100
AcDbCircle
 10
-20.480212732
 20
152.6592749879
 30
0.0
 40
2.0
100
AcDbArc
 50
90.0
 51
111.7010789321
  0
ARC
  5
2C8
330
A
100
AcDbEntity
  8
1
  6
CONTINUOUS
370
    50
100
AcDbCircle
 10
-20.480212732
 20
181.6592749879
 30
0.0
 40
2.0
100
AcDbArc
 50
248.2989210679
 51
270.0
  0
LINE
  5
2C9
330
A
100
AcDbEntity
  8
1
  6
CONTINUOUS
370
    50
100
AcDbLine
 10
-20.480212732
 20
154.6592749879
 30
0.0
 11
-13.7503089214
 21
154.6592749879
 31
0.0
  0
LINE
  5
2CA
330
A
100
AcDbEntity
  8
1
  6
CONTINUOUS
370
    50
100
AcDbLine
 10
-13.7503089214
 20
179.6592749879
 30
0.0
 11
-20.480212732
 21
179.6592749879
 31
0.0
  0
LINE
  5
2CB
330
A
100
AcDbEntity
  8
1
  6
CONTINUOUS
370
    50
100
AcDbLine
 10
191.1197872719
 20
154.6592749879
 30
0.0
 11
238.0565652437
 21
154.6592749879
 31
0.0
  0
LINE
  5
2CC
330
A
100
AcDbEntity
  8
1
  6
CONTINUOUS
370
    50
100
AcDbLine
 10
238.0565652437
 20
179.6592749879
 30
0.0
 11
191.1197872719
 21
179.6592749879
 31
0.0
  0
LINE
  5
2CD
330
A
100
AcDbEntity
  8
1
  6
CONTINUOUS
370
    50
100
AcDbLine
 10
97.119787268
 20
129.6592749879
 30
0.0
 11
98.169787268
 21
129.6592749879
 31
0.0
  0
LINE
  5
2CE
330
A
100
AcDbEntity
  8
1
  6
CONTINUOUS
370
    50
100
AcDbLine
 10
26.519787268
 20
177.7217749879
 30
0.0
 11
-9.574994045
 21
177.7217749879
 31
0.0
  0
LINE
  5
2CF
330
A
100
AcDbEntity
  8
1
  6
CONTINUOUS
370
    50
100
AcDbLine
 10
-9.574994045
 20
156.5967749879
 30
0.0
 11
26.519787268
 21
156.5967749879
 31
0.0
  0
LINE
  5
2D0
330
A
100
AcDbEntity
  8
1
  6
CONTINUOUS
370
    50
100
AcDbLine
 10
41.519787268
 20
177.7217749879
 30
0.0
 11
26.529787268
 21
177.7217749879
 31
0.0
  0
LINE
  5
2D1
330
A
100
AcDbEntity
  8
1
  6
CONTINUOUS
370
    50
100
AcDbLine
 10
26.529787268
 20
156.5967749879
 30
0.0
 11
41.519787268
 21
156.5967749879
 31
0.0
  0
LINE
  5
2D2
330
A
100
AcDbEntity
  8
1
  6
CONTINUOUS
370
    50
100
AcDbLine
 10
87.519787268
 20
156.6592749879
 30
0.0
 11
88.3858126718
 21
158.1592749879
 31
0.0
  0
LINE
  5
2D3
330
A
100
AcDbEntity
  8
1
  6
CONTINUOUS
370
    50
100
AcDbLine
 10
88.3858126718
 20
176.1592749879
 30
0.0
 11
87.519787268
 21
177.6592749879
 31
0.0
  0
LINE
  5
2D4
330
A
100
AcDbEntity
  8
1
  6
CONTINUOUS
370
    50
100
AcDbLine
 10
87.519787268
 20
177.6592749879
 30
0.0
 11
41.5425354077
 21
177.6592749879
 31
0.0
  0
LINE
  5
2D5
330
A
100
AcDbEntity
  8
1
  6
CONTINUOUS
370
    50
100
AcDbLine
 10
41.5425354077
 20
156.6592749879
 30
0.0
 11
87.519787268
 21
156.6592749879
 31
0.0
  0
LINE
  5
2D6
330
A
100
AcDbEntity
  8
1
  6
CONTINUOUS
370
    50
100
AcDbLine
 10
147.519787268
 20
158.1592749879
 30
0.0
 11
148.3858126718
 21
159.6592749879
 31
0.0
  0
LINE
  5
2D7
330
A
100
AcDbEntity
  8
1
  6
CONTINUOUS
370
    50
100
AcDbLine
 10
148.3858126718
 20
174.6592749879
 30
0.0
 11
147.519787268
 21
176.1592749879
 31
0.0
  0
LINE
  5
2D8
330
A
100
AcDbEntity
  8
1
  6
CONTINUOUS
370
    50
100
AcDbLine
 10
88.3858126718
 20
158.1592749879
 30
0.0
 11
147.519787268
 21
158.1592749879
 31
0.0
  0
LINE
  5
2D9
330
A
100
AcDbEntity
  8
1
  6
CONTINUOUS
370
    50
100
AcDbLine
 10
147.519787268
 20
176.1592749879
 30
0.0
 11
88.3858126718
 21
176.1592749879
 31
0.0
  0
LINE
  5
2DA
330
A
100
AcDbEntity
  8
1
  6
CONTINUOUS
370
    50
100
AcDbLine
 10
148.3858126718
 20
159.6592749879
 30
0.0
 11
181.119787268
 21
159.6592749879
 31
0.0
  0
LINE
  5
2DB
330
A
100
AcDbEntity
  8
1
  6
CONTINUOUS
370
    50
100
AcDbLine
 10
181.119787268
 20
174.6592749879
 30
0.0
 11
148.3858126718
 21
174.6592749879
 31
0.0
  0
LINE
  5
2DC
330
A
100
AcDbEntity
  8
1
  6
CONTINUOUS
370
    50
100
AcDbLine
 10
85.019787268
 20
204.6592749879
 30
0.0
 11
85.219787268
 21
204.4592749879
 31
0.0
  0
LINE
  5
2DD
330
A
100
AcDbEntity
  8
1
  6
CONTINUOUS
370
    50
100
AcDbLine
 10
95.219787268
 20
204.4592749879
 30
0.0
 11
95.419787268
 21
204.6592749879
 31
0.0
  0
ARC
  5
2DE
330
A
100
AcDbEntity
  8
1
  6
CONTINUOUS
370
    50
100
AcDbCircle
 10
85.519787268
 20
200.2592749879
 30
0.0
 40
0.3
100
AcDbArc
 50
180.0
 51
270.0
  0
ARC
  5
2DF
330
A
100
AcDbEntity
  8
1
  6
CONTINUOUS
370
    50
100
AcDbCircle
 10
94.919787268
 20
200.2592749879
 30
0.0
 40
0.3
100
AcDbArc
 50
270.0
 51
0.0
  0
LINE
  5
2E0
330
A
100
AcDbEntity
  8
1
  6
CONTINUOUS
370
    50
100
AcDbLine
 10
85.219787268
 20
204.4592749879
 30
0.0
 11
85.219787268
 21
200.2592749879
 31
0.0
  0
LINE
  5
2E1
330
A
100
AcDbEntity
  8
1
  6
CONTINUOUS
370
    50
100
AcDbLine
 10
95.219787268
 20
200.2592749879
 30
0.0
 11
95.219787268
 21
204.4592749879
 31
0.0
  0
LINE
  5
2E2
330
A
100
AcDbEntity
  8
1
  6
CONTINUOUS
370
    50
100
AcDbLine
 10
88.719787268
 20
199.9592749879
 30
0.0
 11
89.119787268
 21
199.5592749879
 31
0.0
  0
LINE
  5
2E3
330
A
100
AcDbEntity
  8
1
  6
CONTINUOUS
370
    50
100
AcDbLine
 10
91.319787268
 20
199.5592749879
 30
0.0
 11
91.719787268
 21
199.9592749879
 31
0.0
  0
LINE
  5
2E4
330
A
100
AcDbEntity
  8
1
  6
CONTINUOUS
370
    50
100
AcDbLine
 10
89.119787268
 20
193.5592749879
 30
0.0
 11
90.219787268
 21
193.1589077302
 31
0.0
  0
LINE
  5
2E5
330
A
100
AcDbEntity
  8
1
  6
CONTINUOUS
370
    50
100
AcDbLine
 10
90.219787268
 20
193.1589077302
 30
0.0
 11
91.319787268
 21
193.5592749879
 31
0.0
  0
LINE
  5
2E6
330
A
100
AcDbEntity
  8
1
  6
CONTINUOUS
370
    50
100
AcDbLine
 10
89.119787268
 20
196.1492749879
 30
0.0
 11
89.119787268
 21
193.5592749879
 31
0.0
  0
LINE
  5
2E7
330
A
100
AcDbEntity
  8
1
  6
CONTINUOUS
370
    50
100
AcDbLine
 10
91.319787268
 20
193.5592749879
 30
0.0
 11
91.319787268
 21
196.1492749879
 31
0.0
  0
LINE
  5
2E8
330
A
100
AcDbEntity
  8
1
  6
CONTINUOUS
370
    50
100
AcDbLine
 10
89.119787268
 20
199.5592749879
 30
0.0
 11
89.119787268
 21
196.1592749879
 31
0.0
  0
LINE
  5
2E9
330
A
100
AcDbEntity
  8
1
  6
CONTINUOUS
370
    50
100
AcDbLine
 10
91.319787268
 20
196.1592749879
 30
0.0
 11
91.319787268
 21
199.5592749879
 31
0.0
  0
LINE
  5
2EA
330
A
100
AcDbEntity
  8
1
  6
CONTINUOUS
370
    50
100
AcDbLine
 10
61.8224869048
 20
168.9080766215
 30
0.0
 11
86.7362322684
 21
176.0580468947
 31
0.0
  0
LINE
  5
2EB
330
A
100
AcDbEntity
  8
1
  6
CONTINUOUS
370
    50
100
AcDbLine
 10
85.5776467331
 20
180.0950853584
 30
0.0
 11
59.0250730504
 21
172.4747894239
 31
0.0
  0
LINE
  5
2EC
330
A
100
AcDbEntity
  8
1
  6
CONTINUOUS
370
    50
100
AcDbLine
 10
94.369787268
 20
195.1212077505
 30
0.0
 11
94.369787268
 21
191.7112159502
 31
0.0
  0
LINE
  5
2ED
330
A
100
AcDbEntity
  8
1
  6
CONTINUOUS
370
    50
100
AcDbLine
 10
94.369787268
 20
151.9450175653
 30
0.0
 11
94.369787268
 21
149.8319262565
 31
0.0
  0
LINE
  5
2EE
330
A
100
AcDbEntity
  8
1
  6
CONTINUOUS
370
    50
100
AcDbLine
 10
86.7438927128
 20
176.0602453578
 30
0.0
 11
95.9287655858
 21
178.6962026194
 31
0.0
  0
LINE
  5
2EF
330
A
100
AcDbEntity
  8
1
  6
CONTINUOUS
370
    50
100
AcDbLine
 10
88.7613378789
 20
181.0087696206
 30
0.0
 11
85.5853071776
 21
180.0972838215
 31
0.0
  0
LINE
  5
2F0
330
A
100
AcDbEntity
  8
1
  6
CONTINUOUS
370
    50
100
AcDbLine
 10
94.7701800506
 20
182.7332410831
 30
0.0
 11
88.7613378789
 21
181.0087696206
 31
0.0
  0
LINE
  5
2F1
330
A
100
AcDbEntity
  8
1
  6
CONTINUOUS
370
    50
100
AcDbLine
 10
80.619787268
 20
179.5474244584
 30
0.0
 11
87.818866967
 21
177.4813679466
 31
0.0
  0
LINE
  5
2F2
330
A
100
AcDbEntity
  8
1
  6
CONTINUOUS
370
    50
100
AcDbLine
 10
89.0874896402
 20
181.0706803229
 30
0.0
 11
80.619787268
 21
183.5008175567
 31
0.0
  0
LINE
  5
2F3
330
A
100
AcDbEntity
  8
1
  6
CONTINUOUS
370
    50
100
AcDbLine
 10
96.4497146568
 20
178.3255259575
 30
0.0
 11
98.169787268
 21
178.8191678351
 31
0.0
  0
LINE
  5
2F4
330
A
100
AcDbEntity
  8
1
  6
CONTINUOUS
370
    50
100
AcDbLine
 10
98.169787268
 20
184.2290741801
 30
0.0
 11
95.0152754227
 21
183.3237640555
 31
0.0
  0
LINE
  5
2F5
330
A
100
AcDbEntity
  8
1
  6
CONTINUOUS
370
    50
100
AcDbLine
 10
94.1205318594
 20
182.1266559784
 30
0.0
 11
94.0475025571
 21
181.7663460979
 31
0.0
  0
LINE
  5
2F6
330
A
100
AcDbEntity
  8
1
  6
CONTINUOUS
370
    50
100
AcDbLine
 10
94.8033274323
 20
179.1327087875
 30
0.0
 11
95.0563150382
 21
178.8659621656
 31
0.0
  0
LINE
  5
2F7
330
A
100
AcDbEntity
  8
1
  6
CONTINUOUS
370
    50
100
AcDbLine
 10
80.419787268
 20
201.7842749879
 30
0.0
 11
80.419787268
 21
132.5342749879
 31
0.0
  0
LINE
  5
2F8
330
A
100
AcDbEntity
  8
1
  6
CONTINUOUS
370
    50
100
AcDbLine
 10
79.6626775446
 20
201.8311210944
 30
0.0
 11
79.6626775446
 21
132.4874288814
 31
0.0
  0
LINE
  5
2F9
330
A
100
AcDbEntity
  8
1
  6
CONTINUOUS
370
    50
100
AcDbLine
 10
79.8739866755
 20
201.7842749879
 30
0.0
 11
79.8739866755
 21
132.5342749879
 31
0.0
  0
LINE
  5
2FA
330
A
100
AcDbEntity
  8
1
  6
CONTINUOUS
370
    50
100
AcDbLine
 10
-20.6980140363
 20
187.5227655159
 30
0.0
 11
-20.6980140363
 21
146.7957844599
 31
0.0
  0
LINE
  5
2FB
330
A
100
AcDbEntity
  8
1
  6
CONTINUOUS
370
    50
100
AcDbLine
 10
26.419787268
 20
179.1592749879
 30
0.0
 11
-10.404935057
 21
179.1592749879
 31
0.0
  0
LINE
  5
2FC
330
A
100
AcDbEntity
  8
1
  6
CONTINUOUS
370
    50
100
AcDbLine
 10
-10.404935057
 20
155.1592749879
 30
0.0
 11
26.419787268
 21
155.1592749879
 31
0.0
  0
LINE
  5
2FD
330
A
100
AcDbEntity
  8
1
  6
CONTINUOUS
370
    50
100
AcDbLine
 10
26.419787268
 20
179.1592749879
 30
0.0
 11
26.419787268
 21
179.0115350751
 31
0.0
  0
LINE
  5
2FE
330
A
100
AcDbEntity
  8
1
  6
CONTINUOUS
370
    50
100
AcDbLine
 10
26.419787268
 20
179.0115350751
 30
0.0
 11
26.419787268
 21
155.1592749879
 31
0.0
  0
LINE
  5
2FF
330
A
100
AcDbEntity
  8
1
  6
CONTINUOUS
370
    50
100
AcDbLine
 10
26.419787268
 20
177.7217749879
 30
0.0
 11
26.419787268
 21
177.6362233353
 31
0.0
  0
LINE
  5
300
330
A
100
AcDbEntity
  8
1
  6
CONTINUOUS
370
    50
100
AcDbLine
 10
26.419787268
 20
177.6362233353
 30
0.0
 11
26.419787268
 21
167.1592749879
 31
0.0
  0
LINE
  5
301
330
A
100
AcDbEntity
  8
1
  6
CONTINUOUS
370
    50
100
AcDbLine
 10
84.6166722165
 20
178.0787645897
 30
0.0
 11
84.8576358628
 21
177.2446334488
 31
0.0
  0
LINE
  5
302
330
A
100
AcDbEntity
  8
1
  6
CONTINUOUS
370
    50
100
AcDbLine
 10
84.8576358628
 20
177.2446334488
 30
0.0
 11
85.2562386662
 21
176.5111108339
 31
0.0
  0
LINE
  5
303
330
A
100
AcDbEntity
  8
1
  6
CONTINUOUS
370
    50
100
AcDbLine
 10
85.2562386662
 20
176.5111108339
 30
0.0
 11
85.7644032458
 21
175.9666703981
 31
0.0
  0
LINE
  5
304
330
A
100
AcDbEntity
  8
1
  6
CONTINUOUS
370
    50
100
AcDbLine
 10
85.7644032458
 20
175.9666703981
 30
0.0
 11
86.3208374537
 21
175.676979693
 31
0.0
  0
LINE
  5
305
330
A
100
AcDbEntity
  8
1
  6
CONTINUOUS
370
    50
100
AcDbLine
 10
86.3208374537
 20
175.676979693
 30
0.0
 11
86.8584271122
 21
175.676979693
 31
0.0
  0
LINE
  5
306
330
A
100
AcDbEntity
  8
1
  6
CONTINUOUS
370
    50
100
AcDbLine
 10
86.8584271122
 20
175.676979693
 30
0.0
 11
87.3123309745
 21
175.9666703981
 31
0.0
  0
LINE
  5
307
330
A
100
AcDbEntity
  8
1
  6
CONTINUOUS
370
    50
100
AcDbLine
 10
87.3123309745
 20
175.9666703981
 30
0.0
 11
87.6278015361
 21
176.5111108339
 31
0.0
  0
LINE
  5
308
330
A
100
AcDbEntity
  8
1
  6
CONTINUOUS
370
    50
100
AcDbLine
 10
87.6278015361
 20
176.5111108339
 30
0.0
 11
87.7667883912
 21
177.2446334488
 31
0.0
  0
LINE
  5
309
330
A
100
AcDbEntity
  8
1
  6
CONTINUOUS
370
    50
100
AcDbLine
 10
87.7667883912
 20
177.2446334488
 30
0.0
 11
87.7125276739
 21
178.0787645897
 31
0.0
  0
LINE
  5
30A
330
A
100
AcDbEntity
  8
1
  6
CONTINUOUS
370
    50
100
AcDbLine
 10
87.7125276739
 20
178.0787645897
 30
0.0
 11
87.4715640276
 21
178.9128957306
 31
0.0
  0
LINE
  5
30B
330
A
100
AcDbEntity
  8
1
  6
CONTINUOUS
370
    50
100
AcDbLine
 10
87.4715640276
 20
178.9128957306
 30
0.0
 11
87.0729612242
 21
179.6464183455
 31
0.0
  0
LINE
  5
30C
330
A
100
AcDbEntity
  8
1
  6
CONTINUOUS
370
    50
100
AcDbLine
 10
87.0729612242
 20
179.6464183455
 30
0.0
 11
86.5647966445
 21
180.1908587813
 31
0.0
  0
LINE
  5
30D
330
A
100
AcDbEntity
  8
1
  6
CONTINUOUS
370
    50
100
AcDbLine
 10
86.5647966445
 20
180.1908587813
 30
0.0
 11
86.0083624367
 21
180.4805494864
 31
0.0
  0
LINE
  5
30E
330
A
100
AcDbEntity
  8
1
  6
CONTINUOUS
370
    50
100
AcDbLine
 10
86.0083624367
 20
180.4805494864
 30
0.0
 11
85.4707727782
 21
180.4805494864
 31
0.0
  0
LINE
  5
30F
330
A
100
AcDbEntity
  8
1
  6
CONTINUOUS
370
    50
100
AcDbLine
 10
85.4707727782
 20
180.4805494864
 30
0.0
 11
85.0168689158
 21
180.1908587813
 31
0.0
  0
LINE
  5
310
330
A
100
AcDbEntity
  8
1
  6
CONTINUOUS
370
    50
100
AcDbLine
 10
85.0168689158
 20
180.1908587813
 30
0.0
 11
84.7013983543
 21
179.6464183455
 31
0.0
  0
LINE
  5
311
330
A
100
AcDbEntity
  8
1
  6
CONTINUOUS
370
    50
100
AcDbLine
 10
84.7013983543
 20
179.6464183455
 30
0.0
 11
84.5624114992
 21
178.9128957306
 31
0.0
  0
LINE
  5
312
330
A
100
AcDbEntity
  8
1
  6
CONTINUOUS
370
    50
100
AcDbLine
 10
84.5624114992
 20
178.9128957306
 30
0.0
 11
84.6166722165
 21
178.0787645897
 31
0.0
  0
LINE
  5
313
330
A
100
AcDbEntity
  8
1
  6
CONTINUOUS
370
    50
100
AcDbLine
 10
94.1079628667
 20
180.8026603754
 30
0.0
 11
94.0537021495
 21
181.6367915164
 31
0.0
  0
LINE
  5
314
330
A
100
AcDbEntity
  8
1
  6
CONTINUOUS
370
    50
100
AcDbLine
 10
94.0537021495
 20
181.6367915164
 30
0.0
 11
94.1926890046
 21
182.3703141312
 31
0.0
  0
LINE
  5
315
330
A
100
AcDbEntity
  8
1
  6
CONTINUOUS
370
    50
100
AcDbLine
 10
94.1926890046
 20
182.3703141312
 30
0.0
 11
94.5081595661
 21
182.914754567
 31
0.0
  0
LINE
  5
316
330
A
100
AcDbEntity
  8
1
  6
CONTINUOUS
370
    50
100
AcDbLine
 10
94.5081595661
 20
182.914754567
 30
0.0
 11
94.9620634284
 21
183.2044452721
 31
0.0
  0
LINE
  5
317
330
A
100
AcDbEntity
  8
1
  6
CONTINUOUS
370
    50
100
AcDbLine
 10
94.9620634284
 20
183.2044452721
 30
0.0
 11
95.4996530869
 21
183.2044452721
 31
0.0
  0
LINE
  5
318
330
A
100
AcDbEntity
  8
1
  6
CONTINUOUS
370
    50
100
AcDbLine
 10
95.4996530869
 20
183.2044452721
 30
0.0
 11
96.0560872948
 21
182.914754567
 31
0.0
  0
LINE
  5
319
330
A
100
AcDbEntity
  8
1
  6
CONTINUOUS
370
    50
100
AcDbLine
 10
96.0560872948
 20
182.914754567
 30
0.0
 11
96.5642518744
 21
182.3703141312
 31
0.0
  0
LINE
  5
31A
330
A
100
AcDbEntity
  8
1
  6
CONTINUOUS
370
    50
100
AcDbLine
 10
96.5642518744
 20
182.3703141312
 30
0.0
 11
96.9628546778
 21
181.6367915164
 31
0.0
  0
LINE
  5
31B
330
A
100
AcDbEntity
  8
1
  6
CONTINUOUS
370
    50
100
AcDbLine
 10
96.9628546778
 20
181.6367915164
 30
0.0
 11
97.2038183241
 21
180.8026603754
 31
0.0
  0
LINE
  5
31C
330
A
100
AcDbEntity
  8
1
  6
CONTINUOUS
370
    50
100
AcDbLine
 10
97.2038183241
 20
180.8026603754
 30
0.0
 11
97.2580790414
 21
179.9685292345
 31
0.0
  0
LINE
  5
31D
330
A
100
AcDbEntity
  8
1
  6
CONTINUOUS
370
    50
100
AcDbLine
 10
97.2580790414
 20
179.9685292345
 30
0.0
 11
97.1190921863
 21
179.2350066197
 31
0.0
  0
LINE
  5
31E
330
A
100
AcDbEntity
  8
1
  6
CONTINUOUS
370
    50
100
AcDbLine
 10
97.1190921863
 20
179.2350066197
 30
0.0
 11
96.8036216248
 21
178.6905661839
 31
0.0
  0
LINE
  5
31F
330
A
100
AcDbEntity
  8
1
  6
CONTINUOUS
370
    50
100
AcDbLine
 10
96.8036216248
 20
178.6905661839
 30
0.0
 11
96.3497177624
 21
178.4008754788
 31
0.0
  0
LINE
  5
320
330
A
100
AcDbEntity
  8
1
  6
CONTINUOUS
370
    50
100
AcDbLine
 10
96.3497177624
 20
178.4008754788
 30
0.0
 11
95.8121281039
 21
178.4008754788
 31
0.0
  0
LINE
  5
321
330
A
100
AcDbEntity
  8
1
  6
CONTINUOUS
370
    50
100
AcDbLine
 10
95.8121281039
 20
178.4008754788
 30
0.0
 11
95.2556938961
 21
178.6905661839
 31
0.0
  0
LINE
  5
322
330
A
100
AcDbEntity
  8
1
  6
CONTINUOUS
370
    50
100
AcDbLine
 10
95.2556938961
 20
178.6905661839
 30
0.0
 11
94.7475293165
 21
179.2350066197
 31
0.0
  0
LINE
  5
323
330
A
100
AcDbEntity
  8
1
  6
CONTINUOUS
370
    50
100
AcDbLine
 10
94.7475293165
 20
179.2350066197
 30
0.0
 11
94.3489265131
 21
179.9685292345
 31
0.0
  0
LINE
  5
324
330
A
100
AcDbEntity
  8
1
  6
CONTINUOUS
370
    50
100
AcDbLine
 10
94.3489265131
 20
179.9685292345
 30
0.0
 11
94.1079628667
 21
180.8026603754
 31
0.0
  0
LINE
  5
325
330
A
100
AcDbEntity
  8
1
  6
CONTINUOUS
370
    50
100
AcDbLine
 10
87.7125276739
 20
156.2397853862
 30
0.0
 11
87.4715640276
 21
155.4056542452
 31
0.0
  0
LINE
  5
326
330
A
100
AcDbEntity
  8
1
  6
CONTINUOUS
370
    50
100
AcDbLine
 10
87.4715640276
 20
155.4056542452
 30
0.0
 11
87.0729612242
 21
154.6721316304
 31
0.0
  0
LINE
  5
327
330
A
100
AcDbEntity
  8
1
  6
CONTINUOUS
370
    50
100
AcDbLine
 10
87.0729612242
 20
154.6721316304
 30
0.0
 11
86.5647966445
 21
154.1276911946
 31
0.0
  0
LINE
  5
328
330
A
100
AcDbEntity
  8
1
  6
CONTINUOUS
370
    50
100
AcDbLine
 10
86.5647966445
 20
154.1276911946
 30
0.0
 11
86.0083624367
 21
153.8380004895
 31
0.0
  0
LINE
  5
329
330
A
100
AcDbEntity
  8
1
  6
CONTINUOUS
370
    50
100
AcDbLine
 10
86.0083624367
 20
153.8380004895
 30
0.0
 11
85.4707727782
 21
153.8380004895
 31
0.0
  0
LINE
  5
32A
330
A
100
AcDbEntity
  8
1
  6
CONTINUOUS
370
    50
100
AcDbLine
 10
85.4707727782
 20
153.8380004895
 30
0.0
 11
85.0168689158
 21
154.1276911946
 31
0.0
  0
LINE
  5
32B
330
A
100
AcDbEntity
  8
1
  6
CONTINUOUS
370
    50
100
AcDbLine
 10
85.0168689158
 20
154.1276911946
 30
0.0
 11
84.7013983543
 21
154.6721316304
 31
0.0
  0
LINE
  5
32C
330
A
100
AcDbEntity
  8
1
  6
CONTINUOUS
370
    50
100
AcDbLine
 10
84.7013983543
 20
154.6721316304
 30
0.0
 11
84.5624114992
 21
155.4056542452
 31
0.0
  0
LINE
  5
32D
330
A
100
AcDbEntity
  8
1
  6
CONTINUOUS
370
    50
100
AcDbLine
 10
84.5624114992
 20
155.4056542452
 30
0.0
 11
84.6166722165
 21
156.2397853862
 31
0.0
  0
LINE
  5
32E
330
A
100
AcDbEntity
  8
1
  6
CONTINUOUS
370
    50
100
AcDbLine
 10
84.6166722165
 20
156.2397853862
 30
0.0
 11
84.8576358628
 21
157.0739165271
 31
0.0
  0
LINE
  5
32F
330
A
100
AcDbEntity
  8
1
  6
CONTINUOUS
370
    50
100
AcDbLine
 10
84.8576358628
 20
157.0739165271
 30
0.0
 11
85.2562386662
 21
157.8074391419
 31
0.0
  0
LINE
  5
330
330
A
100
AcDbEntity
  8
1
  6
CONTINUOUS
370
    50
100
AcDbLine
 10
85.2562386662
 20
157.8074391419
 30
0.0
 11
85.7644032458
 21
158.3518795777
 31
0.0
  0
LINE
  5
331
330
A
100
AcDbEntity
  8
1
  6
CONTINUOUS
370
    50
100
AcDbLine
 10
85.7644032458
 20
158.3518795777
 30
0.0
 11
86.3208374537
 21
158.6415702828
 31
0.0
  0
LINE
  5
332
330
A
100
AcDbEntity
  8
1
  6
CONTINUOUS
370
    50
100
AcDbLine
 10
86.3208374537
 20
158.6415702828
 30
0.0
 11
86.8584271122
 21
158.6415702828
 31
0.0
  0
LINE
  5
333
330
A
100
AcDbEntity
  8
1
  6
CONTINUOUS
370
    50
100
AcDbLine
 10
86.8584271122
 20
158.6415702828
 30
0.0
 11
87.3123309745
 21
158.3518795777
 31
0.0
  0
LINE
  5
334
330
A
100
AcDbEntity
  8
1
  6
CONTINUOUS
370
    50
100
AcDbLine
 10
87.3123309745
 20
158.3518795777
 30
0.0
 11
87.6278015361
 21
157.8074391419
 31
0.0
  0
LINE
  5
335
330
A
100
AcDbEntity
  8
1
  6
CONTINUOUS
370
    50
100
AcDbLine
 10
87.6278015361
 20
157.8074391419
 30
0.0
 11
87.7667883912
 21
157.0739165271
 31
0.0
  0
LINE
  5
336
330
A
100
AcDbEntity
  8
1
  6
CONTINUOUS
370
    50
100
AcDbLine
 10
87.7667883912
 20
157.0739165271
 30
0.0
 11
87.7125276739
 21
156.2397853862
 31
0.0
  0
LINE
  5
337
330
A
100
AcDbEntity
  8
1
  6
CONTINUOUS
370
    50
100
AcDbLine
 10
97.2038183241
 20
153.5158896004
 30
0.0
 11
97.2580790414
 21
154.3500207413
 31
0.0
  0
LINE
  5
338
330
A
100
AcDbEntity
  8
1
  6
CONTINUOUS
370
    50
100
AcDbLine
 10
97.2580790414
 20
154.3500207413
 30
0.0
 11
97.1190921863
 21
155.0835433562
 31
0.0
  0
LINE
  5
339
330
A
100
AcDbEntity
  8
1
  6
CONTINUOUS
370
    50
100
AcDbLine
 10
97.1190921863
 20
155.0835433562
 30
0.0
 11
96.8036216248
 21
155.627983792
 31
0.0
  0
LINE
  5
33A
330
A
100
AcDbEntity
  8
1
  6
CONTINUOUS
370
    50
100
AcDbLine
 10
96.8036216248
 20
155.627983792
 30
0.0
 11
96.3497177624
 21
155.9176744971
 31
0.0
  0
LINE
  5
33B
330
A
100
AcDbEntity
  8
1
  6
CONTINUOUS
370
    50
100
AcDbLine
 10
96.3497177624
 20
155.9176744971
 30
0.0
 11
95.8121281039
 21
155.9176744971
 31
0.0
  0
LINE
  5
33C
330
A
100
AcDbEntity
  8
1
  6
CONTINUOUS
370
    50
100
AcDbLine
 10
95.8121281039
 20
155.9176744971
 30
0.0
 11
95.2556938961
 21
155.627983792
 31
0.0
  0
LINE
  5
33D
330
A
100
AcDbEntity
  8
1
  6
CONTINUOUS
370
    50
100
AcDbLine
 10
95.2556938961
 20
155.627983792
 30
0.0
 11
94.7475293165
 21
155.0835433562
 31
0.0
  0
LINE
  5
33E
330
A
100
AcDbEntity
  8
1
  6
CONTINUOUS
370
    50
100
AcDbLine
 10
94.7475293165
 20
155.0835433562
 30
0.0
 11
94.3489265131
 21
154.3500207413
 31
0.0
  0
LINE
  5
33F
330
A
100
AcDbEntity
  8
1
  6
CONTINUOUS
370
    50
100
AcDbLine
 10
94.3489265131
 20
154.3500207413
 30
0.0
 11
94.1079628667
 21
153.5158896004
 31
0.0
  0
LINE
  5
340
330
A
100
AcDbEntity
  8
1
  6
CONTINUOUS
370
    50
100
AcDbLine
 10
94.1079628667
 20
153.5158896004
 30
0.0
 11
94.0537021495
 21
152.6817584595
 31
0.0
  0
LINE
  5
341
330
A
100
AcDbEntity
  8
1
  6
CONTINUOUS
370
    50
100
AcDbLine
 10
94.0537021495
 20
152.6817584595
 30
0.0
 11
94.1926890046
 21
151.9482358446
 31
0.0
  0
LINE
  5
342
330
A
100
AcDbEntity
  8
1
  6
CONTINUOUS
370
    50
100
AcDbLine
 10
94.1926890046
 20
151.9482358446
 30
0.0
 11
94.5081595661
 21
151.4037954088
 31
0.0
  0
LINE
  5
343
330
A
100
AcDbEntity
  8
1
  6
CONTINUOUS
370
    50
100
AcDbLine
 10
94.5081595661
 20
151.4037954088
 30
0.0
 11
94.9620634284
 21
151.1141047037
 31
0.0
  0
LINE
  5
344
330
A
100
AcDbEntity
  8
1
  6
CONTINUOUS
370
    50
100
AcDbLine
 10
94.9620634284
 20
151.1141047037
 30
0.0
 11
95.4996530869
 21
151.1141047037
 31
0.0
  0
LINE
  5
345
330
A
100
AcDbEntity
  8
1
  6
CONTINUOUS
370
    50
100
AcDbLine
 10
95.4996530869
 20
151.1141047037
 30
0.0
 11
96.0560872948
 21
151.4037954088
 31
0.0
  0
LINE
  5
346
330
A
100
AcDbEntity
  8
1
  6
CONTINUOUS
370
    50
100
AcDbLine
 10
96.0560872948
 20
151.4037954088
 30
0.0
 11
96.5642518744
 21
151.9482358446
 31
0.0
  0
LINE
  5
347
330
A
100
AcDbEntity
  8
1
  6
CONTINUOUS
370
    50
100
AcDbLine
 10
96.5642518744
 20
151.9482358446
 30
0.0
 11
96.9628546778
 21
152.6817584595
 31
0.0
  0
LINE
  5
348
330
A
100
AcDbEntity
  8
1
  6
CONTINUOUS
370
    50
100
AcDbLine
 10
96.9628546778
 20
152.6817584595
 30
0.0
 11
97.2038183241
 21
153.5158896004
 31
0.0
  0
LINE
  5
349
330
A
100
AcDbEntity
  8
1
  6
CONTINUOUS
370
    50
100
AcDbLine
 10
87.7048672295
 20
156.2419838493
 30
0.0
 11
87.4639035831
 21
155.4078527083
 31
0.0
  0
LINE
  5
34A
330
A
100
AcDbEntity
  8
1
  6
CONTINUOUS
370
    50
100
AcDbLine
 10
87.4639035831
 20
155.4078527083
 30
0.0
 11
87.0653007797
 21
154.6743300935
 31
0.0
  0
LINE
  5
34B
330
A
100
AcDbEntity
  8
1
  6
CONTINUOUS
370
    50
100
AcDbLine
 10
87.0653007797
 20
154.6743300935
 30
0.0
 11
86.5571362001
 21
154.1298896577
 31
0.0
  0
LINE
  5
34C
330
A
100
AcDbEntity
  8
1
  6
CONTINUOUS
370
    50
100
AcDbLine
 10
86.5571362001
 20
154.1298896577
 30
0.0
 11
86.0007019923
 21
153.8401989526
 31
0.0
  0
LINE
  5
34D
330
A
100
AcDbEntity
  8
1
  6
CONTINUOUS
370
    50
100
AcDbLine
 10
86.0007019923
 20
153.8401989526
 30
0.0
 11
85.4631123338
 21
153.8401989526
 31
0.0
  0
LINE
  5
34E
330
A
100
AcDbEntity
  8
1
  6
CONTINUOUS
370
    50
100
AcDbLine
 10
85.4631123338
 20
153.8401989526
 30
0.0
 11
85.0092084714
 21
154.1298896577
 31
0.0
  0
LINE
  5
34F
330
A
100
AcDbEntity
  8
1
  6
CONTINUOUS
370
    50
100
AcDbLine
 10
85.0092084714
 20
154.1298896577
 30
0.0
 11
84.6937379099
 21
154.6743300935
 31
0.0
  0
LINE
  5
350
330
A
100
AcDbEntity
  8
1
  6
CONTINUOUS
370
    50
100
AcDbLine
 10
84.6937379099
 20
154.6743300935
 30
0.0
 11
84.5547510548
 21
155.4078527083
 31
0.0
  0
LINE
  5
351
330
A
100
AcDbEntity
  8
1
  6
CONTINUOUS
370
    50
100
AcDbLine
 10
84.5547510548
 20
155.4078527083
 30
0.0
 11
84.6090117721
 21
156.2419838493
 31
0.0
  0
LINE
  5
352
330
A
100
AcDbEntity
  8
1
  6
CONTINUOUS
370
    50
100
AcDbLine
 10
84.6090117721
 20
156.2419838493
 30
0.0
 11
84.8499754184
 21
157.0761149902
 31
0.0
  0
LINE
  5
353
330
A
100
AcDbEntity
  8
1
  6
CONTINUOUS
370
    50
100
AcDbLine
 10
84.8499754184
 20
157.0761149902
 30
0.0
 11
85.2485782218
 21
157.809637605
 31
0.0
  0
LINE
  5
354
330
A
100
AcDbEntity
  8
1
  6
CONTINUOUS
370
    50
100
AcDbLine
 10
85.2485782218
 20
157.809637605
 30
0.0
 11
85.7567428014
 21
158.3540780408
 31
0.0
  0
LINE
  5
355
330
A
100
AcDbEntity
  8
1
  6
CONTINUOUS
370
    50
100
AcDbLine
 10
85.7567428014
 20
158.3540780408
 30
0.0
 11
86.3131770092
 21
158.6437687459
 31
0.0
  0
LINE
  5
356
330
A
100
AcDbEntity
  8
1
  6
CONTINUOUS
370
    50
100
AcDbLine
 10
86.3131770092
 20
158.6437687459
 30
0.0
 11
86.8507666677
 21
158.6437687459
 31
0.0
  0
LINE
  5
357
330
A
100
AcDbEntity
  8
1
  6
CONTINUOUS
370
    50
100
AcDbLine
 10
86.8507666677
 20
158.6437687459
 30
0.0
 11
87.3046705301
 21
158.3540780408
 31
0.0
  0
LINE
  5
358
330
A
100
AcDbEntity
  8
1
  6
CONTINUOUS
370
    50
100
AcDbLine
 10
87.3046705301
 20
158.3540780408
 30
0.0
 11
87.6201410916
 21
157.809637605
 31
0.0
  0
LINE
  5
359
330
A
100
AcDbEntity
  8
1
  6
CONTINUOUS
370
    50
100
AcDbLine
 10
87.6201410916
 20
157.809637605
 30
0.0
 11
87.7591279467
 21
157.0761149902
 31
0.0
  0
LINE
  5
35A
330
A
100
AcDbEntity
  8
1
  6
CONTINUOUS
370
    50
100
AcDbLine
 10
87.7591279467
 20
157.0761149902
 30
0.0
 11
87.7048672295
 21
156.2419838493
 31
0.0
  0
LINE
  5
35B
330
A
100
AcDbEntity
  8
1
  6
CONTINUOUS
370
    50
100
AcDbLine
 10
97.2038183241
 20
153.5158896004
 30
0.0
 11
97.2580790414
 21
154.3500207413
 31
0.0
  0
LINE
  5
35C
330
A
100
AcDbEntity
  8
1
  6
CONTINUOUS
370
    50
100
AcDbLine
 10
97.2580790414
 20
154.3500207413
 30
0.0
 11
97.1190921863
 21
155.0835433562
 31
0.0
  0
LINE
  5
35D
330
A
100
AcDbEntity
  8
1
  6
CONTINUOUS
370
    50
100
AcDbLine
 10
97.1190921863
 20
155.0835433562
 30
0.0
 11
96.8036216248
 21
155.627983792
 31
0.0
  0
LINE
  5
35E
330
A
100
AcDbEntity
  8
1
  6
CONTINUOUS
370
    50
100
AcDbLine
 10
96.8036216248
 20
155.627983792
 30
0.0
 11
96.3497177624
 21
155.9176744971
 31
0.0
  0
LINE
  5
35F
330
A
100
AcDbEntity
  8
1
  6
CONTINUOUS
370
    50
100
AcDbLine
 10
96.3497177624
 20
155.9176744971
 30
0.0
 11
95.8121281039
 21
155.9176744971
 31
0.0
  0
LINE
  5
360
330
A
100
AcDbEntity
  8
1
  6
CONTINUOUS
370
    50
100
AcDbLine
 10
95.8121281039
 20
155.9176744971
 30
0.0
 11
95.2556938961
 21
155.627983792
 31
0.0
  0
LINE
  5
361
330
A
100
AcDbEntity
  8
1
  6
CONTINUOUS
370
    50
100
AcDbLine
 10
95.2556938961
 20
155.627983792
 30
0.0
 11
94.7475293165
 21
155.0835433562
 31
0.0
  0
LINE
  5
362
330
A
100
AcDbEntity
  8
1
  6
CONTINUOUS
370
    50
100
AcDbLine
 10
94.7475293165
 20
155.0835433562
 30
0.0
 11
94.3489265131
 21
154.3500207413
 31
0.0
  0
LINE
  5
363
330
A
100
AcDbEntity
  8
1
  6
CONTINUOUS
370
    50
100
AcDbLine
 10
94.3489265131
 20
154.3500207413
 30
0.0
 11
94.1079628667
 21
153.5158896004
 31
0.0
  0
LINE
  5
364
330
A
100
AcDbEntity
  8
1
  6
CONTINUOUS
370
    50
100
AcDbLine
 10
94.1079628667
 20
153.5158896004
 30
0.0
 11
94.0537021495
 21
152.6817584595
 31
0.0
  0
LINE
  5
365
330
A
100
AcDbEntity
  8
1
  6
CONTINUOUS
370
    50
100
AcDbLine
 10
94.0537021495
 20
152.6817584595
 30
0.0
 11
94.1926890046
 21
151.9482358446
 31
0.0
  0
LINE
  5
366
330
A
100
AcDbEntity
  8
1
  6
CONTINUOUS
370
    50
100
AcDbLine
 10
94.1926890046
 20
151.9482358446
 30
0.0
 11
94.5081595661
 21
151.4037954088
 31
0.0
  0
LINE
  5
367
330
A
100
AcDbEntity
  8
1
  6
CONTINUOUS
370
    50
100
AcDbLine
 10
94.5081595661
 20
151.4037954088
 30
0.0
 11
94.9620634284
 21
151.1141047037
 31
0.0
  0
LINE
  5
368
330
A
100
AcDbEntity
  8
1
  6
CONTINUOUS
370
    50
100
AcDbLine
 10
94.9620634284
 20
151.1141047037
 30
0.0
 11
95.4996530869
 21
151.1141047037
 31
0.0
  0
LINE
  5
369
330
A
100
AcDbEntity
  8
1
  6
CONTINUOUS
370
    50
100
AcDbLine
 10
95.4996530869
 20
151.1141047037
 30
0.0
 11
96.0560872948
 21
151.4037954088
 31
0.0
  0
LINE
  5
36A
330
A
100
AcDbEntity
  8
1
  6
CONTINUOUS
370
    50
100
AcDbLine
 10
96.0560872948
 20
151.4037954088
 30
0.0
 11
96.5642518744
 21
151.9482358446
 31
0.0
  0
LINE
  5
36B
330
A
100
AcDbEntity
  8
1
  6
CONTINUOUS
370
    50
100
AcDbLine
 10
96.5642518744
 20
151.9482358446
 30
0.0
 11
96.9628546778
 21
152.6817584595
 31
0.0
  0
LINE
  5
36C
330
A
100
AcDbEntity
  8
1
  6
CONTINUOUS
370
    50
100
AcDbLine
 10
96.9628546778
 20
152.6817584595
 30
0.0
 11
97.2038183241
 21
153.5158896004
 31
0.0
  0
LINE
  5
36D
330
A
100
AcDbEntity
  8
1
  6
CONTINUOUS
370
    50
100
AcDbLine
 10
87.7125276739
 20
156.2397853862
 30
0.0
 11
87.4715640276
 21
155.4056542452
 31
0.0
  0
LINE
  5
36E
330
A
100
AcDbEntity
  8
1
  6
CONTINUOUS
370
    50
100
AcDbLine
 10
87.4715640276
 20
155.4056542452
 30
0.0
 11
87.0729612242
 21
154.6721316304
 31
0.0
  0
LINE
  5
36F
330
A
100
AcDbEntity
  8
1
  6
CONTINUOUS
370
    50
100
AcDbLine
 10
87.0729612242
 20
154.6721316304
 30
0.0
 11
86.5647966445
 21
154.1276911946
 31
0.0
  0
LINE
  5
370
330
A
100
AcDbEntity
  8
1
  6
CONTINUOUS
370
    50
100
AcDbLine
 10
86.5647966445
 20
154.1276911946
 30
0.0
 11
86.0083624367
 21
153.8380004895
 31
0.0
  0
LINE
  5
371
330
A
100
AcDbEntity
  8
1
  6
CONTINUOUS
370
    50
100
AcDbLine
 10
86.0083624367
 20
153.8380004895
 30
0.0
 11
85.4707727782
 21
153.8380004895
 31
0.0
  0
LINE
  5
372
330
A
100
AcDbEntity
  8
1
  6
CONTINUOUS
370
    50
100
AcDbLine
 10
85.4707727782
 20
153.8380004895
 30
0.0
 11
85.0168689158
 21
154.1276911946
 31
0.0
  0
LINE
  5
373
330
A
100
AcDbEntity
  8
1
  6
CONTINUOUS
370
    50
100
AcDbLine
 10
85.0168689158
 20
154.1276911946
 30
0.0
 11
84.7013983543
 21
154.6721316304
 31
0.0
  0
LINE
  5
374
330
A
100
AcDbEntity
  8
1
  6
CONTINUOUS
370
    50
100
AcDbLine
 10
84.7013983543
 20
154.6721316304
 30
0.0
 11
84.5624114992
 21
155.4056542452
 31
0.0
  0
LINE
  5
375
330
A
100
AcDbEntity
  8
1
  6
CONTINUOUS
370
    50
100
AcDbLine
 10
84.5624114992
 20
155.4056542452
 30
0.0
 11
84.6166722165
 21
156.2397853862
 31
0.0
  0
LINE
  5
376
330
A
100
AcDbEntity
  8
1
  6
CONTINUOUS
370
    50
100
AcDbLine
 10
84.6166722165
 20
156.2397853862
 30
0.0
 11
84.8576358628
 21
157.0739165271
 31
0.0
  0
LINE
  5
377
330
A
100
AcDbEntity
  8
1
  6
CONTINUOUS
370
    50
100
AcDbLine
 10
84.8576358628
 20
157.0739165271
 30
0.0
 11
85.2562386662
 21
157.8074391419
 31
0.0
  0
LINE
  5
378
330
A
100
AcDbEntity
  8
1
  6
CONTINUOUS
370
    50
100
AcDbLine
 10
85.2562386662
 20
157.8074391419
 30
0.0
 11
85.7644032458
 21
158.3518795777
 31
0.0
  0
LINE
  5
379
330
A
100
AcDbEntity
  8
1
  6
CONTINUOUS
370
    50
100
AcDbLine
 10
85.7644032458
 20
158.3518795777
 30
0.0
 11
86.3208374537
 21
158.6415702828
 31
0.0
  0
LINE
  5
37A
330
A
100
AcDbEntity
  8
1
  6
CONTINUOUS
370
    50
100
AcDbLine
 10
86.3208374537
 20
158.6415702828
 30
0.0
 11
86.8584271122
 21
158.6415702828
 31
0.0
  0
LINE
  5
37B
330
A
100
AcDbEntity
  8
1
  6
CONTINUOUS
370
    50
100
AcDbLine
 10
86.8584271122
 20
158.6415702828
 30
0.0
 11
87.3123309745
 21
158.3518795777
 31
0.0
  0
LINE
  5
37C
330
A
100
AcDbEntity
  8
1
  6
CONTINUOUS
370
    50
100
AcDbLine
 10
87.3123309745
 20
158.3518795777
 30
0.0
 11
87.6278015361
 21
157.8074391419
 31
0.0
  0
LINE
  5
37D
330
A
100
AcDbEntity
  8
1
  6
CONTINUOUS
370
    50
100
AcDbLine
 10
87.6278015361
 20
157.8074391419
 30
0.0
 11
87.7667883912
 21
157.0739165271
 31
0.0
  0
LINE
  5
37E
330
A
100
AcDbEntity
  8
1
  6
CONTINUOUS
370
    50
100
AcDbLine
 10
87.7667883912
 20
157.0739165271
 30
0.0
 11
87.7125276739
 21
156.2397853862
 31
0.0
  0
LINE
  5
37F
330
A
100
AcDbEntity
  8
1
  6
CONTINUOUS
370
    50
100
AcDbLine
 10
181.1158126718
 20
175.1592749879
 30
0.0
 11
148.3858126718
 21
175.1592749879
 31
0.0
  0
LINE
  5
380
330
A
100
AcDbEntity
  8
1
  6
CONTINUOUS
370
    50
100
AcDbLine
 10
148.3858126718
 20
159.1592749879
 30
0.0
 11
181.1158126718
 21
159.1592749879
 31
0.0
  0
LINE
  5
381
330
A
100
AcDbEntity
  8
1
  6
CONTINUOUS
370
    50
100
AcDbLine
 10
181.1158126718
 20
175.1592749879
 30
0.0
 11
181.1158126718
 21
175.0055572311
 31
0.0
  0
LINE
  5
382
330
A
100
AcDbEntity
  8
1
  6
CONTINUOUS
370
    50
100
AcDbLine
 10
181.1158126718
 20
175.0055572311
 30
0.0
 11
181.1158126718
 21
159.1592749879
 31
0.0
  0
LINE
  5
383
330
A
100
AcDbEntity
  8
1
  6
CONTINUOUS
370
    50
100
AcDbLine
 10
181.1158126718
 20
174.6592749879
 30
0.0
 11
181.1158126718
 21
174.6496487917
 31
0.0
  0
LINE
  5
384
330
A
100
AcDbEntity
  8
1
  6
CONTINUOUS
370
    50
100
AcDbLine
 10
181.1158126718
 20
174.6496487917
 30
0.0
 11
181.1158126718
 21
167.1592749879
 31
0.0
  0
ENDSEC
  0
SECTION
  2
OBJECTS
  0
DICTIONARY
  5
19
330
0
100
AcDbDictionary
281
     1
  3
ACAD_GROUP
350
1A
  3
ACAD_LAYOUT
350
3A9
  3
ACAD_MATERIAL
350
3BD
  3
ACAD_MLEADERSTYLE
350
3C5
  3
ACAD_MLINESTYLE
350
1B
  3
ACAD_SCALELIST
350
387
  3
ACAD_VISUALSTYLE
350
3AC
  3
ACDB_RECOMPOSE_DATA
350
3F2
  3
AcDbVariableDictionary
350
3C3
  0
DICTIONARY
  5
3C9
330
7
100
AcDbDictionary
280
     1
281
     1
  3
ACAD_XREC_ROUNDTRIP
360
3CA
  0
DICTIONARY
  5
1A
102
{ACAD_REACTORS
330
19
102
}
330
19
100
AcDbDictionary
281
     1
  0
DICTIONARY
  5
3A9
102
{ACAD_REACTORS
330
19
102
}
330
19
100
AcDbDictionary
281
     1
  3
Layout1
350
3AB
  3
Model
350
3AA
  0
DICTIONARY
  5
3BD
102
{ACAD_REACTORS
330
19
102
}
330
19
100
AcDbDictionary
281
     1
  3
ByBlock
350
3BF
  3
ByLayer
350
3BE
  3
Global
350
3C0
  0
DICTIONARY
  5
3C5
102
{ACAD_REACTORS
330
19
102
}
330
19
100
AcDbDictionary
281
     1
  0
DICTIONARY
  5
1B
102
{ACAD_REACTORS
330
19
102
}
330
19
100
AcDbDictionary
281
     1
  3
STANDARD
350
1C
  0
DICTIONARY
  5
387
102
{ACAD_REACTORS
330
19
102
}
330
19
100
AcDbDictionary
281
     1
  3
A0
350
388
  3
A1
350
389
  3
A2
350
38A
  3
A3
350
38B
  3
A4
350
38C
  3
A5
350
38D
  3
A6
350
38E
  3
A7
350
38F
  3
A8
350
390
  3
A9
350
391
  3
B0
350
392
  3
B1
350
393
  3
B2
350
394
  3
B3
350
395
  3
B4
350
396
  3
B5
350
397
  3
B6
350
398
  3
B7
350
399
  3
B8
350
39A
  3
B9
350
39B
  3
C0
350
39C
  3
C1
350
39D
  3
C2
350
39E
  3
C3
350
39F
  3
C4
350
3A0
  3
C5
350
3A1
  3
C6
350
3A2
  3
C7
350
3A3
  3
C8
350
3A4
  3
C9
350
3A5
  3
D0
350
3A6
  3
D1
350
3A7
  3
D2
350
3A8
  0
DICTIONARY
  5
3AC
102
{ACAD_REACTORS
330
19
102
}
330
19
100
AcDbDictionary
281
     1
  3
2dWireframe
350
3B1
  3
3D Hidden
350
3B3
  3
3dWireframe
350
3B2
  3
Basic
350
3B4
  3
Brighten
350
3B8
  3
ColorChange
350
3BC
  3
Conceptual
350
3B6
  3
Dim
350
3B7
  3
Facepattern
350
3BB
  3
Flat
350
3AD
  3
FlatWithEdges
350
3AE
  3
Gouraud
350
3AF
  3
GouraudWithEdges
350
3B0
  3
Linepattern
350
3BA
  3
Realistic
350
3B5
  3
Thicken
350
3B9
  0
XRECORD
  5
3F2
102
{ACAD_REACTORS
330
19
102
}
330
19
100
AcDbXrecord
280
     1
  0
DICTIONARY
  5
3C3
102
{ACAD_REACTORS
330
19
102
}
330
19
100
AcDbDictionary
281
     1
  3
CANNOSCALE
350
3CB
  3
DIMASSOC
350
3C7
  3
HIDETEXT
350
3C8
  3
MSLTSCALE
350
3C6
  0
XRECORD
  5
3CA
102
{ACAD_REACTORS
330
3C9
102
}
330
3C9
100
AcDbXrecord
280
     1
102
VTR_0.000_0.000_1.000_1.000_VISUALSTYLE
340
3B1
102
VTR_0.000_0.000_1.000_1.000_GRIDDISPLAY
 70
     3
102
VTR_0.000_0.000_1.000_1.000_GRIDMAJOR
 70
     5
102
VTR_0.000_0.000_1.000_1.000_DEFAULTLIGHTING
280
     1
102
VTR_0.000_0.000_1.000_1.000_DEFAULTLIGHTINGTYPE
 70
     1
102
VTR_0.000_0.000_1.000_1.000_BRIGHTNESS
141
0.0
102
VTR_0.000_0.000_1.000_1.000_CONTRAST
142
0.0
  0
LAYOUT
  5
3AB
102
{ACAD_REACTORS
330
3A9
102
}
330
3A9
100
AcDbPlotSettings
  1

  2
none_device
  4

  6

 40
0.0
 41
0.0
 42
0.0
 43
0.0
 44
0.0
 45
0.0
 46
0.0
 47
0.0
 48
0.0
 49
0.0
140
0.0
141
0.0
142
1.0
143
1.0
 70
   688
 72
     0
 73
     0
 74
     5
  7

 75
    16
147
1.0
148
0.0
149
0.0
100
AcDbLayout
  1
Layout1
 70
     1
 71
     1
 10
0.0
 20
0.0
 11
12.0
 21
9.0
 12
0.0
 22
0.0
 32
0.0
 14
1.000000000000000E+20
 24
1.000000000000000E+20
 34
1.000000000000000E+20
 15
-1.000000000000000E+20
 25
-1.000000000000000E+20
 35
-1.000000000000000E+20
146
0.0
 13
0.0
 23
0.0
 33
0.0
 16
1.0
 26
0.0
 36
0.0
 17
0.0
 27
1.0
 37
0.0
 76
     0
330
B
  0
LAYOUT
  5
3AA
102
{ACAD_REACTORS
330
3A9
102
}
330
3A9
100
AcDbPlotSettings
  1

  2
none_device
  4

  6

 40
0.0
 41
0.0
 42
0.0
 43
0.0
 44
0.0
 45
0.0
 46
0.0
 47
0.0
 48
0.0
 49
0.0
140
0.0
141
0.0
142
1.0
143
1.0
 70
  1712
 72
     0
 73
     0
 74
     0
  7

 75
     0
147
1.0
148
2667.54428576817
149
0.0
100
AcDbLayout
  1
Model
 70
     1
 71
     0
 10
0.0
 20
0.0
 11
0.0
 21
0.0
 12
0.0
 22
0.0
 32
0.0
 14
0.0
 24
0.0
 34
0.0
 15
210.0
 25
297.0
 35
0.0
146
0.0
 13
0.0
 23
0.0
 33
0.0
 16
1.0
 26
0.0
 36
0.0
 17
0.0
 27
1.0
 37
0.0
 76
     0
330
A
331
15
  0
MATERIAL
  5
3BF
102
{ACAD_REACTORS
330
3BD
102
}
102
{ACAD_XDICTIONARY
360
3EE
102
}
330
3BD
100
AcDbMaterial
  1
ByBlock
  0
MATERIAL
  5
3BE
102
{ACAD_REACTORS
330
3BD
102
}
102
{ACAD_XDICTIONARY
360
3EC
102
}
330
3BD
100
AcDbMaterial
  1
ByLayer
  0
MATERIAL
  5
3C0
102
{ACAD_REACTORS
330
3BD
102
}
102
{ACAD_XDICTIONARY
360
3F0
102
}
330
3BD
100
AcDbMaterial
  1
Global
  0
MLINESTYLE
  5
1C
102
{ACAD_REACTORS
330
1B
102
}
330
1B
100
AcDbMlineStyle
  2
STANDARD
 70
     0
  3

 62
     0
 51
90.0
 52
90.0
 71
     2
 49
0.5
 62
   256
  6
BYLAYER
 49
-0.5
 62
   256
  6
BYLAYER
  0
SCALE
  5
388
102
{ACAD_REACTORS
330
387
102
}
330
387
100
AcDbScale
 70
     0
300
1:1
140
1.0
141
1.0
290
     1
  0
SCALE
  5
389
102
{ACAD_REACTORS
330
387
102
}
330
387
100
AcDbScale
 70
     0
300
1:2
140
1.0
141
2.0
290
     0
  0
SCALE
  5
38A
102
{ACAD_REACTORS
330
387
102
}
330
387
100
AcDbScale
 70
     0
300
1:4
140
1.0
141
4.0
290
     0
  0
SCALE
  5
38B
102
{ACAD_REACTORS
330
387
102
}
330
387
100
AcDbScale
 70
     0
300
1:5
140
1.0
141
5.0
290
     0
  0
SCALE
  5
38C
102
{ACAD_REACTORS
330
387
102
}
330
387
100
AcDbScale
 70
     0
300
1:8
140
1.0
141
8.0
290
     0
  0
SCALE
  5
38D
102
{ACAD_REACTORS
330
387
102
}
330
387
100
AcDbScale
 70
     0
300
1:10
140
1.0
141
10.0
290
     0
  0
SCALE
  5
38E
102
{ACAD_REACTORS
330
387
102
}
330
387
100
AcDbScale
 70
     0
300
1:16
140
1.0
141
16.0
290
     0
  0
SCALE
  5
38F
102
{ACAD_REACTORS
330
387
102
}
330
387
100
AcDbScale
 70
     0
300
1:20
140
1.0
141
20.0
290
     0
  0
SCALE
  5
390
102
{ACAD_REACTORS
330
387
102
}
330
387
100
AcDbScale
 70
     0
300
1:30
140
1.0
141
30.0
290
     0
  0
SCALE
  5
391
102
{ACAD_REACTORS
330
387
102
}
330
387
100
AcDbScale
 70
     0
300
1:40
140
1.0
141
40.0
290
     0
  0
SCALE
  5
392
102
{ACAD_REACTORS
330
387
102
}
330
387
100
AcDbScale
 70
     0
300
1:50
140
1.0
141
50.0
290
     0
  0
SCALE
  5
393
102
{ACAD_REACTORS
330
387
102
}
330
387
100
AcDbScale
 70
     0
300
1:100
140
1.0
141
100.0
290
     0
  0
SCALE
  5
394
102
{ACAD_REACTORS
330
387
102
}
330
387
100
AcDbScale
 70
     0
300
2:1
140
2.0
141
1.0
290
     0
  0
SCALE
  5
395
102
{ACAD_REACTORS
330
387
102
}
330
387
100
AcDbScale
 70
     0
300
4:1
140
4.0
141
1.0
290
     0
  0
SCALE
  5
396
102
{ACAD_REACTORS
330
387
102
}
330
387
100
AcDbScale
 70
     0
300
8:1
140
8.0
141
1.0
290
     0
  0
SCALE
  5
397
102
{ACAD_REACTORS
330
387
102
}
330
387
100
AcDbScale
 70
     0
300
10:1
140
10.0
141
1.0
290
     0
  0
SCALE
  5
398
102
{ACAD_REACTORS
330
387
102
}
330
387
100
AcDbScale
 70
     0
300
100:1
140
100.0
141
1.0
290
     0
  0
SCALE
  5
399
102
{ACAD_REACTORS
330
387
102
}
330
387
100
AcDbScale
 70
     0
300
1/128" = 1'-0"
140
0.0078125
141
12.0
290
     0
  0
SCALE
  5
39A
102
{ACAD_REACTORS
330
387
102
}
330
387
100
AcDbScale
 70
     0
300
1/64" = 1'-0"
140
0.015625
141
12.0
290
     0
  0
SCALE
  5
39B
102
{ACAD_REACTORS
330
387
102
}
330
387
100
AcDbScale
 70
     0
300
1/32" = 1'-0"
140
0.03125
141
12.0
290
     0
  0
SCALE
  5
39C
102
{ACAD_REACTORS
330
387
102
}
330
387
100
AcDbScale
 70
     0
300
1/16" = 1'-0"
140
0.0625
141
12.0
290
     0
  0
SCALE
  5
39D
102
{ACAD_REACTORS
330
387
102
}
330
387
100
AcDbScale
 70
     0
300
3/32" = 1'-0"
140
0.09375
141
12.0
290
     0
  0
SCALE
  5
39E
102
{ACAD_REACTORS
330
387
102
}
330
387
100
AcDbScale
 70
     0
300
1/8" = 1'-0"
140
0.125
141
12.0
290
     0
  0
SCALE
  5
39F
102
{ACAD_REACTORS
330
387
102
}
330
387
100
AcDbScale
 70
     0
300
3/16" = 1'-0"
140
0.1875
141
12.0
290
     0
  0
SCALE
  5
3A0
102
{ACAD_REACTORS
330
387
102
}
330
387
100
AcDbScale
 70
     0
300
1/4" = 1'-0"
140
0.25
141
12.0
290
     0
  0
SCALE
  5
3A1
102
{ACAD_REACTORS
330
387
102
}
330
387
100
AcDbScale
 70
     0
300
3/8" = 1'-0"
140
0.375
141
12.0
290
     0
  0
SCALE
  5
3A2
102
{ACAD_REACTORS
330
387
102
}
330
387
100
AcDbScale
 70
     0
300
1/2" = 1'-0"
140
0.5
141
12.0
290
     0
  0
SCALE
  5
3A3
102
{ACAD_REACTORS
330
387
102
}
330
387
100
AcDbScale
 70
     0
300
3/4" = 1'-0"
140
0.75
141
12.0
290
     0
  0
SCALE
  5
3A4
102
{ACAD_REACTORS
330
387
102
}
330
387
100
AcDbScale
 70
     0
300
1" = 1'-0"
140
1.0
141
12.0
290
     0
  0
SCALE
  5
3A5
102
{ACAD_REACTORS
330
387
102
}
330
387
100
AcDbScale
 70
     0
300
1-1/2" = 1'-0"
140
1.5
141
12.0
290
     0
  0
SCALE
  5
3A6
102
{ACAD_REACTORS
330
387
102
}
330
387
100
AcDbScale
 70
     0
300
3" = 1'-0"
140
3.0
141
12.0
290
     0
  0
SCALE
  5
3A7
102
{ACAD_REACTORS
330
387
102
}
330
387
100
AcDbScale
 70
     0
300
6" = 1'-0"
140
6.0
141
12.0
290
     0
  0
SCALE
  5
3A8
102
{ACAD_REACTORS
330
387
102
}
330
387
100
AcDbScale
 70
     0
300
1'-0" = 1'-0"
140
12.0
141
12.0
290
     0
  0
VISUALSTYLE
  5
3B1
102
{ACAD_REACTORS
330
3AC
102
}
102
{ACAD_XDICTIONARY
360
3D4
102
}
330
3AC
100
AcDbVisualStyle
  2
2dWireframe
 70
     4
 71
     0
 72
     2
 73
     0
 90
        0
 40
-0.6
 41
-30.0
 62
     5
 63
     7
 74
     1
 91
        4
 64
     7
 65
   257
 75
     1
175
     1
 42
1.0
 92
        0
 66
   257
 43
1.0
 76
     1
 77
     6
 78
     2
 67
     7
 79
     5
170
     0
171
     0
290
     0
174
     0
 93
        1
 44
0.0
173
     0
291
     0
 45
0.0
1001
ACAD
1000
AcDbSavedByObjectVersion
1070
     0
  0
VISUALSTYLE
  5
3B3
102
{ACAD_REACTORS
330
3AC
102
}
102
{ACAD_XDICTIONARY
360
3D8
102
}
330
3AC
100
AcDbVisualStyle
  2
3D Hidden
 70
     6
 71
     1
 72
     2
 73
     2
 90
        0
 40
-0.6
 41
-30.0
 62
     5
 63
     7
 74
     2
 91
        2
 64
     7
 65
   257
 75
     2
175
     1
 42
40.0
 92
        0
 66
   257
 43
1.0
 76
     1
 77
     6
 78
     2
 67
     7
 79
     3
170
     0
171
     0
290
     0
174
     0
 93
        1
 44
0.0
173
     0
291
     0
 45
0.0
1001
ACAD
1000
AcDbSavedByObjectVersion
1070
     0
  0
VISUALSTYLE
  5
3B2
102
{ACAD_REACTORS
330
3AC
102
}
102
{ACAD_XDICTIONARY
360
3D6
102
}
330
3AC
100
AcDbVisualStyle
  2
3dWireframe
 70
     5
 71
     0
 72
     2
 73
     0
 90
        0
 40
-0.6
 41
-30.0
 62
     5
 63
     7
 74
     1
 91
        4
 64
     7
 65
   257
 75
     1
175
     1
 42
1.0
 92
        0
 66
   257
 43
1.0
 76
     1
 77
     6
 78
     2
 67
     7
 79
     5
170
     0
171
     0
290
     0
174
     0
 93
        1
 44
0.0
173
     0
291
     0
 45
0.0
1001
ACAD
1000
AcDbSavedByObjectVersion
1070
     0
  0
VISUALSTYLE
  5
3B4
102
{ACAD_REACTORS
330
3AC
102
}
102
{ACAD_XDICTIONARY
360
3DA
102
}
330
3AC
100
AcDbVisualStyle
  2
Basic
 70
     7
 71
     1
 72
     0
 73
     1
 90
        0
 40
-0.6
 41
-30.0
 62
     5
 63
     7
 74
     0
 91
        4
 64
     7
 65
   257
 75
     1
175
     1
 42
1.0
 92
        8
 66
     7
 43
1.0
 76
     1
 77
     6
 78
     2
 67
     7
 79
     5
170
     0
171
     0
290
     0
174
     0
 93
        1
 44
0.0
173
     0
291
     1
 45
0.0
1001
ACAD
1000
AcDbSavedByObjectVersion
1070
     0
  0
VISUALSTYLE
  5
3B8
102
{ACAD_REACTORS
330
3AC
102
}
102
{ACAD_XDICTIONARY
360
3E2
102
}
330
3AC
100
AcDbVisualStyle
  2
Brighten
 70
    12
 71
     2
 72
     2
 73
     0
 90
        0
 40
-0.6
 41
-30.0
 62
     5
 63
     7
 74
     1
 91
        4
 64
     7
 65
   257
 75
     1
175
     1
 42
1.0
 92
        8
 66
     7
 43
1.0
 76
     1
 77
     6
 78
     2
 67
     7
 79
     5
170
     0
171
     0
290
     0
174
     0
 93
        1
 44
50.0
173
     0
291
     1
 45
0.0
1001
ACAD
1000
AcDbSavedByObjectVersion
1070
     0
  0
VISUALSTYLE
  5
3BC
102
{ACAD_REACTORS
330
3AC
102
}
102
{ACAD_XDICTIONARY
360
3EA
102
}
330
3AC
100
AcDbVisualStyle
  2
ColorChange
 70
    16
 71
     2
 72
     2
 73
     3
 90
        0
 40
-0.6
 41
-30.0
 62
     5
 63
     8
 74
     1
 91
        4
 64
     7
 65
   257
 75
     1
175
     1
 42
1.0
 92
        8
 66
     8
 43
1.0
 76
     1
 77
     6
 78
     2
 67
     7
 79
     5
170
     0
171
     0
290
     0
174
     0
 93
        1
 44
0.0
173
     0
291
     1
 45
0.0
1001
ACAD
1000
AcDbSavedByObjectVersion
1070
     0
  0
VISUALSTYLE
  5
3B6
102
{ACAD_REACTORS
330
3AC
102
}
102
{ACAD_XDICTIONARY
360
3DE
102
}
330
3AC
100
AcDbVisualStyle
  2
Conceptual
 70
     9
 71
     3
 72
     2
 73
     0
 90
        0
 40
-0.6
 41
-30.0
 62
     5
 63
     7
 74
     2
 91
        2
 64
     7
 65
   257
 75
     1
175
     1
 42
40.0
 92
        8
 66
     7
 43
1.0
 76
     1
 77
     6
 78
     2
 67
     7
 79
     3
170
     0
171
     0
290
     0
174
     0
 93
        1
 44
0.0
173
     0
291
     0
 45
0.0
1001
ACAD
1000
AcDbSavedByObjectVersion
1070
     0
  0
VISUALSTYLE
  5
3B7
102
{ACAD_REACTORS
330
3AC
102
}
102
{ACAD_XDICTIONARY
360
3E0
102
}
330
3AC
100
AcDbVisualStyle
  2
Dim
 70
    11
 71
     2
 72
     2
 73
     0
 90
        0
 40
-0.6
 41
-30.0
 62
     5
 63
     7
 74
     1
 91
        4
 64
     7
 65
   257
 75
     1
175
     1
 42
1.0
 92
        8
 66
     7
 43
1.0
 76
     1
 77
     6
 78
     2
 67
     7
 79
     5
170
     0
171
     0
290
     0
174
     0
 93
        1
 44
-50.0
173
     0
291
     1
 45
0.0
1001
ACAD
1000
AcDbSavedByObjectVersion
1070
     0
  0
VISUALSTYLE
  5
3BB
102
{ACAD_REACTORS
330
3AC
102
}
102
{ACAD_XDICTIONARY
360
3E8
102
}
330
3AC
100
AcDbVisualStyle
  2
Facepattern
 70
    15
 71
     2
 72
     2
 73
     0
 90
        0
 40
-0.6
 41
-30.0
 62
     5
 63
     7
 74
     1
 91
        4
 64
     7
 65
   257
 75
     1
175
     1
 42
1.0
 92
        8
 66
     7
 43
1.0
 76
     1
 77
     6
 78
     2
 67
     7
 79
     5
170
     0
171
     0
290
     0
174
     0
 93
        1
 44
0.0
173
     0
291
     1
 45
0.0
1001
ACAD
1000
AcDbSavedByObjectVersion
1070
     0
  0
VISUALSTYLE
  5
3AD
102
{ACAD_REACTORS
330
3AC
102
}
102
{ACAD_XDICTIONARY
360
3CC
102
}
330
3AC
100
AcDbVisualStyle
  2
Flat
 70
     0
 71
     2
 72
     1
 73
     1
 90
        2
 40
-0.6
 41
30.0
 62
     5
 63
     7
 74
     0
 91
        4
 64
     7
 65
   257
 75
     1
175
     1
 42
1.0
 92
        8
 66
     7
 43
1.0
 76
     1
 77
     6
 78
     2
 67
     7
 79
     5
170
     0
171
     0
290
     0
174
     0
 93
       13
 44
0.0
173
     0
291
     1
 45
0.0
1001
ACAD
1000
AcDbSavedByObjectVersion
1070
     0
  0
VISUALSTYLE
  5
3AE
102
{ACAD_REACTORS
330
3AC
102
}
102
{ACAD_XDICTIONARY
360
3CE
102
}
330
3AC
100
AcDbVisualStyle
  2
FlatWithEdges
 70
     1
 71
     2
 72
     1
 73
     1
 90
        2
 40
-0.6
 41
30.0
 62
     5
 63
     7
 74
     1
 91
        4
 64
     7
 65
   257
 75
     1
175
     1
 42
1.0
 92
        0
 66
   257
 43
1.0
 76
     1
 77
     6
 78
     2
 67
     7
 79
     5
170
     0
171
     0
290
     0
174
     0
 93
       13
 44
0.0
173
     0
291
     1
 45
0.0
1001
ACAD
1000
AcDbSavedByObjectVersion
1070
     0
  0
VISUALSTYLE
  5
3AF
102
{ACAD_REACTORS
330
3AC
102
}
102
{ACAD_XDICTIONARY
360
3D0
102
}
330
3AC
100
AcDbVisualStyle
  2
Gouraud
 70
     2
 71
     2
 72
     2
 73
     1
 90
        2
 40
-0.6
 41
30.0
 62
     5
 63
     7
 74
     0
 91
        4
 64
     7
 65
   257
 75
     1
175
     1
 42
1.0
 92
        0
 66
     7
 43
1.0
 76
     1
 77
     6
 78
     2
 67
     7
 79
     5
170
     0
171
     0
290
     0
174
     0
 93
       13
 44
0.0
173
     0
291
     1
 45
0.0
1001
ACAD
1000
AcDbSavedByObjectVersion
1070
     0
  0
VISUALSTYLE
  5
3B0
102
{ACAD_REACTORS
330
3AC
102
}
102
{ACAD_XDICTIONARY
360
3D2
102
}
330
3AC
100
AcDbVisualStyle
  2
GouraudWithEdges
 70
     3
 71
     2
 72
     2
 73
     1
 90
        2
 40
-0.6
 41
30.0
 62
     5
 63
     7
 74
     1
 91
        4
 64
     7
 65
   257
 75
     1
175
     1
 42
1.0
 92
        0
 66
   257
 43
1.0
 76
     1
 77
     6
 78
     2
 67
     7
 79
     5
170
     0
171
     0
290
     0
174
     0
 93
       13
 44
0.0
173
     0
291
     1
 45
0.0
1001
ACAD
1000
AcDbSavedByObjectVersion
1070
     0
  0
VISUALSTYLE
  5
3BA
102
{ACAD_REACTORS
330
3AC
102
}
102
{ACAD_XDICTIONARY
360
3E6
102
}
330
3AC
100
AcDbVisualStyle
  2
Linepattern
 70
    14
 71
     2
 72
     2
 73
     0
 90
        0
 40
-0.6
 41
-30.0
 62
     5
 63
     7
 74
     1
 91
        4
 64
     7
 65
   257
 75
     7
175
     7
 42
1.0
 92
        8
 66
     7
 43
1.0
 76
     1
 77
     6
 78
     2
 67
     7
 79
     5
170
     0
171
     0
290
     0
174
     0
 93
        1
 44
0.0
173
     0
291
     1
 45
0.0
1001
ACAD
1000
AcDbSavedByObjectVersion
1070
     0
  0
VISUALSTYLE
  5
3B5
102
{ACAD_REACTORS
330
3AC
102
}
102
{ACAD_XDICTIONARY
360
3DC
102
}
330
3AC
100
AcDbVisualStyle
  2
Realistic
 70
     8
 71
     2
 72
     2
 73
     0
 90
        0
 40
-0.6
 41
-30.0
 62
     5
 63
     7
 74
     1
 91
        0
 64
     7
 65
   257
 75
     1
175
     1
 42
1.0
 92
        8
 66
     8
 43
1.0
 76
     1
 77
     6
 78
     2
 67
     7
 79
     5
170
     0
171
     0
290
     0
174
     0
 93
       13
 44
0.0
173
     0
291
     0
 45
0.0
1001
ACAD
1000
AcDbSavedByObjectVersion
1070
     0
  0
VISUALSTYLE
  5
3B9
102
{ACAD_REACTORS
330
3AC
102
}
102
{ACAD_XDICTIONARY
360
3E4
102
}
330
3AC
100
AcDbVisualStyle
  2
Thicken
 70
    13
 71
     2
 72
     2
 73
     0
 90
        0
 40
-0.6
 41
-30.0
 62
     5
 63
     7
 74
     1
 91
        4
 64
     7
 65
   257
 75
     1
175
     1
 42
1.0
 92
       12
 66
     7
 43
1.0
 76
     1
 77
     6
 78
     2
 67
     7
 79
     5
170
     0
171
     0
290
     0
174
     0
 93
        1
 44
0.0
173
     0
291
     1
 45
0.0
1001
ACAD
1000
AcDbSavedByObjectVersion
1070
     0
  0
DICTIONARYVAR
  5
3CB
102
{ACAD_REACTORS
330
3C3
102
}
330
3C3
100
DictionaryVariables
280
     0
  1
1:1
  0
DICTIONARYVAR
  5
3C7
102
{ACAD_REACTORS
330
3C3
102
}
330
3C3
100
DictionaryVariables
280
     0
  1
2
  0
DICTIONARYVAR
  5
3C8
102
{ACAD_REACTORS
330
3C3
102
}
330
3C3
100
DictionaryVariables
280
     0
  1
1
  0
DICTIONARYVAR
  5
3C6
102
{ACAD_REACTORS
330
3C3
102
}
330
3C3
100
DictionaryVariables
280
     0
  1
0
  0
DICTIONARY
  5
3EE
330
3BF
100
AcDbDictionary
280
     1
281
     1
  3
ACAD_XREC_ROUNDTRIP
360
3EF
  0
DICTIONARY
  5
3EC
330
3BE
100
AcDbDictionary
280
     1
281
     1
  3
ACAD_XREC_ROUNDTRIP
360
3ED
  0
DICTIONARY
  5
3F0
330
3C0
100
AcDbDictionary
280
     1
281
     1
  3
ACAD_XREC_ROUNDTRIP
360
3F1
  0
DICTIONARY
  5
3D4
330
3B1
100
AcDbDictionary
280
     1
281
     1
  3
ACAD_XREC_ROUNDTRIP
360
3D5
  0
DICTIONARY
  5
3D8
330
3B3
100
AcDbDictionary
280
     1
281
     1
  3
ACAD_XREC_ROUNDTRIP
360
3D9
  0
DICTIONARY
  5
3D6
330
3B2
100
AcDbDictionary
280
     1
281
     1
  3
ACAD_XREC_ROUNDTRIP
360
3D7
  0
DICTIONARY
  5
3DA
330
3B4
100
AcDbDictionary
280
     1
281
     1
  3
ACAD_XREC_ROUNDTRIP
360
3DB
  0
DICTIONARY
  5
3E2
330
3B8
100
AcDbDictionary
280
     1
281
     1
  3
ACAD_XREC_ROUNDTRIP
360
3E3
  0
DICTIONARY
  5
3EA
330
3BC
100
AcDbDictionary
280
     1
281
     1
  3
ACAD_XREC_ROUNDTRIP
360
3EB
  0
DICTIONARY
  5
3DE
330
3B6
100
AcDbDictionary
280
     1
281
     1
  3
ACAD_XREC_ROUNDTRIP
360
3DF
  0
DICTIONARY
  5
3E0
330
3B7
100
AcDbDictionary
280
     1
281
     1
  3
ACAD_XREC_ROUNDTRIP
360
3E1
  0
DICTIONARY
  5
3E8
330
3BB
100
AcDbDictionary
280
     1
281
     1
  3
ACAD_XREC_ROUNDTRIP
360
3E9
  0
DICTIONARY
  5
3CC
330
3AD
100
AcDbDictionary
280
     1
281
     1
  3
ACAD_XREC_ROUNDTRIP
360
3CD
  0
DICTIONARY
  5
3CE
330
3AE
100
AcDbDictionary
280
     1
281
     1
  3
ACAD_XREC_ROUNDTRIP
360
3CF
  0
DICTIONARY
  5
3D0
330
3AF
100
AcDbDictionary
280
     1
281
     1
  3
ACAD_XREC_ROUNDTRIP
360
3D1
  0
DICTIONARY
  5
3D2
330
3B0
100
AcDbDictionary
280
     1
281
     1
  3
ACAD_XREC_ROUNDTRIP
360
3D3
  0
DICTIONARY
  5
3E6
330
3BA
100
AcDbDictionary
280
     1
281
     1
  3
ACAD_XREC_ROUNDTRIP
360
3E7
  0
DICTIONARY
  5
3DC
330
3B5
100
AcDbDictionary
280
     1
281
     1
  3
ACAD_XREC_ROUNDTRIP
360
3DD
  0
DICTIONARY
  5
3E4
330
3B9
100
AcDbDictionary
280
     1
281
     1
  3
ACAD_XREC_ROUNDTRIP
360
3E5
  0
XRECORD
  5
3EF
102
{ACAD_REACTORS
330
3EE
102
}
330
3EE
100
AcDbXrecord
280
     1
102
MATERIAL
148
0.0
149
0.0
149
0.0
 93
        0
 94
      127
282
     0
 72
     1
 77
     1
171
     1
175
     1
179
     1
273
     0
  0
XRECORD
  5
3ED
102
{ACAD_REACTORS
330
3EC
102
}
330
3EC
100
AcDbXrecord
280
     1
102
MATERIAL
148
0.0
149
0.0
149
0.0
 93
        0
 94
      127
282
     0
 72
     1
 77
     1
171
     1
175
     1
179
     1
273
     0
  0
XRECORD
  5
3F1
102
{ACAD_REACTORS
330
3F0
102
}
330
3F0
100
AcDbXrecord
280
     1
102
MATERIAL
148
0.0
149
0.0
149
0.0
 93
        0
 94
      127
282
     0
 72
     1
 77
     1
171
     1
175
     1
179
     1
273
     0
  0
XRECORD
  5
3D5
102
{ACAD_REACTORS
330
3D4
102
}
330
3D4
100
AcDbXrecord
280
     1
102
RTVSPropertyOp0
 70
     1
102
RTVSPropertyOp1
 70
     1
102
RTVSPropertyOp2
 70
     1
102
RTVSPropertyOp3
 70
     1
102
RTVSPropertyOp4
 70
     1
102
RTVSPropertyOp5
 70
     1
102
RTVSPropertyOp6
 70
     1
102
RTVSPropertyOp7
 70
     1
102
RTVSPropertyOp8
 70
     1
102
RTVSPropertyOp9
 70
     1
102
RTVSPropertyOp10
 70
     1
102
RTVSPropertyOp11
 70
     1
102
RTVSPropertyOp12
 70
     1
102
RTVSPropertyOp13
 70
     1
102
RTVSPropertyOp14
 70
     1
102
RTVSPropertyOp15
 70
     1
102
RTVSPropertyOp16
 70
     1
102
RTVSPropertyOp17
 70
     1
102
RTVSPropertyOp18
 70
     1
102
RTVSPropertyOp19
 70
     1
102
RTVSPropertyOp20
 70
     1
102
RTVSPropertyOp21
 70
     1
102
RTVSPropertyOp22
 70
     1
102
RTVSPropertyOp23
 70
     1
102
RTVSPropertyOp24
 70
     1
102
RTVSPropertyOp25
 70
     1
102
RTVSPropertyOp26
 70
     1
102
RTVSPropertyOp27
 70
     1
102
RTVSPropertyOp28
 70
     1
102
RTVSPropertyOp29
 70
     1
102
RTVSPropertyOp30
 70
     1
102
RTVSPropertyOp31
 70
     1
102
RTVSPropertyOp32
 70
     1
  0
XRECORD
  5
3D9
102
{ACAD_REACTORS
330
3D8
102
}
330
3D8
100
AcDbXrecord
280
     1
102
RTVSPropertyOp0
 70
     1
102
RTVSPropertyOp1
 70
     1
102
RTVSPropertyOp2
 70
     1
102
RTVSPropertyOp3
 70
     1
102
RTVSPropertyOp4
 70
     1
102
RTVSPropertyOp5
 70
     1
102
RTVSPropertyOp6
 70
     1
102
RTVSPropertyOp7
 70
     1
102
RTVSPropertyOp8
 70
     1
102
RTVSPropertyOp9
 70
     1
102
RTVSPropertyOp10
 70
     1
102
RTVSPropertyOp11
 70
     1
102
RTVSPropertyOp12
 70
     1
102
RTVSPropertyOp13
 70
     1
102
RTVSPropertyOp14
 70
     1
102
RTVSPropertyOp15
 70
     1
102
RTVSPropertyOp16
 70
     1
102
RTVSPropertyOp17
 70
     1
102
RTVSPropertyOp18
 70
     1
102
RTVSPropertyOp19
 70
     1
102
RTVSPropertyOp20
 70
     1
102
RTVSPropertyOp21
 70
     1
102
RTVSPropertyOp22
 70
     1
102
RTVSPropertyOp23
 70
     1
102
RTVSPropertyOp24
 70
     1
102
RTVSPropertyOp25
 70
     1
102
RTVSPropertyOp26
 70
     1
102
RTVSPropertyOp27
 70
     1
102
RTVSPropertyOp28
 70
     1
102
RTVSPropertyOp29
 70
     1
102
RTVSPropertyOp30
 70
     1
102
RTVSPropertyOp31
 70
     1
102
RTVSPropertyOp32
 70
     1
  0
XRECORD
  5
3D7
102
{ACAD_REACTORS
330
3D6
102
}
330
3D6
100
AcDbXrecord
280
     1
102
RTVSPropertyOp0
 70
     1
102
RTVSPropertyOp1
 70
     1
102
RTVSPropertyOp2
 70
     1
102
RTVSPropertyOp3
 70
     1
102
RTVSPropertyOp4
 70
     1
102
RTVSPropertyOp5
 70
     1
102
RTVSPropertyOp6
 70
     1
102
RTVSPropertyOp7
 70
     1
102
RTVSPropertyOp8
 70
     1
102
RTVSPropertyOp9
 70
     1
102
RTVSPropertyOp10
 70
     1
102
RTVSPropertyOp11
 70
     1
102
RTVSPropertyOp12
 70
     1
102
RTVSPropertyOp13
 70
     1
102
RTVSPropertyOp14
 70
     1
102
RTVSPropertyOp15
 70
     1
102
RTVSPropertyOp16
 70
     1
102
RTVSPropertyOp17
 70
     1
102
RTVSPropertyOp18
 70
     1
102
RTVSPropertyOp19
 70
     1
102
RTVSPropertyOp20
 70
     1
102
RTVSPropertyOp21
 70
     1
102
RTVSPropertyOp22
 70
     1
102
RTVSPropertyOp23
 70
     1
102
RTVSPropertyOp24
 70
     1
102
RTVSPropertyOp25
 70
     1
102
RTVSPropertyOp26
 70
     1
102
RTVSPropertyOp27
 70
     1
102
RTVSPropertyOp28
 70
     1
102
RTVSPropertyOp29
 70
     1
102
RTVSPropertyOp30
 70
     1
102
RTVSPropertyOp31
 70
     1
102
RTVSPropertyOp32
 70
     1
  0
XRECORD
  5
3DB
102
{ACAD_REACTORS
330
3DA
102
}
330
3DA
100
AcDbXrecord
280
     1
102
RTVSPropertyOp0
 70
     1
102
RTVSPropertyOp1
 70
     1
102
RTVSPropertyOp2
 70
     1
102
RTVSPropertyOp3
 70
     1
102
RTVSPropertyOp4
 70
     1
102
RTVSPropertyOp5
 70
     1
102
RTVSPropertyOp6
 70
     1
102
RTVSPropertyOp7
 70
     1
102
RTVSPropertyOp8
 70
     1
102
RTVSPropertyOp9
 70
     1
102
RTVSPropertyOp10
 70
     1
102
RTVSPropertyOp11
 70
     1
102
RTVSPropertyOp12
 70
     1
102
RTVSPropertyOp13
 70
     1
102
RTVSPropertyOp14
 70
     1
102
RTVSPropertyOp15
 70
     1
102
RTVSPropertyOp16
 70
     1
102
RTVSPropertyOp17
 70
     1
102
RTVSPropertyOp18
 70
     1
102
RTVSPropertyOp19
 70
     1
102
RTVSPropertyOp20
 70
     1
102
RTVSPropertyOp21
 70
     1
102
RTVSPropertyOp22
 70
     1
102
RTVSPropertyOp23
 70
     1
102
RTVSPropertyOp24
 70
     1
102
RTVSPropertyOp25
 70
     1
102
RTVSPropertyOp26
 70
     1
102
RTVSPropertyOp27
 70
     1
102
RTVSPropertyOp28
 70
     1
102
RTVSPropertyOp29
 70
     1
102
RTVSPropertyOp30
 70
     1
102
RTVSPropertyOp31
 70
     1
102
RTVSPropertyOp32
 70
     1
  0
XRECORD
  5
3E3
102
{ACAD_REACTORS
330
3E2
102
}
330
3E2
100
AcDbXrecord
280
     1
102
RTVSPropertyOp0
 70
     1
102
RTVSPropertyOp1
 70
     1
102
RTVSPropertyOp2
 70
     1
102
RTVSPropertyOp3
 70
     1
102
RTVSPropertyOp4
 70
     1
102
RTVSPropertyOp5
 70
     1
102
RTVSPropertyOp6
 70
     1
102
RTVSPropertyOp7
 70
     1
102
RTVSPropertyOp8
 70
     1
102
RTVSPropertyOp9
 70
     1
102
RTVSPropertyOp10
 70
     1
102
RTVSPropertyOp11
 70
     1
102
RTVSPropertyOp12
 70
     1
102
RTVSPropertyOp13
 70
     1
102
RTVSPropertyOp14
 70
     1
102
RTVSPropertyOp15
 70
     1
102
RTVSPropertyOp16
 70
     1
102
RTVSPropertyOp17
 70
     1
102
RTVSPropertyOp18
 70
     1
102
RTVSPropertyOp19
 70
     1
102
RTVSPropertyOp20
 70
     1
102
RTVSPropertyOp21
 70
     1
102
RTVSPropertyOp22
 70
     1
102
RTVSPropertyOp23
 70
     1
102
RTVSPropertyOp24
 70
     1
102
RTVSPropertyOp25
 70
     1
102
RTVSPropertyOp26
 70
     1
102
RTVSPropertyOp27
 70
     1
102
RTVSPropertyOp28
 70
     1
102
RTVSPropertyOp29
 70
     1
102
RTVSPropertyOp30
 70
     1
102
RTVSPropertyOp31
 70
     1
102
RTVSPropertyOp32
 70
     1
  0
XRECORD
  5
3EB
102
{ACAD_REACTORS
330
3EA
102
}
330
3EA
100
AcDbXrecord
280
     1
102
RTVSPropertyOp0
 70
     1
102
RTVSPropertyOp1
 70
     1
102
RTVSPropertyOp2
 70
     1
102
RTVSPropertyOp3
 70
     1
102
RTVSPropertyOp4
 70
     1
102
RTVSPropertyOp5
 70
     1
102
RTVSPropertyOp6
 70
     1
102
RTVSPropertyOp7
 70
     1
102
RTVSPropertyOp8
 70
     1
102
RTVSPropertyOp9
 70
     1
102
RTVSPropertyOp10
 70
     1
102
RTVSPropertyOp11
 70
     1
102
RTVSPropertyOp12
 70
     1
102
RTVSPropertyOp13
 70
     1
102
RTVSPropertyOp14
 70
     1
102
RTVSPropertyOp15
 70
     1
102
RTVSPropertyOp16
 70
     1
102
RTVSPropertyOp17
 70
     1
102
RTVSPropertyOp18
 70
     1
102
RTVSPropertyOp19
 70
     1
102
RTVSPropertyOp20
 70
     1
102
RTVSPropertyOp21
 70
     1
102
RTVSPropertyOp22
 70
     1
102
RTVSPropertyOp23
 70
     1
102
RTVSPropertyOp24
 70
     1
102
RTVSPropertyOp25
 70
     1
102
RTVSPropertyOp26
 70
     1
102
RTVSPropertyOp27
 70
     1
102
RTVSPropertyOp28
 70
     1
102
RTVSPropertyOp29
 70
     1
102
RTVSPropertyOp30
 70
     1
102
RTVSPropertyOp31
 70
     1
102
RTVSPropertyOp32
 70
     1
  0
XRECORD
  5
3DF
102
{ACAD_REACTORS
330
3DE
102
}
330
3DE
100
AcDbXrecord
280
     1
102
RTVSPropertyOp0
 70
     1
102
RTVSPropertyOp1
 70
     1
102
RTVSPropertyOp2
 70
     1
102
RTVSPropertyOp3
 70
     1
102
RTVSPropertyOp4
 70
     1
102
RTVSPropertyOp5
 70
     1
102
RTVSPropertyOp6
 70
     1
102
RTVSPropertyOp7
 70
     1
102
RTVSPropertyOp8
 70
     1
102
RTVSPropertyOp9
 70
     1
102
RTVSPropertyOp10
 70
     1
102
RTVSPropertyOp11
 70
     1
102
RTVSPropertyOp12
 70
     1
102
RTVSPropertyOp13
 70
     1
102
RTVSPropertyOp14
 70
     1
102
RTVSPropertyOp15
 70
     1
102
RTVSPropertyOp16
 70
     1
102
RTVSPropertyOp17
 70
     1
102
RTVSPropertyOp18
 70
     1
102
RTVSPropertyOp19
 70
     1
102
RTVSPropertyOp20
 70
     1
102
RTVSPropertyOp21
 70
     1
102
RTVSPropertyOp22
 70
     1
102
RTVSPropertyOp23
 70
     1
102
RTVSPropertyOp24
 70
     1
102
RTVSPropertyOp25
 70
     1
102
RTVSPropertyOp26
 70
     1
102
RTVSPropertyOp27
 70
     1
102
RTVSPropertyOp28
 70
     1
102
RTVSPropertyOp29
 70
     1
102
RTVSPropertyOp30
 70
     1
102
RTVSPropertyOp31
 70
     1
102
RTVSPropertyOp32
 70
     1
  0
XRECORD
  5
3E1
102
{ACAD_REACTORS
330
3E0
102
}
330
3E0
100
AcDbXrecord
280
     1
102
RTVSPropertyOp0
 70
     1
102
RTVSPropertyOp1
 70
     1
102
RTVSPropertyOp2
 70
     1
102
RTVSPropertyOp3
 70
     1
102
RTVSPropertyOp4
 70
     1
102
RTVSPropertyOp5
 70
     1
102
RTVSPropertyOp6
 70
     1
102
RTVSPropertyOp7
 70
     1
102
RTVSPropertyOp8
 70
     1
102
RTVSPropertyOp9
 70
     1
102
RTVSPropertyOp10
 70
     1
102
RTVSPropertyOp11
 70
     1
102
RTVSPropertyOp12
 70
     1
102
RTVSPropertyOp13
 70
     1
102
RTVSPropertyOp14
 70
     1
102
RTVSPropertyOp15
 70
     1
102
RTVSPropertyOp16
 70
     1
102
RTVSPropertyOp17
 70
     1
102
RTVSPropertyOp18
 70
     1
102
RTVSPropertyOp19
 70
     1
102
RTVSPropertyOp20
 70
     1
102
RTVSPropertyOp21
 70
     1
102
RTVSPropertyOp22
 70
     1
102
RTVSPropertyOp23
 70
     1
102
RTVSPropertyOp24
 70
     1
102
RTVSPropertyOp25
 70
     1
102
RTVSPropertyOp26
 70
     1
102
RTVSPropertyOp27
 70
     1
102
RTVSPropertyOp28
 70
     1
102
RTVSPropertyOp29
 70
     1
102
RTVSPropertyOp30
 70
     1
102
RTVSPropertyOp31
 70
     1
102
RTVSPropertyOp32
 70
     1
  0
XRECORD
  5
3E9
102
{ACAD_REACTORS
330
3E8
102
}
330
3E8
100
AcDbXrecord
280
     1
102
RTVSPropertyOp0
 70
     1
102
RTVSPropertyOp1
 70
     1
102
RTVSPropertyOp2
 70
     1
102
RTVSPropertyOp3
 70
     1
102
RTVSPropertyOp4
 70
     1
102
RTVSPropertyOp5
 70
     1
102
RTVSPropertyOp6
 70
     1
102
RTVSPropertyOp7
 70
     1
102
RTVSPropertyOp8
 70
     1
102
RTVSPropertyOp9
 70
     1
102
RTVSPropertyOp10
 70
     1
102
RTVSPropertyOp11
 70
     1
102
RTVSPropertyOp12
 70
     1
102
RTVSPropertyOp13
 70
     1
102
RTVSPropertyOp14
 70
     1
102
RTVSPropertyOp15
 70
     1
102
RTVSPropertyOp16
 70
     1
102
RTVSPropertyOp17
 70
     1
102
RTVSPropertyOp18
 70
     1
102
RTVSPropertyOp19
 70
     1
102
RTVSPropertyOp20
 70
     1
102
RTVSPropertyOp21
 70
     1
102
RTVSPropertyOp22
 70
     1
102
RTVSPropertyOp23
 70
     1
102
RTVSPropertyOp24
 70
     1
102
RTVSPropertyOp25
 70
     1
102
RTVSPropertyOp26
 70
     1
102
RTVSPropertyOp27
 70
     1
102
RTVSPropertyOp28
 70
     1
102
RTVSPropertyOp29
 70
     1
102
RTVSPropertyOp30
 70
     1
102
RTVSPropertyOp31
 70
     1
102
RTVSPropertyOp32
 70
     1
  0
XRECORD
  5
3CD
102
{ACAD_REACTORS
330
3CC
102
}
330
3CC
100
AcDbXrecord
280
     1
102
RTVSPropertyOp0
 70
     1
102
RTVSPropertyOp1
 70
     1
102
RTVSPropertyOp2
 70
     1
102
RTVSPropertyOp3
 70
     1
102
RTVSPropertyOp4
 70
     1
102
RTVSPropertyOp5
 70
     1
102
RTVSPropertyOp6
 70
     1
102
RTVSPropertyOp7
 70
     1
102
RTVSPropertyOp8
 70
     1
102
RTVSPropertyOp9
 70
     1
102
RTVSPropertyOp10
 70
     1
102
RTVSPropertyOp11
 70
     1
102
RTVSPropertyOp12
 70
     1
102
RTVSPropertyOp13
 70
     1
102
RTVSPropertyOp14
 70
     1
102
RTVSPropertyOp15
 70
     1
102
RTVSPropertyOp16
 70
     1
102
RTVSPropertyOp17
 70
     1
102
RTVSPropertyOp18
 70
     1
102
RTVSPropertyOp19
 70
     1
102
RTVSPropertyOp20
 70
     1
102
RTVSPropertyOp21
 70
     1
102
RTVSPropertyOp22
 70
     1
102
RTVSPropertyOp23
 70
     1
102
RTVSPropertyOp24
 70
     1
102
RTVSPropertyOp25
 70
     1
102
RTVSPropertyOp26
 70
     1
102
RTVSPropertyOp27
 70
     1
102
RTVSPropertyOp28
 70
     1
102
RTVSPropertyOp29
 70
     1
102
RTVSPropertyOp30
 70
     1
102
RTVSPropertyOp31
 70
     1
102
RTVSPropertyOp32
 70
     1
  0
XRECORD
  5
3CF
102
{ACAD_REACTORS
330
3CE
102
}
330
3CE
100
AcDbXrecord
280
     1
102
RTVSPropertyOp0
 70
     1
102
RTVSPropertyOp1
 70
     1
102
RTVSPropertyOp2
 70
     1
102
RTVSPropertyOp3
 70
     1
102
RTVSPropertyOp4
 70
     1
102
RTVSPropertyOp5
 70
     1
102
RTVSPropertyOp6
 70
     1
102
RTVSPropertyOp7
 70
     1
102
RTVSPropertyOp8
 70
     1
102
RTVSPropertyOp9
 70
     1
102
RTVSPropertyOp10
 70
     1
102
RTVSPropertyOp11
 70
     1
102
RTVSPropertyOp12
 70
     1
102
RTVSPropertyOp13
 70
     1
102
RTVSPropertyOp14
 70
     1
102
RTVSPropertyOp15
 70
     1
102
RTVSPropertyOp16
 70
     1
102
RTVSPropertyOp17
 70
     1
102
RTVSPropertyOp18
 70
     1
102
RTVSPropertyOp19
 70
     1
102
RTVSPropertyOp20
 70
     1
102
RTVSPropertyOp21
 70
     1
102
RTVSPropertyOp22
 70
     1
102
RTVSPropertyOp23
 70
     1
102
RTVSPropertyOp24
 70
     1
102
RTVSPropertyOp25
 70
     1
102
RTVSPropertyOp26
 70
     1
102
RTVSPropertyOp27
 70
     1
102
RTVSPropertyOp28
 70
     1
102
RTVSPropertyOp29
 70
     1
102
RTVSPropertyOp30
 70
     1
102
RTVSPropertyOp31
 70
     1
102
RTVSPropertyOp32
 70
     1
  0
XRECORD
  5
3D1
102
{ACAD_REACTORS
330
3D0
102
}
330
3D0
100
AcDbXrecord
280
     1
102
RTVSPropertyOp0
 70
     1
102
RTVSPropertyOp1
 70
     1
102
RTVSPropertyOp2
 70
     1
102
RTVSPropertyOp3
 70
     1
102
RTVSPropertyOp4
 70
     1
102
RTVSPropertyOp5
 70
     1
102
RTVSPropertyOp6
 70
     1
102
RTVSPropertyOp7
 70
     1
102
RTVSPropertyOp8
 70
     1
102
RTVSPropertyOp9
 70
     1
102
RTVSPropertyOp10
 70
     1
102
RTVSPropertyOp11
 70
     1
102
RTVSPropertyOp12
 70
     1
102
RTVSPropertyOp13
 70
     1
102
RTVSPropertyOp14
 70
     1
102
RTVSPropertyOp15
 70
     1
102
RTVSPropertyOp16
 70
     1
102
RTVSPropertyOp17
 70
     1
102
RTVSPropertyOp18
 70
     1
102
RTVSPropertyOp19
 70
     1
102
RTVSPropertyOp20
 70
     1
102
RTVSPropertyOp21
 70
     1
102
RTVSPropertyOp22
 70
     1
102
RTVSPropertyOp23
 70
     1
102
RTVSPropertyOp24
 70
     1
102
RTVSPropertyOp25
 70
     1
102
RTVSPropertyOp26
 70
     1
102
RTVSPropertyOp27
 70
     1
102
RTVSPropertyOp28
 70
     1
102
RTVSPropertyOp29
 70
     1
102
RTVSPropertyOp30
 70
     1
102
RTVSPropertyOp31
 70
     1
102
RTVSPropertyOp32
 70
     1
  0
XRECORD
  5
3D3
102
{ACAD_REACTORS
330
3D2
102
}
330
3D2
100
AcDbXrecord
280
     1
102
RTVSPropertyOp0
 70
     1
102
RTVSPropertyOp1
 70
     1
102
RTVSPropertyOp2
 70
     1
102
RTVSPropertyOp3
 70
     1
102
RTVSPropertyOp4
 70
     1
102
RTVSPropertyOp5
 70
     1
102
RTVSPropertyOp6
 70
     1
102
RTVSPropertyOp7
 70
     1
102
RTVSPropertyOp8
 70
     1
102
RTVSPropertyOp9
 70
     1
102
RTVSPropertyOp10
 70
     1
102
RTVSPropertyOp11
 70
     1
102
RTVSPropertyOp12
 70
     1
102
RTVSPropertyOp13
 70
     1
102
RTVSPropertyOp14
 70
     1
102
RTVSPropertyOp15
 70
     1
102
RTVSPropertyOp16
 70
     1
102
RTVSPropertyOp17
 70
     1
102
RTVSPropertyOp18
 70
     1
102
RTVSPropertyOp19
 70
     1
102
RTVSPropertyOp20
 70
     1
102
RTVSPropertyOp21
 70
     1
102
RTVSPropertyOp22
 70
     1
102
RTVSPropertyOp23
 70
     1
102
RTVSPropertyOp24
 70
     1
102
RTVSPropertyOp25
 70
     1
102
RTVSPropertyOp26
 70
     1
102
RTVSPropertyOp27
 70
     1
102
RTVSPropertyOp28
 70
     1
102
RTVSPropertyOp29
 70
     1
102
RTVSPropertyOp30
 70
     1
102
RTVSPropertyOp31
 70
     1
102
RTVSPropertyOp32
 70
     1
  0
XRECORD
  5
3E7
102
{ACAD_REACTORS
330
3E6
102
}
330
3E6
100
AcDbXrecord
280
     1
102
RTVSPropertyOp0
 70
     1
102
RTVSPropertyOp1
 70
     1
102
RTVSPropertyOp2
 70
     1
102
RTVSPropertyOp3
 70
     1
102
RTVSPropertyOp4
 70
     1
102
RTVSPropertyOp5
 70
     1
102
RTVSPropertyOp6
 70
     1
102
RTVSPropertyOp7
 70
     1
102
RTVSPropertyOp8
 70
     1
102
RTVSPropertyOp9
 70
     1
102
RTVSPropertyOp10
 70
     1
102
RTVSPropertyOp11
 70
     1
102
RTVSPropertyOp12
 70
     1
102
RTVSPropertyOp13
 70
     1
102
RTVSPropertyOp14
 70
     1
102
RTVSPropertyOp15
 70
     1
102
RTVSPropertyOp16
 70
     1
102
RTVSPropertyOp17
 70
     1
102
RTVSPropertyOp18
 70
     1
102
RTVSPropertyOp19
 70
     1
102
RTVSPropertyOp20
 70
     1
102
RTVSPropertyOp21
 70
     1
102
RTVSPropertyOp22
 70
     1
102
RTVSPropertyOp23
 70
     1
102
RTVSPropertyOp24
 70
     1
102
RTVSPropertyOp25
 70
     1
102
RTVSPropertyOp26
 70
     1
102
RTVSPropertyOp27
 70
     1
102
RTVSPropertyOp28
 70
     1
102
RTVSPropertyOp29
 70
     1
102
RTVSPropertyOp30
 70
     1
102
RTVSPropertyOp31
 70
     1
102
RTVSPropertyOp32
 70
     1
  0
XRECORD
  5
3DD
102
{ACAD_REACTORS
330
3DC
102
}
330
3DC
100
AcDbXrecord
280
     1
102
RTVSPropertyOp0
 70
     1
102
RTVSPropertyOp1
 70
     1
102
RTVSPropertyOp2
 70
     1
102
RTVSPropertyOp3
 70
     1
102
RTVSPropertyOp4
 70
     1
102
RTVSPropertyOp5
 70
     1
102
RTVSPropertyOp6
 70
     1
102
RTVSPropertyOp7
 70
     1
102
RTVSPropertyOp8
 70
     1
102
RTVSPropertyOp9
 70
     1
102
RTVSPropertyOp10
 70
     1
102
RTVSPropertyOp11
 70
     1
102
RTVSPropertyOp12
 70
     1
102
RTVSPropertyOp13
 70
     1
102
RTVSPropertyOp14
 70
     1
102
RTVSPropertyOp15
 70
     1
102
RTVSPropertyOp16
 70
     1
102
RTVSPropertyOp17
 70
     1
102
RTVSPropertyOp18
 70
     1
102
RTVSPropertyOp19
 70
     1
102
RTVSPropertyOp20
 70
     1
102
RTVSPropertyOp21
 70
     1
102
RTVSPropertyOp22
 70
     1
102
RTVSPropertyOp23
 70
     1
102
RTVSPropertyOp24
 70
     1
102
RTVSPropertyOp25
 70
     1
102
RTVSPropertyOp26
 70
     1
102
RTVSPropertyOp27
 70
     1
102
RTVSPropertyOp28
 70
     1
102
RTVSPropertyOp29
 70
     1
102
RTVSPropertyOp30
 70
     1
102
RTVSPropertyOp31
 70
     1
102
RTVSPropertyOp32
 70
     1
  0
XRECORD
  5
3E5
102
{ACAD_REACTORS
330
3E4
102
}
330
3E4
100
AcDbXrecord
280
     1
102
RTVSPropertyOp0
 70
     1
102
RTVSPropertyOp1
 70
     1
102
RTVSPropertyOp2
 70
     1
102
RTVSPropertyOp3
 70
     1
102
RTVSPropertyOp4
 70
     1
102
RTVSPropertyOp5
 70
     1
102
RTVSPropertyOp6
 70
     1
102
RTVSPropertyOp7
 70
     1
102
RTVSPropertyOp8
 70
     1
102
RTVSPropertyOp9
 70
     1
102
RTVSPropertyOp10
 70
     1
102
RTVSPropertyOp11
 70
     1
102
RTVSPropertyOp12
 70
     1
102
RTVSPropertyOp13
 70
     1
102
RTVSPropertyOp14
 70
     1
102
RTVSPropertyOp15
 70
     1
102
RTVSPropertyOp16
 70
     1
102
RTVSPropertyOp17
 70
     1
102
RTVSPropertyOp18
 70
     1
102
RTVSPropertyOp19
 70
     1
102
RTVSPropertyOp20
 70
     1
102
RTVSPropertyOp21
 70
     1
102
RTVSPropertyOp22
 70
     1
102
RTVSPropertyOp23
 70
     1
102
RTVSPropertyOp24
 70
     1
102
RTVSPropertyOp25
 70
     1
102
RTVSPropertyOp26
 70
     1
102
RTVSPropertyOp27
 70
     1
102
RTVSPropertyOp28
 70
     1
102
RTVSPropertyOp29
 70
     1
102
RTVSPropertyOp30
 70
     1
102
RTVSPropertyOp31
 70
     1
102
RTVSPropertyOp32
 70
     1
  0
ENDSEC
  0
EOF
