  0
SECTION
  2
HEADER
  9
$ACADVER
  1
AC1015
  9
$ACADMAINTVER
 70
     6
  9
$DWGCODEPAGE
  3
ANSI_1252
  9
$INSBASE
 10
0.0
 20
0.0
 30
0.0
  9
$EXTMIN
 10
0.0
 20
0.0
 30
0.0
  9
$EXTMAX
 10
210.0
 20
297.0
 30
0.0
  9
$LIMMIN
 10
0.0
 20
0.0
  9
$LIMMAX
 10
0.0
 20
0.0
  9
$ORTHOMODE
 70
     0
  9
$REGENMODE
 70
     1
  9
$FILLMODE
 70
     1
  9
$QTEXTMODE
 70
     0
  9
$MIRRTEXT
 70
     1
  9
$LTSCALE
 40
1.0
  9
$ATTMODE
 70
     1
  9
$TEXTSIZE
 40
0.0
  9
$TRACEWID
 40
0.05
  9
$TEXTSTYLE
  7
STANDARD
  9
$CLAYER
  8
0
  9
$CELTYPE
  6
CONTINUOUS
  9
$CECOLOR
 62
   256
  9
$CELTSCALE
 40
1.0
  9
$DISPSILH
 70
     0
  9
$DIMSCALE
 40
1.0
  9
$DIMASZ
 40
0.0
  9
$DIMEXO
 40
0.0
  9
$DIMDLI
 40
0.38
  9
$DIMRND
 40
0.0
  9
$DIMDLE
 40
1000.0
  9
$DIMEXE
 40
0.18
  9
$DIMTP
 40
0.0
  9
$DIMTM
 40
0.0
  9
$DIMTXT
 40
3.5
  9
$DIMCEN
 40
0.09
  9
$DIMTSZ
 40
0.0
  9
$DIMTOL
 70
     0
  9
$DIMLIM
 70
     0
  9
$DIMTIH
 70
     1
  9
$DIMTOH
 70
     1
  9
$DIMSE1
 70
     0
  9
$DIMSE2
 70
     0
  9
$DIMTAD
 70
     1
  9
$DIMZIN
 70
     0
  9
$DIMBLK
  1

  9
$DIMASO
 70
     1
  9
$DIMSHO
 70
     1
  9
$DIMPOST
  1

  9
$DIMAPOST
  1

  9
$DIMALT
 70
     0
  9
$DIMALTD
 70
     2
  9
$DIMALTF
 40
0.0394
  9
$DIMLFAC
 40
1.0
  9
$DIMTOFL
 70
     0
  9
$DIMTVP
 40
0.0
  9
$DIMTIX
 70
     0
  9
$DIMSOXD
 70
     0
  9
$DIMSAH
 70
     0
  9
$DIMBLK1
  1

  9
$DIMBLK2
  1

  9
$DIMSTYLE
  2
STANDARD
  9
$DIMCLRD
 70
     0
  9
$DIMCLRE
 70
     0
  9
$DIMCLRT
 70
     0
  9
$DIMTFAC
 40
1.0
  9
$DIMGAP
 40
0.0
  9
$DIMJUST
 70
     0
  9
$DIMSD1
 70
     0
  9
$DIMSD2
 70
     0
  9
$DIMTOLJ
 70
     1
  9
$DIMTZIN
 70
     0
  9
$DIMALTZ
 70
     0
  9
$DIMALTTZ
 70
     0
  9
$DIMUPT
 70
     0
  9
$DIMDEC
 70
     4
  9
$DIMTDEC
 70
     4
  9
$DIMALTU
 70
     2
  9
$DIMALTTD
 70
     2
  9
$DIMTXSTY
  7
STANDARD
  9
$DIMAUNIT
 70
     0
  9
$DIMADEC
 70
     0
  9
$DIMALTRND
 40
0.0
  9
$DIMAZIN
 70
     0
  9
$DIMDSEP
 70
    46
  9
$DIMATFIT
 70
     3
  9
$DIMFRAC
 70
     0
  9
$DIMLDRBLK
  1

  9
$DIMLUNIT
 70
     2
  9
$DIMLWD
 70
    -2
  9
$DIMLWE
 70
    -2
  9
$DIMTMOVE
 70
     2
  9
$LUNITS
 70
     2
  9
$LUPREC
 70
     2
  9
$SKETCHINC
 40
0.1
  9
$FILLETRAD
 40
0.0
  9
$AUNITS
 70
     0
  9
$AUPREC
 70
     2
  9
$MENU
  1
acad
  9
$ELEVATION
 40
0.0
  9
$PELEVATION
 40
0.0
  9
$THICKNESS
 40
0.0
  9
$LIMCHECK
 70
     0
  9
$CHAMFERA
 40
0.0
  9
$CHAMFERB
 40
0.0
  9
$CHAMFERC
 40
0.0
  9
$CHAMFERD
 40
0.0
  9
$SKPOLY
 70
     0
  9
$TDCREATE
 40
2447893.0
  9
$TDUCREATE
 40
2447892.916666667
  9
$TDUPDATE
 40
2458327.54878912
  9
$TDUUPDATE
 40
2458327.465455787
  9
$TDINDWG
 40
0.0
  9
$TDUSRTIMER
 40
0.0
  9
$USRTIMER
 70
     1
  9
$ANGBASE
 50
0.0
  9
$ANGDIR
 70
     0
  9
$PDMODE
 70
     0
  9
$PDSIZE
 40
-1.0
  9
$PLINEWID
 40
0.0
  9
$SPLFRAME
 70
     0
  9
$SPLINETYPE
 70
     6
  9
$SPLINESEGS
 70
     8
  9
$HANDSEED
  5
3E8
  9
$SURFTAB1
 70
     6
  9
$SURFTAB2
 70
     6
  9
$SURFTYPE
 70
     6
  9
$SURFU
 70
     6
  9
$SURFV
 70
     6
  9
$UCSBASE
  2

  9
$UCSNAME
  2

  9
$UCSORG
 10
0.0
 20
0.0
 30
0.0
  9
$UCSXDIR
 10
1.0
 20
0.0
 30
0.0
  9
$UCSYDIR
 10
0.0
 20
1.0
 30
0.0
  9
$UCSORTHOREF
  2

  9
$UCSORTHOVIEW
 70
     0
  9
$UCSORGTOP
 10
0.0
 20
0.0
 30
0.0
  9
$UCSORGBOTTOM
 10
0.0
 20
0.0
 30
0.0
  9
$UCSORGLEFT
 10
0.0
 20
0.0
 30
0.0
  9
$UCSORGRIGHT
 10
0.0
 20
0.0
 30
0.0
  9
$UCSORGFRONT
 10
0.0
 20
0.0
 30
0.0
  9
$UCSORGBACK
 10
0.0
 20
0.0
 30
0.0
  9
$PUCSBASE
  2

  9
$PUCSNAME
  2

  9
$PUCSORG
 10
0.0
 20
0.0
 30
0.0
  9
$PUCSXDIR
 10
1.0
 20
0.0
 30
0.0
  9
$PUCSYDIR
 10
0.0
 20
1.0
 30
0.0
  9
$PUCSORTHOREF
  2

  9
$PUCSORTHOVIEW
 70
     0
  9
$PUCSORGTOP
 10
0.0
 20
0.0
 30
0.0
  9
$PUCSORGBOTTOM
 10
0.0
 20
0.0
 30
0.0
  9
$PUCSORGLEFT
 10
0.0
 20
0.0
 30
0.0
  9
$PUCSORGRIGHT
 10
0.0
 20
0.0
 30
0.0
  9
$PUCSORGFRONT
 10
0.0
 20
0.0
 30
0.0
  9
$PUCSORGBACK
 10
0.0
 20
0.0
 30
0.0
  9
$USERI1
 70
     0
  9
$USERI2
 70
     0
  9
$USERI3
 70
     0
  9
$USERI4
 70
     0
  9
$USERI5
 70
     0
  9
$USERR1
 40
0.0
  9
$USERR2
 40
0.0
  9
$USERR3
 40
0.0
  9
$USERR4
 40
0.0
  9
$USERR5
 40
0.0
  9
$WORLDVIEW
 70
     1
  9
$SHADEDGE
 70
     3
  9
$SHADEDIF
 70
    70
  9
$TILEMODE
 70
     1
  9
$MAXACTVP
 70
    16
  9
$PINSBASE
 10
0.0
 20
0.0
 30
0.0
  9
$PLIMCHECK
 70
     0
  9
$PEXTMIN
 10
1.000000000000000E+20
 20
1.000000000000000E+20
 30
1.000000000000000E+20
  9
$PEXTMAX
 10
-1.000000000000000E+20
 20
-1.000000000000000E+20
 30
-1.000000000000000E+20
  9
$PLIMMIN
 10
0.0
 20
0.0
  9
$PLIMMAX
 10
12.0
 20
9.0
  9
$UNITMODE
 70
     0
  9
$VISRETAIN
 70
     0
  9
$PLINEGEN
 70
     1
  9
$PSLTSCALE
 70
     1
  9
$TREEDEPTH
 70
  3020
  9
$CMLSTYLE
  2
STANDARD
  9
$CMLJUST
 70
     0
  9
$CMLSCALE
 40
1.0
  9
$PROXYGRAPHICS
 70
     1
  9
$MEASUREMENT
 70
     0
  9
$CELWEIGHT
370
    -1
  9
$ENDCAPS
280
     0
  9
$JOINSTYLE
280
     0
  9
$LWDISPLAY
290
     0
  9
$INSUNITS
 70
     0
  9
$HYPERLINKBASE
  1

  9
$STYLESHEET
  1

  9
$XEDIT
290
     1
  9
$CEPSNTYPE
380
     0
  9
$PSTYLEMODE
290
     1
  9
$FINGERPRINTGUID
  2
{405DCC54-6A20-4C90-AE03-AF16733E7AFD}
  9
$VERSIONGUID
  2
{FAEB1C32-E019-11D5-929B-00C0DF256EC4}
  9
$EXTNAMES
290
     1
  9
$PSVPSCALE
 40
0.0
  9
$OLESTARTUP
290
     0
  0
ENDSEC
  0
SECTION
  2
CLASSES
  0
CLASS
  1
LWPOLYLINE
  2
AcDbPolyline
  3
ObjectDBX Classes
 90
        0
280
     0
281
     1
  0
CLASS
  1
IMAGE
  2
AcDbRasterImage
  3
ISM
 90
      127
280
     0
281
     1
  0
CLASS
  1
OLE2FRAME
  2
AcDbOle2Frame
  3
ObjectDBX Classes
 90
        0
280
     0
281
     1
  0
CLASS
  1
HATCH
  2
AcDbHatch
  3
ObjectDBX Classes
 90
        0
280
     0
281
     1
  0
CLASS
  1
DICTIONARYVAR
  2
AcDbDictionaryVar
  3
ObjectDBX Classes
 90
        0
280
     0
281
     0
  0
CLASS
  1
RASTERVARIABLES
  2
AcDbRasterVariables
  3
ISM
 90
        0
280
     0
281
     0
  0
CLASS
  1
IMAGEDEF
  2
AcDbRasterImageDef
  3
ISM
 90
        0
280
     0
281
     0
  0
CLASS
  1
IMAGEDEF_REACTOR
  2
AcDbRasterImageDefReactor
  3
ISM
 90
        1
280
     0
281
     0
  0
CLASS
  1
IDBUFFER
  2
AcDbIdBuffer
  3
ObjectDBX Classes
 90
        0
280
     0
281
     0
  0
CLASS
  1
SPATIAL_FILTER
  2
AcDbSpatialFilter
  3
ObjectDBX Classes
 90
        0
280
     0
281
     0
  0
CLASS
  1
XRECORD
  2
AcDbXrecord
  3
ObjectDBX Classes
 90
        0
280
     0
281
     0
  0
CLASS
  1
SORTENTSTABLE
  2
AcDbSortentsTable
  3
ObjectDBX Classes
 90
        0
280
     0
281
     0
  0
CLASS
  1
LAYER_INDEX
  2
AcDbLayerIndex
  3
ObjectDBX Classes
 90
        0
280
     0
281
     0
  0
CLASS
  1
SPATIAL_INDEX
  2
AcDbSpatialIndex
  3
AutoCAD 2000
 90
        0
280
     0
281
     0
  0
CLASS
  1
OBJECT_PTR
  2
CAseDLPNTableRecord
  3
ASE-LPNTableRecord
 90
        1
280
     0
281
     0
  0
CLASS
  1
LAYOUT
  2
AcDbLayout
  3
ObjectDBX Classes
 90
        0
280
     0
281
     0
  0
CLASS
  1
PLOTSETTINGS
  2
AcDbPlotSettings
  3
ObjectDBX Classes
 90
        0
280
     0
281
     0
  0
CLASS
  1
ACDBDICTIONARYWDFLT
  2
AcDbDictionaryWithDefault
  3
ObjectDBX Classes
 90
        0
280
     0
281
     0
  0
CLASS
  1
ACDBPLACEHOLDER
  2
AcDbPlaceHolder
  3
ObjectDBX Classes
 90
        0
280
     0
281
     0
  0
CLASS
  1
VBA_PROJECT
  2
AcDbVbaProject
  3
ObjectDBX Classes
 90
        0
280
     0
281
     0
  0
CLASS
  1
WIPEOUT
  2
AcDbWipeout
  3
WipeOut|AutoCAD Express Tool|expresstools@autodesk.com
 90
      127
280
     0
281
     1
  0
CLASS
  1
WIPEOUTVARIABLES
  2
AcDbWipeoutVariables
  3
WipeOut|AutoCAD Express Tool|expresstools@autodesk.com
 90
        0
280
     0
281
     0
  0
CLASS
  1
RTEXT
  2
RText
  3
RText|AutoCAD Express Tool|expresstools@autodesk.com
 90
        0
280
     0
281
     1
  0
CLASS
  1
ARCALIGNEDTEXT
  2
AcDbArcAlignedText
  3
ATEXT|AutoCAD Express Tool|expresstools@autodesk.com
 90
        0
280
     0
281
     1
  0
CLASS
  1
SCALE
  2
AcDbScale
  3
ObjectDBX Classes
 90
     1153
280
     0
281
     0
  0
CLASS
  1
VISUALSTYLE
  2
AcDbVisualStyle
  3
ObjectDBX Classes
 90
     4095
280
     0
281
     0
  0
CLASS
  1
MATERIAL
  2
AcDbMaterial
  3
ObjectDBX Classes
 90
     1153
280
     0
281
     0
  0
ENDSEC
  0
SECTION
  2
TABLES
  0
TABLE
  2
VPORT
  5
7
102
{ACAD_XDICTIONARY
360
3AD
102
}
330
0
100
AcDbSymbolTable
 70
     1
  0
VPORT
  5
15
330
7
100
AcDbSymbolTableRecord
100
AcDbViewportTableRecord
  2
*ACTIVE
 70
     0
 10
0.0
 20
0.0
 11
1.0
 21
1.0
 12
105.0
 22
148.5
 13
0.0
 23
0.0
 14
1.0
 24
1.0
 15
0.0
 25
0.0
 16
0.0
 26
0.0
 36
1.0
 17
0.0
 27
0.0
 37
0.0
 40
297.0
 41
1.4142857143
 42
50.0
 43
0.0
 44
0.0
 50
0.0
 51
0.0
 71
     0
 72
  2000
 73
     1
 74
     1
 75
     0
 76
     0
 77
     0
 78
     0
281
     0
 65
     1
110
0.0
120
0.0
130
0.0
111
1.0
121
0.0
131
0.0
112
0.0
122
1.0
132
0.0
 79
     0
146
0.0
  0
ENDTAB
  0
TABLE
  2
LTYPE
  5
4
330
0
100
AcDbSymbolTable
 70
     6
  0
LTYPE
  5
11
330
4
100
AcDbSymbolTableRecord
100
AcDbLinetypeTableRecord
  2
BYBLOCK
 70
     0
  3

 72
    65
 73
     0
 40
0.0
  0
LTYPE
  5
12
330
4
100
AcDbSymbolTableRecord
100
AcDbLinetypeTableRecord
  2
BYLAYER
 70
     0
  3

 72
    65
 73
     0
 40
0.0
  0
LTYPE
  5
13
330
4
100
AcDbSymbolTableRecord
100
AcDbLinetypeTableRecord
  2
CONTINUOUS
 70
     0
  3
Solid line
 72
    65
 73
     0
 40
0.0
  0
LTYPE
  5
1D
330
4
100
AcDbSymbolTableRecord
100
AcDbLinetypeTableRecord
  2
HIDDEN
 70
     0
  3
Hidden __ __ __ __ __ __ __ __ __ __ __ __ __ __
 72
    65
 73
     2
 40
1.905
 49
1.27
 74
     0
 49
-0.635
 74
     0
  0
LTYPE
  5
1E
330
4
100
AcDbSymbolTableRecord
100
AcDbLinetypeTableRecord
  2
PHANTOM
 70
     0
  3
Phantom ______  __  __  ______  __  __  ______
 72
    65
 73
     6
 40
12.7
 49
6.35
 74
     0
 49
-1.27
 74
     0
 49
1.27
 74
     0
 49
-1.27
 74
     0
 49
1.27
 74
     0
 49
-1.27
 74
     0
  0
LTYPE
  5
1F
330
4
100
AcDbSymbolTableRecord
100
AcDbLinetypeTableRecord
  2
CENTER
 70
     0
  3
Center ____ _ ____ _ ____ _ ____ _ ____ _ ____
 72
    65
 73
     4
 40
10.16
 49
6.35
 74
     0
 49
-1.27
 74
     0
 49
1.27
 74
     0
 49
-1.27
 74
     0
  0
LTYPE
  5
20
330
4
100
AcDbSymbolTableRecord
100
AcDbLinetypeTableRecord
  2
CENTERX2
 70
     0
  3
Center (2x) ________  __  ________  __  _____
 72
    65
 73
     4
 40
20.32
 49
12.7
 74
     0
 49
-2.54
 74
     0
 49
2.54
 74
     0
 49
-2.54
 74
     0
  0
LTYPE
  5
21
330
4
100
AcDbSymbolTableRecord
100
AcDbLinetypeTableRecord
  2
DOT2
 70
     0
  3
Dot (.5x) ........................................
 72
    65
 73
     2
 40
0.635
 49
0.0
 74
     0
 49
-0.635
 74
     0
  0
LTYPE
  5
3D7
330
5
100
AcDbSymbolTableRecord
100
AcDbLinetypeTableRecord
  2
DASH
 70
     0
  3
DASH _ _ _ _ _
 72
    65
 73
     2
 40
0.75
 49
0.40
 74
     0
 49
-0.35
 74
     0
  0
LTYPE
  5
3D8
330
5
100
AcDbSymbolTableRecord
100
AcDbLinetypeTableRecord
  2
LONGDASH_DASH
 70
     0
  3
LONGDASH_DASH __ . __ . __
 72
    65
 73
     4
 40
0.85
 49
0.40
 74
     0
 49
-0.20
 74
     0
 49
0.05
 74
     0
 49
-0.20
 74
     0
  0
LTYPE
  5
3D9
330
5
100
AcDbSymbolTableRecord
100
AcDbLinetypeTableRecord
  2
LONGDASH_DASH_DASH
 70
     0
  3
LONGDASH_DASH_DASH __ . . __ . . __
 72
    65
 73
     6
 40
1.10
 49
0.40
 74
     0
 49
-0.20
 74
     0
 49
0.05
 74
     0
 49
-0.20
 74
     0
 49
0.05
 74
     0
 49
-0.20
 74
     0
  0
ENDTAB
  0
TABLE
  2
LAYER
  5
2
330
0
100
AcDbSymbolTable
 70
     8
  0
LAYER
  5
23
330
2
100
AcDbSymbolTableRecord
100
AcDbLayerTableRecord
  2
DEFPOINTS
 70
     0
 62
     7
  6
CONTINUOUS
290
     0
370
    -3
390
0
  0
LAYER
  5
3DA
330
2
100
AcDbSymbolTableRecord
100
AcDbLayerTableRecord
  2
0
 70
     0
 62
     -1
  6
CONTINUOUS
370
    -3
390
F
  0
LAYER
  5
3DB
330
2
100
AcDbSymbolTableRecord
100
AcDbLayerTableRecord
  2
1
 70
     0
 62
     4
  6
CONTINUOUS
370
    50
390
F
  0
LAYER
  5
3DC
330
2
100
AcDbSymbolTableRecord
100
AcDbLayerTableRecord
  2
2
 70
     0
 62
     7
  6
CONTINUOUS
370
    25
390
F
  0
LAYER
  5
3DD
330
2
100
AcDbSymbolTableRecord
100
AcDbLayerTableRecord
  2
3
 70
     0
 62
     1
  6
DASH
370
    35
390
F
  0
LAYER
  5
3DE
330
2
100
AcDbSymbolTableRecord
100
AcDbLayerTableRecord
  2
4
 70
     0
 62
     2
  6
LONGDASH_DASH
370
    25
390
F
  0
LAYER
  5
3DF
330
2
100
AcDbSymbolTableRecord
100
AcDbLayerTableRecord
  2
6
 70
     0
 62
     5
  6
CONTINUOUS
370
    -3
390
F
  0
LAYER
  5
3E0
330
2
100
AcDbSymbolTableRecord
100
AcDbLayerTableRecord
  2
CUT
 70
     0
 62
     1
  6
CONTINUOUS
370
    25
390
F
  0
LAYER
  5
3E1
330
2
100
AcDbSymbolTableRecord
100
AcDbLayerTableRecord
  2
NOCUT
 70
     0
 62
     7
  6
CONTINUOUS
370
    25
390
F
  0
LAYER
  5
3E2
330
2
100
AcDbSymbolTableRecord
100
AcDbLayerTableRecord
  2
SK1
 70
     0
 62
     4
  6
CONTINUOUS
370
    50
390
F
  0
LAYER
  5
3E3
330
2
100
AcDbSymbolTableRecord
100
AcDbLayerTableRecord
  2
SK2
 70
     0
 62
     7
  6
CONTINUOUS
370
    25
390
F
  0
LAYER
  5
3E4
330
2
100
AcDbSymbolTableRecord
100
AcDbLayerTableRecord
  2
SK3
 70
     0
 62
     1
  6
DASH
370
    35
390
F
  0
LAYER
  5
3E5
330
2
100
AcDbSymbolTableRecord
100
AcDbLayerTableRecord
  2
SK4
 70
     0
 62
     2
  6
LONGDASH_DASH
370
    25
390
F
  0
LAYER
  5
3E6
330
2
100
AcDbSymbolTableRecord
100
AcDbLayerTableRecord
  2
SK6
 70
     0
 62
     5
  6
CONTINUOUS
370
    -3
390
F
  0
LAYER
  5
3E7
330
2
100
AcDbSymbolTableRecord
100
AcDbLayerTableRecord
  2
INFTOTAL
 70
     0
 62
     9
  6
CONTINUOUS
370
    18
390
F
  0
ENDTAB
  0
TABLE
  2
STYLE
  5
3
330
0
100
AcDbSymbolTable
 70
     2
  0
STYLE
  5
17
330
3
100
AcDbSymbolTableRecord
100
AcDbTextStyleTableRecord
  2
STANDARD
 70
     0
 40
0.0
 41
1.0
 50
0.0
 71
     0
 42
0.2
  3
txt
  4

  0
STYLE
  5
3A5
330
3
100
AcDbSymbolTableRecord
100
AcDbTextStyleTableRecord
  2
BMG_Text
 70
     0
 40
3.5
 41
1.0
 50
0.0
 71
     0
 42
0.0
  3
monos.ttf
  4

1001
ACAD
1000
Monospac821 BT
1071
       49
  0
ENDTAB
  0
TABLE
  2
VIEW
  5
5
330
0
100
AcDbSymbolTable
 70
     0
  0
ENDTAB
  0
TABLE
  2
UCS
  5
6
330
0
100
AcDbSymbolTable
 70
     0
  0
ENDTAB
  0
TABLE
  2
APPID
  5
8
330
0
100
AcDbSymbolTable
 70
     1
  0
APPID
  5
16
330
8
100
AcDbSymbolTableRecord
100
AcDbRegAppTableRecord
  2
ACAD
 70
     0
  0
ENDTAB
  0
TABLE
  2
DIMSTYLE
  5
9
330
0
100
AcDbSymbolTable
 70
     1
100
AcDbDimStyleTable
  0
DIMSTYLE
105
18
330
9
100
AcDbSymbolTableRecord
100
AcDbDimStyleTableRecord
  2
STANDARD
 70
     0
178
     0
340
17
  0
ENDTAB
  0
TABLE
  2
BLOCK_RECORD
  5
1
330
0
100
AcDbSymbolTable
 70
     0
  0
BLOCK_RECORD
  5
A
330
1
100
AcDbSymbolTableRecord
100
AcDbBlockTableRecord
  2
*MODEL_SPACE
340
38E
  0
BLOCK_RECORD
  5
B
330
1
100
AcDbSymbolTableRecord
100
AcDbBlockTableRecord
  2
*PAPER_SPACE
340
38F
  0
ENDTAB
  0
ENDSEC
  0
SECTION
  2
BLOCKS
  0
BLOCK
  5
D
330
A
100
AcDbEntity
  8
0
100
AcDbBlockBegin
  2
*MODEL_SPACE
 70
     0
 10
0.0
 20
0.0
 30
0.0
  3
*MODEL_SPACE
  1

  0
ENDBLK
  5
E
330
A
100
AcDbEntity
  8
0
100
AcDbBlockEnd
  0
BLOCK
  5
F
330
B
100
AcDbEntity
 67
     1
  8
0
100
AcDbBlockBegin
  2
*PAPER_SPACE
 70
     0
 10
0.0
 20
0.0
 30
0.0
  3
*PAPER_SPACE
  1

  0
ENDBLK
  5
10
330
B
100
AcDbEntity
 67
     1
  8
0
100
AcDbBlockEnd
  0
ENDSEC
  0
SECTION
  2
ENTITIES
  0
ARC
  5
29
330
A
100
AcDbEntity
  8
1
  6
CONTINUOUS
370
    50
100
AcDbCircle
 10
120.7768195091
 20
134.5335006756
 30
0.0
 40
0.5
100
AcDbArc
 50
66.4218215218
 51
90.0
  0
ARC
  5
2A
330
A
100
AcDbEntity
  8
1
  6
CONTINUOUS
370
    50
100
AcDbCircle
 10
120.7768195091
 20
204.7835006756
 30
0.0
 40
0.5
100
AcDbArc
 50
270.0
 51
293.5781784782001
  0
LINE
  5
2B
330
A
100
AcDbEntity
  8
1
  6
CONTINUOUS
370
    50
100
AcDbLine
 10
119.4768195091
 20
204.5835006756
 30
0.0
 11
19.7301595732
 21
190.0371127683
 31
0.0
  0
LINE
  5
2C
330
A
100
AcDbEntity
  8
1
  6
CONTINUOUS
370
    50
100
AcDbLine
 10
19.7301595732
 20
149.2798885829
 30
0.0
 11
119.4768195091
 21
134.7335006756
 31
0.0
  0
LINE
  5
2D
330
A
100
AcDbEntity
  8
1
  6
CONTINUOUS
370
    50
100
AcDbLine
 10
119.4768195091
 20
134.7335006756
 30
0.0
 11
120.0197097857
 21
134.9866545691
 31
0.0
  0
LINE
  5
2E
330
A
100
AcDbEntity
  8
1
  6
CONTINUOUS
370
    50
100
AcDbLine
 10
120.0197097857
 20
204.3303467821
 30
0.0
 11
119.4768195091
 21
204.5835006756
 31
0.0
  0
ARC
  5
2F
330
A
100
AcDbEntity
  8
1
  6
CONTINUOUS
370
    50
100
AcDbCircle
 10
120.2310189166
 20
134.5335006756
 30
0.0
 40
0.5
100
AcDbArc
 50
90.0
 51
115.0
  0
ARC
  5
30
330
A
100
AcDbEntity
  8
1
  6
CONTINUOUS
370
    50
100
AcDbCircle
 10
120.2310189166
 20
204.7835006756
 30
0.0
 40
0.5
100
AcDbArc
 50
245.0
 51
270.0
  0
LINE
  5
31
330
A
100
AcDbEntity
  8
1
  6
CONTINUOUS
370
    50
100
AcDbLine
 10
120.2310189166
 20
135.0335006756
 30
0.0
 11
120.7768195091
 21
135.0335006756
 31
0.0
  0
LINE
  5
32
330
A
100
AcDbEntity
  8
1
  6
CONTINUOUS
370
    50
100
AcDbLine
 10
120.7768195091
 20
204.2835006756
 30
0.0
 11
120.2310189166
 21
204.2835006756
 31
0.0
  0
ARC
  5
33
330
A
100
AcDbEntity
  8
1
  6
CONTINUOUS
370
    50
100
AcDbCircle
 10
143.5268195091
 20
143.9085006756
 30
0.0
 40
5.0
100
AcDbArc
 50
79.0472158011
 51
180.0
  0
ARC
  5
34
330
A
100
AcDbEntity
  8
1
  6
CONTINUOUS
370
    50
100
AcDbCircle
 10
143.5268195091
 20
195.4085006756
 30
0.0
 40
5.0
100
AcDbArc
 50
180.0
 51
280.9527841989
  0
LINE
  5
35
330
A
100
AcDbEntity
  8
1
  6
CONTINUOUS
370
    50
100
AcDbLine
 10
144.4768195091
 20
148.8299068002
 30
0.0
 11
198.4436914051
 21
153.0771917304
 31
0.0
  0
LINE
  5
36
330
A
100
AcDbEntity
  8
1
  6
CONTINUOUS
370
    50
100
AcDbLine
 10
198.4436914051
 20
186.2398096207
 30
0.0
 11
144.4768195091
 21
190.4870945509
 31
0.0
  0
ARC
  5
37
330
A
100
AcDbEntity
  8
1
  6
CONTINUOUS
370
    50
100
AcDbCircle
 10
20.1268195091
 20
151.4958422492
 30
0.0
 40
2.25
100
AcDbArc
 50
180.0
 51
258.0
  0
ARC
  5
38
330
A
100
AcDbEntity
  8
1
  6
CONTINUOUS
370
    50
100
AcDbCircle
 10
20.1268195091
 20
187.821159102
 30
0.0
 40
2.25
100
AcDbArc
 50
102.0
 51
180.0
  0
ARC
  5
39
330
A
100
AcDbEntity
  8
1
  6
CONTINUOUS
370
    50
100
AcDbCircle
 10
197.4768195091
 20
154.8279512047
 30
0.0
 40
2.0
100
AcDbArc
 50
298.9100507074999
 51
0.0
  0
ARC
  5
3A
330
A
100
AcDbEntity
  8
1
  6
CONTINUOUS
370
    50
100
AcDbCircle
 10
197.4768195091
 20
184.4890501465
 30
0.0
 40
2.0
100
AcDbArc
 50
0.0
 51
61.08994929250002
  0
LINE
  5
3B
330
A
100
AcDbEntity
  8
1
  6
CONTINUOUS
370
    50
100
AcDbLine
 10
138.0268195091
 20
122.8991633734
 30
0.0
 11
138.0268195091
 21
199.5085006756
 31
0.0
  0
LINE
  5
3C
330
A
100
AcDbEntity
  8
1
  6
CONTINUOUS
370
    50
100
AcDbLine
 10
138.0268195091
 20
199.5085006756
 30
0.0
 11
138.5268195091
 21
199.5085006756
 31
0.0
  0
LINE
  5
3D
330
A
100
AcDbEntity
  8
1
  6
CONTINUOUS
370
    50
100
AcDbLine
 10
138.5268195091
 20
199.5085006756
 30
0.0
 11
138.5268195091
 21
123.3027466837
 31
0.0
  0
LINE
  5
3E
330
A
100
AcDbEntity
  8
1
  6
CONTINUOUS
370
    50
100
AcDbLine
 10
138.5268195091
 20
123.3027466837
 30
0.0
 11
138.0268195091
 21
122.8991633734
 31
0.0
  0
LINE
  5
3F
330
A
100
AcDbEntity
  8
1
  6
CONTINUOUS
370
    50
100
AcDbLine
 10
128.6518195091
 20
199.5085006756
 30
0.0
 11
127.3436580017
 21
199.5085006756
 31
0.0
  0
LINE
  5
40
330
A
100
AcDbEntity
  8
1
  6
CONTINUOUS
370
    50
100
AcDbLine
 10
128.6518195091
 20
125.0117251969
 30
0.0
 11
128.6518195091
 21
199.5085006756
 31
0.0
  0
LWPOLYLINE
  5
41
330
A
100
AcDbEntity
  8
1
  6
CONTINUOUS
370
    50
100
AcDbPolyline
 90
        3
 70
   128
 43
0.0
 10
127.9505774157
 20
123.7491633756
 10
127.99788958
 20
123.8342656851
 10
128.6518195091
 20
125.0117251969
  0
LINE
  5
46
330
A
100
AcDbEntity
  8
1
  6
CONTINUOUS
370
    50
100
AcDbLine
 10
127.3436580017
 20
122.8991633734
 30
0.0
 11
127.9505774157
 21
123.7491633756
 31
0.0
  0
LINE
  5
47
330
A
100
AcDbEntity
  8
1
  6
CONTINUOUS
370
    50
100
AcDbLine
 10
127.3436580017
 20
122.8991633734
 30
0.0
 11
127.3436580017
 21
199.5085006756
 31
0.0
  0
LINE
  5
48
330
A
100
AcDbEntity
  8
1
  6
CONTINUOUS
370
    50
100
AcDbLine
 10
132.5018195091
 20
199.5085006756
 30
0.0
 11
132.5018195091
 21
125.0117251969
 31
0.0
  0
LINE
  5
49
330
A
100
AcDbEntity
  8
1
  6
CONTINUOUS
370
    50
100
AcDbLine
 10
133.8099810166
 20
199.5085006756
 30
0.0
 11
132.5018195091
 21
199.5085006756
 31
0.0
  0
LINE
  5
4A
330
A
100
AcDbEntity
  8
1
  6
CONTINUOUS
370
    50
100
AcDbLine
 10
133.8099810166
 20
199.5085006756
 30
0.0
 11
133.8099810166
 21
122.8991633734
 31
0.0
  0
LINE
  5
4B
330
A
100
AcDbEntity
  8
1
  6
CONTINUOUS
370
    50
100
AcDbLine
 10
133.2030616026
 20
123.7491633756
 30
0.0
 11
133.8099810166
 21
122.8991633734
 31
0.0
  0
LINE
  5
4C
330
A
100
AcDbEntity
  8
1
  6
CONTINUOUS
370
    50
100
AcDbLine
 10
132.5018195091
 20
125.0117251969
 30
0.0
 11
133.2030616026
 21
123.7491633756
 31
0.0
  0
LINE
  5
4D
330
A
100
AcDbEntity
  8
1
  6
CONTINUOUS
370
    50
100
AcDbLine
 10
138.0268195091
 20
199.5085006756
 30
0.0
 11
133.8099810166
 21
199.5085006756
 31
0.0
  0
LINE
  5
4E
330
A
100
AcDbEntity
  8
1
  6
CONTINUOUS
370
    50
100
AcDbLine
 10
133.8099810166
 20
122.8991633734
 30
0.0
 11
138.0268195091
 21
122.8991633734
 31
0.0
  0
LINE
  5
4F
330
A
100
AcDbEntity
  8
1
  6
CONTINUOUS
370
    50
100
AcDbLine
 10
122.326819507
 20
122.8991633734
 30
0.0
 11
127.3436580017
 21
122.8991633734
 31
0.0
  0
LINE
  5
50
330
A
100
AcDbEntity
  8
1
  6
CONTINUOUS
370
    50
100
AcDbLine
 10
121.4768195091
 20
123.1566391537
 30
0.0
 11
122.326819507
 21
122.8991633734
 31
0.0
  0
LINE
  5
51
330
A
100
AcDbEntity
  8
1
  6
CONTINUOUS
370
    50
100
AcDbLine
 10
121.4768195091
 20
199.5085006756
 30
0.0
 11
121.4768195091
 21
123.1566391537
 31
0.0
  0
LINE
  5
52
330
A
100
AcDbEntity
  8
1
  6
CONTINUOUS
370
    50
100
AcDbLine
 10
127.3436580017
 20
199.5085006756
 30
0.0
 11
121.4768195091
 21
199.5085006756
 31
0.0
  0
LINE
  5
53
330
A
100
AcDbEntity
  8
1
  6
CONTINUOUS
370
    50
100
AcDbLine
 10
120.9768195091
 20
123.8420393871
 30
0.0
 11
120.9768195091
 21
199.5085006756
 31
0.0
  0
LINE
  5
54
330
A
100
AcDbEntity
  8
1
  6
CONTINUOUS
370
    50
100
AcDbLine
 10
120.9768195091
 20
199.5085006756
 30
0.0
 11
121.4768195091
 21
199.5085006756
 31
0.0
  0
LINE
  5
55
330
A
100
AcDbEntity
  8
1
  6
CONTINUOUS
370
    50
100
AcDbLine
 10
121.4768195091
 20
123.1566391537
 30
0.0
 11
120.9768195091
 21
123.8420393871
 31
0.0
  0
ARC
  5
56
330
A
100
AcDbEntity
  8
1
  6
CONTINUOUS
370
    50
100
AcDbCircle
 10
129.1633010265
 20
125.4992929551
 30
0.0
 40
0.5115703146
100
AcDbArc
 50
91.28603577280002
 51
181.0675571358
  0
LINE
  5
57
330
A
100
AcDbEntity
  8
1
  6
CONTINUOUS
370
    50
100
AcDbLine
 10
128.6518195091
 20
199.5085006756
 30
0.0
 11
129.1518195091
 21
199.5085006756
 31
0.0
  0
LINE
  5
58
330
A
100
AcDbEntity
  8
1
  6
CONTINUOUS
370
    50
100
AcDbLine
 10
129.1518195091
 20
199.5085006756
 30
0.0
 11
129.1518195091
 21
126.0107344097
 31
0.0
  0
ARC
  5
59
330
A
100
AcDbEntity
  8
1
  6
CONTINUOUS
370
    50
100
AcDbCircle
 10
131.9919265832
 20
125.5008175949
 30
0.0
 40
0.5100127724
100
AcDbArc
 50
358.7578664214
 51
88.8885406702
  0
LINE
  5
5A
330
A
100
AcDbEntity
  8
1
  6
CONTINUOUS
370
    50
100
AcDbLine
 10
132.0018195091
 20
199.5085006756
 30
0.0
 11
132.0018195091
 21
126.0107344097
 31
0.0
  0
LINE
  5
5B
330
A
100
AcDbEntity
  8
1
  6
CONTINUOUS
370
    50
100
AcDbLine
 10
132.0018195091
 20
199.5085006756
 30
0.0
 11
132.5018195091
 21
199.5085006756
 31
0.0
  0
LINE
  5
5C
330
A
100
AcDbEntity
  8
1
  6
CONTINUOUS
370
    50
100
AcDbLine
 10
132.0018195091
 20
126.0107344097
 30
0.0
 11
129.1518195091
 21
126.0107344097
 31
0.0
  0
LINE
  5
5D
330
A
100
AcDbEntity
  8
1
  6
CONTINUOUS
370
    50
100
AcDbLine
 10
129.1518195091
 20
199.5085006756
 30
0.0
 11
132.0018195091
 21
199.5085006756
 31
0.0
  0
LINE
  5
5E
330
A
100
AcDbEntity
  8
1
  6
CONTINUOUS
370
    50
100
AcDbLine
 10
19.7301595732
 20
190.0371127683
 30
0.0
 11
19.7301595732
 21
149.2798885829
 31
0.0
  0
LINE
  5
5F
330
A
100
AcDbEntity
  8
1
  6
CONTINUOUS
370
    50
100
AcDbLine
 10
119.4768195091
 20
134.7335006756
 30
0.0
 11
119.4768195091
 21
204.5835006756
 31
0.0
  0
LINE
  5
60
330
A
100
AcDbEntity
  8
1
  6
CONTINUOUS
370
    50
100
AcDbLine
 10
127.3436580017
 20
208.1695786273
 30
0.0
 11
128.6518195091
 21
205.2595478602
 31
0.0
  0
LINE
  5
61
330
A
100
AcDbEntity
  8
1
  6
CONTINUOUS
370
    50
100
AcDbLine
 10
128.6518195091
 20
204.6581792455
 30
0.0
 11
128.6518195091
 21
205.2595478602
 31
0.0
  0
ARC
  5
62
330
A
100
AcDbEntity
  8
1
  6
CONTINUOUS
370
    50
100
AcDbCircle
 10
129.2485650545
 20
204.591048027
 30
0.0
 40
0.6005096556
100
AcDbArc
 50
173.5814650337
 51
260.7289175412
  0
LINE
  5
63
330
A
100
AcDbEntity
  8
1
  6
CONTINUOUS
370
    50
100
AcDbLine
 10
132.0018195091
 20
203.9983827371
 30
0.0
 11
129.1518195091
 21
203.9983827371
 31
0.0
  0
ARC
  5
64
330
A
100
AcDbEntity
  8
1
  6
CONTINUOUS
370
    50
100
AcDbCircle
 10
131.9367455865
 20
204.5670469734
 30
0.0
 40
0.5723754267
100
AcDbArc
 50
276.5281284858
 51
9.1614889393
  0
LINE
  5
65
330
A
100
AcDbEntity
  8
1
  6
CONTINUOUS
370
    50
100
AcDbLine
 10
132.5018195091
 20
205.2595478602
 30
0.0
 11
132.5018195091
 21
204.6581792455
 31
0.0
  0
LWPOLYLINE
  5
66
330
A
100
AcDbEntity
  8
1
  6
CONTINUOUS
370
    50
100
AcDbPolyline
 90
        3
 70
   128
 43
0.0
 10
132.5018195091
 20
205.2595478602
 10
132.5901190595
 20
205.4589032732
 10
133.8099810166
 20
208.1695786273
  0
LINE
  5
6B
330
A
100
AcDbEntity
  8
1
  6
CONTINUOUS
370
    50
100
AcDbLine
 10
133.8099810166
 20
208.1695786273
 30
0.0
 11
138.0268195091
 21
208.1695786273
 31
0.0
  0
LINE
  5
6C
330
A
100
AcDbEntity
  8
1
  6
CONTINUOUS
370
    50
100
AcDbLine
 10
138.5268195091
 20
207.534985795
 30
0.0
 11
138.0268195091
 21
208.1695786273
 31
0.0
  0
LINE
  5
6D
330
A
100
AcDbEntity
  8
1
  6
CONTINUOUS
370
    50
100
AcDbLine
 10
121.4768195091
 20
208.1695786273
 30
0.0
 11
120.9768195091
 21
207.534985795
 31
0.0
  0
LINE
  5
6E
330
A
100
AcDbEntity
  8
1
  6
CONTINUOUS
370
    50
100
AcDbLine
 10
121.4768195091
 20
208.1695786273
 30
0.0
 11
127.3436580017
 21
208.1695786273
 31
0.0
  0
LINE
  5
6F
330
A
100
AcDbEntity
  8
1
  6
CONTINUOUS
370
    50
100
AcDbLine
 10
120.9768195091
 20
207.534985795
 30
0.0
 11
120.9768195091
 21
199.5085006756
 31
0.0
  0
LINE
  5
70
330
A
100
AcDbEntity
  8
1
  6
CONTINUOUS
370
    50
100
AcDbLine
 10
138.5268195091
 20
207.534985795
 30
0.0
 11
138.5268195091
 21
199.5085006756
 31
0.0
  0
LINE
  5
71
330
A
100
AcDbEntity
  8
1
  6
CONTINUOUS
370
    50
100
AcDbLine
 10
132.0018195091
 20
213.3062669415
 30
0.0
 11
132.0018195091
 21
203.9983827371
 31
0.0
  0
LINE
  5
72
330
A
100
AcDbEntity
  8
1
  6
CONTINUOUS
370
    50
100
AcDbLine
 10
129.1518195091
 20
213.3062669415
 30
0.0
 11
129.1518195091
 21
203.9983827371
 31
0.0
  0
LINE
  5
73
330
A
100
AcDbEntity
  8
1
  6
CONTINUOUS
370
    50
100
AcDbLine
 10
132.0018195091
 20
213.3062669415
 30
0.0
 11
129.1518195091
 21
213.3062669415
 31
0.0
  0
ARC
  5
74
330
A
100
AcDbEntity
  8
1
  6
CONTINUOUS
370
    50
100
AcDbCircle
 10
129.1610566824
 20
213.8155544022
 30
0.0
 40
0.5093712232
100
AcDbArc
 50
178.6854922087
 51
268.9609148829
  0
ARC
  5
75
330
A
100
AcDbEntity
  8
1
  6
CONTINUOUS
370
    50
100
AcDbCircle
 10
131.9942602974
 20
213.8139439899
 30
0.0
 40
0.5077333229
100
AcDbArc
 50
270.8530598862
 51
1.5005330222
  0
LINE
  5
76
330
A
100
AcDbEntity
  8
1
  6
CONTINUOUS
370
    50
100
AcDbLine
 10
128.6518195091
 20
205.2595478602
 30
0.0
 11
128.6518195091
 21
214.3052761543
 31
0.0
  0
LINE
  5
77
330
A
100
AcDbEntity
  8
1
  6
CONTINUOUS
370
    50
100
AcDbLine
 10
127.3436580017
 20
208.1695786273
 30
0.0
 11
127.3436580017
 21
216.4178379778
 31
0.0
  0
LINE
  5
78
330
A
100
AcDbEntity
  8
1
  6
CONTINUOUS
370
    50
100
AcDbLine
 10
127.9505774157
 20
215.5678379756
 30
0.0
 11
127.3436580017
 21
216.4178379778
 31
0.0
  0
LINE
  5
79
330
A
100
AcDbEntity
  8
1
  6
CONTINUOUS
370
    50
100
AcDbLine
 10
127.9505774157
 20
215.5678379756
 30
0.0
 11
128.6518195091
 21
214.3052761543
 31
0.0
  0
LINE
  5
7A
330
A
100
AcDbEntity
  8
1
  6
CONTINUOUS
370
    50
100
AcDbLine
 10
132.5018195091
 20
214.3052761543
 30
0.0
 11
133.2030616026
 21
215.5678379756
 31
0.0
  0
LINE
  5
7B
330
A
100
AcDbEntity
  8
1
  6
CONTINUOUS
370
    50
100
AcDbLine
 10
133.8099810166
 20
216.4178379778
 30
0.0
 11
133.2030616026
 21
215.5678379756
 31
0.0
  0
LINE
  5
7C
330
A
100
AcDbEntity
  8
1
  6
CONTINUOUS
370
    50
100
AcDbLine
 10
133.8099810166
 20
216.4178379778
 30
0.0
 11
133.8099810166
 21
208.1695786273
 31
0.0
  0
LINE
  5
7D
330
A
100
AcDbEntity
  8
1
  6
CONTINUOUS
370
    50
100
AcDbLine
 10
132.5018195091
 20
214.3052761543
 30
0.0
 11
132.5018195091
 21
205.2595478602
 31
0.0
  0
LINE
  5
7E
330
A
100
AcDbEntity
  8
1
  6
CONTINUOUS
370
    50
100
AcDbLine
 10
138.0268195091
 20
208.1695786273
 30
0.0
 11
138.0268195091
 21
216.4178379778
 31
0.0
  0
LINE
  5
7F
330
A
100
AcDbEntity
  8
1
  6
CONTINUOUS
370
    50
100
AcDbLine
 10
138.0268195091
 20
216.4178379778
 30
0.0
 11
138.5268195091
 21
216.0142546675
 31
0.0
  0
LINE
  5
80
330
A
100
AcDbEntity
  8
1
  6
CONTINUOUS
370
    50
100
AcDbLine
 10
138.5268195091
 20
216.0142546675
 30
0.0
 11
138.5268195091
 21
207.534985795
 31
0.0
  0
LINE
  5
81
330
A
100
AcDbEntity
  8
1
  6
CONTINUOUS
370
    50
100
AcDbLine
 10
120.9768195091
 20
215.4749619641
 30
0.0
 11
121.4768195091
 21
216.1603621975
 31
0.0
  0
LINE
  5
82
330
A
100
AcDbEntity
  8
1
  6
CONTINUOUS
370
    50
100
AcDbLine
 10
121.4768195091
 20
216.1603621975
 30
0.0
 11
121.4768195091
 21
208.1695786273
 31
0.0
  0
LINE
  5
83
330
A
100
AcDbEntity
  8
1
  6
CONTINUOUS
370
    50
100
AcDbLine
 10
120.9768195091
 20
207.534985795
 30
0.0
 11
120.9768195091
 21
215.4749619641
 31
0.0
  0
LINE
  5
84
330
A
100
AcDbEntity
  8
1
  6
CONTINUOUS
370
    50
100
AcDbLine
 10
138.0268195091
 20
216.4178379778
 30
0.0
 11
133.8099810166
 21
216.4178379778
 31
0.0
  0
LINE
  5
85
330
A
100
AcDbEntity
  8
1
  6
CONTINUOUS
370
    50
100
AcDbLine
 10
127.3436580017
 20
216.4178379778
 30
0.0
 11
122.326819507
 21
216.4178379778
 31
0.0
  0
LINE
  5
86
330
A
100
AcDbEntity
  8
1
  6
CONTINUOUS
370
    50
100
AcDbLine
 10
121.4768195091
 20
216.1603621975
 30
0.0
 11
122.326819507
 21
216.4178379778
 31
0.0
  0
LINE
  5
87
330
A
100
AcDbEntity
  8
1
  6
CONTINUOUS
370
    50
100
AcDbLine
 10
144.4768195091
 20
148.8174211272
 30
0.0
 11
144.4768195091
 21
190.499580224
 31
0.0
  0
LINE
  5
88
330
A
100
AcDbEntity
  8
1
  6
CONTINUOUS
370
    50
100
AcDbLine
 10
198.4436914051
 20
186.2398096207
 30
0.0
 11
198.4436914051
 21
153.0771917304
 31
0.0
  0
LINE
  5
89
330
A
100
AcDbEntity
  8
1
  6
CONTINUOUS
370
    50
100
AcDbLine
 10
17.8768195091
 20
151.4958422508
 30
0.0
 11
17.8768195091
 21
187.821159102
 31
0.0
  0
LINE
  5
8A
330
A
100
AcDbEntity
  8
1
  6
CONTINUOUS
370
    50
100
AcDbLine
 10
199.4768195091
 20
154.8279512158
 30
0.0
 11
199.4768195091
 21
184.4890501465
 31
0.0
  0
LINE
  5
8B
330
A
100
AcDbEntity
  8
1
  6
CONTINUOUS
370
    50
100
AcDbLine
 10
120.7768195091
 20
135.0335006756
 30
0.0
 11
120.7768195091
 21
204.2835006756
 31
0.0
  0
LINE
  5
8C
330
A
100
AcDbEntity
  8
1
  6
CONTINUOUS
370
    50
100
AcDbLine
 10
120.0197097857
 20
134.9866545691
 30
0.0
 11
120.0197097857
 21
204.3303467821
 31
0.0
  0
LINE
  5
8D
330
A
100
AcDbEntity
  8
1
  6
CONTINUOUS
370
    50
100
AcDbLine
 10
120.2310189166
 20
135.0335006756
 30
0.0
 11
120.2310189166
 21
204.2835006756
 31
0.0
  0
LINE
  5
8E
330
A
100
AcDbEntity
  8
1
  6
CONTINUOUS
370
    50
100
AcDbLine
 10
19.6590182048
 20
149.2950101476
 30
0.0
 11
19.6590182048
 21
190.0219912036
 31
0.0
  0
LWPOLYLINE
  5
8F
330
A
100
AcDbEntity
  8
1
  6
CONTINUOUS
370
    50
100
AcDbPolyline
 90
       26
 70
   128
 43
0.0
 10
137.6993721187
 20
155.993130657
 10
137.5371707524
 20
155.3623561758
 10
137.2840086227
 20
154.771215575
 10
136.9557928373
 20
154.2568523927
 10
136.5731464011
 20
153.8515859593
 10
136.1601123969
 20
153.5808806554
 10
135.7426432703
 20
153.4617458907
 10
135.3469701419
 20
153.5016673406
 10
134.9979546094
 20
153.6981365937
 10
134.7175266024
 20
154.0388087642
 10
134.5233064438
 20
154.5022781667
 10
134.4274977007
 20
155.0594233141
 10
134.4361203885
 20
155.6752367278
 10
134.5486327122
 20
156.3110245862
 10
134.7579651087
 20
156.926838
 10
135.0509644536
 20
157.4839831474
 10
135.4092205205
 20
157.9474525499
 10
135.8102227631
 20
158.2881247203
 10
136.2287747358
 20
158.4845939734
 10
136.6385772788
 20
158.5245154234
 10
137.0138809911
 20
158.4053806586
 10
137.3311041603
 20
158.1346753547
 10
137.570314488
 20
157.7294089213
 10
137.7164815095
 20
157.2150457391
 10
137.7604210132
 20
156.6239051383
 10
137.6993721187
 20
155.993130657
  0
LWPOLYLINE
  5
AB
330
A
100
AcDbEntity
  8
1
  6
CONTINUOUS
370
    50
100
AcDbPolyline
 90
       26
 70
   128
 43
0.0
 10
129.5909068521
 20
157.4281817353
 10
129.5962464932
 20
156.9136795654
 10
129.5906598809
 20
156.4600741059
 10
129.5731428938
 20
156.1116884078
 10
129.5334263752
 20
155.8601440447
 10
129.4274798084
 20
155.7435788979
 10
129.3061284661
 20
155.7572788444
 10
129.1381017153
 20
155.8033433121
 10
128.8968773267
 20
155.8726178359
 10
128.4877409732
 20
155.9978445712
 10
127.6473995036
 20
156.3654355607
 10
127.0488440886
 20
156.8312637997
 10
126.7555079528
 20
157.2597789578
 10
126.6442393121
 20
157.6737214835
 10
126.6890493759
 20
158.0973359158
 10
126.8679856819
 20
158.4683821057
 10
127.3033685367
 20
158.9125936468
 10
128.1137400745
 20
159.3177979287
 10
128.6426088646
 20
159.4252911639
 10
128.9586250339
 20
159.4188383516
 10
129.171958972
 20
159.3511746145
 10
129.3193478271
 20
159.2273150777
 10
129.4625176346
 20
158.9094499859
 10
129.5535677582
 20
158.2738324079
 10
129.5843175112
 20
157.6781811283
 10
129.5909068521
 20
157.4281817353
  0
LWPOLYLINE
  5
C7
330
A
100
AcDbEntity
  8
1
  6
CONTINUOUS
370
    50
100
AcDbPolyline
 90
       24
 70
   128
 43
0.0
 10
137.0067643514
 20
156.1030538122
 10
136.8607364688
 20
155.5503420785
 10
136.6291045228
 20
155.0386224456
 10
136.3290475952
 20
154.6058468178
 10
135.9828195356
 20
154.2841121834
 10
135.6160984954
 20
154.0972801285
 10
135.2560824965
 20
154.059207132
 10
134.9294722785
 20
154.1727168937
 10
134.6604910271
 20
154.429390914
 10
134.4690878514
 20
154.810192855
 10
134.3694582491
 20
155.2868803787
 10
134.3689912922
 20
155.8240997522
 10
134.4677216126
 20
156.3820078722
 10
134.6583268342
 20
156.9192272458
 10
134.9266706397
 20
157.3959147695
 10
135.2528511966
 20
157.7767167104
 10
135.6126771852
 20
158.0333907307
 10
135.9794619579
 20
158.1469004924
 10
136.3260027661
 20
158.1088274959
 10
136.6265982635
 20
157.921995441
 10
136.858954657
 20
157.6002608067
 10
137.005839136
 20
157.1674851788
 10
137.0563579506
 20
156.6557655459
 10
137.0067643514
 20
156.1030538122
  0
LWPOLYLINE
  5
E1
330
A
100
AcDbEntity
  8
1
  6
CONTINUOUS
370
    50
100
AcDbPolyline
 90
       24
 70
   128
 43
0.0
 10
127.8218914784
 20
158.7390110738
 10
127.6758635958
 20
158.1862993401
 10
127.4442316498
 20
157.6745797072
 10
127.1441747222
 20
157.2418040794
 10
126.7979466626
 20
156.920069445
 10
126.4312256224
 20
156.7332373901
 10
126.0712096235
 20
156.6951643936
 10
125.7445994055
 20
156.8086741553
 10
125.4756181541
 20
157.0653481756
 10
125.2842149784
 20
157.4461501166
 10
125.1845853761
 20
157.9228376403
 10
125.1841184192
 20
158.4600570138
 10
125.2828487396
 20
159.0179651338
 10
125.4734539612
 20
159.5551845074
 10
125.7417977667
 20
160.0318720311
 10
126.0679783236
 20
160.412673972
 10
126.4278043122
 20
160.6693479923
 10
126.7945890849
 20
160.7828577541
 10
127.1411298932
 20
160.7447847575
 10
127.4417253905
 20
160.5579527027
 10
127.6740817841
 20
160.2362180683
 10
127.820966263
 20
159.8034424404
 10
127.8714850776
 20
159.2917228075
 10
127.8218914784
 20
158.7390110738
  0
LINE
  5
FB
330
A
100
AcDbEntity
  8
1
  6
CONTINUOUS
370
    50
100
AcDbLine
 10
121.2299734027
 20
134.3585006756
 30
0.0
 11
121.2299734027
 21
205.8817482738
 31
0.0
  0
LINE
  5
FC
330
A
100
AcDbEntity
  8
1
  6
CONTINUOUS
370
    50
100
AcDbLine
 10
121.2768195091
 20
134.3585006756
 30
0.0
 11
121.2768195091
 21
205.6898505761
 31
0.0
  0
LWPOLYLINE
  5
FD
330
A
100
AcDbEntity
  8
1
  6
CONTINUOUS
370
    50
100
AcDbPolyline
 90
       26
 70
   128
 43
0.0
 10
128.0618994706
 20
158.7412095369
 10
127.9059366183
 20
158.1346956126
 10
127.6625114936
 20
157.5662911888
 10
127.3469193923
 20
157.0717112058
 10
126.9789901267
 20
156.682031943
 10
126.5818420458
 20
156.4217383815
 10
126.1804294241
 20
156.3071857231
 10
125.7999744928
 20
156.3455717327
 10
125.4643826347
 20
156.534484476
 10
125.1947403202
 20
156.8620538707
 10
125.0079901678
 20
157.307697527
 10
124.9158663763
 20
157.8434140149
 10
124.9241574223
 20
158.4355422973
 10
125.032342349
 20
159.0468767766
 10
125.2336234994
 20
159.639005059
 10
125.5153536387
 20
160.1747215469
 10
125.8598306261
 20
160.6203652031
 10
126.2454097056
 20
160.9479345978
 10
126.6478635255
 20
161.1368473412
 10
127.0419044322
 20
161.1752333507
 10
127.4027733864
 20
161.0606806923
 10
127.7077956644
 20
160.8003871309
 10
127.9378055949
 20
160.410707868
 10
128.0783508078
 20
159.916127885
 10
128.1206003307
 20
159.3477234612
 10
128.0618994706
 20
158.7412095369
  0
LWPOLYLINE
  5
119
330
A
100
AcDbEntity
  8
1
  6
CONTINUOUS
370
    50
100
AcDbPolyline
 90
       26
 70
   128
 43
0.0
 10
128.069559915
 20
158.7390110738
 10
127.9135970628
 20
158.1324971495
 10
127.6701719381
 20
157.5640927257
 10
127.3545798367
 20
157.0695127427
 10
126.9866505711
 20
156.6798334799
 10
126.5895024902
 20
156.4195399184
 10
126.1880898685
 20
156.30498726
 10
125.8076349373
 20
156.3433732696
 10
125.4720430791
 20
156.5322860129
 10
125.2024007647
 20
156.8598554076
 10
125.0156506122
 20
157.3054990639
 10
124.9235268207
 20
157.8412155518
 10
124.9318178667
 20
158.4333438342
 10
125.0400027934
 20
159.0446783135
 10
125.2412839438
 20
159.6368065959
 10
125.5230140832
 20
160.1725230838
 10
125.8674910705
 20
160.61816674
 10
126.25307015
 20
160.9457361347
 10
126.6555239699
 20
161.1346488781
 10
127.0495648766
 20
161.1730348876
 10
127.4104338308
 20
161.0584822292
 10
127.7154561089
 20
160.7981886677
 10
127.9454660393
 20
160.4085094049
 10
128.0860112523
 20
159.9139294219
 10
128.1282607751
 20
159.3455249981
 10
128.069559915
 20
158.7390110738
  0
LWPOLYLINE
  5
135
330
A
100
AcDbEntity
  8
1
  6
CONTINUOUS
370
    50
100
AcDbPolyline
 90
       24
 70
   128
 43
0.0
 10
127.814231034
 20
158.7412095369
 10
127.6682031513
 20
158.1884978032
 10
127.4365712053
 20
157.6767781704
 10
127.1365142777
 20
157.2440025425
 10
126.7902862182
 20
156.9222679081
 10
126.423565178
 20
156.7354358532
 10
126.0635491791
 20
156.6973628567
 10
125.7369389611
 20
156.8108726184
 10
125.4679577097
 20
157.0675466387
 10
125.2765545339
 20
157.4483485797
 10
125.1769249317
 20
157.9250361034
 10
125.1764579747
 20
158.4622554769
 10
125.2751882952
 20
159.0201635969
 10
125.4657935168
 20
159.5573829705
 10
125.7341373223
 20
160.0340704942
 10
126.0603178792
 20
160.4148724351
 10
126.4201438677
 20
160.6715464554
 10
126.7869286405
 20
160.7850562172
 10
127.1334694487
 20
160.7469832206
 10
127.4340649461
 20
160.5601511658
 10
127.6664213396
 20
160.2384165314
 10
127.8133058186
 20
159.8056409035
 10
127.8638246332
 20
159.2939212706
 10
127.814231034
 20
158.7412095369
  0
LWPOLYLINE
  5
14F
330
A
100
AcDbEntity
  8
1
  6
CONTINUOUS
370
    50
100
AcDbPolyline
 90
       22
 70
   128
 43
0.0
 10
104.1155032055
 20
165.5424831718
 10
103.6690127093
 20
165.0274105918
 10
102.7873039539
 20
164.5355425344
 10
101.2024416151
 20
164.1849806119
 10
100.3738639089
 20
164.1778089434
 10
99.5310222374
 20
164.303483838
 10
98.670971678
 20
164.6352998077
 10
98.1133922741
 20
165.0770328204
 10
97.8174256883
 20
165.5528235702
 10
97.7201294699
 20
166.1073100791
 10
97.8246921697
 20
166.6105974147
 10
98.0892879402
 20
167.0653735249
 10
98.6380021964
 20
167.558434726
 10
99.571095583
 20
167.9661762059
 10
101.0271122704
 20
168.1047569179
 10
102.5082806991
 20
167.8031889675
 10
103.431019079
 20
167.3342301623
 10
103.9386369083
 20
166.8707715565
 10
104.1784836643
 20
166.4624669148
 10
104.2534591935
 20
166.084438666
 10
104.1902388659
 20
165.7091059934
 10
104.1155032055
 20
165.5424831718
  0
LINE
  5
167
330
A
100
AcDbEntity
  8
1
  6
CONTINUOUS
370
    50
100
AcDbLine
 10
120.9768195091
 20
133.6085006756
 30
0.0
 11
123.1768195091
 21
133.6085006756
 31
0.0
  0
LINE
  5
168
330
A
100
AcDbEntity
  8
1
  6
CONTINUOUS
370
    50
100
AcDbLine
 10
123.1768195091
 20
207.9085006756
 30
0.0
 11
120.9768195091
 21
207.9085006756
 31
0.0
  0
LINE
  5
169
330
A
100
AcDbEntity
  8
1
  6
CONTINUOUS
370
    50
100
AcDbLine
 10
18.6372910019
 20
156.7280767584
 30
0.0
 11
18.6372910019
 21
182.5889245928
 31
0.0
  0
LINE
  5
16A
330
A
100
AcDbEntity
  8
1
  6
CONTINUOUS
370
    50
100
AcDbLine
 10
122.8661593374
 20
134.3585006756
 30
0.0
 11
120.9768195091
 21
134.3585006756
 31
0.0
  0
LINE
  5
16B
330
A
100
AcDbEntity
  8
1
  6
CONTINUOUS
370
    50
100
AcDbLine
 10
120.9768195091
 20
207.1585006756
 30
0.0
 11
122.8661593374
 21
207.1585006756
 31
0.0
  0
LINE
  5
16C
330
A
100
AcDbEntity
  8
1
  6
CONTINUOUS
370
    50
100
AcDbLine
 10
122.326819507
 20
122.8991633734
 30
0.0
 11
123.1768195091
 21
123.7491633756
 31
0.0
  0
LINE
  5
16D
330
A
100
AcDbEntity
  8
1
  6
CONTINUOUS
370
    50
100
AcDbLine
 10
122.326819507
 20
216.4178379778
 30
0.0
 11
123.1768195091
 21
215.5678379756
 31
0.0
  0
LINE
  5
16E
330
A
100
AcDbEntity
  8
1
  6
CONTINUOUS
370
    50
100
AcDbLine
 10
19.1372910019
 20
157.016751893
 30
0.0
 11
19.1372910019
 21
182.3002494582
 31
0.0
  0
LINE
  5
16F
330
A
100
AcDbEntity
  8
1
  6
CONTINUOUS
370
    50
100
AcDbLine
 10
123.1768195091
 20
123.7491633756
 30
0.0
 11
127.9505774157
 21
123.7491633756
 31
0.0
  0
LINE
  5
170
330
A
100
AcDbEntity
  8
1
  6
CONTINUOUS
370
    50
100
AcDbLine
 10
133.2030616026
 20
123.7491633756
 30
0.0
 11
138.5268195091
 21
123.7491633756
 31
0.0
  0
LINE
  5
171
330
A
100
AcDbEntity
  8
1
  6
CONTINUOUS
370
    50
100
AcDbLine
 10
123.1768195091
 20
123.7491633756
 30
0.0
 11
123.1768195091
 21
133.6085006756
 31
0.0
  0
LINE
  5
172
330
A
100
AcDbEntity
  8
1
  6
CONTINUOUS
370
    50
100
AcDbLine
 10
123.1768195091
 20
133.6085006756
 30
0.0
 11
138.5268195091
 21
133.6085006756
 31
0.0
  0
LINE
  5
173
330
A
100
AcDbEntity
  8
1
  6
CONTINUOUS
370
    50
100
AcDbLine
 10
138.5268195091
 20
134.3585006756
 30
0.0
 11
122.8661593374
 21
134.3585006756
 31
0.0
  0
LINE
  5
174
330
A
100
AcDbEntity
  8
1
  6
CONTINUOUS
370
    50
100
AcDbLine
 10
123.1768195091
 20
133.6085006756
 30
0.0
 11
122.8661593374
 21
134.3585006756
 31
0.0
  0
LINE
  5
175
330
A
100
AcDbEntity
  8
1
  6
CONTINUOUS
370
    50
100
AcDbLine
 10
123.1768195091
 20
215.5678379756
 30
0.0
 11
127.9505774157
 21
215.5678379756
 31
0.0
  0
LINE
  5
176
330
A
100
AcDbEntity
  8
1
  6
CONTINUOUS
370
    50
100
AcDbLine
 10
133.2030616026
 20
215.5678379756
 30
0.0
 11
138.5268195091
 21
215.5678379756
 31
0.0
  0
LINE
  5
177
330
A
100
AcDbEntity
  8
1
  6
CONTINUOUS
370
    50
100
AcDbLine
 10
123.1768195091
 20
215.5678379756
 30
0.0
 11
123.1768195091
 21
207.9085006756
 31
0.0
  0
LINE
  5
178
330
A
100
AcDbEntity
  8
1
  6
CONTINUOUS
370
    50
100
AcDbLine
 10
138.5268195091
 20
207.9085006756
 30
0.0
 11
123.1768195091
 21
207.9085006756
 31
0.0
  0
LINE
  5
179
330
A
100
AcDbEntity
  8
1
  6
CONTINUOUS
370
    50
100
AcDbLine
 10
122.8661593374
 20
207.1585006756
 30
0.0
 11
138.5268195091
 21
207.1585006756
 31
0.0
  0
LINE
  5
17A
330
A
100
AcDbEntity
  8
1
  6
CONTINUOUS
370
    50
100
AcDbLine
 10
123.1768195091
 20
207.9085006756
 30
0.0
 11
122.8661593374
 21
207.1585006756
 31
0.0
  0
LINE
  5
17B
330
A
100
AcDbEntity
  8
1
  6
CONTINUOUS
370
    50
100
AcDbLine
 10
26.6067233197
 20
182.1585006756
 30
0.0
 11
26.6067233197
 21
157.1585006756
 31
0.0
  0
LINE
  5
17C
330
A
100
AcDbEntity
  8
1
  6
CONTINUOUS
370
    50
100
AcDbLine
 10
26.8665309408
 20
182.3085006756
 30
0.0
 11
26.8665309408
 21
157.0085006756
 31
0.0
  0
LINE
  5
17D
330
A
100
AcDbEntity
  8
1
  6
CONTINUOUS
370
    50
100
AcDbLine
 10
29.5768195091
 20
182.3085006756
 30
0.0
 11
29.5768195091
 21
157.0085006756
 31
0.0
  0
LINE
  5
17E
330
A
100
AcDbEntity
  8
1
  6
CONTINUOUS
370
    50
100
AcDbLine
 10
30.7820381961
 20
180.2210006756
 30
0.0
 11
30.7820381961
 21
159.0960006756
 31
0.0
  0
LINE
  5
17F
330
A
100
AcDbEntity
  8
1
  6
CONTINUOUS
370
    50
100
AcDbLine
 10
19.8768195091
 20
182.1585006756
 30
0.0
 11
19.8768195091
 21
157.1585006756
 31
0.0
  0
LINE
  5
180
330
A
100
AcDbEntity
  8
1
  6
CONTINUOUS
370
    50
100
AcDbLine
 10
66.8868195091
 20
181.6585006756
 30
0.0
 11
66.8868195091
 21
157.6585006756
 31
0.0
  0
LINE
  5
181
330
A
100
AcDbEntity
  8
1
  6
CONTINUOUS
370
    50
100
AcDbLine
 10
66.8768195091
 20
181.6585006756
 30
0.0
 11
66.8768195091
 21
157.6585006756
 31
0.0
  0
LINE
  5
182
330
A
100
AcDbEntity
  8
1
  6
CONTINUOUS
370
    50
100
AcDbLine
 10
197.9768195091
 20
179.6585006756
 30
0.0
 11
197.9768195091
 21
159.6585006756
 31
0.0
  0
LINE
  5
183
330
A
100
AcDbEntity
  8
1
  6
CONTINUOUS
370
    50
100
AcDbLine
 10
81.8768195091
 20
180.2210006756
 30
0.0
 11
81.8768195091
 21
159.0960006756
 31
0.0
  0
LINE
  5
184
330
A
100
AcDbEntity
  8
1
  6
CONTINUOUS
370
    50
100
AcDbLine
 10
81.8995676488
 20
180.1585006756
 30
0.0
 11
81.8995676488
 21
159.1585006756
 31
0.0
  0
LINE
  5
185
330
A
100
AcDbEntity
  8
1
  6
CONTINUOUS
370
    50
100
AcDbLine
 10
129.6088703167
 20
162.1585006756
 30
0.0
 11
129.6088703167
 21
177.1585006756
 31
0.0
  0
LINE
  5
186
330
A
100
AcDbEntity
  8
1
  6
CONTINUOUS
370
    50
100
AcDbLine
 10
127.8768195091
 20
180.1585006756
 30
0.0
 11
127.8768195091
 21
159.1585006756
 31
0.0
  0
LWPOLYLINE
  5
187
330
A
100
AcDbEntity
  8
1
  6
CONTINUOUS
370
    50
100
AcDbPolyline
 90
       22
 70
   128
 43
0.0
 10
104.1155032055
 20
173.7745181794
 10
103.6690127093
 20
174.2895907594
 10
102.7873039539
 20
174.7814588167
 10
101.2024416151
 20
175.1320207393
 10
100.3595814491
 20
175.1385857964
 10
99.5310222374
 20
175.0135175132
 10
98.670971678
 20
174.6817015435
 10
98.1133922741
 20
174.2399685308
 10
97.8174256883
 20
173.764177781
 10
97.7201294699
 20
173.2096912721
 10
97.8246921697
 20
172.7064039364
 10
98.0892879402
 20
172.2516278262
 10
98.6380021964
 20
171.7585666251
 10
99.571095583
 20
171.3508251453
 10
101.0271122704
 20
171.2122444333
 10
102.5082806991
 20
171.5138123837
 10
103.431019079
 20
171.9827711889
 10
103.9386369083
 20
172.4462297947
 10
104.1784836643
 20
172.8545344364
 10
104.2534591935
 20
173.2325626852
 10
104.1902388659
 20
173.6078953578
 10
104.1155032055
 20
173.7745181794
  0
LINE
  5
19F
330
A
100
AcDbEntity
  8
1
  6
CONTINUOUS
370
    50
100
AcDbLine
 10
147.9768195091
 20
179.8585006756
 30
0.0
 11
147.9768195091
 21
159.4778467225
 31
0.0
  0
LINE
  5
1A0
330
A
100
AcDbEntity
  8
1
  6
CONTINUOUS
370
    50
100
AcDbLine
 10
147.4768195091
 20
159.9585006834
 30
0.0
 11
147.4768195091
 21
179.3585006756
 31
0.0
  0
LINE
  5
1A1
330
A
100
AcDbEntity
  8
1
  6
CONTINUOUS
370
    50
100
AcDbLine
 10
157.3613494591
 20
159.4585006756
 30
0.0
 11
157.3613494591
 21
179.8585006756
 31
0.0
  0
LINE
  5
1A2
330
A
100
AcDbEntity
  8
1
  6
CONTINUOUS
370
    50
100
AcDbLine
 10
157.476819513
 20
179.6585006756
 30
0.0
 11
157.476819513
 21
159.6585006756
 31
0.0
  0
LINE
  5
1A3
330
A
100
AcDbEntity
  8
1
  6
CONTINUOUS
370
    50
100
AcDbLine
 10
125.5768195091
 20
206.9585006756
 30
0.0
 11
135.5768195091
 21
206.9585006756
 31
0.0
  0
LINE
  5
1A4
330
A
100
AcDbEntity
  8
1
  6
CONTINUOUS
370
    50
100
AcDbLine
 10
125.8768196899
 20
202.4585006756
 30
0.0
 11
135.2768195091
 21
202.4585006756
 31
0.0
  0
LINE
  5
1A5
330
A
100
AcDbEntity
  8
1
  6
CONTINUOUS
370
    50
100
AcDbLine
 10
135.5768195091
 20
202.7585006756
 30
0.0
 11
125.5969480392
 21
202.7585006756
 31
0.0
  0
LINE
  5
1A6
330
A
100
AcDbEntity
  8
1
  6
CONTINUOUS
370
    50
100
AcDbLine
 10
129.4768195091
 20
202.0585006756
 30
0.0
 11
131.6768195091
 21
202.0585006756
 31
0.0
  0
LINE
  5
1A7
330
A
100
AcDbEntity
  8
1
  6
CONTINUOUS
370
    50
100
AcDbLine
 10
129.3268195091
 20
198.6585006756
 30
0.0
 11
131.8268195091
 21
198.6585006756
 31
0.0
  0
LINE
  5
1A8
330
A
100
AcDbEntity
  8
1
  6
CONTINUOUS
370
    50
100
AcDbLine
 10
129.3268195091
 20
198.6485006756
 30
0.0
 11
131.8268195091
 21
198.6485006756
 31
0.0
  0
LINE
  5
1A9
330
A
100
AcDbEntity
  8
1
  6
CONTINUOUS
370
    50
100
AcDbLine
 10
129.4768195091
 20
196.0585006756
 30
0.0
 11
131.6768195091
 21
196.0585006756
 31
0.0
  0
LWPOLYLINE
  5
1AA
330
A
100
AcDbEntity
  8
1
  6
CONTINUOUS
370
    50
100
AcDbPolyline
 90
       24
 70
   128
 43
0.0
 10
127.814231034
 20
180.5757918143
 10
127.6682031513
 20
181.1285035479
 10
127.4365712053
 20
181.6402231808
 10
127.1365142777
 20
182.0729988087
 10
126.7902862182
 20
182.3947334431
 10
126.423565178
 20
182.5815654979
 10
126.0635491791
 20
182.6196384945
 10
125.7369389611
 20
182.5061287327
 10
125.4679577097
 20
182.2494547124
 10
125.2765545339
 20
181.8686527715
 10
125.1769249317
 20
181.3919652478
 10
125.1764579747
 20
180.8547458743
 10
125.2751882952
 20
180.2968377542
 10
125.4657935168
 20
179.7596183807
 10
125.7341373223
 20
179.282930857
 10
126.0603178792
 20
178.9021289161
 10
126.4201438677
 20
178.6454548958
 10
126.7869286405
 20
178.531945134
 10
127.1334694487
 20
178.5700181306
 10
127.4340649461
 20
178.7568501854
 10
127.6664213396
 20
179.0785848198
 10
127.8133058186
 20
179.5113604477
 10
127.8638246332
 20
180.0230800806
 10
127.814231034
 20
180.5757918143
  0
LINE
  5
1C4
330
A
100
AcDbEntity
  8
1
  6
CONTINUOUS
370
    50
100
AcDbLine
 10
129.1518195091
 20
126.0107344097
 30
0.0
 11
129.1518195091
 21
213.3062669415
 31
0.0
  0
LINE
  5
1C5
330
A
100
AcDbEntity
  8
1
  6
CONTINUOUS
370
    50
100
AcDbLine
 10
128.6518195091
 20
199.5085006756
 30
0.0
 11
128.6518195091
 21
204.6581792455
 31
0.0
  0
LINE
  5
1C6
330
A
100
AcDbEntity
  8
1
  6
CONTINUOUS
370
    50
100
AcDbLine
 10
132.0018195091
 20
126.0107344097
 30
0.0
 11
132.0018195091
 21
213.3062669415
 31
0.0
  0
LINE
  5
1C7
330
A
100
AcDbEntity
  8
1
  6
CONTINUOUS
370
    50
100
AcDbLine
 10
132.5018195091
 20
199.5085006756
 30
0.0
 11
132.5018195091
 21
204.6581792455
 31
0.0
  0
LINE
  5
1C8
330
A
100
AcDbEntity
  8
1
  6
CONTINUOUS
370
    50
100
AcDbLine
 10
127.3436580017
 20
208.1695786273
 30
0.0
 11
127.3436580017
 21
199.5085006756
 31
0.0
  0
LINE
  5
1C9
330
A
100
AcDbEntity
  8
1
  6
CONTINUOUS
370
    50
100
AcDbLine
 10
138.0268195091
 20
208.1695786273
 30
0.0
 11
138.0268195091
 21
199.5085006756
 31
0.0
  0
LINE
  5
1CA
330
A
100
AcDbEntity
  8
1
  6
CONTINUOUS
370
    50
100
AcDbLine
 10
133.8099810166
 20
199.5085006756
 30
0.0
 11
133.8099810166
 21
208.1695786273
 31
0.0
  0
LINE
  5
1CB
330
A
100
AcDbEntity
  8
1
  6
CONTINUOUS
370
    50
100
AcDbLine
 10
121.4768195091
 20
199.5085006756
 30
0.0
 11
121.4768195091
 21
208.1695786273
 31
0.0
  0
LWPOLYLINE
  5
1CC
330
A
100
AcDbEntity
  8
1
  6
CONTINUOUS
370
    50
100
AcDbPolyline
 90
       26
 70
   128
 43
0.0
 10
128.0618994706
 20
180.5757918143
 10
127.9059366183
 20
181.1823057385
 10
127.6625114936
 20
181.7507101624
 10
127.3469193923
 20
182.2452901453
 10
126.9789901267
 20
182.6349694082
 10
126.5818420458
 20
182.8952629697
 10
126.1804294241
 20
183.009815628
 10
125.7999744928
 20
182.9714296185
 10
125.4643826347
 20
182.7825168751
 10
125.1947403202
 20
182.4549474805
 10
125.0079901678
 20
182.0093038242
 10
124.9158663763
 20
181.4735873363
 10
124.9241574223
 20
180.8814590539
 10
125.032342349
 20
180.2701245746
 10
125.2336234994
 20
179.6779962922
 10
125.5153536387
 20
179.1422798043
 10
125.8598306261
 20
178.696636148
 10
126.2454097056
 20
178.3690667534
 10
126.6478635255
 20
178.18015401
 10
127.0419044322
 20
178.1417680005
 10
127.4027733864
 20
178.2563206588
 10
127.7077956644
 20
178.5166142203
 10
127.9378055949
 20
178.9062934832
 10
128.0783508078
 20
179.4008734661
 10
128.1206003307
 20
179.96927789
 10
128.0618994706
 20
180.5757918143
  0
LWPOLYLINE
  5
1E8
330
A
100
AcDbEntity
  8
1
  6
CONTINUOUS
370
    50
100
AcDbPolyline
 90
       26
 70
   128
 43
0.0
 10
128.069559915
 20
180.5779902774
 10
127.9135970628
 20
181.1845042016
 10
127.6701719381
 20
181.7529086255
 10
127.3545798367
 20
182.2474886084
 10
126.9866505711
 20
182.6371678713
 10
126.5895024902
 20
182.8974614328
 10
126.1880898685
 20
183.0120140911
 10
125.8076349373
 20
182.9736280816
 10
125.4720430791
 20
182.7847153382
 10
125.2024007647
 20
182.4571459436
 10
125.0156506122
 20
182.0115022873
 10
124.9235268207
 20
181.4757857994
 10
124.9318178667
 20
180.883657517
 10
125.0400027934
 20
180.2723230377
 10
125.2412839438
 20
179.6801947553
 10
125.5230140832
 20
179.1444782674
 10
125.8674910705
 20
178.6988346112
 10
126.25307015
 20
178.3712652165
 10
126.6555239699
 20
178.1823524731
 10
127.0495648766
 20
178.1439664636
 10
127.4104338308
 20
178.2585191219
 10
127.7154561089
 20
178.5188126834
 10
127.9454660393
 20
178.9084919463
 10
128.0860112523
 20
179.4030719292
 10
128.1282607751
 20
179.9714763531
 10
128.069559915
 20
180.5779902774
  0
LWPOLYLINE
  5
204
330
A
100
AcDbEntity
  8
1
  6
CONTINUOUS
370
    50
100
AcDbPolyline
 90
       24
 70
   128
 43
0.0
 10
127.8218914784
 20
180.5779902774
 10
127.6758635958
 20
181.130702011
 10
127.4442316498
 20
181.6424216439
 10
127.1441747222
 20
182.0751972718
 10
126.7979466626
 20
182.3969319062
 10
126.4312256224
 20
182.583763961
 10
126.0712096235
 20
182.6218369576
 10
125.7445994055
 20
182.5083271958
 10
125.4756181541
 20
182.2516531755
 10
125.2842149784
 20
181.8708512346
 10
125.1845853761
 20
181.3941637109
 10
125.1841184192
 20
180.8569443374
 10
125.2828487396
 20
180.2990362173
 10
125.4734539612
 20
179.7618168438
 10
125.7417977667
 20
179.2851293201
 10
126.0679783236
 20
178.9043273792
 10
126.4278043122
 20
178.6476533589
 10
126.7945890849
 20
178.5341435971
 10
127.1411298932
 20
178.5722165937
 10
127.4417253905
 20
178.7590486485
 10
127.6740817841
 20
179.0807832829
 10
127.820966263
 20
179.5135589108
 10
127.8714850776
 20
180.0252785437
 10
127.8218914784
 20
180.5779902774
  0
LWPOLYLINE
  5
21E
330
A
100
AcDbEntity
  8
1
  6
CONTINUOUS
370
    50
100
AcDbPolyline
 90
       25
 70
   128
 43
0.0
 10
129.5909068521
 20
181.8888196159
 10
129.5681011175
 20
181.2632397435
 10
129.5189515506
 20
180.707049985
 10
129.3818631923
 20
180.187475812
 10
129.2459668833
 20
180.0151348602
 10
129.0607597737
 20
179.9206339471
 10
128.8207479169
 20
179.8861641098
 10
128.3286782328
 20
179.9413733993
 10
127.4282579032
 20
180.3176816359
 10
126.9504978143
 20
180.7379378747
 10
126.7091378281
 20
181.1582515577
 10
126.6438110509
 20
181.6379447668
 10
126.748717852
 20
182.042250728
 10
127.0491239937
 20
182.4860385321
 10
127.6579897617
 20
182.9576915723
 10
128.57521539
 20
183.3476381679
 10
128.902426064
 20
183.4459844056
 10
129.1325236035
 20
183.5120570417
 10
129.2970074181
 20
183.5575092618
 10
129.4433042741
 20
183.5702464735
 10
129.5455978319
 20
183.4096124981
 10
129.5817442523
 20
183.0800982918
 10
129.5945484195
 20
182.6634523437
 10
129.5949257554
 20
182.1473568033
 10
129.5909068521
 20
181.8888196159
  0
LWPOLYLINE
  5
239
330
A
100
AcDbEntity
  8
1
  6
CONTINUOUS
370
    50
100
AcDbPolyline
 90
       24
 70
   128
 43
0.0
 10
137.0067643514
 20
183.213947539
 10
136.8607364688
 20
183.7666592727
 10
136.6291045228
 20
184.2783789055
 10
136.3290475952
 20
184.7111545334
 10
135.9828195356
 20
185.0328891678
 10
135.6160984954
 20
185.2197212227
 10
135.2560824965
 20
185.2577942192
 10
134.9294722785
 20
185.1442844574
 10
134.6604910271
 20
184.8876104372
 10
134.4690878514
 20
184.5068084962
 10
134.3694582491
 20
184.0301209725
 10
134.3689912922
 20
183.492901599
 10
134.4677216126
 20
182.934993479
 10
134.6583268342
 20
182.3977741054
 10
134.9266706397
 20
181.9210865817
 10
135.2528511966
 20
181.5402846408
 10
135.6126771852
 20
181.2836106205
 10
135.9794619579
 20
181.1701008587
 10
136.3260027661
 20
181.2081738553
 10
136.6265982635
 20
181.3950059101
 10
136.858954657
 20
181.7167405445
 10
137.005839136
 20
182.1495161724
 10
137.0563579506
 20
182.6612358053
 10
137.0067643514
 20
183.213947539
  0
LINE
  5
253
330
A
100
AcDbEntity
  8
1
  6
CONTINUOUS
370
    50
100
AcDbLine
 10
134.4268195091
 20
188.6161318715
 30
0.0
 11
134.4268195091
 21
194.010023672
 31
0.0
  0
LINE
  5
254
330
A
100
AcDbEntity
  8
1
  6
CONTINUOUS
370
    50
100
AcDbLine
 10
134.4268195091
 20
186.510023672
 30
0.0
 11
134.4268195091
 21
188.6161318715
 31
0.0
  0
LWPOLYLINE
  5
255
330
A
100
AcDbEntity
  8
1
  6
CONTINUOUS
370
    50
100
AcDbPolyline
 90
       26
 70
   128
 43
0.0
 10
137.6993721187
 20
183.3238706942
 10
137.5371707524
 20
183.9546451754
 10
137.2840086227
 20
184.5457857762
 10
136.9557928373
 20
185.0601489585
 10
136.5731464011
 20
185.4654153918
 10
136.1601123969
 20
185.7361206958
 10
135.7426432703
 20
185.8552554605
 10
135.3469701419
 20
185.8153340106
 10
134.9979546094
 20
185.6188647575
 10
134.7175266024
 20
185.278192587
 10
134.5233064438
 20
184.8147231845
 10
134.4274977007
 20
184.2575780371
 10
134.4361203885
 20
183.6417646234
 10
134.5486327122
 20
183.005976765
 10
134.7579651087
 20
182.3901633512
 10
135.0509644536
 20
181.8330182038
 10
135.4092205205
 20
181.3695488013
 10
135.8102227631
 20
181.0288766308
 10
136.2287747358
 20
180.8324073778
 10
136.6385772788
 20
180.7924859278
 10
137.0138809911
 20
180.9116206925
 10
137.3311041603
 20
181.1823259965
 10
137.570314488
 20
181.5875924298
 10
137.7164815095
 20
182.1019556121
 10
137.7604210132
 20
182.6930962129
 10
137.6993721187
 20
183.3238706942
  0
LINE
  5
271
330
A
100
AcDbEntity
  8
1
  6
CONTINUOUS
370
    50
100
AcDbLine
 10
134.4268195091
 20
173.1447303855
 30
0.0
 11
134.4268195091
 21
176.8947303855
 31
0.0
  0
LINE
  5
272
330
A
100
AcDbEntity
  8
1
  6
CONTINUOUS
370
    50
100
AcDbLine
 10
134.4268195091
 20
169.3947303855
 30
0.0
 11
134.4268195091
 21
173.1447303855
 31
0.0
  0
LINE
  5
273
330
A
100
AcDbEntity
  8
1
  6
CONTINUOUS
370
    50
100
AcDbLine
 10
135.5768195091
 20
149.6585006756
 30
0.0
 11
137.5768195091
 21
149.6585006756
 31
0.0
  0
LINE
  5
274
330
A
100
AcDbEntity
  8
1
  6
CONTINUOUS
370
    50
100
AcDbLine
 10
135.5768195091
 20
189.6585006756
 30
0.0
 11
135.5768195091
 21
149.6585006756
 31
0.0
  0
LINE
  5
275
330
A
100
AcDbEntity
  8
1
  6
CONTINUOUS
370
    50
100
AcDbLine
 10
137.5768195091
 20
149.6585006756
 30
0.0
 11
137.5768195091
 21
189.6585006756
 31
0.0
  0
LINE
  5
276
330
A
100
AcDbEntity
  8
1
  6
CONTINUOUS
370
    50
100
AcDbLine
 10
126.7768195091
 20
149.6585006756
 30
0.0
 11
126.7768195091
 21
157.2092386947
 31
0.0
  0
LINE
  5
277
330
A
100
AcDbEntity
  8
1
  6
CONTINUOUS
370
    50
100
AcDbLine
 10
126.7768195091
 20
158.2623059288
 30
0.0
 11
126.7768195091
 21
181.0485261001
 31
0.0
  0
LINE
  5
278
330
A
100
AcDbEntity
  8
1
  6
CONTINUOUS
370
    50
100
AcDbLine
 10
126.7768195091
 20
182.0877167279
 30
0.0
 11
126.7768195091
 21
189.6585006756
 31
0.0
  0
LINE
  5
279
330
A
100
AcDbEntity
  8
1
  6
CONTINUOUS
370
    50
100
AcDbLine
 10
122.7768195091
 20
149.6585006756
 30
0.0
 11
126.7768195091
 21
149.6585006756
 31
0.0
  0
LINE
  5
27A
330
A
100
AcDbEntity
  8
1
  6
CONTINUOUS
370
    50
100
AcDbLine
 10
122.7768195091
 20
189.6585006756
 30
0.0
 11
122.7768195091
 21
149.6585006756
 31
0.0
  0
LINE
  5
27B
330
A
100
AcDbEntity
  8
1
  6
CONTINUOUS
370
    50
100
AcDbLine
 10
126.7768195091
 20
189.6585006756
 30
0.0
 11
122.7768195091
 21
189.6585006756
 31
0.0
  0
LINE
  5
27C
330
A
100
AcDbEntity
  8
1
  6
CONTINUOUS
370
    50
100
AcDbLine
 10
137.5768195091
 20
189.6585006756
 30
0.0
 11
135.5768195091
 21
189.6585006756
 31
0.0
  0
LINE
  5
27D
330
A
100
AcDbEntity
  8
1
  6
CONTINUOUS
370
    50
100
AcDbLine
 10
135.3723076638
 20
153.4940116081
 30
0.0
 11
138.5268195091
 21
152.5887014834
 31
0.0
  0
LINE
  5
27E
330
A
100
AcDbEntity
  8
1
  6
CONTINUOUS
370
    50
100
AcDbLine
 10
138.5268195091
 20
157.9986078284
 30
0.0
 11
136.8067468979
 21
158.492249706
 31
0.0
  0
LINE
  5
27F
330
A
100
AcDbEntity
  8
1
  6
CONTINUOUS
370
    50
100
AcDbLine
 10
120.9768195091
 20
153.3169581068
 30
0.0
 11
129.4428436154
 21
155.7466136968
 31
0.0
  0
LINE
  5
280
330
A
100
AcDbEntity
  8
1
  6
CONTINUOUS
370
    50
100
AcDbLine
 10
128.1733577356
 20
159.3356783423
 30
0.0
 11
120.9768195091
 21
157.2703512051
 31
0.0
  0
LINE
  5
281
330
A
100
AcDbEntity
  8
1
  6
CONTINUOUS
370
    50
100
AcDbLine
 10
135.4133472793
 20
157.9518134979
 30
0.0
 11
135.1603596734
 21
157.685066876
 31
0.0
  0
LINE
  5
282
330
A
100
AcDbEntity
  8
1
  6
CONTINUOUS
370
    50
100
AcDbLine
 10
134.4045347982
 20
155.0514295656
 30
0.0
 11
134.4775641005
 21
154.6911196851
 31
0.0
  0
LINE
  5
283
330
A
100
AcDbEntity
  8
1
  6
CONTINUOUS
370
    50
100
AcDbLine
 10
129.0655282657
 20
155.8241710725
 30
0.0
 11
135.1272122916
 21
154.0845345804
 31
0.0
  0
LINE
  5
284
330
A
100
AcDbEntity
  8
1
  6
CONTINUOUS
370
    50
100
AcDbLine
 10
125.9423394187
 20
156.720491842
 30
0.0
 11
129.0655282657
 21
155.8241710725
 31
0.0
  0
LINE
  5
285
330
A
100
AcDbEntity
  8
1
  6
CONTINUOUS
370
    50
100
AcDbLine
 10
136.2857978269
 20
158.1215730441
 30
0.0
 11
127.1009249539
 21
160.7575303057
 31
0.0
  0
LINE
  5
286
330
A
100
AcDbEntity
  8
1
  6
CONTINUOUS
370
    50
100
AcDbLine
 10
121.2299734027
 20
205.9011597069
 30
0.0
 11
120.9768195091
 21
206.4440499835
 31
0.0
  0
ARC
  5
287
330
A
100
AcDbEntity
  8
1
  6
CONTINUOUS
370
    50
100
AcDbCircle
 10
120.7768195091
 20
205.6898505761
 30
0.0
 40
0.5
100
AcDbArc
 50
360.0
 51
25.0
  0
ARC
  5
288
330
A
100
AcDbEntity
  8
1
  6
CONTINUOUS
370
    50
100
AcDbCircle
 10
120.7768195091
 20
134.5335006756
 30
0.0
 40
0.5
100
AcDbArc
 50
0.0
 51
66.4218215218
  0
ARC
  5
289
330
A
100
AcDbEntity
  8
1
  6
CONTINUOUS
370
    50
100
AcDbCircle
 10
120.7768195091
 20
204.7835006756
 30
0.0
 40
0.5
100
AcDbArc
 50
293.5781784782001
 51
0.0
  0
LINE
  5
28A
330
A
100
AcDbEntity
  8
1
  6
CONTINUOUS
370
    50
100
AcDbLine
 10
99.3884006075
 20
164.3411795533
 30
0.0
 11
125.9346789742
 21
156.7226903051
 31
0.0
  0
LINE
  5
28B
330
A
100
AcDbEntity
  8
1
  6
CONTINUOUS
370
    50
100
AcDbLine
 10
127.0932645095
 20
160.7597287688
 30
0.0
 11
102.1786605437
 21
167.9099454514
 31
0.0
  0
ARC
  5
28C
330
A
100
AcDbEntity
  8
1
  6
CONTINUOUS
370
    50
100
AcDbCircle
 10
19.8768195091
 20
155.1585006756
 30
0.0
 40
2.0
100
AcDbArc
 50
128.2989210679
 51
180.0
  0
ARC
  5
28D
330
A
100
AcDbEntity
  8
1
  6
CONTINUOUS
370
    50
100
AcDbCircle
 10
19.8768195091
 20
184.1585006756
 30
0.0
 40
2.0
100
AcDbArc
 50
180.0
 51
231.7010789321
  0
LINE
  5
28E
330
A
100
AcDbEntity
  8
1
  6
CONTINUOUS
370
    50
100
AcDbLine
 10
18.6372910019
 20
156.7280767584
 30
0.0
 11
19.1372910019
 21
157.016751893
 31
0.0
  0
LINE
  5
28F
330
A
100
AcDbEntity
  8
1
  6
CONTINUOUS
370
    50
100
AcDbLine
 10
19.1372910019
 20
182.3002494582
 30
0.0
 11
18.6372910019
 21
182.5889245928
 31
0.0
  0
LINE
  5
290
330
A
100
AcDbEntity
  8
1
  6
CONTINUOUS
370
    50
100
AcDbLine
 10
26.8665309408
 20
182.3085006756
 30
0.0
 11
26.6067233197
 21
182.1585006756
 31
0.0
  0
LINE
  5
291
330
A
100
AcDbEntity
  8
1
  6
CONTINUOUS
370
    50
100
AcDbLine
 10
26.6067233197
 20
157.1585006756
 30
0.0
 11
26.8665309408
 21
157.0085006756
 31
0.0
  0
LINE
  5
292
330
A
100
AcDbEntity
  8
1
  6
CONTINUOUS
370
    50
100
AcDbLine
 10
29.5768195091
 20
182.3085006756
 30
0.0
 11
26.8665309408
 21
182.3085006756
 31
0.0
  0
LINE
  5
293
330
A
100
AcDbEntity
  8
1
  6
CONTINUOUS
370
    50
100
AcDbLine
 10
26.8665309408
 20
157.0085006756
 30
0.0
 11
29.5768195091
 21
157.0085006756
 31
0.0
  0
LINE
  5
294
330
A
100
AcDbEntity
  8
1
  6
CONTINUOUS
370
    50
100
AcDbLine
 10
29.5768195091
 20
157.0085006756
 30
0.0
 11
30.7820381961
 21
159.0960006756
 31
0.0
  0
LINE
  5
295
330
A
100
AcDbEntity
  8
1
  6
CONTINUOUS
370
    50
100
AcDbLine
 10
30.7820381961
 20
180.2210006756
 30
0.0
 11
29.5768195091
 21
182.3085006756
 31
0.0
  0
ARC
  5
296
330
A
100
AcDbEntity
  8
1
  6
CONTINUOUS
370
    50
100
AcDbCircle
 10
19.8768195091
 20
155.1585006756
 30
0.0
 40
2.0
100
AcDbArc
 50
90.0
 51
111.7010789321
  0
ARC
  5
297
330
A
100
AcDbEntity
  8
1
  6
CONTINUOUS
370
    50
100
AcDbCircle
 10
19.8768195091
 20
184.1585006756
 30
0.0
 40
2.0
100
AcDbArc
 50
248.2989210679
 51
270.0
  0
LINE
  5
298
330
A
100
AcDbEntity
  8
1
  6
CONTINUOUS
370
    50
100
AcDbLine
 10
19.8768195091
 20
157.1585006756
 30
0.0
 11
26.6067233197
 21
157.1585006756
 31
0.0
  0
LINE
  5
299
330
A
100
AcDbEntity
  8
1
  6
CONTINUOUS
370
    50
100
AcDbLine
 10
26.6067233197
 20
182.1585006756
 30
0.0
 11
19.8768195091
 21
182.1585006756
 31
0.0
  0
ARC
  5
29A
330
A
100
AcDbEntity
  8
1
  6
CONTINUOUS
370
    50
100
AcDbCircle
 10
197.9768195091
 20
158.1585006756
 30
0.0
 40
1.5
100
AcDbArc
 50
0.0
 51
90.0
  0
ARC
  5
29B
330
A
100
AcDbEntity
  8
1
  6
CONTINUOUS
370
    50
100
AcDbCircle
 10
197.9768195091
 20
181.1585006756
 30
0.0
 40
1.5
100
AcDbArc
 50
270.0
 51
0.0
  0
LINE
  5
29C
330
A
100
AcDbEntity
  8
1
  6
CONTINUOUS
370
    50
100
AcDbLine
 10
81.8768195091
 20
180.2210006756
 30
0.0
 11
66.8868195091
 21
180.2210006756
 31
0.0
  0
LINE
  5
29D
330
A
100
AcDbEntity
  8
1
  6
CONTINUOUS
370
    50
100
AcDbLine
 10
66.8868195091
 20
159.0960006756
 30
0.0
 11
81.8768195091
 21
159.0960006756
 31
0.0
  0
LINE
  5
29E
330
A
100
AcDbEntity
  8
1
  6
CONTINUOUS
370
    50
100
AcDbLine
 10
66.8768195091
 20
180.2210006756
 30
0.0
 11
30.7820381961
 21
180.2210006756
 31
0.0
  0
LINE
  5
29F
330
A
100
AcDbEntity
  8
1
  6
CONTINUOUS
370
    50
100
AcDbLine
 10
30.7820381961
 20
159.0960006756
 30
0.0
 11
66.8768195091
 21
159.0960006756
 31
0.0
  0
LINE
  5
2A0
330
A
100
AcDbEntity
  8
1
  6
CONTINUOUS
370
    50
100
AcDbLine
 10
127.8768195091
 20
159.1585006756
 30
0.0
 11
129.6088703167
 21
162.1585006756
 31
0.0
  0
LINE
  5
2A1
330
A
100
AcDbEntity
  8
1
  6
CONTINUOUS
370
    50
100
AcDbLine
 10
129.6088703167
 20
177.1585006756
 30
0.0
 11
127.8768195091
 21
180.1585006756
 31
0.0
  0
LINE
  5
2A2
330
A
100
AcDbEntity
  8
1
  6
CONTINUOUS
370
    50
100
AcDbLine
 10
127.8768195091
 20
180.1585006756
 30
0.0
 11
81.8995676488
 21
180.1585006756
 31
0.0
  0
LINE
  5
2A3
330
A
100
AcDbEntity
  8
1
  6
CONTINUOUS
370
    50
100
AcDbLine
 10
81.8995676488
 20
159.1585006756
 30
0.0
 11
127.8768195091
 21
159.1585006756
 31
0.0
  0
ARC
  5
2A4
330
A
100
AcDbEntity
  8
1
  6
CONTINUOUS
370
    50
100
AcDbCircle
 10
147.9768195091
 20
159.9585006756
 30
0.0
 40
0.5
100
AcDbArc
 50
180.0
 51
270.0
  0
ARC
  5
2A5
330
A
100
AcDbEntity
  8
1
  6
CONTINUOUS
370
    50
100
AcDbCircle
 10
147.9768195091
 20
179.3585006756
 30
0.0
 40
0.5
100
AcDbArc
 50
90.0
 51
180.0
  0
LINE
  5
2A6
330
A
100
AcDbEntity
  8
1
  6
CONTINUOUS
370
    50
100
AcDbLine
 10
147.9768195091
 20
159.4585006756
 30
0.0
 11
157.3613494591
 21
159.4585006756
 31
0.0
  0
LINE
  5
2A7
330
A
100
AcDbEntity
  8
1
  6
CONTINUOUS
370
    50
100
AcDbLine
 10
157.3613494591
 20
179.8585006756
 30
0.0
 11
147.9768195091
 21
179.8585006756
 31
0.0
  0
LINE
  5
2A8
330
A
100
AcDbEntity
  8
1
  6
CONTINUOUS
370
    50
100
AcDbLine
 10
157.3613494591
 20
159.4585006756
 30
0.0
 11
157.476819513
 21
159.6585006756
 31
0.0
  0
LINE
  5
2A9
330
A
100
AcDbEntity
  8
1
  6
CONTINUOUS
370
    50
100
AcDbLine
 10
157.476819513
 20
179.6585006756
 30
0.0
 11
157.3613494591
 21
179.8585006756
 31
0.0
  0
LINE
  5
2AA
330
A
100
AcDbEntity
  8
1
  6
CONTINUOUS
370
    50
100
AcDbLine
 10
157.476819513
 20
159.6585006756
 30
0.0
 11
197.9768195091
 21
159.6585006756
 31
0.0
  0
LINE
  5
2AB
330
A
100
AcDbEntity
  8
1
  6
CONTINUOUS
370
    50
100
AcDbLine
 10
197.9768195091
 20
179.6585006756
 30
0.0
 11
157.476819513
 21
179.6585006756
 31
0.0
  0
LINE
  5
2AC
330
A
100
AcDbEntity
  8
1
  6
CONTINUOUS
370
    50
100
AcDbLine
 10
129.6088703167
 20
162.1585006756
 30
0.0
 11
147.4768195091
 21
162.1585006756
 31
0.0
  0
LINE
  5
2AD
330
A
100
AcDbEntity
  8
1
  6
CONTINUOUS
370
    50
100
AcDbLine
 10
147.4768195091
 20
177.1585006756
 30
0.0
 11
129.6088703167
 21
177.1585006756
 31
0.0
  0
LINE
  5
2AE
330
A
100
AcDbEntity
  8
1
  6
CONTINUOUS
370
    50
100
AcDbLine
 10
125.3768195091
 20
207.1585006756
 30
0.0
 11
125.5768195091
 21
206.9585006756
 31
0.0
  0
LINE
  5
2AF
330
A
100
AcDbEntity
  8
1
  6
CONTINUOUS
370
    50
100
AcDbLine
 10
135.5768195091
 20
206.9585006756
 30
0.0
 11
135.7768195091
 21
207.1585006756
 31
0.0
  0
ARC
  5
2B0
330
A
100
AcDbEntity
  8
1
  6
CONTINUOUS
370
    50
100
AcDbCircle
 10
125.8768195091
 20
202.7585006756
 30
0.0
 40
0.3
100
AcDbArc
 50
180.0
 51
270.0
  0
ARC
  5
2B1
330
A
100
AcDbEntity
  8
1
  6
CONTINUOUS
370
    50
100
AcDbCircle
 10
135.2768195091
 20
202.7585006756
 30
0.0
 40
0.3
100
AcDbArc
 50
270.0
 51
0.0
  0
LINE
  5
2B2
330
A
100
AcDbEntity
  8
1
  6
CONTINUOUS
370
    50
100
AcDbLine
 10
125.5768195091
 20
206.9585006756
 30
0.0
 11
125.5768195091
 21
202.7585006756
 31
0.0
  0
LINE
  5
2B3
330
A
100
AcDbEntity
  8
1
  6
CONTINUOUS
370
    50
100
AcDbLine
 10
135.5768195091
 20
202.7585006756
 30
0.0
 11
135.5768195091
 21
206.9585006756
 31
0.0
  0
LINE
  5
2B4
330
A
100
AcDbEntity
  8
1
  6
CONTINUOUS
370
    50
100
AcDbLine
 10
129.0768195091
 20
202.4585006756
 30
0.0
 11
129.4768195091
 21
202.0585006756
 31
0.0
  0
LINE
  5
2B5
330
A
100
AcDbEntity
  8
1
  6
CONTINUOUS
370
    50
100
AcDbLine
 10
131.6768195091
 20
202.0585006756
 30
0.0
 11
132.0768195091
 21
202.4585006756
 31
0.0
  0
LINE
  5
2B6
330
A
100
AcDbEntity
  8
1
  6
CONTINUOUS
370
    50
100
AcDbLine
 10
129.4768195091
 20
196.0585006756
 30
0.0
 11
130.5768195091
 21
195.6581334179
 31
0.0
  0
LINE
  5
2B7
330
A
100
AcDbEntity
  8
1
  6
CONTINUOUS
370
    50
100
AcDbLine
 10
130.5768195091
 20
195.6581334179
 30
0.0
 11
131.6768195091
 21
196.0585006756
 31
0.0
  0
LINE
  5
2B8
330
A
100
AcDbEntity
  8
1
  6
CONTINUOUS
370
    50
100
AcDbLine
 10
129.4768195091
 20
198.6485006756
 30
0.0
 11
129.4768195091
 21
196.0585006756
 31
0.0
  0
LINE
  5
2B9
330
A
100
AcDbEntity
  8
1
  6
CONTINUOUS
370
    50
100
AcDbLine
 10
131.6768195091
 20
196.0585006756
 30
0.0
 11
131.6768195091
 21
198.6485006756
 31
0.0
  0
LINE
  5
2BA
330
A
100
AcDbEntity
  8
1
  6
CONTINUOUS
370
    50
100
AcDbLine
 10
129.4768195091
 20
202.0585006756
 30
0.0
 11
129.4768195091
 21
198.6585006756
 31
0.0
  0
LINE
  5
2BB
330
A
100
AcDbEntity
  8
1
  6
CONTINUOUS
370
    50
100
AcDbLine
 10
131.6768195091
 20
198.6585006756
 30
0.0
 11
131.6768195091
 21
202.0585006756
 31
0.0
  0
LINE
  5
2BC
330
A
100
AcDbEntity
  8
1
  6
CONTINUOUS
370
    50
100
AcDbLine
 10
102.1786605437
 20
171.4070558998
 30
0.0
 11
127.0932645095
 21
178.5572725824
 31
0.0
  0
LINE
  5
2BD
330
A
100
AcDbEntity
  8
1
  6
CONTINUOUS
370
    50
100
AcDbLine
 10
125.9346789742
 20
182.5943110461
 30
0.0
 11
99.3884006075
 21
174.9758217979
 31
0.0
  0
LINE
  5
2BE
330
A
100
AcDbEntity
  8
1
  6
CONTINUOUS
370
    50
100
AcDbLine
 10
127.1009249539
 20
178.5594710455
 30
0.0
 11
136.2857978269
 21
181.1954283071
 31
0.0
  0
LINE
  5
2BF
330
A
100
AcDbEntity
  8
1
  6
CONTINUOUS
370
    50
100
AcDbLine
 10
129.11837012
 20
183.5079953083
 30
0.0
 11
125.9423394187
 21
182.5965095092
 31
0.0
  0
LINE
  5
2C0
330
A
100
AcDbEntity
  8
1
  6
CONTINUOUS
370
    50
100
AcDbLine
 10
135.1272122916
 20
185.2324667708
 30
0.0
 11
129.11837012
 21
183.5079953083
 31
0.0
  0
LINE
  5
2C1
330
A
100
AcDbEntity
  8
1
  6
CONTINUOUS
370
    50
100
AcDbLine
 10
134.4268195091
 20
194.010023672
 30
0.0
 11
133.0619311306
 21
190.260023672
 31
0.0
  0
LINE
  5
2C2
330
A
100
AcDbEntity
  8
1
  6
CONTINUOUS
370
    50
100
AcDbLine
 10
133.0619311306
 20
190.260023672
 30
0.0
 11
134.4268195091
 21
186.510023672
 31
0.0
  0
LINE
  5
2C3
330
A
100
AcDbEntity
  8
1
  6
CONTINUOUS
370
    50
100
AcDbLine
 10
134.4268195091
 20
186.510023672
 30
0.0
 11
138.5268195091
 21
186.510023672
 31
0.0
  0
LINE
  5
2C4
330
A
100
AcDbEntity
  8
1
  6
CONTINUOUS
370
    50
100
AcDbLine
 10
138.5268195091
 20
194.010023672
 30
0.0
 11
134.4268195091
 21
194.010023672
 31
0.0
  0
LINE
  5
2C5
330
A
100
AcDbEntity
  8
1
  6
CONTINUOUS
370
    50
100
AcDbLine
 10
120.9768195091
 20
182.0466501461
 30
0.0
 11
128.1758992081
 21
179.9805936343
 31
0.0
  0
LINE
  5
2C6
330
A
100
AcDbEntity
  8
1
  6
CONTINUOUS
370
    50
100
AcDbLine
 10
129.4445218813
 20
183.5699060106
 30
0.0
 11
120.9768195091
 21
186.0000432444
 31
0.0
  0
LINE
  5
2C7
330
A
100
AcDbEntity
  8
1
  6
CONTINUOUS
370
    50
100
AcDbLine
 10
134.4775641005
 20
184.6258816661
 30
0.0
 11
134.4045347982
 21
184.2655717855
 31
0.0
  0
LINE
  5
2C8
330
A
100
AcDbEntity
  8
1
  6
CONTINUOUS
370
    50
100
AcDbLine
 10
135.1603596734
 20
181.6319344751
 30
0.0
 11
135.4133472793
 21
181.3651878532
 31
0.0
  0
LINE
  5
2C9
330
A
100
AcDbEntity
  8
1
  6
CONTINUOUS
370
    50
100
AcDbLine
 10
136.8067468979
 20
180.8247516452
 30
0.0
 11
138.5268195091
 21
181.3183935228
 31
0.0
  0
LINE
  5
2CA
330
A
100
AcDbEntity
  8
1
  6
CONTINUOUS
370
    50
100
AcDbLine
 10
138.5268195091
 20
186.7282998678
 30
0.0
 11
135.3723076638
 21
185.8229897431
 31
0.0
  0
LINE
  5
2CB
330
A
100
AcDbEntity
  8
1
  6
CONTINUOUS
370
    50
100
AcDbLine
 10
134.4268195091
 20
169.3947303855
 30
0.0
 11
138.5268195091
 21
169.3947303855
 31
0.0
  0
LINE
  5
2CC
330
A
100
AcDbEntity
  8
1
  6
CONTINUOUS
370
    50
100
AcDbLine
 10
138.5268195091
 20
176.8947303855
 30
0.0
 11
134.4268195091
 21
176.8947303855
 31
0.0
  0
LINE
  5
2CD
330
A
100
AcDbEntity
  8
1
  6
CONTINUOUS
370
    50
100
AcDbLine
 10
134.4268195091
 20
176.8947303855
 30
0.0
 11
133.0619311306
 21
173.1447303855
 31
0.0
  0
LINE
  5
2CE
330
A
100
AcDbEntity
  8
1
  6
CONTINUOUS
370
    50
100
AcDbLine
 10
133.0619311306
 20
173.1447303855
 30
0.0
 11
134.4268195091
 21
169.3947303855
 31
0.0
  0
LINE
  5
2CF
330
A
100
AcDbEntity
  8
1
  6
CONTINUOUS
370
    50
100
AcDbLine
 10
120.7768195091
 20
204.2835006756
 30
0.0
 11
120.7768195091
 21
135.0335006756
 31
0.0
  0
LINE
  5
2D0
330
A
100
AcDbEntity
  8
1
  6
CONTINUOUS
370
    50
100
AcDbLine
 10
120.0197097857
 20
204.3303467821
 30
0.0
 11
120.0197097857
 21
134.9866545691
 31
0.0
  0
LINE
  5
2D1
330
A
100
AcDbEntity
  8
1
  6
CONTINUOUS
370
    50
100
AcDbLine
 10
120.2310189166
 20
204.2835006756
 30
0.0
 11
120.2310189166
 21
135.0335006756
 31
0.0
  0
LINE
  5
2D2
330
A
100
AcDbEntity
  8
1
  6
CONTINUOUS
370
    50
100
AcDbLine
 10
19.6590182048
 20
190.0219912036
 30
0.0
 11
19.6590182048
 21
149.2950101476
 31
0.0
  0
LINE
  5
2D3
330
A
100
AcDbEntity
  8
1
  6
CONTINUOUS
370
    50
100
AcDbLine
 10
66.7768195091
 20
181.6585006756
 30
0.0
 11
29.9520971841
 21
181.6585006756
 31
0.0
  0
LINE
  5
2D4
330
A
100
AcDbEntity
  8
1
  6
CONTINUOUS
370
    50
100
AcDbLine
 10
29.9520971841
 20
157.6585006756
 30
0.0
 11
66.7768195091
 21
157.6585006756
 31
0.0
  0
LINE
  5
2D5
330
A
100
AcDbEntity
  8
1
  6
CONTINUOUS
370
    50
100
AcDbLine
 10
66.7768195091
 20
181.6585006756
 30
0.0
 11
66.7768195091
 21
181.59276342
 31
0.0
  0
LINE
  5
2D6
330
A
100
AcDbEntity
  8
1
  6
CONTINUOUS
370
    50
100
AcDbLine
 10
66.7768195091
 20
181.59276342
 30
0.0
 11
66.7768195091
 21
157.6585006756
 31
0.0
  0
LINE
  5
2D7
330
A
100
AcDbEntity
  8
1
  6
CONTINUOUS
370
    50
100
AcDbLine
 10
66.7768195091
 20
180.2210006756
 30
0.0
 11
66.7768195091
 21
180.1914657833
 31
0.0
  0
LINE
  5
2D8
330
A
100
AcDbEntity
  8
1
  6
CONTINUOUS
370
    50
100
AcDbLine
 10
66.7768195091
 20
180.1914657833
 30
0.0
 11
66.7768195091
 21
169.6585006756
 31
0.0
  0
LINE
  5
2D9
330
A
100
AcDbEntity
  8
1
  6
CONTINUOUS
370
    50
100
AcDbLine
 10
124.9737044576
 20
180.5779902774
 30
0.0
 11
125.1828338141
 21
179.8243484141
 31
0.0
  0
LINE
  5
2DA
330
A
100
AcDbEntity
  8
1
  6
CONTINUOUS
370
    50
100
AcDbLine
 10
125.1828338141
 20
179.8243484141
 30
0.0
 11
125.5230140832
 21
179.1444782674
 31
0.0
  0
LINE
  5
2DB
330
A
100
AcDbEntity
  8
1
  6
CONTINUOUS
370
    50
100
AcDbLine
 10
125.5230140832
 20
179.1444782674
 30
0.0
 11
125.96094605
 21
178.6049302641
 31
0.0
  0
LINE
  5
2DC
330
A
100
AcDbEntity
  8
1
  6
CONTINUOUS
370
    50
100
AcDbLine
 10
125.96094605
 20
178.6049302641
 30
0.0
 11
126.4537618823
 21
178.2585191219
 31
0.0
  0
LINE
  5
2DD
330
A
100
AcDbEntity
  8
1
  6
CONTINUOUS
370
    50
100
AcDbLine
 10
126.4537618823
 20
178.2585191219
 30
0.0
 11
126.9532213329
 21
178.1391539772
 31
0.0
  0
LINE
  5
2DE
330
A
100
AcDbEntity
  8
1
  6
CONTINUOUS
370
    50
100
AcDbLine
 10
126.9532213329
 20
178.1391539772
 30
0.0
 11
127.4104338308
 21
178.2585191219
 31
0.0
  0
LINE
  5
2DF
330
A
100
AcDbEntity
  8
1
  6
CONTINUOUS
370
    50
100
AcDbLine
 10
127.4104338308
 20
178.2585191219
 30
0.0
 11
127.7806442311
 21
178.6049302641
 31
0.0
  0
LINE
  5
2E0
330
A
100
AcDbEntity
  8
1
  6
CONTINUOUS
370
    50
100
AcDbLine
 10
127.7806442311
 20
178.6049302641
 30
0.0
 11
128.0276137603
 21
179.1444782674
 31
0.0
  0
LINE
  5
2E1
330
A
100
AcDbEntity
  8
1
  6
CONTINUOUS
370
    50
100
AcDbLine
 10
128.0276137603
 20
179.1444782674
 30
0.0
 11
128.1271673203
 21
179.8243484141
 31
0.0
  0
LINE
  5
2E2
330
A
100
AcDbEntity
  8
1
  6
CONTINUOUS
370
    50
100
AcDbLine
 10
128.1271673203
 20
179.8243484141
 30
0.0
 11
128.069559915
 21
180.5779902774
 31
0.0
  0
LINE
  5
2E3
330
A
100
AcDbEntity
  8
1
  6
CONTINUOUS
370
    50
100
AcDbLine
 10
128.069559915
 20
180.5779902774
 30
0.0
 11
127.8604305585
 21
181.3316321406
 31
0.0
  0
LINE
  5
2E4
330
A
100
AcDbEntity
  8
1
  6
CONTINUOUS
370
    50
100
AcDbLine
 10
127.8604305585
 20
181.3316321406
 30
0.0
 11
127.5202502894
 21
182.0115022873
 31
0.0
  0
LINE
  5
2E5
330
A
100
AcDbEntity
  8
1
  6
CONTINUOUS
370
    50
100
AcDbLine
 10
127.5202502894
 20
182.0115022873
 30
0.0
 11
127.0823183226
 21
182.5510502907
 31
0.0
  0
LINE
  5
2E6
330
A
100
AcDbEntity
  8
1
  6
CONTINUOUS
370
    50
100
AcDbLine
 10
127.0823183226
 20
182.5510502907
 30
0.0
 11
126.5895024902
 21
182.8974614328
 31
0.0
  0
LINE
  5
2E7
330
A
100
AcDbEntity
  8
1
  6
CONTINUOUS
370
    50
100
AcDbLine
 10
126.5895024902
 20
182.8974614328
 30
0.0
 11
126.0900430396
 21
183.0168265775
 31
0.0
  0
LINE
  5
2E8
330
A
100
AcDbEntity
  8
1
  6
CONTINUOUS
370
    50
100
AcDbLine
 10
126.0900430396
 20
183.0168265775
 30
0.0
 11
125.6328305418
 21
182.8974614328
 31
0.0
  0
LINE
  5
2E9
330
A
100
AcDbEntity
  8
1
  6
CONTINUOUS
370
    50
100
AcDbLine
 10
125.6328305418
 20
182.8974614328
 30
0.0
 11
125.2626201415
 21
182.5510502907
 31
0.0
  0
LINE
  5
2EA
330
A
100
AcDbEntity
  8
1
  6
CONTINUOUS
370
    50
100
AcDbLine
 10
125.2626201415
 20
182.5510502907
 30
0.0
 11
125.0156506122
 21
182.0115022873
 31
0.0
  0
LINE
  5
2EB
330
A
100
AcDbEntity
  8
1
  6
CONTINUOUS
370
    50
100
AcDbLine
 10
125.0156506122
 20
182.0115022873
 30
0.0
 11
124.9160970522
 21
181.3316321406
 31
0.0
  0
LINE
  5
2EC
330
A
100
AcDbEntity
  8
1
  6
CONTINUOUS
370
    50
100
AcDbLine
 10
124.9160970522
 20
181.3316321406
 30
0.0
 11
124.9737044576
 21
180.5779902774
 31
0.0
  0
LINE
  5
2ED
330
A
100
AcDbEntity
  8
1
  6
CONTINUOUS
370
    50
100
AcDbLine
 10
134.4649951078
 20
183.3018860631
 30
0.0
 11
134.4073877025
 21
184.0555279264
 31
0.0
  0
LINE
  5
2EE
330
A
100
AcDbEntity
  8
1
  6
CONTINUOUS
370
    50
100
AcDbLine
 10
134.4073877025
 20
184.0555279264
 30
0.0
 11
134.5069412625
 21
184.7353980731
 31
0.0
  0
LINE
  5
2EF
330
A
100
AcDbEntity
  8
1
  6
CONTINUOUS
370
    50
100
AcDbLine
 10
134.5069412625
 20
184.7353980731
 30
0.0
 11
134.7539107917
 21
185.2749460764
 31
0.0
  0
LINE
  5
2F0
330
A
100
AcDbEntity
  8
1
  6
CONTINUOUS
370
    50
100
AcDbLine
 10
134.7539107917
 20
185.2749460764
 30
0.0
 11
135.124121192
 21
185.6213572185
 31
0.0
  0
LINE
  5
2F1
330
A
100
AcDbEntity
  8
1
  6
CONTINUOUS
370
    50
100
AcDbLine
 10
135.124121192
 20
185.6213572185
 30
0.0
 11
135.5813336899
 21
185.7407223632
 31
0.0
  0
LINE
  5
2F2
330
A
100
AcDbEntity
  8
1
  6
CONTINUOUS
370
    50
100
AcDbLine
 10
135.5813336899
 20
185.7407223632
 30
0.0
 11
136.0807931405
 21
185.6213572185
 31
0.0
  0
LINE
  5
2F3
330
A
100
AcDbEntity
  8
1
  6
CONTINUOUS
370
    50
100
AcDbLine
 10
136.0807931405
 20
185.6213572185
 30
0.0
 11
136.5736089728
 21
185.2749460764
 31
0.0
  0
LINE
  5
2F4
330
A
100
AcDbEntity
  8
1
  6
CONTINUOUS
370
    50
100
AcDbLine
 10
136.5736089728
 20
185.2749460764
 30
0.0
 11
137.0115409397
 21
184.7353980731
 31
0.0
  0
LINE
  5
2F5
330
A
100
AcDbEntity
  8
1
  6
CONTINUOUS
370
    50
100
AcDbLine
 10
137.0115409397
 20
184.7353980731
 30
0.0
 11
137.3517212088
 21
184.0555279264
 31
0.0
  0
LINE
  5
2F6
330
A
100
AcDbEntity
  8
1
  6
CONTINUOUS
370
    50
100
AcDbLine
 10
137.3517212088
 20
184.0555279264
 30
0.0
 11
137.5608505652
 21
183.3018860631
 31
0.0
  0
LINE
  5
2F7
330
A
100
AcDbEntity
  8
1
  6
CONTINUOUS
370
    50
100
AcDbLine
 10
137.5608505652
 20
183.3018860631
 30
0.0
 11
137.6184579706
 21
182.5482441999
 31
0.0
  0
LINE
  5
2F8
330
A
100
AcDbEntity
  8
1
  6
CONTINUOUS
370
    50
100
AcDbLine
 10
137.6184579706
 20
182.5482441999
 30
0.0
 11
137.5189044106
 21
181.8683740532
 31
0.0
  0
LINE
  5
2F9
330
A
100
AcDbEntity
  8
1
  6
CONTINUOUS
370
    50
100
AcDbLine
 10
137.5189044106
 20
181.8683740532
 30
0.0
 11
137.2719348813
 21
181.3288260498
 31
0.0
  0
LINE
  5
2FA
330
A
100
AcDbEntity
  8
1
  6
CONTINUOUS
370
    50
100
AcDbLine
 10
137.2719348813
 20
181.3288260498
 30
0.0
 11
136.901724481
 21
180.9824149077
 31
0.0
  0
LINE
  5
2FB
330
A
100
AcDbEntity
  8
1
  6
CONTINUOUS
370
    50
100
AcDbLine
 10
136.901724481
 20
180.9824149077
 30
0.0
 11
136.4445119832
 21
180.863049763
 31
0.0
  0
LINE
  5
2FC
330
A
100
AcDbEntity
  8
1
  6
CONTINUOUS
370
    50
100
AcDbLine
 10
136.4445119832
 20
180.863049763
 30
0.0
 11
135.9450525326
 21
180.9824149077
 31
0.0
  0
LINE
  5
2FD
330
A
100
AcDbEntity
  8
1
  6
CONTINUOUS
370
    50
100
AcDbLine
 10
135.9450525326
 20
180.9824149077
 30
0.0
 11
135.4522367002
 21
181.3288260498
 31
0.0
  0
LINE
  5
2FE
330
A
100
AcDbEntity
  8
1
  6
CONTINUOUS
370
    50
100
AcDbLine
 10
135.4522367002
 20
181.3288260498
 30
0.0
 11
135.0143047334
 21
181.8683740532
 31
0.0
  0
LINE
  5
2FF
330
A
100
AcDbEntity
  8
1
  6
CONTINUOUS
370
    50
100
AcDbLine
 10
135.0143047334
 20
181.8683740532
 30
0.0
 11
134.6741244643
 21
182.5482441999
 31
0.0
  0
LINE
  5
300
330
A
100
AcDbEntity
  8
1
  6
CONTINUOUS
370
    50
100
AcDbLine
 10
134.6741244643
 20
182.5482441999
 30
0.0
 11
134.4649951078
 21
183.3018860631
 31
0.0
  0
LINE
  5
301
330
A
100
AcDbEntity
  8
1
  6
CONTINUOUS
370
    50
100
AcDbLine
 10
128.069559915
 20
158.7390110738
 30
0.0
 11
127.8604305585
 21
157.9853692106
 31
0.0
  0
LINE
  5
302
330
A
100
AcDbEntity
  8
1
  6
CONTINUOUS
370
    50
100
AcDbLine
 10
127.8604305585
 20
157.9853692106
 30
0.0
 11
127.5202502894
 21
157.3054990639
 31
0.0
  0
LINE
  5
303
330
A
100
AcDbEntity
  8
1
  6
CONTINUOUS
370
    50
100
AcDbLine
 10
127.5202502894
 20
157.3054990639
 30
0.0
 11
127.0823183226
 21
156.7659510605
 31
0.0
  0
LINE
  5
304
330
A
100
AcDbEntity
  8
1
  6
CONTINUOUS
370
    50
100
AcDbLine
 10
127.0823183226
 20
156.7659510605
 30
0.0
 11
126.5895024902
 21
156.4195399184
 31
0.0
  0
LINE
  5
305
330
A
100
AcDbEntity
  8
1
  6
CONTINUOUS
370
    50
100
AcDbLine
 10
126.5895024902
 20
156.4195399184
 30
0.0
 11
126.0900430396
 21
156.3001747737
 31
0.0
  0
LINE
  5
306
330
A
100
AcDbEntity
  8
1
  6
CONTINUOUS
370
    50
100
AcDbLine
 10
126.0900430396
 20
156.3001747737
 30
0.0
 11
125.6328305418
 21
156.4195399184
 31
0.0
  0
LINE
  5
307
330
A
100
AcDbEntity
  8
1
  6
CONTINUOUS
370
    50
100
AcDbLine
 10
125.6328305418
 20
156.4195399184
 30
0.0
 11
125.2626201415
 21
156.7659510605
 31
0.0
  0
LINE
  5
308
330
A
100
AcDbEntity
  8
1
  6
CONTINUOUS
370
    50
100
AcDbLine
 10
125.2626201415
 20
156.7659510605
 30
0.0
 11
125.0156506122
 21
157.3054990639
 31
0.0
  0
LINE
  5
309
330
A
100
AcDbEntity
  8
1
  6
CONTINUOUS
370
    50
100
AcDbLine
 10
125.0156506122
 20
157.3054990639
 30
0.0
 11
124.9160970522
 21
157.9853692106
 31
0.0
  0
LINE
  5
30A
330
A
100
AcDbEntity
  8
1
  6
CONTINUOUS
370
    50
100
AcDbLine
 10
124.9160970522
 20
157.9853692106
 30
0.0
 11
124.9737044576
 21
158.7390110738
 31
0.0
  0
LINE
  5
30B
330
A
100
AcDbEntity
  8
1
  6
CONTINUOUS
370
    50
100
AcDbLine
 10
124.9737044576
 20
158.7390110738
 30
0.0
 11
125.1828338141
 21
159.4926529371
 31
0.0
  0
LINE
  5
30C
330
A
100
AcDbEntity
  8
1
  6
CONTINUOUS
370
    50
100
AcDbLine
 10
125.1828338141
 20
159.4926529371
 30
0.0
 11
125.5230140832
 21
160.1725230838
 31
0.0
  0
LINE
  5
30D
330
A
100
AcDbEntity
  8
1
  6
CONTINUOUS
370
    50
100
AcDbLine
 10
125.5230140832
 20
160.1725230838
 30
0.0
 11
125.96094605
 21
160.7120710871
 31
0.0
  0
LINE
  5
30E
330
A
100
AcDbEntity
  8
1
  6
CONTINUOUS
370
    50
100
AcDbLine
 10
125.96094605
 20
160.7120710871
 30
0.0
 11
126.4537618823
 21
161.0584822292
 31
0.0
  0
LINE
  5
30F
330
A
100
AcDbEntity
  8
1
  6
CONTINUOUS
370
    50
100
AcDbLine
 10
126.4537618823
 20
161.0584822292
 30
0.0
 11
126.9532213329
 21
161.1778473739
 31
0.0
  0
LINE
  5
310
330
A
100
AcDbEntity
  8
1
  6
CONTINUOUS
370
    50
100
AcDbLine
 10
126.9532213329
 20
161.1778473739
 30
0.0
 11
127.4104338308
 21
161.0584822292
 31
0.0
  0
LINE
  5
311
330
A
100
AcDbEntity
  8
1
  6
CONTINUOUS
370
    50
100
AcDbLine
 10
127.4104338308
 20
161.0584822292
 30
0.0
 11
127.7806442311
 21
160.7120710871
 31
0.0
  0
LINE
  5
312
330
A
100
AcDbEntity
  8
1
  6
CONTINUOUS
370
    50
100
AcDbLine
 10
127.7806442311
 20
160.7120710871
 30
0.0
 11
128.0276137603
 21
160.1725230838
 31
0.0
  0
LINE
  5
313
330
A
100
AcDbEntity
  8
1
  6
CONTINUOUS
370
    50
100
AcDbLine
 10
128.0276137603
 20
160.1725230838
 30
0.0
 11
128.1271673203
 21
159.4926529371
 31
0.0
  0
LINE
  5
314
330
A
100
AcDbEntity
  8
1
  6
CONTINUOUS
370
    50
100
AcDbLine
 10
128.1271673203
 20
159.4926529371
 30
0.0
 11
128.069559915
 21
158.7390110738
 31
0.0
  0
LINE
  5
315
330
A
100
AcDbEntity
  8
1
  6
CONTINUOUS
370
    50
100
AcDbLine
 10
137.5608505652
 20
156.0151152881
 30
0.0
 11
137.6184579706
 21
156.7687571513
 31
0.0
  0
LINE
  5
316
330
A
100
AcDbEntity
  8
1
  6
CONTINUOUS
370
    50
100
AcDbLine
 10
137.6184579706
 20
156.7687571513
 30
0.0
 11
137.5189044106
 21
157.448627298
 31
0.0
  0
LINE
  5
317
330
A
100
AcDbEntity
  8
1
  6
CONTINUOUS
370
    50
100
AcDbLine
 10
137.5189044106
 20
157.448627298
 30
0.0
 11
137.2719348813
 21
157.9881753014
 31
0.0
  0
LINE
  5
318
330
A
100
AcDbEntity
  8
1
  6
CONTINUOUS
370
    50
100
AcDbLine
 10
137.2719348813
 20
157.9881753014
 30
0.0
 11
136.901724481
 21
158.3345864435
 31
0.0
  0
LINE
  5
319
330
A
100
AcDbEntity
  8
1
  6
CONTINUOUS
370
    50
100
AcDbLine
 10
136.901724481
 20
158.3345864435
 30
0.0
 11
136.4445119832
 21
158.4539515882
 31
0.0
  0
LINE
  5
31A
330
A
100
AcDbEntity
  8
1
  6
CONTINUOUS
370
    50
100
AcDbLine
 10
136.4445119832
 20
158.4539515882
 30
0.0
 11
135.9450525326
 21
158.3345864435
 31
0.0
  0
LINE
  5
31B
330
A
100
AcDbEntity
  8
1
  6
CONTINUOUS
370
    50
100
AcDbLine
 10
135.9450525326
 20
158.3345864435
 30
0.0
 11
135.4522367002
 21
157.9881753014
 31
0.0
  0
LINE
  5
31C
330
A
100
AcDbEntity
  8
1
  6
CONTINUOUS
370
    50
100
AcDbLine
 10
135.4522367002
 20
157.9881753014
 30
0.0
 11
135.0143047334
 21
157.448627298
 31
0.0
  0
LINE
  5
31D
330
A
100
AcDbEntity
  8
1
  6
CONTINUOUS
370
    50
100
AcDbLine
 10
135.0143047334
 20
157.448627298
 30
0.0
 11
134.6741244643
 21
156.7687571513
 31
0.0
  0
LINE
  5
31E
330
A
100
AcDbEntity
  8
1
  6
CONTINUOUS
370
    50
100
AcDbLine
 10
134.6741244643
 20
156.7687571513
 30
0.0
 11
134.4649951078
 21
156.0151152881
 31
0.0
  0
LINE
  5
31F
330
A
100
AcDbEntity
  8
1
  6
CONTINUOUS
370
    50
100
AcDbLine
 10
134.4649951078
 20
156.0151152881
 30
0.0
 11
134.4073877025
 21
155.2614734248
 31
0.0
  0
LINE
  5
320
330
A
100
AcDbEntity
  8
1
  6
CONTINUOUS
370
    50
100
AcDbLine
 10
134.4073877025
 20
155.2614734248
 30
0.0
 11
134.5069412625
 21
154.5816032781
 31
0.0
  0
LINE
  5
321
330
A
100
AcDbEntity
  8
1
  6
CONTINUOUS
370
    50
100
AcDbLine
 10
134.5069412625
 20
154.5816032781
 30
0.0
 11
134.7539107917
 21
154.0420552748
 31
0.0
  0
LINE
  5
322
330
A
100
AcDbEntity
  8
1
  6
CONTINUOUS
370
    50
100
AcDbLine
 10
134.7539107917
 20
154.0420552748
 30
0.0
 11
135.124121192
 21
153.6956441327
 31
0.0
  0
LINE
  5
323
330
A
100
AcDbEntity
  8
1
  6
CONTINUOUS
370
    50
100
AcDbLine
 10
135.124121192
 20
153.6956441327
 30
0.0
 11
135.5813336899
 21
153.5762789879
 31
0.0
  0
LINE
  5
324
330
A
100
AcDbEntity
  8
1
  6
CONTINUOUS
370
    50
100
AcDbLine
 10
135.5813336899
 20
153.5762789879
 30
0.0
 11
136.0807931405
 21
153.6956441327
 31
0.0
  0
LINE
  5
325
330
A
100
AcDbEntity
  8
1
  6
CONTINUOUS
370
    50
100
AcDbLine
 10
136.0807931405
 20
153.6956441327
 30
0.0
 11
136.5736089728
 21
154.0420552748
 31
0.0
  0
LINE
  5
326
330
A
100
AcDbEntity
  8
1
  6
CONTINUOUS
370
    50
100
AcDbLine
 10
136.5736089728
 20
154.0420552748
 30
0.0
 11
137.0115409397
 21
154.5816032781
 31
0.0
  0
LINE
  5
327
330
A
100
AcDbEntity
  8
1
  6
CONTINUOUS
370
    50
100
AcDbLine
 10
137.0115409397
 20
154.5816032781
 30
0.0
 11
137.3517212088
 21
155.2614734248
 31
0.0
  0
LINE
  5
328
330
A
100
AcDbEntity
  8
1
  6
CONTINUOUS
370
    50
100
AcDbLine
 10
137.3517212088
 20
155.2614734248
 30
0.0
 11
137.5608505652
 21
156.0151152881
 31
0.0
  0
LINE
  5
329
330
A
100
AcDbEntity
  8
1
  6
CONTINUOUS
370
    50
100
AcDbLine
 10
128.0618994706
 20
158.7412095369
 30
0.0
 11
127.8527701141
 21
157.9875676737
 31
0.0
  0
LINE
  5
32A
330
A
100
AcDbEntity
  8
1
  6
CONTINUOUS
370
    50
100
AcDbLine
 10
127.8527701141
 20
157.9875676737
 30
0.0
 11
127.512589845
 21
157.307697527
 31
0.0
  0
LINE
  5
32B
330
A
100
AcDbEntity
  8
1
  6
CONTINUOUS
370
    50
100
AcDbLine
 10
127.512589845
 20
157.307697527
 30
0.0
 11
127.0746578782
 21
156.7681495236
 31
0.0
  0
LINE
  5
32C
330
A
100
AcDbEntity
  8
1
  6
CONTINUOUS
370
    50
100
AcDbLine
 10
127.0746578782
 20
156.7681495236
 30
0.0
 11
126.5818420458
 21
156.4217383815
 31
0.0
  0
LINE
  5
32D
330
A
100
AcDbEntity
  8
1
  6
CONTINUOUS
370
    50
100
AcDbLine
 10
126.5818420458
 20
156.4217383815
 30
0.0
 11
126.0823825952
 21
156.3023732368
 31
0.0
  0
LINE
  5
32E
330
A
100
AcDbEntity
  8
1
  6
CONTINUOUS
370
    50
100
AcDbLine
 10
126.0823825952
 20
156.3023732368
 30
0.0
 11
125.6251700973
 21
156.4217383815
 31
0.0
  0
LINE
  5
32F
330
A
100
AcDbEntity
  8
1
  6
CONTINUOUS
370
    50
100
AcDbLine
 10
125.6251700973
 20
156.4217383815
 30
0.0
 11
125.2549596971
 21
156.7681495236
 31
0.0
  0
LINE
  5
330
330
A
100
AcDbEntity
  8
1
  6
CONTINUOUS
370
    50
100
AcDbLine
 10
125.2549596971
 20
156.7681495236
 30
0.0
 11
125.0079901678
 21
157.307697527
 31
0.0
  0
LINE
  5
331
330
A
100
AcDbEntity
  8
1
  6
CONTINUOUS
370
    50
100
AcDbLine
 10
125.0079901678
 20
157.307697527
 30
0.0
 11
124.9084366078
 21
157.9875676737
 31
0.0
  0
LINE
  5
332
330
A
100
AcDbEntity
  8
1
  6
CONTINUOUS
370
    50
100
AcDbLine
 10
124.9084366078
 20
157.9875676737
 30
0.0
 11
124.9660440131
 21
158.7412095369
 31
0.0
  0
LINE
  5
333
330
A
100
AcDbEntity
  8
1
  6
CONTINUOUS
370
    50
100
AcDbLine
 10
124.9660440131
 20
158.7412095369
 30
0.0
 11
125.1751733696
 21
159.4948514002
 31
0.0
  0
LINE
  5
334
330
A
100
AcDbEntity
  8
1
  6
CONTINUOUS
370
    50
100
AcDbLine
 10
125.1751733696
 20
159.4948514002
 30
0.0
 11
125.5153536387
 21
160.1747215469
 31
0.0
  0
LINE
  5
335
330
A
100
AcDbEntity
  8
1
  6
CONTINUOUS
370
    50
100
AcDbLine
 10
125.5153536387
 20
160.1747215469
 30
0.0
 11
125.9532856055
 21
160.7142695502
 31
0.0
  0
LINE
  5
336
330
A
100
AcDbEntity
  8
1
  6
CONTINUOUS
370
    50
100
AcDbLine
 10
125.9532856055
 20
160.7142695502
 30
0.0
 11
126.4461014379
 21
161.0606806923
 31
0.0
  0
LINE
  5
337
330
A
100
AcDbEntity
  8
1
  6
CONTINUOUS
370
    50
100
AcDbLine
 10
126.4461014379
 20
161.0606806923
 30
0.0
 11
126.9455608885
 21
161.1800458371
 31
0.0
  0
LINE
  5
338
330
A
100
AcDbEntity
  8
1
  6
CONTINUOUS
370
    50
100
AcDbLine
 10
126.9455608885
 20
161.1800458371
 30
0.0
 11
127.4027733864
 21
161.0606806923
 31
0.0
  0
LINE
  5
339
330
A
100
AcDbEntity
  8
1
  6
CONTINUOUS
370
    50
100
AcDbLine
 10
127.4027733864
 20
161.0606806923
 30
0.0
 11
127.7729837866
 21
160.7142695502
 31
0.0
  0
LINE
  5
33A
330
A
100
AcDbEntity
  8
1
  6
CONTINUOUS
370
    50
100
AcDbLine
 10
127.7729837866
 20
160.7142695502
 30
0.0
 11
128.0199533159
 21
160.1747215469
 31
0.0
  0
LINE
  5
33B
330
A
100
AcDbEntity
  8
1
  6
CONTINUOUS
370
    50
100
AcDbLine
 10
128.0199533159
 20
160.1747215469
 30
0.0
 11
128.1195068759
 21
159.4948514002
 31
0.0
  0
LINE
  5
33C
330
A
100
AcDbEntity
  8
1
  6
CONTINUOUS
370
    50
100
AcDbLine
 10
128.1195068759
 20
159.4948514002
 30
0.0
 11
128.0618994706
 21
158.7412095369
 31
0.0
  0
LINE
  5
33D
330
A
100
AcDbEntity
  8
1
  6
CONTINUOUS
370
    50
100
AcDbLine
 10
137.5608505652
 20
156.0151152881
 30
0.0
 11
137.6184579706
 21
156.7687571513
 31
0.0
  0
LINE
  5
33E
330
A
100
AcDbEntity
  8
1
  6
CONTINUOUS
370
    50
100
AcDbLine
 10
137.6184579706
 20
156.7687571513
 30
0.0
 11
137.5189044106
 21
157.448627298
 31
0.0
  0
LINE
  5
33F
330
A
100
AcDbEntity
  8
1
  6
CONTINUOUS
370
    50
100
AcDbLine
 10
137.5189044106
 20
157.448627298
 30
0.0
 11
137.2719348813
 21
157.9881753014
 31
0.0
  0
LINE
  5
340
330
A
100
AcDbEntity
  8
1
  6
CONTINUOUS
370
    50
100
AcDbLine
 10
137.2719348813
 20
157.9881753014
 30
0.0
 11
136.901724481
 21
158.3345864435
 31
0.0
  0
LINE
  5
341
330
A
100
AcDbEntity
  8
1
  6
CONTINUOUS
370
    50
100
AcDbLine
 10
136.901724481
 20
158.3345864435
 30
0.0
 11
136.4445119832
 21
158.4539515882
 31
0.0
  0
LINE
  5
342
330
A
100
AcDbEntity
  8
1
  6
CONTINUOUS
370
    50
100
AcDbLine
 10
136.4445119832
 20
158.4539515882
 30
0.0
 11
135.9450525326
 21
158.3345864435
 31
0.0
  0
LINE
  5
343
330
A
100
AcDbEntity
  8
1
  6
CONTINUOUS
370
    50
100
AcDbLine
 10
135.9450525326
 20
158.3345864435
 30
0.0
 11
135.4522367002
 21
157.9881753014
 31
0.0
  0
LINE
  5
344
330
A
100
AcDbEntity
  8
1
  6
CONTINUOUS
370
    50
100
AcDbLine
 10
135.4522367002
 20
157.9881753014
 30
0.0
 11
135.0143047334
 21
157.448627298
 31
0.0
  0
LINE
  5
345
330
A
100
AcDbEntity
  8
1
  6
CONTINUOUS
370
    50
100
AcDbLine
 10
135.0143047334
 20
157.448627298
 30
0.0
 11
134.6741244643
 21
156.7687571513
 31
0.0
  0
LINE
  5
346
330
A
100
AcDbEntity
  8
1
  6
CONTINUOUS
370
    50
100
AcDbLine
 10
134.6741244643
 20
156.7687571513
 30
0.0
 11
134.4649951078
 21
156.0151152881
 31
0.0
  0
LINE
  5
347
330
A
100
AcDbEntity
  8
1
  6
CONTINUOUS
370
    50
100
AcDbLine
 10
134.4649951078
 20
156.0151152881
 30
0.0
 11
134.4073877025
 21
155.2614734248
 31
0.0
  0
LINE
  5
348
330
A
100
AcDbEntity
  8
1
  6
CONTINUOUS
370
    50
100
AcDbLine
 10
134.4073877025
 20
155.2614734248
 30
0.0
 11
134.5069412625
 21
154.5816032781
 31
0.0
  0
LINE
  5
349
330
A
100
AcDbEntity
  8
1
  6
CONTINUOUS
370
    50
100
AcDbLine
 10
134.5069412625
 20
154.5816032781
 30
0.0
 11
134.7539107917
 21
154.0420552748
 31
0.0
  0
LINE
  5
34A
330
A
100
AcDbEntity
  8
1
  6
CONTINUOUS
370
    50
100
AcDbLine
 10
134.7539107917
 20
154.0420552748
 30
0.0
 11
135.124121192
 21
153.6956441327
 31
0.0
  0
LINE
  5
34B
330
A
100
AcDbEntity
  8
1
  6
CONTINUOUS
370
    50
100
AcDbLine
 10
135.124121192
 20
153.6956441327
 30
0.0
 11
135.5813336899
 21
153.5762789879
 31
0.0
  0
LINE
  5
34C
330
A
100
AcDbEntity
  8
1
  6
CONTINUOUS
370
    50
100
AcDbLine
 10
135.5813336899
 20
153.5762789879
 30
0.0
 11
136.0807931405
 21
153.6956441327
 31
0.0
  0
LINE
  5
34D
330
A
100
AcDbEntity
  8
1
  6
CONTINUOUS
370
    50
100
AcDbLine
 10
136.0807931405
 20
153.6956441327
 30
0.0
 11
136.5736089728
 21
154.0420552748
 31
0.0
  0
LINE
  5
34E
330
A
100
AcDbEntity
  8
1
  6
CONTINUOUS
370
    50
100
AcDbLine
 10
136.5736089728
 20
154.0420552748
 30
0.0
 11
137.0115409397
 21
154.5816032781
 31
0.0
  0
LINE
  5
34F
330
A
100
AcDbEntity
  8
1
  6
CONTINUOUS
370
    50
100
AcDbLine
 10
137.0115409397
 20
154.5816032781
 30
0.0
 11
137.3517212088
 21
155.2614734248
 31
0.0
  0
LINE
  5
350
330
A
100
AcDbEntity
  8
1
  6
CONTINUOUS
370
    50
100
AcDbLine
 10
137.3517212088
 20
155.2614734248
 30
0.0
 11
137.5608505652
 21
156.0151152881
 31
0.0
  0
LINE
  5
351
330
A
100
AcDbEntity
  8
1
  6
CONTINUOUS
370
    50
100
AcDbLine
 10
128.069559915
 20
158.7390110738
 30
0.0
 11
127.8604305585
 21
157.9853692106
 31
0.0
  0
LINE
  5
352
330
A
100
AcDbEntity
  8
1
  6
CONTINUOUS
370
    50
100
AcDbLine
 10
127.8604305585
 20
157.9853692106
 30
0.0
 11
127.5202502894
 21
157.3054990639
 31
0.0
  0
LINE
  5
353
330
A
100
AcDbEntity
  8
1
  6
CONTINUOUS
370
    50
100
AcDbLine
 10
127.5202502894
 20
157.3054990639
 30
0.0
 11
127.0823183226
 21
156.7659510605
 31
0.0
  0
LINE
  5
354
330
A
100
AcDbEntity
  8
1
  6
CONTINUOUS
370
    50
100
AcDbLine
 10
127.0823183226
 20
156.7659510605
 30
0.0
 11
126.5895024902
 21
156.4195399184
 31
0.0
  0
LINE
  5
355
330
A
100
AcDbEntity
  8
1
  6
CONTINUOUS
370
    50
100
AcDbLine
 10
126.5895024902
 20
156.4195399184
 30
0.0
 11
126.0900430396
 21
156.3001747737
 31
0.0
  0
LINE
  5
356
330
A
100
AcDbEntity
  8
1
  6
CONTINUOUS
370
    50
100
AcDbLine
 10
126.0900430396
 20
156.3001747737
 30
0.0
 11
125.6328305418
 21
156.4195399184
 31
0.0
  0
LINE
  5
357
330
A
100
AcDbEntity
  8
1
  6
CONTINUOUS
370
    50
100
AcDbLine
 10
125.6328305418
 20
156.4195399184
 30
0.0
 11
125.2626201415
 21
156.7659510605
 31
0.0
  0
LINE
  5
358
330
A
100
AcDbEntity
  8
1
  6
CONTINUOUS
370
    50
100
AcDbLine
 10
125.2626201415
 20
156.7659510605
 30
0.0
 11
125.0156506122
 21
157.3054990639
 31
0.0
  0
LINE
  5
359
330
A
100
AcDbEntity
  8
1
  6
CONTINUOUS
370
    50
100
AcDbLine
 10
125.0156506122
 20
157.3054990639
 30
0.0
 11
124.9160970522
 21
157.9853692106
 31
0.0
  0
LINE
  5
35A
330
A
100
AcDbEntity
  8
1
  6
CONTINUOUS
370
    50
100
AcDbLine
 10
124.9160970522
 20
157.9853692106
 30
0.0
 11
124.9737044576
 21
158.7390110738
 31
0.0
  0
LINE
  5
35B
330
A
100
AcDbEntity
  8
1
  6
CONTINUOUS
370
    50
100
AcDbLine
 10
124.9737044576
 20
158.7390110738
 30
0.0
 11
125.1828338141
 21
159.4926529371
 31
0.0
  0
LINE
  5
35C
330
A
100
AcDbEntity
  8
1
  6
CONTINUOUS
370
    50
100
AcDbLine
 10
125.1828338141
 20
159.4926529371
 30
0.0
 11
125.5230140832
 21
160.1725230838
 31
0.0
  0
LINE
  5
35D
330
A
100
AcDbEntity
  8
1
  6
CONTINUOUS
370
    50
100
AcDbLine
 10
125.5230140832
 20
160.1725230838
 30
0.0
 11
125.96094605
 21
160.7120710871
 31
0.0
  0
LINE
  5
35E
330
A
100
AcDbEntity
  8
1
  6
CONTINUOUS
370
    50
100
AcDbLine
 10
125.96094605
 20
160.7120710871
 30
0.0
 11
126.4537618823
 21
161.0584822292
 31
0.0
  0
LINE
  5
35F
330
A
100
AcDbEntity
  8
1
  6
CONTINUOUS
370
    50
100
AcDbLine
 10
126.4537618823
 20
161.0584822292
 30
0.0
 11
126.9532213329
 21
161.1778473739
 31
0.0
  0
LINE
  5
360
330
A
100
AcDbEntity
  8
1
  6
CONTINUOUS
370
    50
100
AcDbLine
 10
126.9532213329
 20
161.1778473739
 30
0.0
 11
127.4104338308
 21
161.0584822292
 31
0.0
  0
LINE
  5
361
330
A
100
AcDbEntity
  8
1
  6
CONTINUOUS
370
    50
100
AcDbLine
 10
127.4104338308
 20
161.0584822292
 30
0.0
 11
127.7806442311
 21
160.7120710871
 31
0.0
  0
LINE
  5
362
330
A
100
AcDbEntity
  8
1
  6
CONTINUOUS
370
    50
100
AcDbLine
 10
127.7806442311
 20
160.7120710871
 30
0.0
 11
128.0276137603
 21
160.1725230838
 31
0.0
  0
LINE
  5
363
330
A
100
AcDbEntity
  8
1
  6
CONTINUOUS
370
    50
100
AcDbLine
 10
128.0276137603
 20
160.1725230838
 30
0.0
 11
128.1271673203
 21
159.4926529371
 31
0.0
  0
LINE
  5
364
330
A
100
AcDbEntity
  8
1
  6
CONTINUOUS
370
    50
100
AcDbLine
 10
128.1271673203
 20
159.4926529371
 30
0.0
 11
128.069559915
 21
158.7390110738
 31
0.0
  0
LINE
  5
365
330
A
100
AcDbEntity
  8
1
  6
CONTINUOUS
370
    50
100
AcDbLine
 10
147.4688703167
 20
177.6585006756
 30
0.0
 11
129.6088703167
 21
177.6585006756
 31
0.0
  0
LINE
  5
366
330
A
100
AcDbEntity
  8
1
  6
CONTINUOUS
370
    50
100
AcDbLine
 10
129.6088703167
 20
161.6585006756
 30
0.0
 11
147.4688703167
 21
161.6585006756
 31
0.0
  0
LINE
  5
367
330
A
100
AcDbEntity
  8
1
  6
CONTINUOUS
370
    50
100
AcDbLine
 10
147.4688703167
 20
177.6585006756
 30
0.0
 11
147.4688703167
 21
177.5937041577
 31
0.0
  0
LINE
  5
368
330
A
100
AcDbEntity
  8
1
  6
CONTINUOUS
370
    50
100
AcDbLine
 10
147.4688703167
 20
177.5937041577
 30
0.0
 11
147.4688703167
 21
161.6585006756
 31
0.0
  0
ENDSEC
  0
SECTION
  2
OBJECTS
  0
DICTIONARY
  5
19
330
0
100
AcDbDictionary
281
     1
  3
ACAD_GROUP
350
1A
  3
ACAD_LAYOUT
350
38D
  3
ACAD_MATERIAL
350
3A1
  3
ACAD_MLEADERSTYLE
350
3A9
  3
ACAD_MLINESTYLE
350
1B
  3
ACAD_SCALELIST
350
36B
  3
ACAD_VISUALSTYLE
350
390
  3
ACDB_RECOMPOSE_DATA
350
3D6
  3
AcDbVariableDictionary
350
3A7
  0
DICTIONARY
  5
3AD
330
7
100
AcDbDictionary
280
     1
281
     1
  3
ACAD_XREC_ROUNDTRIP
360
3AE
  0
DICTIONARY
  5
1A
102
{ACAD_REACTORS
330
19
102
}
330
19
100
AcDbDictionary
281
     1
  0
DICTIONARY
  5
38D
102
{ACAD_REACTORS
330
19
102
}
330
19
100
AcDbDictionary
281
     1
  3
Layout1
350
38F
  3
Model
350
38E
  0
DICTIONARY
  5
3A1
102
{ACAD_REACTORS
330
19
102
}
330
19
100
AcDbDictionary
281
     1
  3
ByBlock
350
3A3
  3
ByLayer
350
3A2
  3
Global
350
3A4
  0
DICTIONARY
  5
3A9
102
{ACAD_REACTORS
330
19
102
}
330
19
100
AcDbDictionary
281
     1
  0
DICTIONARY
  5
1B
102
{ACAD_REACTORS
330
19
102
}
330
19
100
AcDbDictionary
281
     1
  3
STANDARD
350
1C
  0
DICTIONARY
  5
36B
102
{ACAD_REACTORS
330
19
102
}
330
19
100
AcDbDictionary
281
     1
  3
A0
350
36C
  3
A1
350
36D
  3
A2
350
36E
  3
A3
350
36F
  3
A4
350
370
  3
A5
350
371
  3
A6
350
372
  3
A7
350
373
  3
A8
350
374
  3
A9
350
375
  3
B0
350
376
  3
B1
350
377
  3
B2
350
378
  3
B3
350
379
  3
B4
350
37A
  3
B5
350
37B
  3
B6
350
37C
  3
B7
350
37D
  3
B8
350
37E
  3
B9
350
37F
  3
C0
350
380
  3
C1
350
381
  3
C2
350
382
  3
C3
350
383
  3
C4
350
384
  3
C5
350
385
  3
C6
350
386
  3
C7
350
387
  3
C8
350
388
  3
C9
350
389
  3
D0
350
38A
  3
D1
350
38B
  3
D2
350
38C
  0
DICTIONARY
  5
390
102
{ACAD_REACTORS
330
19
102
}
330
19
100
AcDbDictionary
281
     1
  3
2dWireframe
350
395
  3
3D Hidden
350
397
  3
3dWireframe
350
396
  3
Basic
350
398
  3
Brighten
350
39C
  3
ColorChange
350
3A0
  3
Conceptual
350
39A
  3
Dim
350
39B
  3
Facepattern
350
39F
  3
Flat
350
391
  3
FlatWithEdges
350
392
  3
Gouraud
350
393
  3
GouraudWithEdges
350
394
  3
Linepattern
350
39E
  3
Realistic
350
399
  3
Thicken
350
39D
  0
XRECORD
  5
3D6
102
{ACAD_REACTORS
330
19
102
}
330
19
100
AcDbXrecord
280
     1
  0
DICTIONARY
  5
3A7
102
{ACAD_REACTORS
330
19
102
}
330
19
100
AcDbDictionary
281
     1
  3
CANNOSCALE
350
3AF
  3
DIMASSOC
350
3AB
  3
HIDETEXT
350
3AC
  3
MSLTSCALE
350
3AA
  0
XRECORD
  5
3AE
102
{ACAD_REACTORS
330
3AD
102
}
330
3AD
100
AcDbXrecord
280
     1
102
VTR_0.000_0.000_1.000_1.000_VISUALSTYLE
340
395
102
VTR_0.000_0.000_1.000_1.000_GRIDDISPLAY
 70
     3
102
VTR_0.000_0.000_1.000_1.000_GRIDMAJOR
 70
     5
102
VTR_0.000_0.000_1.000_1.000_DEFAULTLIGHTING
280
     1
102
VTR_0.000_0.000_1.000_1.000_DEFAULTLIGHTINGTYPE
 70
     1
102
VTR_0.000_0.000_1.000_1.000_BRIGHTNESS
141
0.0
102
VTR_0.000_0.000_1.000_1.000_CONTRAST
142
0.0
  0
LAYOUT
  5
38F
102
{ACAD_REACTORS
330
38D
102
}
330
38D
100
AcDbPlotSettings
  1

  2
none_device
  4

  6

 40
0.0
 41
0.0
 42
0.0
 43
0.0
 44
0.0
 45
0.0
 46
0.0
 47
0.0
 48
0.0
 49
0.0
140
0.0
141
0.0
142
1.0
143
1.0
 70
   688
 72
     0
 73
     0
 74
     5
  7

 75
    16
147
1.0
148
0.0
149
0.0
100
AcDbLayout
  1
Layout1
 70
     1
 71
     1
 10
0.0
 20
0.0
 11
12.0
 21
9.0
 12
0.0
 22
0.0
 32
0.0
 14
1.000000000000000E+20
 24
1.000000000000000E+20
 34
1.000000000000000E+20
 15
-1.000000000000000E+20
 25
-1.000000000000000E+20
 35
-1.000000000000000E+20
146
0.0
 13
0.0
 23
0.0
 33
0.0
 16
1.0
 26
0.0
 36
0.0
 17
0.0
 27
1.0
 37
0.0
 76
     0
330
B
  0
LAYOUT
  5
38E
102
{ACAD_REACTORS
330
38D
102
}
330
38D
100
AcDbPlotSettings
  1

  2
none_device
  4

  6

 40
0.0
 41
0.0
 42
0.0
 43
0.0
 44
0.0
 45
0.0
 46
0.0
 47
0.0
 48
0.0
 49
0.0
140
0.0
141
0.0
142
1.0
143
1.0
 70
  1712
 72
     0
 73
     0
 74
     0
  7

 75
     0
147
1.0
148
2667.54428576817
149
0.0
100
AcDbLayout
  1
Model
 70
     1
 71
     0
 10
0.0
 20
0.0
 11
0.0
 21
0.0
 12
0.0
 22
0.0
 32
0.0
 14
0.0
 24
0.0
 34
0.0
 15
210.0
 25
297.0
 35
0.0
146
0.0
 13
0.0
 23
0.0
 33
0.0
 16
1.0
 26
0.0
 36
0.0
 17
0.0
 27
1.0
 37
0.0
 76
     0
330
A
331
15
  0
MATERIAL
  5
3A3
102
{ACAD_REACTORS
330
3A1
102
}
102
{ACAD_XDICTIONARY
360
3D2
102
}
330
3A1
100
AcDbMaterial
  1
ByBlock
  0
MATERIAL
  5
3A2
102
{ACAD_REACTORS
330
3A1
102
}
102
{ACAD_XDICTIONARY
360
3D0
102
}
330
3A1
100
AcDbMaterial
  1
ByLayer
  0
MATERIAL
  5
3A4
102
{ACAD_REACTORS
330
3A1
102
}
102
{ACAD_XDICTIONARY
360
3D4
102
}
330
3A1
100
AcDbMaterial
  1
Global
  0
MLINESTYLE
  5
1C
102
{ACAD_REACTORS
330
1B
102
}
330
1B
100
AcDbMlineStyle
  2
STANDARD
 70
     0
  3

 62
     0
 51
90.0
 52
90.0
 71
     2
 49
0.5
 62
   256
  6
BYLAYER
 49
-0.5
 62
   256
  6
BYLAYER
  0
SCALE
  5
36C
102
{ACAD_REACTORS
330
36B
102
}
330
36B
100
AcDbScale
 70
     0
300
1:1
140
1.0
141
1.0
290
     1
  0
SCALE
  5
36D
102
{ACAD_REACTORS
330
36B
102
}
330
36B
100
AcDbScale
 70
     0
300
1:2
140
1.0
141
2.0
290
     0
  0
SCALE
  5
36E
102
{ACAD_REACTORS
330
36B
102
}
330
36B
100
AcDbScale
 70
     0
300
1:4
140
1.0
141
4.0
290
     0
  0
SCALE
  5
36F
102
{ACAD_REACTORS
330
36B
102
}
330
36B
100
AcDbScale
 70
     0
300
1:5
140
1.0
141
5.0
290
     0
  0
SCALE
  5
370
102
{ACAD_REACTORS
330
36B
102
}
330
36B
100
AcDbScale
 70
     0
300
1:8
140
1.0
141
8.0
290
     0
  0
SCALE
  5
371
102
{ACAD_REACTORS
330
36B
102
}
330
36B
100
AcDbScale
 70
     0
300
1:10
140
1.0
141
10.0
290
     0
  0
SCALE
  5
372
102
{ACAD_REACTORS
330
36B
102
}
330
36B
100
AcDbScale
 70
     0
300
1:16
140
1.0
141
16.0
290
     0
  0
SCALE
  5
373
102
{ACAD_REACTORS
330
36B
102
}
330
36B
100
AcDbScale
 70
     0
300
1:20
140
1.0
141
20.0
290
     0
  0
SCALE
  5
374
102
{ACAD_REACTORS
330
36B
102
}
330
36B
100
AcDbScale
 70
     0
300
1:30
140
1.0
141
30.0
290
     0
  0
SCALE
  5
375
102
{ACAD_REACTORS
330
36B
102
}
330
36B
100
AcDbScale
 70
     0
300
1:40
140
1.0
141
40.0
290
     0
  0
SCALE
  5
376
102
{ACAD_REACTORS
330
36B
102
}
330
36B
100
AcDbScale
 70
     0
300
1:50
140
1.0
141
50.0
290
     0
  0
SCALE
  5
377
102
{ACAD_REACTORS
330
36B
102
}
330
36B
100
AcDbScale
 70
     0
300
1:100
140
1.0
141
100.0
290
     0
  0
SCALE
  5
378
102
{ACAD_REACTORS
330
36B
102
}
330
36B
100
AcDbScale
 70
     0
300
2:1
140
2.0
141
1.0
290
     0
  0
SCALE
  5
379
102
{ACAD_REACTORS
330
36B
102
}
330
36B
100
AcDbScale
 70
     0
300
4:1
140
4.0
141
1.0
290
     0
  0
SCALE
  5
37A
102
{ACAD_REACTORS
330
36B
102
}
330
36B
100
AcDbScale
 70
     0
300
8:1
140
8.0
141
1.0
290
     0
  0
SCALE
  5
37B
102
{ACAD_REACTORS
330
36B
102
}
330
36B
100
AcDbScale
 70
     0
300
10:1
140
10.0
141
1.0
290
     0
  0
SCALE
  5
37C
102
{ACAD_REACTORS
330
36B
102
}
330
36B
100
AcDbScale
 70
     0
300
100:1
140
100.0
141
1.0
290
     0
  0
SCALE
  5
37D
102
{ACAD_REACTORS
330
36B
102
}
330
36B
100
AcDbScale
 70
     0
300
1/128" = 1'-0"
140
0.0078125
141
12.0
290
     0
  0
SCALE
  5
37E
102
{ACAD_REACTORS
330
36B
102
}
330
36B
100
AcDbScale
 70
     0
300
1/64" = 1'-0"
140
0.015625
141
12.0
290
     0
  0
SCALE
  5
37F
102
{ACAD_REACTORS
330
36B
102
}
330
36B
100
AcDbScale
 70
     0
300
1/32" = 1'-0"
140
0.03125
141
12.0
290
     0
  0
SCALE
  5
380
102
{ACAD_REACTORS
330
36B
102
}
330
36B
100
AcDbScale
 70
     0
300
1/16" = 1'-0"
140
0.0625
141
12.0
290
     0
  0
SCALE
  5
381
102
{ACAD_REACTORS
330
36B
102
}
330
36B
100
AcDbScale
 70
     0
300
3/32" = 1'-0"
140
0.09375
141
12.0
290
     0
  0
SCALE
  5
382
102
{ACAD_REACTORS
330
36B
102
}
330
36B
100
AcDbScale
 70
     0
300
1/8" = 1'-0"
140
0.125
141
12.0
290
     0
  0
SCALE
  5
383
102
{ACAD_REACTORS
330
36B
102
}
330
36B
100
AcDbScale
 70
     0
300
3/16" = 1'-0"
140
0.1875
141
12.0
290
     0
  0
SCALE
  5
384
102
{ACAD_REACTORS
330
36B
102
}
330
36B
100
AcDbScale
 70
     0
300
1/4" = 1'-0"
140
0.25
141
12.0
290
     0
  0
SCALE
  5
385
102
{ACAD_REACTORS
330
36B
102
}
330
36B
100
AcDbScale
 70
     0
300
3/8" = 1'-0"
140
0.375
141
12.0
290
     0
  0
SCALE
  5
386
102
{ACAD_REACTORS
330
36B
102
}
330
36B
100
AcDbScale
 70
     0
300
1/2" = 1'-0"
140
0.5
141
12.0
290
     0
  0
SCALE
  5
387
102
{ACAD_REACTORS
330
36B
102
}
330
36B
100
AcDbScale
 70
     0
300
3/4" = 1'-0"
140
0.75
141
12.0
290
     0
  0
SCALE
  5
388
102
{ACAD_REACTORS
330
36B
102
}
330
36B
100
AcDbScale
 70
     0
300
1" = 1'-0"
140
1.0
141
12.0
290
     0
  0
SCALE
  5
389
102
{ACAD_REACTORS
330
36B
102
}
330
36B
100
AcDbScale
 70
     0
300
1-1/2" = 1'-0"
140
1.5
141
12.0
290
     0
  0
SCALE
  5
38A
102
{ACAD_REACTORS
330
36B
102
}
330
36B
100
AcDbScale
 70
     0
300
3" = 1'-0"
140
3.0
141
12.0
290
     0
  0
SCALE
  5
38B
102
{ACAD_REACTORS
330
36B
102
}
330
36B
100
AcDbScale
 70
     0
300
6" = 1'-0"
140
6.0
141
12.0
290
     0
  0
SCALE
  5
38C
102
{ACAD_REACTORS
330
36B
102
}
330
36B
100
AcDbScale
 70
     0
300
1'-0" = 1'-0"
140
12.0
141
12.0
290
     0
  0
VISUALSTYLE
  5
395
102
{ACAD_REACTORS
330
390
102
}
102
{ACAD_XDICTIONARY
360
3B8
102
}
330
390
100
AcDbVisualStyle
  2
2dWireframe
 70
     4
 71
     0
 72
     2
 73
     0
 90
        0
 40
-0.6
 41
-30.0
 62
     5
 63
     7
 74
     1
 91
        4
 64
     7
 65
   257
 75
     1
175
     1
 42
1.0
 92
        0
 66
   257
 43
1.0
 76
     1
 77
     6
 78
     2
 67
     7
 79
     5
170
     0
171
     0
290
     0
174
     0
 93
        1
 44
0.0
173
     0
291
     0
 45
0.0
1001
ACAD
1000
AcDbSavedByObjectVersion
1070
     0
  0
VISUALSTYLE
  5
397
102
{ACAD_REACTORS
330
390
102
}
102
{ACAD_XDICTIONARY
360
3BC
102
}
330
390
100
AcDbVisualStyle
  2
3D Hidden
 70
     6
 71
     1
 72
     2
 73
     2
 90
        0
 40
-0.6
 41
-30.0
 62
     5
 63
     7
 74
     2
 91
        2
 64
     7
 65
   257
 75
     2
175
     1
 42
40.0
 92
        0
 66
   257
 43
1.0
 76
     1
 77
     6
 78
     2
 67
     7
 79
     3
170
     0
171
     0
290
     0
174
     0
 93
        1
 44
0.0
173
     0
291
     0
 45
0.0
1001
ACAD
1000
AcDbSavedByObjectVersion
1070
     0
  0
VISUALSTYLE
  5
396
102
{ACAD_REACTORS
330
390
102
}
102
{ACAD_XDICTIONARY
360
3BA
102
}
330
390
100
AcDbVisualStyle
  2
3dWireframe
 70
     5
 71
     0
 72
     2
 73
     0
 90
        0
 40
-0.6
 41
-30.0
 62
     5
 63
     7
 74
     1
 91
        4
 64
     7
 65
   257
 75
     1
175
     1
 42
1.0
 92
        0
 66
   257
 43
1.0
 76
     1
 77
     6
 78
     2
 67
     7
 79
     5
170
     0
171
     0
290
     0
174
     0
 93
        1
 44
0.0
173
     0
291
     0
 45
0.0
1001
ACAD
1000
AcDbSavedByObjectVersion
1070
     0
  0
VISUALSTYLE
  5
398
102
{ACAD_REACTORS
330
390
102
}
102
{ACAD_XDICTIONARY
360
3BE
102
}
330
390
100
AcDbVisualStyle
  2
Basic
 70
     7
 71
     1
 72
     0
 73
     1
 90
        0
 40
-0.6
 41
-30.0
 62
     5
 63
     7
 74
     0
 91
        4
 64
     7
 65
   257
 75
     1
175
     1
 42
1.0
 92
        8
 66
     7
 43
1.0
 76
     1
 77
     6
 78
     2
 67
     7
 79
     5
170
     0
171
     0
290
     0
174
     0
 93
        1
 44
0.0
173
     0
291
     1
 45
0.0
1001
ACAD
1000
AcDbSavedByObjectVersion
1070
     0
  0
VISUALSTYLE
  5
39C
102
{ACAD_REACTORS
330
390
102
}
102
{ACAD_XDICTIONARY
360
3C6
102
}
330
390
100
AcDbVisualStyle
  2
Brighten
 70
    12
 71
     2
 72
     2
 73
     0
 90
        0
 40
-0.6
 41
-30.0
 62
     5
 63
     7
 74
     1
 91
        4
 64
     7
 65
   257
 75
     1
175
     1
 42
1.0
 92
        8
 66
     7
 43
1.0
 76
     1
 77
     6
 78
     2
 67
     7
 79
     5
170
     0
171
     0
290
     0
174
     0
 93
        1
 44
50.0
173
     0
291
     1
 45
0.0
1001
ACAD
1000
AcDbSavedByObjectVersion
1070
     0
  0
VISUALSTYLE
  5
3A0
102
{ACAD_REACTORS
330
390
102
}
102
{ACAD_XDICTIONARY
360
3CE
102
}
330
390
100
AcDbVisualStyle
  2
ColorChange
 70
    16
 71
     2
 72
     2
 73
     3
 90
        0
 40
-0.6
 41
-30.0
 62
     5
 63
     8
 74
     1
 91
        4
 64
     7
 65
   257
 75
     1
175
     1
 42
1.0
 92
        8
 66
     8
 43
1.0
 76
     1
 77
     6
 78
     2
 67
     7
 79
     5
170
     0
171
     0
290
     0
174
     0
 93
        1
 44
0.0
173
     0
291
     1
 45
0.0
1001
ACAD
1000
AcDbSavedByObjectVersion
1070
     0
  0
VISUALSTYLE
  5
39A
102
{ACAD_REACTORS
330
390
102
}
102
{ACAD_XDICTIONARY
360
3C2
102
}
330
390
100
AcDbVisualStyle
  2
Conceptual
 70
     9
 71
     3
 72
     2
 73
     0
 90
        0
 40
-0.6
 41
-30.0
 62
     5
 63
     7
 74
     2
 91
        2
 64
     7
 65
   257
 75
     1
175
     1
 42
40.0
 92
        8
 66
     7
 43
1.0
 76
     1
 77
     6
 78
     2
 67
     7
 79
     3
170
     0
171
     0
290
     0
174
     0
 93
        1
 44
0.0
173
     0
291
     0
 45
0.0
1001
ACAD
1000
AcDbSavedByObjectVersion
1070
     0
  0
VISUALSTYLE
  5
39B
102
{ACAD_REACTORS
330
390
102
}
102
{ACAD_XDICTIONARY
360
3C4
102
}
330
390
100
AcDbVisualStyle
  2
Dim
 70
    11
 71
     2
 72
     2
 73
     0
 90
        0
 40
-0.6
 41
-30.0
 62
     5
 63
     7
 74
     1
 91
        4
 64
     7
 65
   257
 75
     1
175
     1
 42
1.0
 92
        8
 66
     7
 43
1.0
 76
     1
 77
     6
 78
     2
 67
     7
 79
     5
170
     0
171
     0
290
     0
174
     0
 93
        1
 44
-50.0
173
     0
291
     1
 45
0.0
1001
ACAD
1000
AcDbSavedByObjectVersion
1070
     0
  0
VISUALSTYLE
  5
39F
102
{ACAD_REACTORS
330
390
102
}
102
{ACAD_XDICTIONARY
360
3CC
102
}
330
390
100
AcDbVisualStyle
  2
Facepattern
 70
    15
 71
     2
 72
     2
 73
     0
 90
        0
 40
-0.6
 41
-30.0
 62
     5
 63
     7
 74
     1
 91
        4
 64
     7
 65
   257
 75
     1
175
     1
 42
1.0
 92
        8
 66
     7
 43
1.0
 76
     1
 77
     6
 78
     2
 67
     7
 79
     5
170
     0
171
     0
290
     0
174
     0
 93
        1
 44
0.0
173
     0
291
     1
 45
0.0
1001
ACAD
1000
AcDbSavedByObjectVersion
1070
     0
  0
VISUALSTYLE
  5
391
102
{ACAD_REACTORS
330
390
102
}
102
{ACAD_XDICTIONARY
360
3B0
102
}
330
390
100
AcDbVisualStyle
  2
Flat
 70
     0
 71
     2
 72
     1
 73
     1
 90
        2
 40
-0.6
 41
30.0
 62
     5
 63
     7
 74
     0
 91
        4
 64
     7
 65
   257
 75
     1
175
     1
 42
1.0
 92
        8
 66
     7
 43
1.0
 76
     1
 77
     6
 78
     2
 67
     7
 79
     5
170
     0
171
     0
290
     0
174
     0
 93
       13
 44
0.0
173
     0
291
     1
 45
0.0
1001
ACAD
1000
AcDbSavedByObjectVersion
1070
     0
  0
VISUALSTYLE
  5
392
102
{ACAD_REACTORS
330
390
102
}
102
{ACAD_XDICTIONARY
360
3B2
102
}
330
390
100
AcDbVisualStyle
  2
FlatWithEdges
 70
     1
 71
     2
 72
     1
 73
     1
 90
        2
 40
-0.6
 41
30.0
 62
     5
 63
     7
 74
     1
 91
        4
 64
     7
 65
   257
 75
     1
175
     1
 42
1.0
 92
        0
 66
   257
 43
1.0
 76
     1
 77
     6
 78
     2
 67
     7
 79
     5
170
     0
171
     0
290
     0
174
     0
 93
       13
 44
0.0
173
     0
291
     1
 45
0.0
1001
ACAD
1000
AcDbSavedByObjectVersion
1070
     0
  0
VISUALSTYLE
  5
393
102
{ACAD_REACTORS
330
390
102
}
102
{ACAD_XDICTIONARY
360
3B4
102
}
330
390
100
AcDbVisualStyle
  2
Gouraud
 70
     2
 71
     2
 72
     2
 73
     1
 90
        2
 40
-0.6
 41
30.0
 62
     5
 63
     7
 74
     0
 91
        4
 64
     7
 65
   257
 75
     1
175
     1
 42
1.0
 92
        0
 66
     7
 43
1.0
 76
     1
 77
     6
 78
     2
 67
     7
 79
     5
170
     0
171
     0
290
     0
174
     0
 93
       13
 44
0.0
173
     0
291
     1
 45
0.0
1001
ACAD
1000
AcDbSavedByObjectVersion
1070
     0
  0
VISUALSTYLE
  5
394
102
{ACAD_REACTORS
330
390
102
}
102
{ACAD_XDICTIONARY
360
3B6
102
}
330
390
100
AcDbVisualStyle
  2
GouraudWithEdges
 70
     3
 71
     2
 72
     2
 73
     1
 90
        2
 40
-0.6
 41
30.0
 62
     5
 63
     7
 74
     1
 91
        4
 64
     7
 65
   257
 75
     1
175
     1
 42
1.0
 92
        0
 66
   257
 43
1.0
 76
     1
 77
     6
 78
     2
 67
     7
 79
     5
170
     0
171
     0
290
     0
174
     0
 93
       13
 44
0.0
173
     0
291
     1
 45
0.0
1001
ACAD
1000
AcDbSavedByObjectVersion
1070
     0
  0
VISUALSTYLE
  5
39E
102
{ACAD_REACTORS
330
390
102
}
102
{ACAD_XDICTIONARY
360
3CA
102
}
330
390
100
AcDbVisualStyle
  2
Linepattern
 70
    14
 71
     2
 72
     2
 73
     0
 90
        0
 40
-0.6
 41
-30.0
 62
     5
 63
     7
 74
     1
 91
        4
 64
     7
 65
   257
 75
     7
175
     7
 42
1.0
 92
        8
 66
     7
 43
1.0
 76
     1
 77
     6
 78
     2
 67
     7
 79
     5
170
     0
171
     0
290
     0
174
     0
 93
        1
 44
0.0
173
     0
291
     1
 45
0.0
1001
ACAD
1000
AcDbSavedByObjectVersion
1070
     0
  0
VISUALSTYLE
  5
399
102
{ACAD_REACTORS
330
390
102
}
102
{ACAD_XDICTIONARY
360
3C0
102
}
330
390
100
AcDbVisualStyle
  2
Realistic
 70
     8
 71
     2
 72
     2
 73
     0
 90
        0
 40
-0.6
 41
-30.0
 62
     5
 63
     7
 74
     1
 91
        0
 64
     7
 65
   257
 75
     1
175
     1
 42
1.0
 92
        8
 66
     8
 43
1.0
 76
     1
 77
     6
 78
     2
 67
     7
 79
     5
170
     0
171
     0
290
     0
174
     0
 93
       13
 44
0.0
173
     0
291
     0
 45
0.0
1001
ACAD
1000
AcDbSavedByObjectVersion
1070
     0
  0
VISUALSTYLE
  5
39D
102
{ACAD_REACTORS
330
390
102
}
102
{ACAD_XDICTIONARY
360
3C8
102
}
330
390
100
AcDbVisualStyle
  2
Thicken
 70
    13
 71
     2
 72
     2
 73
     0
 90
        0
 40
-0.6
 41
-30.0
 62
     5
 63
     7
 74
     1
 91
        4
 64
     7
 65
   257
 75
     1
175
     1
 42
1.0
 92
       12
 66
     7
 43
1.0
 76
     1
 77
     6
 78
     2
 67
     7
 79
     5
170
     0
171
     0
290
     0
174
     0
 93
        1
 44
0.0
173
     0
291
     1
 45
0.0
1001
ACAD
1000
AcDbSavedByObjectVersion
1070
     0
  0
DICTIONARYVAR
  5
3AF
102
{ACAD_REACTORS
330
3A7
102
}
330
3A7
100
DictionaryVariables
280
     0
  1
1:1
  0
DICTIONARYVAR
  5
3AB
102
{ACAD_REACTORS
330
3A7
102
}
330
3A7
100
DictionaryVariables
280
     0
  1
2
  0
DICTIONARYVAR
  5
3AC
102
{ACAD_REACTORS
330
3A7
102
}
330
3A7
100
DictionaryVariables
280
     0
  1
1
  0
DICTIONARYVAR
  5
3AA
102
{ACAD_REACTORS
330
3A7
102
}
330
3A7
100
DictionaryVariables
280
     0
  1
0
  0
DICTIONARY
  5
3D2
330
3A3
100
AcDbDictionary
280
     1
281
     1
  3
ACAD_XREC_ROUNDTRIP
360
3D3
  0
DICTIONARY
  5
3D0
330
3A2
100
AcDbDictionary
280
     1
281
     1
  3
ACAD_XREC_ROUNDTRIP
360
3D1
  0
DICTIONARY
  5
3D4
330
3A4
100
AcDbDictionary
280
     1
281
     1
  3
ACAD_XREC_ROUNDTRIP
360
3D5
  0
DICTIONARY
  5
3B8
330
395
100
AcDbDictionary
280
     1
281
     1
  3
ACAD_XREC_ROUNDTRIP
360
3B9
  0
DICTIONARY
  5
3BC
330
397
100
AcDbDictionary
280
     1
281
     1
  3
ACAD_XREC_ROUNDTRIP
360
3BD
  0
DICTIONARY
  5
3BA
330
396
100
AcDbDictionary
280
     1
281
     1
  3
ACAD_XREC_ROUNDTRIP
360
3BB
  0
DICTIONARY
  5
3BE
330
398
100
AcDbDictionary
280
     1
281
     1
  3
ACAD_XREC_ROUNDTRIP
360
3BF
  0
DICTIONARY
  5
3C6
330
39C
100
AcDbDictionary
280
     1
281
     1
  3
ACAD_XREC_ROUNDTRIP
360
3C7
  0
DICTIONARY
  5
3CE
330
3A0
100
AcDbDictionary
280
     1
281
     1
  3
ACAD_XREC_ROUNDTRIP
360
3CF
  0
DICTIONARY
  5
3C2
330
39A
100
AcDbDictionary
280
     1
281
     1
  3
ACAD_XREC_ROUNDTRIP
360
3C3
  0
DICTIONARY
  5
3C4
330
39B
100
AcDbDictionary
280
     1
281
     1
  3
ACAD_XREC_ROUNDTRIP
360
3C5
  0
DICTIONARY
  5
3CC
330
39F
100
AcDbDictionary
280
     1
281
     1
  3
ACAD_XREC_ROUNDTRIP
360
3CD
  0
DICTIONARY
  5
3B0
330
391
100
AcDbDictionary
280
     1
281
     1
  3
ACAD_XREC_ROUNDTRIP
360
3B1
  0
DICTIONARY
  5
3B2
330
392
100
AcDbDictionary
280
     1
281
     1
  3
ACAD_XREC_ROUNDTRIP
360
3B3
  0
DICTIONARY
  5
3B4
330
393
100
AcDbDictionary
280
     1
281
     1
  3
ACAD_XREC_ROUNDTRIP
360
3B5
  0
DICTIONARY
  5
3B6
330
394
100
AcDbDictionary
280
     1
281
     1
  3
ACAD_XREC_ROUNDTRIP
360
3B7
  0
DICTIONARY
  5
3CA
330
39E
100
AcDbDictionary
280
     1
281
     1
  3
ACAD_XREC_ROUNDTRIP
360
3CB
  0
DICTIONARY
  5
3C0
330
399
100
AcDbDictionary
280
     1
281
     1
  3
ACAD_XREC_ROUNDTRIP
360
3C1
  0
DICTIONARY
  5
3C8
330
39D
100
AcDbDictionary
280
     1
281
     1
  3
ACAD_XREC_ROUNDTRIP
360
3C9
  0
XRECORD
  5
3D3
102
{ACAD_REACTORS
330
3D2
102
}
330
3D2
100
AcDbXrecord
280
     1
102
MATERIAL
148
0.0
149
0.0
149
0.0
 93
        0
 94
      127
282
     0
 72
     1
 77
     1
171
     1
175
     1
179
     1
273
     0
  0
XRECORD
  5
3D1
102
{ACAD_REACTORS
330
3D0
102
}
330
3D0
100
AcDbXrecord
280
     1
102
MATERIAL
148
0.0
149
0.0
149
0.0
 93
        0
 94
      127
282
     0
 72
     1
 77
     1
171
     1
175
     1
179
     1
273
     0
  0
XRECORD
  5
3D5
102
{ACAD_REACTORS
330
3D4
102
}
330
3D4
100
AcDbXrecord
280
     1
102
MATERIAL
148
0.0
149
0.0
149
0.0
 93
        0
 94
      127
282
     0
 72
     1
 77
     1
171
     1
175
     1
179
     1
273
     0
  0
XRECORD
  5
3B9
102
{ACAD_REACTORS
330
3B8
102
}
330
3B8
100
AcDbXrecord
280
     1
102
RTVSPropertyOp0
 70
     1
102
RTVSPropertyOp1
 70
     1
102
RTVSPropertyOp2
 70
     1
102
RTVSPropertyOp3
 70
     1
102
RTVSPropertyOp4
 70
     1
102
RTVSPropertyOp5
 70
     1
102
RTVSPropertyOp6
 70
     1
102
RTVSPropertyOp7
 70
     1
102
RTVSPropertyOp8
 70
     1
102
RTVSPropertyOp9
 70
     1
102
RTVSPropertyOp10
 70
     1
102
RTVSPropertyOp11
 70
     1
102
RTVSPropertyOp12
 70
     1
102
RTVSPropertyOp13
 70
     1
102
RTVSPropertyOp14
 70
     1
102
RTVSPropertyOp15
 70
     1
102
RTVSPropertyOp16
 70
     1
102
RTVSPropertyOp17
 70
     1
102
RTVSPropertyOp18
 70
     1
102
RTVSPropertyOp19
 70
     1
102
RTVSPropertyOp20
 70
     1
102
RTVSPropertyOp21
 70
     1
102
RTVSPropertyOp22
 70
     1
102
RTVSPropertyOp23
 70
     1
102
RTVSPropertyOp24
 70
     1
102
RTVSPropertyOp25
 70
     1
102
RTVSPropertyOp26
 70
     1
102
RTVSPropertyOp27
 70
     1
102
RTVSPropertyOp28
 70
     1
102
RTVSPropertyOp29
 70
     1
102
RTVSPropertyOp30
 70
     1
102
RTVSPropertyOp31
 70
     1
102
RTVSPropertyOp32
 70
     1
  0
XRECORD
  5
3BD
102
{ACAD_REACTORS
330
3BC
102
}
330
3BC
100
AcDbXrecord
280
     1
102
RTVSPropertyOp0
 70
     1
102
RTVSPropertyOp1
 70
     1
102
RTVSPropertyOp2
 70
     1
102
RTVSPropertyOp3
 70
     1
102
RTVSPropertyOp4
 70
     1
102
RTVSPropertyOp5
 70
     1
102
RTVSPropertyOp6
 70
     1
102
RTVSPropertyOp7
 70
     1
102
RTVSPropertyOp8
 70
     1
102
RTVSPropertyOp9
 70
     1
102
RTVSPropertyOp10
 70
     1
102
RTVSPropertyOp11
 70
     1
102
RTVSPropertyOp12
 70
     1
102
RTVSPropertyOp13
 70
     1
102
RTVSPropertyOp14
 70
     1
102
RTVSPropertyOp15
 70
     1
102
RTVSPropertyOp16
 70
     1
102
RTVSPropertyOp17
 70
     1
102
RTVSPropertyOp18
 70
     1
102
RTVSPropertyOp19
 70
     1
102
RTVSPropertyOp20
 70
     1
102
RTVSPropertyOp21
 70
     1
102
RTVSPropertyOp22
 70
     1
102
RTVSPropertyOp23
 70
     1
102
RTVSPropertyOp24
 70
     1
102
RTVSPropertyOp25
 70
     1
102
RTVSPropertyOp26
 70
     1
102
RTVSPropertyOp27
 70
     1
102
RTVSPropertyOp28
 70
     1
102
RTVSPropertyOp29
 70
     1
102
RTVSPropertyOp30
 70
     1
102
RTVSPropertyOp31
 70
     1
102
RTVSPropertyOp32
 70
     1
  0
XRECORD
  5
3BB
102
{ACAD_REACTORS
330
3BA
102
}
330
3BA
100
AcDbXrecord
280
     1
102
RTVSPropertyOp0
 70
     1
102
RTVSPropertyOp1
 70
     1
102
RTVSPropertyOp2
 70
     1
102
RTVSPropertyOp3
 70
     1
102
RTVSPropertyOp4
 70
     1
102
RTVSPropertyOp5
 70
     1
102
RTVSPropertyOp6
 70
     1
102
RTVSPropertyOp7
 70
     1
102
RTVSPropertyOp8
 70
     1
102
RTVSPropertyOp9
 70
     1
102
RTVSPropertyOp10
 70
     1
102
RTVSPropertyOp11
 70
     1
102
RTVSPropertyOp12
 70
     1
102
RTVSPropertyOp13
 70
     1
102
RTVSPropertyOp14
 70
     1
102
RTVSPropertyOp15
 70
     1
102
RTVSPropertyOp16
 70
     1
102
RTVSPropertyOp17
 70
     1
102
RTVSPropertyOp18
 70
     1
102
RTVSPropertyOp19
 70
     1
102
RTVSPropertyOp20
 70
     1
102
RTVSPropertyOp21
 70
     1
102
RTVSPropertyOp22
 70
     1
102
RTVSPropertyOp23
 70
     1
102
RTVSPropertyOp24
 70
     1
102
RTVSPropertyOp25
 70
     1
102
RTVSPropertyOp26
 70
     1
102
RTVSPropertyOp27
 70
     1
102
RTVSPropertyOp28
 70
     1
102
RTVSPropertyOp29
 70
     1
102
RTVSPropertyOp30
 70
     1
102
RTVSPropertyOp31
 70
     1
102
RTVSPropertyOp32
 70
     1
  0
XRECORD
  5
3BF
102
{ACAD_REACTORS
330
3BE
102
}
330
3BE
100
AcDbXrecord
280
     1
102
RTVSPropertyOp0
 70
     1
102
RTVSPropertyOp1
 70
     1
102
RTVSPropertyOp2
 70
     1
102
RTVSPropertyOp3
 70
     1
102
RTVSPropertyOp4
 70
     1
102
RTVSPropertyOp5
 70
     1
102
RTVSPropertyOp6
 70
     1
102
RTVSPropertyOp7
 70
     1
102
RTVSPropertyOp8
 70
     1
102
RTVSPropertyOp9
 70
     1
102
RTVSPropertyOp10
 70
     1
102
RTVSPropertyOp11
 70
     1
102
RTVSPropertyOp12
 70
     1
102
RTVSPropertyOp13
 70
     1
102
RTVSPropertyOp14
 70
     1
102
RTVSPropertyOp15
 70
     1
102
RTVSPropertyOp16
 70
     1
102
RTVSPropertyOp17
 70
     1
102
RTVSPropertyOp18
 70
     1
102
RTVSPropertyOp19
 70
     1
102
RTVSPropertyOp20
 70
     1
102
RTVSPropertyOp21
 70
     1
102
RTVSPropertyOp22
 70
     1
102
RTVSPropertyOp23
 70
     1
102
RTVSPropertyOp24
 70
     1
102
RTVSPropertyOp25
 70
     1
102
RTVSPropertyOp26
 70
     1
102
RTVSPropertyOp27
 70
     1
102
RTVSPropertyOp28
 70
     1
102
RTVSPropertyOp29
 70
     1
102
RTVSPropertyOp30
 70
     1
102
RTVSPropertyOp31
 70
     1
102
RTVSPropertyOp32
 70
     1
  0
XRECORD
  5
3C7
102
{ACAD_REACTORS
330
3C6
102
}
330
3C6
100
AcDbXrecord
280
     1
102
RTVSPropertyOp0
 70
     1
102
RTVSPropertyOp1
 70
     1
102
RTVSPropertyOp2
 70
     1
102
RTVSPropertyOp3
 70
     1
102
RTVSPropertyOp4
 70
     1
102
RTVSPropertyOp5
 70
     1
102
RTVSPropertyOp6
 70
     1
102
RTVSPropertyOp7
 70
     1
102
RTVSPropertyOp8
 70
     1
102
RTVSPropertyOp9
 70
     1
102
RTVSPropertyOp10
 70
     1
102
RTVSPropertyOp11
 70
     1
102
RTVSPropertyOp12
 70
     1
102
RTVSPropertyOp13
 70
     1
102
RTVSPropertyOp14
 70
     1
102
RTVSPropertyOp15
 70
     1
102
RTVSPropertyOp16
 70
     1
102
RTVSPropertyOp17
 70
     1
102
RTVSPropertyOp18
 70
     1
102
RTVSPropertyOp19
 70
     1
102
RTVSPropertyOp20
 70
     1
102
RTVSPropertyOp21
 70
     1
102
RTVSPropertyOp22
 70
     1
102
RTVSPropertyOp23
 70
     1
102
RTVSPropertyOp24
 70
     1
102
RTVSPropertyOp25
 70
     1
102
RTVSPropertyOp26
 70
     1
102
RTVSPropertyOp27
 70
     1
102
RTVSPropertyOp28
 70
     1
102
RTVSPropertyOp29
 70
     1
102
RTVSPropertyOp30
 70
     1
102
RTVSPropertyOp31
 70
     1
102
RTVSPropertyOp32
 70
     1
  0
XRECORD
  5
3CF
102
{ACAD_REACTORS
330
3CE
102
}
330
3CE
100
AcDbXrecord
280
     1
102
RTVSPropertyOp0
 70
     1
102
RTVSPropertyOp1
 70
     1
102
RTVSPropertyOp2
 70
     1
102
RTVSPropertyOp3
 70
     1
102
RTVSPropertyOp4
 70
     1
102
RTVSPropertyOp5
 70
     1
102
RTVSPropertyOp6
 70
     1
102
RTVSPropertyOp7
 70
     1
102
RTVSPropertyOp8
 70
     1
102
RTVSPropertyOp9
 70
     1
102
RTVSPropertyOp10
 70
     1
102
RTVSPropertyOp11
 70
     1
102
RTVSPropertyOp12
 70
     1
102
RTVSPropertyOp13
 70
     1
102
RTVSPropertyOp14
 70
     1
102
RTVSPropertyOp15
 70
     1
102
RTVSPropertyOp16
 70
     1
102
RTVSPropertyOp17
 70
     1
102
RTVSPropertyOp18
 70
     1
102
RTVSPropertyOp19
 70
     1
102
RTVSPropertyOp20
 70
     1
102
RTVSPropertyOp21
 70
     1
102
RTVSPropertyOp22
 70
     1
102
RTVSPropertyOp23
 70
     1
102
RTVSPropertyOp24
 70
     1
102
RTVSPropertyOp25
 70
     1
102
RTVSPropertyOp26
 70
     1
102
RTVSPropertyOp27
 70
     1
102
RTVSPropertyOp28
 70
     1
102
RTVSPropertyOp29
 70
     1
102
RTVSPropertyOp30
 70
     1
102
RTVSPropertyOp31
 70
     1
102
RTVSPropertyOp32
 70
     1
  0
XRECORD
  5
3C3
102
{ACAD_REACTORS
330
3C2
102
}
330
3C2
100
AcDbXrecord
280
     1
102
RTVSPropertyOp0
 70
     1
102
RTVSPropertyOp1
 70
     1
102
RTVSPropertyOp2
 70
     1
102
RTVSPropertyOp3
 70
     1
102
RTVSPropertyOp4
 70
     1
102
RTVSPropertyOp5
 70
     1
102
RTVSPropertyOp6
 70
     1
102
RTVSPropertyOp7
 70
     1
102
RTVSPropertyOp8
 70
     1
102
RTVSPropertyOp9
 70
     1
102
RTVSPropertyOp10
 70
     1
102
RTVSPropertyOp11
 70
     1
102
RTVSPropertyOp12
 70
     1
102
RTVSPropertyOp13
 70
     1
102
RTVSPropertyOp14
 70
     1
102
RTVSPropertyOp15
 70
     1
102
RTVSPropertyOp16
 70
     1
102
RTVSPropertyOp17
 70
     1
102
RTVSPropertyOp18
 70
     1
102
RTVSPropertyOp19
 70
     1
102
RTVSPropertyOp20
 70
     1
102
RTVSPropertyOp21
 70
     1
102
RTVSPropertyOp22
 70
     1
102
RTVSPropertyOp23
 70
     1
102
RTVSPropertyOp24
 70
     1
102
RTVSPropertyOp25
 70
     1
102
RTVSPropertyOp26
 70
     1
102
RTVSPropertyOp27
 70
     1
102
RTVSPropertyOp28
 70
     1
102
RTVSPropertyOp29
 70
     1
102
RTVSPropertyOp30
 70
     1
102
RTVSPropertyOp31
 70
     1
102
RTVSPropertyOp32
 70
     1
  0
XRECORD
  5
3C5
102
{ACAD_REACTORS
330
3C4
102
}
330
3C4
100
AcDbXrecord
280
     1
102
RTVSPropertyOp0
 70
     1
102
RTVSPropertyOp1
 70
     1
102
RTVSPropertyOp2
 70
     1
102
RTVSPropertyOp3
 70
     1
102
RTVSPropertyOp4
 70
     1
102
RTVSPropertyOp5
 70
     1
102
RTVSPropertyOp6
 70
     1
102
RTVSPropertyOp7
 70
     1
102
RTVSPropertyOp8
 70
     1
102
RTVSPropertyOp9
 70
     1
102
RTVSPropertyOp10
 70
     1
102
RTVSPropertyOp11
 70
     1
102
RTVSPropertyOp12
 70
     1
102
RTVSPropertyOp13
 70
     1
102
RTVSPropertyOp14
 70
     1
102
RTVSPropertyOp15
 70
     1
102
RTVSPropertyOp16
 70
     1
102
RTVSPropertyOp17
 70
     1
102
RTVSPropertyOp18
 70
     1
102
RTVSPropertyOp19
 70
     1
102
RTVSPropertyOp20
 70
     1
102
RTVSPropertyOp21
 70
     1
102
RTVSPropertyOp22
 70
     1
102
RTVSPropertyOp23
 70
     1
102
RTVSPropertyOp24
 70
     1
102
RTVSPropertyOp25
 70
     1
102
RTVSPropertyOp26
 70
     1
102
RTVSPropertyOp27
 70
     1
102
RTVSPropertyOp28
 70
     1
102
RTVSPropertyOp29
 70
     1
102
RTVSPropertyOp30
 70
     1
102
RTVSPropertyOp31
 70
     1
102
RTVSPropertyOp32
 70
     1
  0
XRECORD
  5
3CD
102
{ACAD_REACTORS
330
3CC
102
}
330
3CC
100
AcDbXrecord
280
     1
102
RTVSPropertyOp0
 70
     1
102
RTVSPropertyOp1
 70
     1
102
RTVSPropertyOp2
 70
     1
102
RTVSPropertyOp3
 70
     1
102
RTVSPropertyOp4
 70
     1
102
RTVSPropertyOp5
 70
     1
102
RTVSPropertyOp6
 70
     1
102
RTVSPropertyOp7
 70
     1
102
RTVSPropertyOp8
 70
     1
102
RTVSPropertyOp9
 70
     1
102
RTVSPropertyOp10
 70
     1
102
RTVSPropertyOp11
 70
     1
102
RTVSPropertyOp12
 70
     1
102
RTVSPropertyOp13
 70
     1
102
RTVSPropertyOp14
 70
     1
102
RTVSPropertyOp15
 70
     1
102
RTVSPropertyOp16
 70
     1
102
RTVSPropertyOp17
 70
     1
102
RTVSPropertyOp18
 70
     1
102
RTVSPropertyOp19
 70
     1
102
RTVSPropertyOp20
 70
     1
102
RTVSPropertyOp21
 70
     1
102
RTVSPropertyOp22
 70
     1
102
RTVSPropertyOp23
 70
     1
102
RTVSPropertyOp24
 70
     1
102
RTVSPropertyOp25
 70
     1
102
RTVSPropertyOp26
 70
     1
102
RTVSPropertyOp27
 70
     1
102
RTVSPropertyOp28
 70
     1
102
RTVSPropertyOp29
 70
     1
102
RTVSPropertyOp30
 70
     1
102
RTVSPropertyOp31
 70
     1
102
RTVSPropertyOp32
 70
     1
  0
XRECORD
  5
3B1
102
{ACAD_REACTORS
330
3B0
102
}
330
3B0
100
AcDbXrecord
280
     1
102
RTVSPropertyOp0
 70
     1
102
RTVSPropertyOp1
 70
     1
102
RTVSPropertyOp2
 70
     1
102
RTVSPropertyOp3
 70
     1
102
RTVSPropertyOp4
 70
     1
102
RTVSPropertyOp5
 70
     1
102
RTVSPropertyOp6
 70
     1
102
RTVSPropertyOp7
 70
     1
102
RTVSPropertyOp8
 70
     1
102
RTVSPropertyOp9
 70
     1
102
RTVSPropertyOp10
 70
     1
102
RTVSPropertyOp11
 70
     1
102
RTVSPropertyOp12
 70
     1
102
RTVSPropertyOp13
 70
     1
102
RTVSPropertyOp14
 70
     1
102
RTVSPropertyOp15
 70
     1
102
RTVSPropertyOp16
 70
     1
102
RTVSPropertyOp17
 70
     1
102
RTVSPropertyOp18
 70
     1
102
RTVSPropertyOp19
 70
     1
102
RTVSPropertyOp20
 70
     1
102
RTVSPropertyOp21
 70
     1
102
RTVSPropertyOp22
 70
     1
102
RTVSPropertyOp23
 70
     1
102
RTVSPropertyOp24
 70
     1
102
RTVSPropertyOp25
 70
     1
102
RTVSPropertyOp26
 70
     1
102
RTVSPropertyOp27
 70
     1
102
RTVSPropertyOp28
 70
     1
102
RTVSPropertyOp29
 70
     1
102
RTVSPropertyOp30
 70
     1
102
RTVSPropertyOp31
 70
     1
102
RTVSPropertyOp32
 70
     1
  0
XRECORD
  5
3B3
102
{ACAD_REACTORS
330
3B2
102
}
330
3B2
100
AcDbXrecord
280
     1
102
RTVSPropertyOp0
 70
     1
102
RTVSPropertyOp1
 70
     1
102
RTVSPropertyOp2
 70
     1
102
RTVSPropertyOp3
 70
     1
102
RTVSPropertyOp4
 70
     1
102
RTVSPropertyOp5
 70
     1
102
RTVSPropertyOp6
 70
     1
102
RTVSPropertyOp7
 70
     1
102
RTVSPropertyOp8
 70
     1
102
RTVSPropertyOp9
 70
     1
102
RTVSPropertyOp10
 70
     1
102
RTVSPropertyOp11
 70
     1
102
RTVSPropertyOp12
 70
     1
102
RTVSPropertyOp13
 70
     1
102
RTVSPropertyOp14
 70
     1
102
RTVSPropertyOp15
 70
     1
102
RTVSPropertyOp16
 70
     1
102
RTVSPropertyOp17
 70
     1
102
RTVSPropertyOp18
 70
     1
102
RTVSPropertyOp19
 70
     1
102
RTVSPropertyOp20
 70
     1
102
RTVSPropertyOp21
 70
     1
102
RTVSPropertyOp22
 70
     1
102
RTVSPropertyOp23
 70
     1
102
RTVSPropertyOp24
 70
     1
102
RTVSPropertyOp25
 70
     1
102
RTVSPropertyOp26
 70
     1
102
RTVSPropertyOp27
 70
     1
102
RTVSPropertyOp28
 70
     1
102
RTVSPropertyOp29
 70
     1
102
RTVSPropertyOp30
 70
     1
102
RTVSPropertyOp31
 70
     1
102
RTVSPropertyOp32
 70
     1
  0
XRECORD
  5
3B5
102
{ACAD_REACTORS
330
3B4
102
}
330
3B4
100
AcDbXrecord
280
     1
102
RTVSPropertyOp0
 70
     1
102
RTVSPropertyOp1
 70
     1
102
RTVSPropertyOp2
 70
     1
102
RTVSPropertyOp3
 70
     1
102
RTVSPropertyOp4
 70
     1
102
RTVSPropertyOp5
 70
     1
102
RTVSPropertyOp6
 70
     1
102
RTVSPropertyOp7
 70
     1
102
RTVSPropertyOp8
 70
     1
102
RTVSPropertyOp9
 70
     1
102
RTVSPropertyOp10
 70
     1
102
RTVSPropertyOp11
 70
     1
102
RTVSPropertyOp12
 70
     1
102
RTVSPropertyOp13
 70
     1
102
RTVSPropertyOp14
 70
     1
102
RTVSPropertyOp15
 70
     1
102
RTVSPropertyOp16
 70
     1
102
RTVSPropertyOp17
 70
     1
102
RTVSPropertyOp18
 70
     1
102
RTVSPropertyOp19
 70
     1
102
RTVSPropertyOp20
 70
     1
102
RTVSPropertyOp21
 70
     1
102
RTVSPropertyOp22
 70
     1
102
RTVSPropertyOp23
 70
     1
102
RTVSPropertyOp24
 70
     1
102
RTVSPropertyOp25
 70
     1
102
RTVSPropertyOp26
 70
     1
102
RTVSPropertyOp27
 70
     1
102
RTVSPropertyOp28
 70
     1
102
RTVSPropertyOp29
 70
     1
102
RTVSPropertyOp30
 70
     1
102
RTVSPropertyOp31
 70
     1
102
RTVSPropertyOp32
 70
     1
  0
XRECORD
  5
3B7
102
{ACAD_REACTORS
330
3B6
102
}
330
3B6
100
AcDbXrecord
280
     1
102
RTVSPropertyOp0
 70
     1
102
RTVSPropertyOp1
 70
     1
102
RTVSPropertyOp2
 70
     1
102
RTVSPropertyOp3
 70
     1
102
RTVSPropertyOp4
 70
     1
102
RTVSPropertyOp5
 70
     1
102
RTVSPropertyOp6
 70
     1
102
RTVSPropertyOp7
 70
     1
102
RTVSPropertyOp8
 70
     1
102
RTVSPropertyOp9
 70
     1
102
RTVSPropertyOp10
 70
     1
102
RTVSPropertyOp11
 70
     1
102
RTVSPropertyOp12
 70
     1
102
RTVSPropertyOp13
 70
     1
102
RTVSPropertyOp14
 70
     1
102
RTVSPropertyOp15
 70
     1
102
RTVSPropertyOp16
 70
     1
102
RTVSPropertyOp17
 70
     1
102
RTVSPropertyOp18
 70
     1
102
RTVSPropertyOp19
 70
     1
102
RTVSPropertyOp20
 70
     1
102
RTVSPropertyOp21
 70
     1
102
RTVSPropertyOp22
 70
     1
102
RTVSPropertyOp23
 70
     1
102
RTVSPropertyOp24
 70
     1
102
RTVSPropertyOp25
 70
     1
102
RTVSPropertyOp26
 70
     1
102
RTVSPropertyOp27
 70
     1
102
RTVSPropertyOp28
 70
     1
102
RTVSPropertyOp29
 70
     1
102
RTVSPropertyOp30
 70
     1
102
RTVSPropertyOp31
 70
     1
102
RTVSPropertyOp32
 70
     1
  0
XRECORD
  5
3CB
102
{ACAD_REACTORS
330
3CA
102
}
330
3CA
100
AcDbXrecord
280
     1
102
RTVSPropertyOp0
 70
     1
102
RTVSPropertyOp1
 70
     1
102
RTVSPropertyOp2
 70
     1
102
RTVSPropertyOp3
 70
     1
102
RTVSPropertyOp4
 70
     1
102
RTVSPropertyOp5
 70
     1
102
RTVSPropertyOp6
 70
     1
102
RTVSPropertyOp7
 70
     1
102
RTVSPropertyOp8
 70
     1
102
RTVSPropertyOp9
 70
     1
102
RTVSPropertyOp10
 70
     1
102
RTVSPropertyOp11
 70
     1
102
RTVSPropertyOp12
 70
     1
102
RTVSPropertyOp13
 70
     1
102
RTVSPropertyOp14
 70
     1
102
RTVSPropertyOp15
 70
     1
102
RTVSPropertyOp16
 70
     1
102
RTVSPropertyOp17
 70
     1
102
RTVSPropertyOp18
 70
     1
102
RTVSPropertyOp19
 70
     1
102
RTVSPropertyOp20
 70
     1
102
RTVSPropertyOp21
 70
     1
102
RTVSPropertyOp22
 70
     1
102
RTVSPropertyOp23
 70
     1
102
RTVSPropertyOp24
 70
     1
102
RTVSPropertyOp25
 70
     1
102
RTVSPropertyOp26
 70
     1
102
RTVSPropertyOp27
 70
     1
102
RTVSPropertyOp28
 70
     1
102
RTVSPropertyOp29
 70
     1
102
RTVSPropertyOp30
 70
     1
102
RTVSPropertyOp31
 70
     1
102
RTVSPropertyOp32
 70
     1
  0
XRECORD
  5
3C1
102
{ACAD_REACTORS
330
3C0
102
}
330
3C0
100
AcDbXrecord
280
     1
102
RTVSPropertyOp0
 70
     1
102
RTVSPropertyOp1
 70
     1
102
RTVSPropertyOp2
 70
     1
102
RTVSPropertyOp3
 70
     1
102
RTVSPropertyOp4
 70
     1
102
RTVSPropertyOp5
 70
     1
102
RTVSPropertyOp6
 70
     1
102
RTVSPropertyOp7
 70
     1
102
RTVSPropertyOp8
 70
     1
102
RTVSPropertyOp9
 70
     1
102
RTVSPropertyOp10
 70
     1
102
RTVSPropertyOp11
 70
     1
102
RTVSPropertyOp12
 70
     1
102
RTVSPropertyOp13
 70
     1
102
RTVSPropertyOp14
 70
     1
102
RTVSPropertyOp15
 70
     1
102
RTVSPropertyOp16
 70
     1
102
RTVSPropertyOp17
 70
     1
102
RTVSPropertyOp18
 70
     1
102
RTVSPropertyOp19
 70
     1
102
RTVSPropertyOp20
 70
     1
102
RTVSPropertyOp21
 70
     1
102
RTVSPropertyOp22
 70
     1
102
RTVSPropertyOp23
 70
     1
102
RTVSPropertyOp24
 70
     1
102
RTVSPropertyOp25
 70
     1
102
RTVSPropertyOp26
 70
     1
102
RTVSPropertyOp27
 70
     1
102
RTVSPropertyOp28
 70
     1
102
RTVSPropertyOp29
 70
     1
102
RTVSPropertyOp30
 70
     1
102
RTVSPropertyOp31
 70
     1
102
RTVSPropertyOp32
 70
     1
  0
XRECORD
  5
3C9
102
{ACAD_REACTORS
330
3C8
102
}
330
3C8
100
AcDbXrecord
280
     1
102
RTVSPropertyOp0
 70
     1
102
RTVSPropertyOp1
 70
     1
102
RTVSPropertyOp2
 70
     1
102
RTVSPropertyOp3
 70
     1
102
RTVSPropertyOp4
 70
     1
102
RTVSPropertyOp5
 70
     1
102
RTVSPropertyOp6
 70
     1
102
RTVSPropertyOp7
 70
     1
102
RTVSPropertyOp8
 70
     1
102
RTVSPropertyOp9
 70
     1
102
RTVSPropertyOp10
 70
     1
102
RTVSPropertyOp11
 70
     1
102
RTVSPropertyOp12
 70
     1
102
RTVSPropertyOp13
 70
     1
102
RTVSPropertyOp14
 70
     1
102
RTVSPropertyOp15
 70
     1
102
RTVSPropertyOp16
 70
     1
102
RTVSPropertyOp17
 70
     1
102
RTVSPropertyOp18
 70
     1
102
RTVSPropertyOp19
 70
     1
102
RTVSPropertyOp20
 70
     1
102
RTVSPropertyOp21
 70
     1
102
RTVSPropertyOp22
 70
     1
102
RTVSPropertyOp23
 70
     1
102
RTVSPropertyOp24
 70
     1
102
RTVSPropertyOp25
 70
     1
102
RTVSPropertyOp26
 70
     1
102
RTVSPropertyOp27
 70
     1
102
RTVSPropertyOp28
 70
     1
102
RTVSPropertyOp29
 70
     1
102
RTVSPropertyOp30
 70
     1
102
RTVSPropertyOp31
 70
     1
102
RTVSPropertyOp32
 70
     1
  0
ENDSEC
  0
EOF
