  0
SECTION
  2
HEADER
  9
$ACADVER
  1
AC1015
  9
$ACADMAINTVER
 70
     6
  9
$DWGCODEPAGE
  3
ANSI_1252
  9
$INSBASE
 10
0.0
 20
0.0
 30
0.0
  9
$EXTMIN
 10
0.0
 20
0.0
 30
0.0
  9
$EXTMAX
 10
210.0
 20
297.0
 30
0.0
  9
$LIMMIN
 10
0.0
 20
0.0
  9
$LIMMAX
 10
0.0
 20
0.0
  9
$ORTHOMODE
 70
     0
  9
$REGENMODE
 70
     1
  9
$FILLMODE
 70
     1
  9
$QTEXTMODE
 70
     0
  9
$MIRRTEXT
 70
     1
  9
$LTSCALE
 40
1.0
  9
$ATTMODE
 70
     1
  9
$TEXTSIZE
 40
0.0
  9
$TRACEWID
 40
0.05
  9
$TEXTSTYLE
  7
STANDARD
  9
$CLAYER
  8
0
  9
$CELTYPE
  6
CONTINUOUS
  9
$CECOLOR
 62
   256
  9
$CELTSCALE
 40
1.0
  9
$DISPSILH
 70
     0
  9
$DIMSCALE
 40
1.0
  9
$DIMASZ
 40
0.0
  9
$DIMEXO
 40
0.0
  9
$DIMDLI
 40
0.38
  9
$DIMRND
 40
0.0
  9
$DIMDLE
 40
1000.0
  9
$DIMEXE
 40
0.18
  9
$DIMTP
 40
0.0
  9
$DIMTM
 40
0.0
  9
$DIMTXT
 40
3.5
  9
$DIMCEN
 40
0.09
  9
$DIMTSZ
 40
0.0
  9
$DIMTOL
 70
     0
  9
$DIMLIM
 70
     0
  9
$DIMTIH
 70
     1
  9
$DIMTOH
 70
     1
  9
$DIMSE1
 70
     0
  9
$DIMSE2
 70
     0
  9
$DIMTAD
 70
     1
  9
$DIMZIN
 70
     0
  9
$DIMBLK
  1

  9
$DIMASO
 70
     1
  9
$DIMSHO
 70
     1
  9
$DIMPOST
  1

  9
$DIMAPOST
  1

  9
$DIMALT
 70
     0
  9
$DIMALTD
 70
     2
  9
$DIMALTF
 40
0.0394
  9
$DIMLFAC
 40
1.0
  9
$DIMTOFL
 70
     0
  9
$DIMTVP
 40
0.0
  9
$DIMTIX
 70
     0
  9
$DIMSOXD
 70
     0
  9
$DIMSAH
 70
     0
  9
$DIMBLK1
  1

  9
$DIMBLK2
  1

  9
$DIMSTYLE
  2
STANDARD
  9
$DIMCLRD
 70
     0
  9
$DIMCLRE
 70
     0
  9
$DIMCLRT
 70
     0
  9
$DIMTFAC
 40
1.0
  9
$DIMGAP
 40
0.0
  9
$DIMJUST
 70
     0
  9
$DIMSD1
 70
     0
  9
$DIMSD2
 70
     0
  9
$DIMTOLJ
 70
     1
  9
$DIMTZIN
 70
     0
  9
$DIMALTZ
 70
     0
  9
$DIMALTTZ
 70
     0
  9
$DIMUPT
 70
     0
  9
$DIMDEC
 70
     4
  9
$DIMTDEC
 70
     4
  9
$DIMALTU
 70
     2
  9
$DIMALTTD
 70
     2
  9
$DIMTXSTY
  7
STANDARD
  9
$DIMAUNIT
 70
     0
  9
$DIMADEC
 70
     0
  9
$DIMALTRND
 40
0.0
  9
$DIMAZIN
 70
     0
  9
$DIMDSEP
 70
    46
  9
$DIMATFIT
 70
     3
  9
$DIMFRAC
 70
     0
  9
$DIMLDRBLK
  1

  9
$DIMLUNIT
 70
     2
  9
$DIMLWD
 70
    -2
  9
$DIMLWE
 70
    -2
  9
$DIMTMOVE
 70
     2
  9
$LUNITS
 70
     2
  9
$LUPREC
 70
     2
  9
$SKETCHINC
 40
0.1
  9
$FILLETRAD
 40
0.0
  9
$AUNITS
 70
     0
  9
$AUPREC
 70
     2
  9
$MENU
  1
acad
  9
$ELEVATION
 40
0.0
  9
$PELEVATION
 40
0.0
  9
$THICKNESS
 40
0.0
  9
$LIMCHECK
 70
     0
  9
$CHAMFERA
 40
0.0
  9
$CHAMFERB
 40
0.0
  9
$CHAMFERC
 40
0.0
  9
$CHAMFERD
 40
0.0
  9
$SKPOLY
 70
     0
  9
$TDCREATE
 40
2447893.0
  9
$TDUCREATE
 40
2447892.916666667
  9
$TDUPDATE
 40
2458327.54878853
  9
$TDUUPDATE
 40
2458327.465455197
  9
$TDINDWG
 40
0.0
  9
$TDUSRTIMER
 40
0.0
  9
$USRTIMER
 70
     1
  9
$ANGBASE
 50
0.0
  9
$ANGDIR
 70
     0
  9
$PDMODE
 70
     0
  9
$PDSIZE
 40
-1.0
  9
$PLINEWID
 40
0.0
  9
$SPLFRAME
 70
     0
  9
$SPLINETYPE
 70
     6
  9
$SPLINESEGS
 70
     8
  9
$HANDSEED
  5
3E8
  9
$SURFTAB1
 70
     6
  9
$SURFTAB2
 70
     6
  9
$SURFTYPE
 70
     6
  9
$SURFU
 70
     6
  9
$SURFV
 70
     6
  9
$UCSBASE
  2

  9
$UCSNAME
  2

  9
$UCSORG
 10
0.0
 20
0.0
 30
0.0
  9
$UCSXDIR
 10
1.0
 20
0.0
 30
0.0
  9
$UCSYDIR
 10
0.0
 20
1.0
 30
0.0
  9
$UCSORTHOREF
  2

  9
$UCSORTHOVIEW
 70
     0
  9
$UCSORGTOP
 10
0.0
 20
0.0
 30
0.0
  9
$UCSORGBOTTOM
 10
0.0
 20
0.0
 30
0.0
  9
$UCSORGLEFT
 10
0.0
 20
0.0
 30
0.0
  9
$UCSORGRIGHT
 10
0.0
 20
0.0
 30
0.0
  9
$UCSORGFRONT
 10
0.0
 20
0.0
 30
0.0
  9
$UCSORGBACK
 10
0.0
 20
0.0
 30
0.0
  9
$PUCSBASE
  2

  9
$PUCSNAME
  2

  9
$PUCSORG
 10
0.0
 20
0.0
 30
0.0
  9
$PUCSXDIR
 10
1.0
 20
0.0
 30
0.0
  9
$PUCSYDIR
 10
0.0
 20
1.0
 30
0.0
  9
$PUCSORTHOREF
  2

  9
$PUCSORTHOVIEW
 70
     0
  9
$PUCSORGTOP
 10
0.0
 20
0.0
 30
0.0
  9
$PUCSORGBOTTOM
 10
0.0
 20
0.0
 30
0.0
  9
$PUCSORGLEFT
 10
0.0
 20
0.0
 30
0.0
  9
$PUCSORGRIGHT
 10
0.0
 20
0.0
 30
0.0
  9
$PUCSORGFRONT
 10
0.0
 20
0.0
 30
0.0
  9
$PUCSORGBACK
 10
0.0
 20
0.0
 30
0.0
  9
$USERI1
 70
     0
  9
$USERI2
 70
     0
  9
$USERI3
 70
     0
  9
$USERI4
 70
     0
  9
$USERI5
 70
     0
  9
$USERR1
 40
0.0
  9
$USERR2
 40
0.0
  9
$USERR3
 40
0.0
  9
$USERR4
 40
0.0
  9
$USERR5
 40
0.0
  9
$WORLDVIEW
 70
     1
  9
$SHADEDGE
 70
     3
  9
$SHADEDIF
 70
    70
  9
$TILEMODE
 70
     1
  9
$MAXACTVP
 70
    16
  9
$PINSBASE
 10
0.0
 20
0.0
 30
0.0
  9
$PLIMCHECK
 70
     0
  9
$PEXTMIN
 10
1.000000000000000E+20
 20
1.000000000000000E+20
 30
1.000000000000000E+20
  9
$PEXTMAX
 10
-1.000000000000000E+20
 20
-1.000000000000000E+20
 30
-1.000000000000000E+20
  9
$PLIMMIN
 10
0.0
 20
0.0
  9
$PLIMMAX
 10
12.0
 20
9.0
  9
$UNITMODE
 70
     0
  9
$VISRETAIN
 70
     0
  9
$PLINEGEN
 70
     1
  9
$PSLTSCALE
 70
     1
  9
$TREEDEPTH
 70
  3020
  9
$CMLSTYLE
  2
STANDARD
  9
$CMLJUST
 70
     0
  9
$CMLSCALE
 40
1.0
  9
$PROXYGRAPHICS
 70
     1
  9
$MEASUREMENT
 70
     0
  9
$CELWEIGHT
370
    -1
  9
$ENDCAPS
280
     0
  9
$JOINSTYLE
280
     0
  9
$LWDISPLAY
290
     0
  9
$INSUNITS
 70
     0
  9
$HYPERLINKBASE
  1

  9
$STYLESHEET
  1

  9
$XEDIT
290
     1
  9
$CEPSNTYPE
380
     0
  9
$PSTYLEMODE
290
     1
  9
$FINGERPRINTGUID
  2
{AEE27748-F6AA-48C5-8B9C-129CAEC75AFA}
  9
$VERSIONGUID
  2
{FAEB1C32-E019-11D5-929B-00C0DF256EC4}
  9
$EXTNAMES
290
     1
  9
$PSVPSCALE
 40
0.0
  9
$OLESTARTUP
290
     0
  0
ENDSEC
  0
SECTION
  2
CLASSES
  0
CLASS
  1
LWPOLYLINE
  2
AcDbPolyline
  3
ObjectDBX Classes
 90
        0
280
     0
281
     1
  0
CLASS
  1
IMAGE
  2
AcDbRasterImage
  3
ISM
 90
      127
280
     0
281
     1
  0
CLASS
  1
OLE2FRAME
  2
AcDbOle2Frame
  3
ObjectDBX Classes
 90
        0
280
     0
281
     1
  0
CLASS
  1
HATCH
  2
AcDbHatch
  3
ObjectDBX Classes
 90
        0
280
     0
281
     1
  0
CLASS
  1
DICTIONARYVAR
  2
AcDbDictionaryVar
  3
ObjectDBX Classes
 90
        0
280
     0
281
     0
  0
CLASS
  1
RASTERVARIABLES
  2
AcDbRasterVariables
  3
ISM
 90
        0
280
     0
281
     0
  0
CLASS
  1
IMAGEDEF
  2
AcDbRasterImageDef
  3
ISM
 90
        0
280
     0
281
     0
  0
CLASS
  1
IMAGEDEF_REACTOR
  2
AcDbRasterImageDefReactor
  3
ISM
 90
        1
280
     0
281
     0
  0
CLASS
  1
IDBUFFER
  2
AcDbIdBuffer
  3
ObjectDBX Classes
 90
        0
280
     0
281
     0
  0
CLASS
  1
SPATIAL_FILTER
  2
AcDbSpatialFilter
  3
ObjectDBX Classes
 90
        0
280
     0
281
     0
  0
CLASS
  1
XRECORD
  2
AcDbXrecord
  3
ObjectDBX Classes
 90
        0
280
     0
281
     0
  0
CLASS
  1
SORTENTSTABLE
  2
AcDbSortentsTable
  3
ObjectDBX Classes
 90
        0
280
     0
281
     0
  0
CLASS
  1
LAYER_INDEX
  2
AcDbLayerIndex
  3
ObjectDBX Classes
 90
        0
280
     0
281
     0
  0
CLASS
  1
SPATIAL_INDEX
  2
AcDbSpatialIndex
  3
AutoCAD 2000
 90
        0
280
     0
281
     0
  0
CLASS
  1
OBJECT_PTR
  2
CAseDLPNTableRecord
  3
ASE-LPNTableRecord
 90
        1
280
     0
281
     0
  0
CLASS
  1
LAYOUT
  2
AcDbLayout
  3
ObjectDBX Classes
 90
        0
280
     0
281
     0
  0
CLASS
  1
PLOTSETTINGS
  2
AcDbPlotSettings
  3
ObjectDBX Classes
 90
        0
280
     0
281
     0
  0
CLASS
  1
ACDBDICTIONARYWDFLT
  2
AcDbDictionaryWithDefault
  3
ObjectDBX Classes
 90
        0
280
     0
281
     0
  0
CLASS
  1
ACDBPLACEHOLDER
  2
AcDbPlaceHolder
  3
ObjectDBX Classes
 90
        0
280
     0
281
     0
  0
CLASS
  1
VBA_PROJECT
  2
AcDbVbaProject
  3
ObjectDBX Classes
 90
        0
280
     0
281
     0
  0
CLASS
  1
WIPEOUT
  2
AcDbWipeout
  3
WipeOut|AutoCAD Express Tool|expresstools@autodesk.com
 90
      127
280
     0
281
     1
  0
CLASS
  1
WIPEOUTVARIABLES
  2
AcDbWipeoutVariables
  3
WipeOut|AutoCAD Express Tool|expresstools@autodesk.com
 90
        0
280
     0
281
     0
  0
CLASS
  1
RTEXT
  2
RText
  3
RText|AutoCAD Express Tool|expresstools@autodesk.com
 90
        0
280
     0
281
     1
  0
CLASS
  1
ARCALIGNEDTEXT
  2
AcDbArcAlignedText
  3
ATEXT|AutoCAD Express Tool|expresstools@autodesk.com
 90
        0
280
     0
281
     1
  0
CLASS
  1
SCALE
  2
AcDbScale
  3
ObjectDBX Classes
 90
     1153
280
     0
281
     0
  0
CLASS
  1
VISUALSTYLE
  2
AcDbVisualStyle
  3
ObjectDBX Classes
 90
     4095
280
     0
281
     0
  0
CLASS
  1
MATERIAL
  2
AcDbMaterial
  3
ObjectDBX Classes
 90
     1153
280
     0
281
     0
  0
ENDSEC
  0
SECTION
  2
TABLES
  0
TABLE
  2
VPORT
  5
7
102
{ACAD_XDICTIONARY
360
3AD
102
}
330
0
100
AcDbSymbolTable
 70
     1
  0
VPORT
  5
15
330
7
100
AcDbSymbolTableRecord
100
AcDbViewportTableRecord
  2
*ACTIVE
 70
     0
 10
0.0
 20
0.0
 11
1.0
 21
1.0
 12
105.0
 22
148.5
 13
0.0
 23
0.0
 14
1.0
 24
1.0
 15
0.0
 25
0.0
 16
0.0
 26
0.0
 36
1.0
 17
0.0
 27
0.0
 37
0.0
 40
297.0
 41
1.4142857143
 42
50.0
 43
0.0
 44
0.0
 50
0.0
 51
0.0
 71
     0
 72
  2000
 73
     1
 74
     1
 75
     0
 76
     0
 77
     0
 78
     0
281
     0
 65
     1
110
0.0
120
0.0
130
0.0
111
1.0
121
0.0
131
0.0
112
0.0
122
1.0
132
0.0
 79
     0
146
0.0
  0
ENDTAB
  0
TABLE
  2
LTYPE
  5
4
330
0
100
AcDbSymbolTable
 70
     6
  0
LTYPE
  5
11
330
4
100
AcDbSymbolTableRecord
100
AcDbLinetypeTableRecord
  2
BYBLOCK
 70
     0
  3

 72
    65
 73
     0
 40
0.0
  0
LTYPE
  5
12
330
4
100
AcDbSymbolTableRecord
100
AcDbLinetypeTableRecord
  2
BYLAYER
 70
     0
  3

 72
    65
 73
     0
 40
0.0
  0
LTYPE
  5
13
330
4
100
AcDbSymbolTableRecord
100
AcDbLinetypeTableRecord
  2
CONTINUOUS
 70
     0
  3
Solid line
 72
    65
 73
     0
 40
0.0
  0
LTYPE
  5
1D
330
4
100
AcDbSymbolTableRecord
100
AcDbLinetypeTableRecord
  2
HIDDEN
 70
     0
  3
Hidden __ __ __ __ __ __ __ __ __ __ __ __ __ __
 72
    65
 73
     2
 40
1.905
 49
1.27
 74
     0
 49
-0.635
 74
     0
  0
LTYPE
  5
1E
330
4
100
AcDbSymbolTableRecord
100
AcDbLinetypeTableRecord
  2
PHANTOM
 70
     0
  3
Phantom ______  __  __  ______  __  __  ______
 72
    65
 73
     6
 40
12.7
 49
6.35
 74
     0
 49
-1.27
 74
     0
 49
1.27
 74
     0
 49
-1.27
 74
     0
 49
1.27
 74
     0
 49
-1.27
 74
     0
  0
LTYPE
  5
1F
330
4
100
AcDbSymbolTableRecord
100
AcDbLinetypeTableRecord
  2
CENTER
 70
     0
  3
Center ____ _ ____ _ ____ _ ____ _ ____ _ ____
 72
    65
 73
     4
 40
10.16
 49
6.35
 74
     0
 49
-1.27
 74
     0
 49
1.27
 74
     0
 49
-1.27
 74
     0
  0
LTYPE
  5
20
330
4
100
AcDbSymbolTableRecord
100
AcDbLinetypeTableRecord
  2
CENTERX2
 70
     0
  3
Center (2x) ________  __  ________  __  _____
 72
    65
 73
     4
 40
20.32
 49
12.7
 74
     0
 49
-2.54
 74
     0
 49
2.54
 74
     0
 49
-2.54
 74
     0
  0
LTYPE
  5
21
330
4
100
AcDbSymbolTableRecord
100
AcDbLinetypeTableRecord
  2
DOT2
 70
     0
  3
Dot (.5x) ........................................
 72
    65
 73
     2
 40
0.635
 49
0.0
 74
     0
 49
-0.635
 74
     0
  0
LTYPE
  5
3D7
330
5
100
AcDbSymbolTableRecord
100
AcDbLinetypeTableRecord
  2
DASH
 70
     0
  3
DASH _ _ _ _ _
 72
    65
 73
     2
 40
0.75
 49
0.40
 74
     0
 49
-0.35
 74
     0
  0
LTYPE
  5
3D8
330
5
100
AcDbSymbolTableRecord
100
AcDbLinetypeTableRecord
  2
LONGDASH_DASH
 70
     0
  3
LONGDASH_DASH __ . __ . __
 72
    65
 73
     4
 40
0.85
 49
0.40
 74
     0
 49
-0.20
 74
     0
 49
0.05
 74
     0
 49
-0.20
 74
     0
  0
LTYPE
  5
3D9
330
5
100
AcDbSymbolTableRecord
100
AcDbLinetypeTableRecord
  2
LONGDASH_DASH_DASH
 70
     0
  3
LONGDASH_DASH_DASH __ . . __ . . __
 72
    65
 73
     6
 40
1.10
 49
0.40
 74
     0
 49
-0.20
 74
     0
 49
0.05
 74
     0
 49
-0.20
 74
     0
 49
0.05
 74
     0
 49
-0.20
 74
     0
  0
ENDTAB
  0
TABLE
  2
LAYER
  5
2
330
0
100
AcDbSymbolTable
 70
     8
  0
LAYER
  5
23
330
2
100
AcDbSymbolTableRecord
100
AcDbLayerTableRecord
  2
DEFPOINTS
 70
     0
 62
     7
  6
CONTINUOUS
290
     0
370
    -3
390
0
  0
LAYER
  5
3DA
330
2
100
AcDbSymbolTableRecord
100
AcDbLayerTableRecord
  2
0
 70
     0
 62
     -1
  6
CONTINUOUS
370
    -3
390
F
  0
LAYER
  5
3DB
330
2
100
AcDbSymbolTableRecord
100
AcDbLayerTableRecord
  2
1
 70
     0
 62
     4
  6
CONTINUOUS
370
    50
390
F
  0
LAYER
  5
3DC
330
2
100
AcDbSymbolTableRecord
100
AcDbLayerTableRecord
  2
2
 70
     0
 62
     7
  6
CONTINUOUS
370
    25
390
F
  0
LAYER
  5
3DD
330
2
100
AcDbSymbolTableRecord
100
AcDbLayerTableRecord
  2
3
 70
     0
 62
     1
  6
DASH
370
    35
390
F
  0
LAYER
  5
3DE
330
2
100
AcDbSymbolTableRecord
100
AcDbLayerTableRecord
  2
4
 70
     0
 62
     2
  6
LONGDASH_DASH
370
    25
390
F
  0
LAYER
  5
3DF
330
2
100
AcDbSymbolTableRecord
100
AcDbLayerTableRecord
  2
6
 70
     0
 62
     5
  6
CONTINUOUS
370
    -3
390
F
  0
LAYER
  5
3E0
330
2
100
AcDbSymbolTableRecord
100
AcDbLayerTableRecord
  2
CUT
 70
     0
 62
     1
  6
CONTINUOUS
370
    25
390
F
  0
LAYER
  5
3E1
330
2
100
AcDbSymbolTableRecord
100
AcDbLayerTableRecord
  2
NOCUT
 70
     0
 62
     7
  6
CONTINUOUS
370
    25
390
F
  0
LAYER
  5
3E2
330
2
100
AcDbSymbolTableRecord
100
AcDbLayerTableRecord
  2
SK1
 70
     0
 62
     4
  6
CONTINUOUS
370
    50
390
F
  0
LAYER
  5
3E3
330
2
100
AcDbSymbolTableRecord
100
AcDbLayerTableRecord
  2
SK2
 70
     0
 62
     7
  6
CONTINUOUS
370
    25
390
F
  0
LAYER
  5
3E4
330
2
100
AcDbSymbolTableRecord
100
AcDbLayerTableRecord
  2
SK3
 70
     0
 62
     1
  6
DASH
370
    35
390
F
  0
LAYER
  5
3E5
330
2
100
AcDbSymbolTableRecord
100
AcDbLayerTableRecord
  2
SK4
 70
     0
 62
     2
  6
LONGDASH_DASH
370
    25
390
F
  0
LAYER
  5
3E6
330
2
100
AcDbSymbolTableRecord
100
AcDbLayerTableRecord
  2
SK6
 70
     0
 62
     5
  6
CONTINUOUS
370
    -3
390
F
  0
LAYER
  5
3E7
330
2
100
AcDbSymbolTableRecord
100
AcDbLayerTableRecord
  2
INFTOTAL
 70
     0
 62
     9
  6
CONTINUOUS
370
    18
390
F
  0
ENDTAB
  0
TABLE
  2
STYLE
  5
3
330
0
100
AcDbSymbolTable
 70
     2
  0
STYLE
  5
17
330
3
100
AcDbSymbolTableRecord
100
AcDbTextStyleTableRecord
  2
STANDARD
 70
     0
 40
0.0
 41
1.0
 50
0.0
 71
     0
 42
0.2
  3
txt
  4

  0
STYLE
  5
3A5
330
3
100
AcDbSymbolTableRecord
100
AcDbTextStyleTableRecord
  2
BMG_Text
 70
     0
 40
3.5
 41
1.0
 50
0.0
 71
     0
 42
0.0
  3
monos.ttf
  4

1001
ACAD
1000
Monospac821 BT
1071
       49
  0
ENDTAB
  0
TABLE
  2
VIEW
  5
5
330
0
100
AcDbSymbolTable
 70
     0
  0
ENDTAB
  0
TABLE
  2
UCS
  5
6
330
0
100
AcDbSymbolTable
 70
     0
  0
ENDTAB
  0
TABLE
  2
APPID
  5
8
330
0
100
AcDbSymbolTable
 70
     1
  0
APPID
  5
16
330
8
100
AcDbSymbolTableRecord
100
AcDbRegAppTableRecord
  2
ACAD
 70
     0
  0
ENDTAB
  0
TABLE
  2
DIMSTYLE
  5
9
330
0
100
AcDbSymbolTable
 70
     1
100
AcDbDimStyleTable
  0
DIMSTYLE
105
18
330
9
100
AcDbSymbolTableRecord
100
AcDbDimStyleTableRecord
  2
STANDARD
 70
     0
178
     0
340
17
  0
ENDTAB
  0
TABLE
  2
BLOCK_RECORD
  5
1
330
0
100
AcDbSymbolTable
 70
     0
  0
BLOCK_RECORD
  5
A
330
1
100
AcDbSymbolTableRecord
100
AcDbBlockTableRecord
  2
*MODEL_SPACE
340
38E
  0
BLOCK_RECORD
  5
B
330
1
100
AcDbSymbolTableRecord
100
AcDbBlockTableRecord
  2
*PAPER_SPACE
340
38F
  0
ENDTAB
  0
ENDSEC
  0
SECTION
  2
BLOCKS
  0
BLOCK
  5
D
330
A
100
AcDbEntity
  8
0
100
AcDbBlockBegin
  2
*MODEL_SPACE
 70
     0
 10
0.0
 20
0.0
 30
0.0
  3
*MODEL_SPACE
  1

  0
ENDBLK
  5
E
330
A
100
AcDbEntity
  8
0
100
AcDbBlockEnd
  0
BLOCK
  5
F
330
B
100
AcDbEntity
 67
     1
  8
0
100
AcDbBlockBegin
  2
*PAPER_SPACE
 70
     0
 10
0.0
 20
0.0
 30
0.0
  3
*PAPER_SPACE
  1

  0
ENDBLK
  5
10
330
B
100
AcDbEntity
 67
     1
  8
0
100
AcDbBlockEnd
  0
ENDSEC
  0
SECTION
  2
ENTITIES
  0
ARC
  5
29
330
A
100
AcDbEntity
  8
1
  6
CONTINUOUS
370
    50
100
AcDbCircle
 10
124.7041741612
 20
148.1007258373
 30
0.0
 40
0.5
100
AcDbArc
 50
66.4218215218
 51
90.0
  0
ARC
  5
2A
330
A
100
AcDbEntity
  8
1
  6
CONTINUOUS
370
    50
100
AcDbCircle
 10
124.7041741612
 20
218.3507258373
 30
0.0
 40
0.5
100
AcDbArc
 50
270.0
 51
293.5781784782001
  0
LINE
  5
2B
330
A
100
AcDbEntity
  8
1
  6
CONTINUOUS
370
    50
100
AcDbLine
 10
123.4041741612
 20
218.1507258373
 30
0.0
 11
23.6575142253
 21
203.6043379299
 31
0.0
  0
LINE
  5
2C
330
A
100
AcDbEntity
  8
1
  6
CONTINUOUS
370
    50
100
AcDbLine
 10
23.6575142253
 20
162.8471137446
 30
0.0
 11
123.4041741612
 21
148.3007258373
 31
0.0
  0
LINE
  5
2D
330
A
100
AcDbEntity
  8
1
  6
CONTINUOUS
370
    50
100
AcDbLine
 10
123.4041741612
 20
148.3007258373
 30
0.0
 11
123.9470644378
 21
148.5538797308
 31
0.0
  0
LINE
  5
2E
330
A
100
AcDbEntity
  8
1
  6
CONTINUOUS
370
    50
100
AcDbLine
 10
123.9470644378
 20
217.8975719437
 30
0.0
 11
123.4041741612
 21
218.1507258373
 31
0.0
  0
ARC
  5
2F
330
A
100
AcDbEntity
  8
1
  6
CONTINUOUS
370
    50
100
AcDbCircle
 10
124.1583735687
 20
148.1007258373
 30
0.0
 40
0.5
100
AcDbArc
 50
90.0
 51
115.0
  0
ARC
  5
30
330
A
100
AcDbEntity
  8
1
  6
CONTINUOUS
370
    50
100
AcDbCircle
 10
124.1583735687
 20
218.3507258373
 30
0.0
 40
0.5
100
AcDbArc
 50
245.0
 51
270.0
  0
LINE
  5
31
330
A
100
AcDbEntity
  8
1
  6
CONTINUOUS
370
    50
100
AcDbLine
 10
124.1583735687
 20
148.6007258373
 30
0.0
 11
124.7041741612
 21
148.6007258373
 31
0.0
  0
LINE
  5
32
330
A
100
AcDbEntity
  8
1
  6
CONTINUOUS
370
    50
100
AcDbLine
 10
124.7041741612
 20
217.8507258373
 30
0.0
 11
124.1583735687
 21
217.8507258373
 31
0.0
  0
ARC
  5
33
330
A
100
AcDbEntity
  8
1
  6
CONTINUOUS
370
    50
100
AcDbCircle
 10
147.4541741612
 20
157.4757258373
 30
0.0
 40
5.0
100
AcDbArc
 50
79.0472158011
 51
180.0
  0
ARC
  5
34
330
A
100
AcDbEntity
  8
1
  6
CONTINUOUS
370
    50
100
AcDbCircle
 10
147.4541741612
 20
208.9757258373
 30
0.0
 40
5.0
100
AcDbArc
 50
180.0
 51
280.9527841989
  0
LINE
  5
35
330
A
100
AcDbEntity
  8
1
  6
CONTINUOUS
370
    50
100
AcDbLine
 10
148.4041741612
 20
162.3971319619
 30
0.0
 11
202.3710460572
 21
166.6444168921
 31
0.0
  0
LINE
  5
36
330
A
100
AcDbEntity
  8
1
  6
CONTINUOUS
370
    50
100
AcDbLine
 10
202.3710460572
 20
199.8070347824
 30
0.0
 11
148.4041741612
 21
204.0543197126
 31
0.0
  0
ARC
  5
37
330
A
100
AcDbEntity
  8
1
  6
CONTINUOUS
370
    50
100
AcDbCircle
 10
24.0541741612
 20
165.0630674109
 30
0.0
 40
2.25
100
AcDbArc
 50
180.0
 51
258.0
  0
ARC
  5
38
330
A
100
AcDbEntity
  8
1
  6
CONTINUOUS
370
    50
100
AcDbCircle
 10
24.0541741612
 20
201.3883842636
 30
0.0
 40
2.25
100
AcDbArc
 50
102.0
 51
180.0
  0
ARC
  5
39
330
A
100
AcDbEntity
  8
1
  6
CONTINUOUS
370
    50
100
AcDbCircle
 10
201.4041741612
 20
168.3951763664
 30
0.0
 40
2.0
100
AcDbArc
 50
298.9100507074999
 51
0.0
  0
ARC
  5
3A
330
A
100
AcDbEntity
  8
1
  6
CONTINUOUS
370
    50
100
AcDbCircle
 10
201.4041741612
 20
198.0562753081
 30
0.0
 40
2.0
100
AcDbArc
 50
0.0
 51
61.08994929250002
  0
LINE
  5
3B
330
A
100
AcDbEntity
  8
1
  6
CONTINUOUS
370
    50
100
AcDbLine
 10
141.9541741612
 20
136.4663885351
 30
0.0
 11
141.9541741612
 21
213.0757258373
 31
0.0
  0
LINE
  5
3C
330
A
100
AcDbEntity
  8
1
  6
CONTINUOUS
370
    50
100
AcDbLine
 10
141.9541741612
 20
213.0757258373
 30
0.0
 11
142.4541741612
 21
213.0757258373
 31
0.0
  0
LINE
  5
3D
330
A
100
AcDbEntity
  8
1
  6
CONTINUOUS
370
    50
100
AcDbLine
 10
142.4541741612
 20
213.0757258373
 30
0.0
 11
142.4541741612
 21
136.8699718454
 31
0.0
  0
LINE
  5
3E
330
A
100
AcDbEntity
  8
1
  6
CONTINUOUS
370
    50
100
AcDbLine
 10
142.4541741612
 20
136.8699718454
 30
0.0
 11
141.9541741612
 21
136.4663885351
 31
0.0
  0
LINE
  5
3F
330
A
100
AcDbEntity
  8
1
  6
CONTINUOUS
370
    50
100
AcDbLine
 10
136.4291741612
 20
213.0757258373
 30
0.0
 11
136.4291741612
 21
138.5789503586
 31
0.0
  0
LINE
  5
40
330
A
100
AcDbEntity
  8
1
  6
CONTINUOUS
370
    50
100
AcDbLine
 10
137.7373356687
 20
213.0757258373
 30
0.0
 11
136.4291741612
 21
213.0757258373
 31
0.0
  0
LINE
  5
41
330
A
100
AcDbEntity
  8
1
  6
CONTINUOUS
370
    50
100
AcDbLine
 10
137.7373356687
 20
213.0757258373
 30
0.0
 11
137.7373356687
 21
136.4663885351
 31
0.0
  0
LINE
  5
42
330
A
100
AcDbEntity
  8
1
  6
CONTINUOUS
370
    50
100
AcDbLine
 10
137.1304162547
 20
137.3163885373
 30
0.0
 11
137.7373356687
 21
136.4663885351
 31
0.0
  0
LINE
  5
43
330
A
100
AcDbEntity
  8
1
  6
CONTINUOUS
370
    50
100
AcDbLine
 10
136.4291741612
 20
138.5789503586
 30
0.0
 11
137.1304162547
 21
137.3163885373
 31
0.0
  0
LINE
  5
44
330
A
100
AcDbEntity
  8
1
  6
CONTINUOUS
370
    50
100
AcDbLine
 10
132.5791741612
 20
213.0757258373
 30
0.0
 11
131.2710126537
 21
213.0757258373
 31
0.0
  0
LINE
  5
45
330
A
100
AcDbEntity
  8
1
  6
CONTINUOUS
370
    50
100
AcDbLine
 10
132.5791741612
 20
138.5789503586
 30
0.0
 11
132.5791741612
 21
213.0757258373
 31
0.0
  0
LWPOLYLINE
  5
46
330
A
100
AcDbEntity
  8
1
  6
CONTINUOUS
370
    50
100
AcDbPolyline
 90
        3
 70
   128
 43
0.0
 10
131.8779320677
 20
137.3163885373
 10
131.9252442321
 20
137.4014908468
 10
132.5791741612
 20
138.5789503586
  0
LINE
  5
4B
330
A
100
AcDbEntity
  8
1
  6
CONTINUOUS
370
    50
100
AcDbLine
 10
131.2710126537
 20
136.4663885351
 30
0.0
 11
131.8779320677
 21
137.3163885373
 31
0.0
  0
LINE
  5
4C
330
A
100
AcDbEntity
  8
1
  6
CONTINUOUS
370
    50
100
AcDbLine
 10
131.2710126537
 20
136.4663885351
 30
0.0
 11
131.2710126537
 21
213.0757258373
 31
0.0
  0
LINE
  5
4D
330
A
100
AcDbEntity
  8
1
  6
CONTINUOUS
370
    50
100
AcDbLine
 10
141.9541741612
 20
213.0757258373
 30
0.0
 11
137.7373356687
 21
213.0757258373
 31
0.0
  0
LINE
  5
4E
330
A
100
AcDbEntity
  8
1
  6
CONTINUOUS
370
    50
100
AcDbLine
 10
137.7373356687
 20
136.4663885351
 30
0.0
 11
141.9541741612
 21
136.4663885351
 31
0.0
  0
LINE
  5
4F
330
A
100
AcDbEntity
  8
1
  6
CONTINUOUS
370
    50
100
AcDbLine
 10
126.254174159
 20
136.4663885351
 30
0.0
 11
131.2710126537
 21
136.4663885351
 31
0.0
  0
LINE
  5
50
330
A
100
AcDbEntity
  8
1
  6
CONTINUOUS
370
    50
100
AcDbLine
 10
125.4041741612
 20
136.7238643154
 30
0.0
 11
126.254174159
 21
136.4663885351
 31
0.0
  0
LINE
  5
51
330
A
100
AcDbEntity
  8
1
  6
CONTINUOUS
370
    50
100
AcDbLine
 10
125.4041741612
 20
213.0757258373
 30
0.0
 11
125.4041741612
 21
136.7238643154
 31
0.0
  0
LINE
  5
52
330
A
100
AcDbEntity
  8
1
  6
CONTINUOUS
370
    50
100
AcDbLine
 10
131.2710126537
 20
213.0757258373
 30
0.0
 11
125.4041741612
 21
213.0757258373
 31
0.0
  0
LINE
  5
53
330
A
100
AcDbEntity
  8
1
  6
CONTINUOUS
370
    50
100
AcDbLine
 10
124.9041741612
 20
137.4092645488
 30
0.0
 11
124.9041741612
 21
213.0757258373
 31
0.0
  0
LINE
  5
54
330
A
100
AcDbEntity
  8
1
  6
CONTINUOUS
370
    50
100
AcDbLine
 10
124.9041741612
 20
213.0757258373
 30
0.0
 11
125.4041741612
 21
213.0757258373
 31
0.0
  0
LINE
  5
55
330
A
100
AcDbEntity
  8
1
  6
CONTINUOUS
370
    50
100
AcDbLine
 10
125.4041741612
 20
136.7238643154
 30
0.0
 11
124.9041741612
 21
137.4092645488
 31
0.0
  0
ARC
  5
56
330
A
100
AcDbEntity
  8
1
  6
CONTINUOUS
370
    50
100
AcDbCircle
 10
133.0906556785
 20
139.0665181167
 30
0.0
 40
0.5115703146
100
AcDbArc
 50
91.2860357737
 51
181.0675571349
  0
LINE
  5
57
330
A
100
AcDbEntity
  8
1
  6
CONTINUOUS
370
    50
100
AcDbLine
 10
132.5791741612
 20
213.0757258373
 30
0.0
 11
133.0791741612
 21
213.0757258373
 31
0.0
  0
LINE
  5
58
330
A
100
AcDbEntity
  8
1
  6
CONTINUOUS
370
    50
100
AcDbLine
 10
133.0791741612
 20
213.0757258373
 30
0.0
 11
133.0791741612
 21
139.5779595714
 31
0.0
  0
ARC
  5
59
330
A
100
AcDbEntity
  8
1
  6
CONTINUOUS
370
    50
100
AcDbCircle
 10
135.9192812353
 20
139.0680427565
 30
0.0
 40
0.5100127724
100
AcDbArc
 50
358.7578664207999
 51
88.88854067079998
  0
LINE
  5
5A
330
A
100
AcDbEntity
  8
1
  6
CONTINUOUS
370
    50
100
AcDbLine
 10
135.9291741612
 20
213.0757258373
 30
0.0
 11
135.9291741612
 21
139.5779595714
 31
0.0
  0
LINE
  5
5B
330
A
100
AcDbEntity
  8
1
  6
CONTINUOUS
370
    50
100
AcDbLine
 10
135.9291741612
 20
213.0757258373
 30
0.0
 11
136.4291741612
 21
213.0757258373
 31
0.0
  0
LINE
  5
5C
330
A
100
AcDbEntity
  8
1
  6
CONTINUOUS
370
    50
100
AcDbLine
 10
135.9291741612
 20
139.5779595714
 30
0.0
 11
133.0791741612
 21
139.5779595714
 31
0.0
  0
LINE
  5
5D
330
A
100
AcDbEntity
  8
1
  6
CONTINUOUS
370
    50
100
AcDbLine
 10
133.0791741612
 20
213.0757258373
 30
0.0
 11
135.9291741612
 21
213.0757258373
 31
0.0
  0
LINE
  5
5E
330
A
100
AcDbEntity
  8
1
  6
CONTINUOUS
370
    50
100
AcDbLine
 10
23.6575142253
 20
203.6043379299
 30
0.0
 11
23.6575142253
 21
162.8471137446
 31
0.0
  0
LINE
  5
5F
330
A
100
AcDbEntity
  8
1
  6
CONTINUOUS
370
    50
100
AcDbLine
 10
123.4041741612
 20
148.3007258373
 30
0.0
 11
123.4041741612
 21
218.1507258373
 31
0.0
  0
LINE
  5
60
330
A
100
AcDbEntity
  8
1
  6
CONTINUOUS
370
    50
100
AcDbLine
 10
131.2710126537
 20
221.7368037889
 30
0.0
 11
132.5791741612
 21
218.8267730219
 31
0.0
  0
LINE
  5
61
330
A
100
AcDbEntity
  8
1
  6
CONTINUOUS
370
    50
100
AcDbLine
 10
132.5791741612
 20
218.2254044072
 30
0.0
 11
132.5791741612
 21
218.8267730219
 31
0.0
  0
ARC
  5
62
330
A
100
AcDbEntity
  8
1
  6
CONTINUOUS
370
    50
100
AcDbCircle
 10
133.1759197066
 20
218.1582731887
 30
0.0
 40
0.6005096556
100
AcDbArc
 50
173.5814650336
 51
260.7289175413
  0
LINE
  5
63
330
A
100
AcDbEntity
  8
1
  6
CONTINUOUS
370
    50
100
AcDbLine
 10
135.9291741612
 20
217.5656078988
 30
0.0
 11
133.0791741612
 21
217.5656078988
 31
0.0
  0
ARC
  5
64
330
A
100
AcDbEntity
  8
1
  6
CONTINUOUS
370
    50
100
AcDbCircle
 10
135.8641002386
 20
218.1342721351
 30
0.0
 40
0.5723754267
100
AcDbArc
 50
276.5281284867
 51
9.1614889384
  0
LINE
  5
65
330
A
100
AcDbEntity
  8
1
  6
CONTINUOUS
370
    50
100
AcDbLine
 10
136.4291741612
 20
218.8267730219
 30
0.0
 11
136.4291741612
 21
218.2254044072
 31
0.0
  0
LWPOLYLINE
  5
66
330
A
100
AcDbEntity
  8
1
  6
CONTINUOUS
370
    50
100
AcDbPolyline
 90
        3
 70
   128
 43
0.0
 10
136.4291741612
 20
218.8267730219
 10
136.5174737115
 20
219.0261284349
 10
137.7373356687
 20
221.7368037889
  0
LINE
  5
6B
330
A
100
AcDbEntity
  8
1
  6
CONTINUOUS
370
    50
100
AcDbLine
 10
137.7373356687
 20
221.7368037889
 30
0.0
 11
141.9541741612
 21
221.7368037889
 31
0.0
  0
LINE
  5
6C
330
A
100
AcDbEntity
  8
1
  6
CONTINUOUS
370
    50
100
AcDbLine
 10
142.4541741612
 20
221.1022109567
 30
0.0
 11
141.9541741612
 21
221.7368037889
 31
0.0
  0
LINE
  5
6D
330
A
100
AcDbEntity
  8
1
  6
CONTINUOUS
370
    50
100
AcDbLine
 10
125.4041741612
 20
221.7368037889
 30
0.0
 11
124.9041741612
 21
221.1022109567
 31
0.0
  0
LINE
  5
6E
330
A
100
AcDbEntity
  8
1
  6
CONTINUOUS
370
    50
100
AcDbLine
 10
125.4041741612
 20
221.7368037889
 30
0.0
 11
131.2710126537
 21
221.7368037889
 31
0.0
  0
LINE
  5
6F
330
A
100
AcDbEntity
  8
1
  6
CONTINUOUS
370
    50
100
AcDbLine
 10
124.9041741612
 20
221.1022109567
 30
0.0
 11
124.9041741612
 21
213.0757258373
 31
0.0
  0
LINE
  5
70
330
A
100
AcDbEntity
  8
1
  6
CONTINUOUS
370
    50
100
AcDbLine
 10
142.4541741612
 20
221.1022109567
 30
0.0
 11
142.4541741612
 21
213.0757258373
 31
0.0
  0
LINE
  5
71
330
A
100
AcDbEntity
  8
1
  6
CONTINUOUS
370
    50
100
AcDbLine
 10
135.9291741612
 20
226.8734921031
 30
0.0
 11
135.9291741612
 21
217.5656078988
 31
0.0
  0
LINE
  5
72
330
A
100
AcDbEntity
  8
1
  6
CONTINUOUS
370
    50
100
AcDbLine
 10
133.0791741612
 20
226.8734921031
 30
0.0
 11
133.0791741612
 21
217.5656078988
 31
0.0
  0
LINE
  5
73
330
A
100
AcDbEntity
  8
1
  6
CONTINUOUS
370
    50
100
AcDbLine
 10
135.9291741612
 20
226.8734921031
 30
0.0
 11
133.0791741612
 21
226.8734921031
 31
0.0
  0
ARC
  5
74
330
A
100
AcDbEntity
  8
1
  6
CONTINUOUS
370
    50
100
AcDbCircle
 10
133.0884113345
 20
227.3827795638
 30
0.0
 40
0.5093712232
100
AcDbArc
 50
178.6854922064
 51
268.9609148852
  0
ARC
  5
75
330
A
100
AcDbEntity
  8
1
  6
CONTINUOUS
370
    50
100
AcDbCircle
 10
135.9216149495
 20
227.3811691516
 30
0.0
 40
0.5077333229
100
AcDbArc
 50
270.8530598834
 51
1.500533025
  0
LINE
  5
76
330
A
100
AcDbEntity
  8
1
  6
CONTINUOUS
370
    50
100
AcDbLine
 10
132.5791741612
 20
218.8267730219
 30
0.0
 11
132.5791741612
 21
227.8725013159
 31
0.0
  0
LINE
  5
77
330
A
100
AcDbEntity
  8
1
  6
CONTINUOUS
370
    50
100
AcDbLine
 10
131.2710126537
 20
221.7368037889
 30
0.0
 11
131.2710126537
 21
229.9850631394
 31
0.0
  0
LINE
  5
78
330
A
100
AcDbEntity
  8
1
  6
CONTINUOUS
370
    50
100
AcDbLine
 10
131.8779320678
 20
229.1350631372
 30
0.0
 11
131.2710126537
 21
229.9850631394
 31
0.0
  0
LINE
  5
79
330
A
100
AcDbEntity
  8
1
  6
CONTINUOUS
370
    50
100
AcDbLine
 10
131.8779320678
 20
229.1350631372
 30
0.0
 11
132.5791741612
 21
227.8725013159
 31
0.0
  0
LINE
  5
7A
330
A
100
AcDbEntity
  8
1
  6
CONTINUOUS
370
    50
100
AcDbLine
 10
136.4291741612
 20
227.8725013159
 30
0.0
 11
137.1304162547
 21
229.1350631373
 31
0.0
  0
LINE
  5
7B
330
A
100
AcDbEntity
  8
1
  6
CONTINUOUS
370
    50
100
AcDbLine
 10
137.7373356687
 20
229.9850631394
 30
0.0
 11
137.1304162547
 21
229.1350631373
 31
0.0
  0
LINE
  5
7C
330
A
100
AcDbEntity
  8
1
  6
CONTINUOUS
370
    50
100
AcDbLine
 10
137.7373356687
 20
229.9850631394
 30
0.0
 11
137.7373356687
 21
221.7368037889
 31
0.0
  0
LINE
  5
7D
330
A
100
AcDbEntity
  8
1
  6
CONTINUOUS
370
    50
100
AcDbLine
 10
136.4291741612
 20
227.8725013159
 30
0.0
 11
136.4291741612
 21
218.8267730219
 31
0.0
  0
LINE
  5
7E
330
A
100
AcDbEntity
  8
1
  6
CONTINUOUS
370
    50
100
AcDbLine
 10
141.9541741612
 20
221.7368037889
 30
0.0
 11
141.9541741612
 21
229.9850631394
 31
0.0
  0
LINE
  5
7F
330
A
100
AcDbEntity
  8
1
  6
CONTINUOUS
370
    50
100
AcDbLine
 10
141.9541741612
 20
229.9850631394
 30
0.0
 11
142.4541741612
 21
229.5814798291
 31
0.0
  0
LINE
  5
80
330
A
100
AcDbEntity
  8
1
  6
CONTINUOUS
370
    50
100
AcDbLine
 10
142.4541741612
 20
229.5814798291
 30
0.0
 11
142.4541741612
 21
221.1022109567
 31
0.0
  0
LINE
  5
81
330
A
100
AcDbEntity
  8
1
  6
CONTINUOUS
370
    50
100
AcDbLine
 10
124.9041741612
 20
229.0421871258
 30
0.0
 11
125.4041741612
 21
229.7275873591
 31
0.0
  0
LINE
  5
82
330
A
100
AcDbEntity
  8
1
  6
CONTINUOUS
370
    50
100
AcDbLine
 10
125.4041741612
 20
229.7275873591
 30
0.0
 11
125.4041741612
 21
221.7368037889
 31
0.0
  0
LINE
  5
83
330
A
100
AcDbEntity
  8
1
  6
CONTINUOUS
370
    50
100
AcDbLine
 10
124.9041741612
 20
221.1022109567
 30
0.0
 11
124.9041741612
 21
229.0421871258
 31
0.0
  0
LINE
  5
84
330
A
100
AcDbEntity
  8
1
  6
CONTINUOUS
370
    50
100
AcDbLine
 10
131.2710126537
 20
229.9850631394
 30
0.0
 11
126.254174159
 21
229.9850631394
 31
0.0
  0
LINE
  5
85
330
A
100
AcDbEntity
  8
1
  6
CONTINUOUS
370
    50
100
AcDbLine
 10
125.4041741612
 20
229.7275873591
 30
0.0
 11
126.254174159
 21
229.9850631394
 31
0.0
  0
LINE
  5
86
330
A
100
AcDbEntity
  8
1
  6
CONTINUOUS
370
    50
100
AcDbLine
 10
141.9541741612
 20
229.9850631394
 30
0.0
 11
137.7373356687
 21
229.9850631394
 31
0.0
  0
LINE
  5
87
330
A
100
AcDbEntity
  8
1
  6
CONTINUOUS
370
    50
100
AcDbLine
 10
148.4041741612
 20
162.3846462888
 30
0.0
 11
148.4041741612
 21
204.0668053857
 31
0.0
  0
LINE
  5
88
330
A
100
AcDbEntity
  8
1
  6
CONTINUOUS
370
    50
100
AcDbLine
 10
202.3710460572
 20
199.8070347824
 30
0.0
 11
202.3710460572
 21
166.6444168921
 31
0.0
  0
LINE
  5
89
330
A
100
AcDbEntity
  8
1
  6
CONTINUOUS
370
    50
100
AcDbLine
 10
21.8041741612
 20
165.0630674125
 30
0.0
 11
21.8041741612
 21
201.3883842636
 31
0.0
  0
LINE
  5
8A
330
A
100
AcDbEntity
  8
1
  6
CONTINUOUS
370
    50
100
AcDbLine
 10
203.4041741612
 20
168.3951763775
 30
0.0
 11
203.4041741612
 21
198.0562753081
 31
0.0
  0
LINE
  5
8B
330
A
100
AcDbEntity
  8
1
  6
CONTINUOUS
370
    50
100
AcDbLine
 10
124.7041741612
 20
148.6007258373
 30
0.0
 11
124.7041741612
 21
217.8507258373
 31
0.0
  0
LINE
  5
8C
330
A
100
AcDbEntity
  8
1
  6
CONTINUOUS
370
    50
100
AcDbLine
 10
123.9470644378
 20
148.5538797308
 30
0.0
 11
123.9470644378
 21
217.8975719437
 31
0.0
  0
LINE
  5
8D
330
A
100
AcDbEntity
  8
1
  6
CONTINUOUS
370
    50
100
AcDbLine
 10
124.1583735687
 20
148.6007258373
 30
0.0
 11
124.1583735687
 21
217.8507258373
 31
0.0
  0
LINE
  5
8E
330
A
100
AcDbEntity
  8
1
  6
CONTINUOUS
370
    50
100
AcDbLine
 10
23.5863728569
 20
162.8622353092
 30
0.0
 11
23.5863728569
 21
203.5892163653
 31
0.0
  0
LWPOLYLINE
  5
8F
330
A
100
AcDbEntity
  8
1
  6
CONTINUOUS
370
    50
100
AcDbPolyline
 90
       26
 70
   128
 43
0.0
 10
141.6267267707
 20
169.5603558187
 10
141.4645254044
 20
168.9295813374
 10
141.2113632748
 20
168.3384407366
 10
140.8831474894
 20
167.8240775544
 10
140.5005010532
 20
167.418811121
 10
140.087467049
 20
167.1481058171
 10
139.6699979224
 20
167.0289710524
 10
139.2743247939
 20
167.0688925023
 10
138.9253092614
 20
167.2653617554
 10
138.6448812544
 20
167.6060339258
 10
138.4506610959
 20
168.0695033283
 10
138.3548523527
 20
168.6266484757
 10
138.3634750406
 20
169.2424618895
 10
138.4759873643
 20
169.8782497479
 10
138.6853197608
 20
170.4940631616
 10
138.9783191056
 20
171.0512083091
 10
139.3365751725
 20
171.5146777115
 10
139.7375774152
 20
171.855349882
 10
140.1561293879
 20
172.0518191351
 10
140.5659319309
 20
172.091740585
 10
140.9412356432
 20
171.9726058203
 10
141.2584588124
 20
171.7019005164
 10
141.4976691401
 20
171.296634083
 10
141.6438361615
 20
170.7822709007
 10
141.6877756653
 20
170.1911302999
 10
141.6267267707
 20
169.5603558187
  0
LWPOLYLINE
  5
AB
330
A
100
AcDbEntity
  8
1
  6
CONTINUOUS
370
    50
100
AcDbPolyline
 90
       26
 70
   128
 43
0.0
 10
133.5182615042
 20
170.9954068969
 10
133.5236011452
 20
170.480904727
 10
133.5180145329
 20
170.0272992676
 10
133.5004975459
 20
169.6789135694
 10
133.4607810272
 20
169.4273692064
 10
133.3548344605
 20
169.3108040595
 10
133.2334831182
 20
169.324504006
 10
133.0654563674
 20
169.3705684738
 10
132.8242319788
 20
169.4398429976
 10
132.4150956253
 20
169.5650697329
 10
131.5747541557
 20
169.9326607223
 10
130.9761987406
 20
170.3984889614
 10
130.6828626049
 20
170.8270041195
 10
130.5715939641
 20
171.2409466451
 10
130.616404028
 20
171.6645610774
 10
130.7953403339
 20
172.0356072673
 10
131.2307231888
 20
172.4798188084
 10
132.0410947266
 20
172.8850230904
 10
132.5699635167
 20
172.9925163256
 10
132.885979686
 20
172.9860635133
 10
133.0993136241
 20
172.9183997762
 10
133.2467024791
 20
172.7945402393
 10
133.3898722867
 20
172.4766751476
 10
133.4809224103
 20
171.8410575696
 10
133.5116721633
 20
171.24540629
 10
133.5182615042
 20
170.9954068969
  0
LWPOLYLINE
  5
C7
330
A
100
AcDbEntity
  8
1
  6
CONTINUOUS
370
    50
100
AcDbPolyline
 90
       24
 70
   128
 43
0.0
 10
140.9341190034
 20
169.6702789739
 10
140.7880911208
 20
169.1175672402
 10
140.5564591748
 20
168.6058476073
 10
140.2564022472
 20
168.1730719794
 10
139.9101741877
 20
167.8513373451
 10
139.5434531475
 20
167.6645052902
 10
139.1834371485
 20
167.6264322937
 10
138.8568269305
 20
167.7399420554
 10
138.5878456792
 20
167.9966160757
 10
138.3964425034
 20
168.3774180166
 10
138.2968129012
 20
168.8541055403
 10
138.2963459442
 20
169.3913249139
 10
138.3950762647
 20
169.9492330339
 10
138.5856814863
 20
170.4864524074
 10
138.8540252918
 20
170.9631399311
 10
139.1802058487
 20
171.3439418721
 10
139.5400318372
 20
171.6006158924
 10
139.9068166099
 20
171.7141256541
 10
140.2533574182
 20
171.6760526576
 10
140.5539529156
 20
171.4892206027
 10
140.7863093091
 20
171.1674859683
 10
140.9331937881
 20
170.7347103405
 10
140.9837126027
 20
170.2229907076
 10
140.9341190034
 20
169.6702789739
  0
LWPOLYLINE
  5
E1
330
A
100
AcDbEntity
  8
1
  6
CONTINUOUS
370
    50
100
AcDbPolyline
 90
       24
 70
   128
 43
0.0
 10
131.7492461305
 20
172.3062362355
 10
131.6032182478
 20
171.7535245018
 10
131.3715863018
 20
171.2418048689
 10
131.0715293742
 20
170.809029241
 10
130.7253013147
 20
170.4872946067
 10
130.3585802745
 20
170.3004625518
 10
129.9985642755
 20
170.2623895553
 10
129.6719540575
 20
170.375899317
 10
129.4029728062
 20
170.6325733373
 10
129.2115696304
 20
171.0133752783
 10
129.1119400282
 20
171.490062802
 10
129.1114730712
 20
172.0272821755
 10
129.2102033917
 20
172.5851902955
 10
129.4008086133
 20
173.122409669
 10
129.6691524188
 20
173.5990971927
 10
129.9953329757
 20
173.9798991337
 10
130.3551589642
 20
174.236573154
 10
130.721943737
 20
174.3500829157
 10
131.0684845452
 20
174.3120099192
 10
131.3690800426
 20
174.1251778643
 10
131.6014364361
 20
173.80344323
 10
131.7483209151
 20
173.3706676021
 10
131.7988397297
 20
172.8589479692
 10
131.7492461305
 20
172.3062362355
  0
LINE
  5
FB
330
A
100
AcDbEntity
  8
1
  6
CONTINUOUS
370
    50
100
AcDbLine
 10
125.1573280547
 20
147.9257258373
 30
0.0
 11
125.1573280547
 21
219.4489734355
 31
0.0
  0
LINE
  5
FC
330
A
100
AcDbEntity
  8
1
  6
CONTINUOUS
370
    50
100
AcDbLine
 10
125.2041741612
 20
147.9257258373
 30
0.0
 11
125.2041741612
 21
219.2570757377
 31
0.0
  0
LWPOLYLINE
  5
FD
330
A
100
AcDbEntity
  8
1
  6
CONTINUOUS
370
    50
100
AcDbPolyline
 90
       26
 70
   128
 43
0.0
 10
131.9892541226
 20
172.3084346986
 10
131.8332912704
 20
171.7019207743
 10
131.5898661457
 20
171.1335163505
 10
131.2742740444
 20
170.6389363675
 10
130.9063447788
 20
170.2492571047
 10
130.5091966979
 20
169.9889635432
 10
130.1077840761
 20
169.8744108848
 10
129.7273291449
 20
169.9127968944
 10
129.3917372867
 20
170.1017096377
 10
129.1220949723
 20
170.4292790324
 10
128.9353448199
 20
170.8749226886
 10
128.8432210284
 20
171.4106391765
 10
128.8515120744
 20
172.002767459
 10
128.959697001
 20
172.6141019382
 10
129.1609781515
 20
173.2062302207
 10
129.4427082908
 20
173.7419467086
 10
129.7871852782
 20
174.1875903648
 10
130.1727643576
 20
174.5151597595
 10
130.5752181775
 20
174.7040725028
 10
130.9692590843
 20
174.7424585124
 10
131.3301280384
 20
174.627905854
 10
131.6351503165
 20
174.3676122925
 10
131.8651602469
 20
173.9779330297
 10
132.0057054599
 20
173.4833530467
 10
132.0479549828
 20
172.9149486229
 10
131.9892541226
 20
172.3084346986
  0
LWPOLYLINE
  5
119
330
A
100
AcDbEntity
  8
1
  6
CONTINUOUS
370
    50
100
AcDbPolyline
 90
       26
 70
   128
 43
0.0
 10
131.996914567
 20
172.3062362355
 10
131.8409517148
 20
171.6997223112
 10
131.5975265901
 20
171.1313178874
 10
131.2819344888
 20
170.6367379044
 10
130.9140052232
 20
170.2470586416
 10
130.5168571423
 20
169.9867650801
 10
130.1154445206
 20
169.8722124217
 10
129.7349895893
 20
169.9105984313
 10
129.3993977312
 20
170.0995111746
 10
129.1297554167
 20
170.4270805693
 10
128.9430052643
 20
170.8727242255
 10
128.8508814728
 20
171.4084407134
 10
128.8591725188
 20
172.0005689959
 10
128.9673574454
 20
172.6119034751
 10
129.1686385959
 20
173.2040317575
 10
129.4503687352
 20
173.7397482455
 10
129.7948457226
 20
174.1853919017
 10
130.1804248021
 20
174.5129612964
 10
130.582878622
 20
174.7018740397
 10
130.9769195287
 20
174.7402600493
 10
131.3377884829
 20
174.6257073909
 10
131.6428107609
 20
174.3654138294
 10
131.8728206914
 20
173.9757345666
 10
132.0133659043
 20
173.4811545836
 10
132.0556154272
 20
172.9127501598
 10
131.996914567
 20
172.3062362355
  0
LWPOLYLINE
  5
135
330
A
100
AcDbEntity
  8
1
  6
CONTINUOUS
370
    50
100
AcDbPolyline
 90
       24
 70
   128
 43
0.0
 10
131.741585686
 20
172.3084346986
 10
131.5955578034
 20
171.7557229649
 10
131.3639258574
 20
171.244003332
 10
131.0638689298
 20
170.8112277041
 10
130.7176408703
 20
170.4894930698
 10
130.3509198301
 20
170.3026610149
 10
129.9909038311
 20
170.2645880184
 10
129.6642936131
 20
170.3780977801
 10
129.3953123618
 20
170.6347718004
 10
129.203909186
 20
171.0155737414
 10
129.1042795837
 20
171.4922612651
 10
129.1038126268
 20
172.0294806386
 10
129.2025429472
 20
172.5873887586
 10
129.3931481689
 20
173.1246081321
 10
129.6614919744
 20
173.6012956558
 10
129.9876725312
 20
173.9820975968
 10
130.3474985198
 20
174.2387716171
 10
130.7142832925
 20
174.3522813788
 10
131.0608241008
 20
174.3142083823
 10
131.3614195981
 20
174.1273763274
 10
131.5937759917
 20
173.8056416931
 10
131.7406604707
 20
173.3728660652
 10
131.7911792852
 20
172.8611464323
 10
131.741585686
 20
172.3084346986
  0
LWPOLYLINE
  5
14F
330
A
100
AcDbEntity
  8
1
  6
CONTINUOUS
370
    50
100
AcDbPolyline
 90
       22
 70
   128
 43
0.0
 10
108.0428578575
 20
179.1097083334
 10
107.5963673613
 20
178.5946357535
 10
106.714658606
 20
178.1027676961
 10
105.1297962672
 20
177.7522057735
 10
104.3012185609
 20
177.7450341051
 10
103.4583768895
 20
177.8707089997
 10
102.5983263301
 20
178.2025249694
 10
102.0407469261
 20
178.644257982
 10
101.7447803403
 20
179.1200487319
 10
101.647484122
 20
179.6745352407
 10
101.7520468217
 20
180.1778225764
 10
102.0166425922
 20
180.6325986866
 10
102.5653568484
 20
181.1256598877
 10
103.4984502351
 20
181.5334013676
 10
104.9544669225
 20
181.6719820795
 10
106.4356353512
 20
181.3704141292
 10
107.358373731
 20
180.9014553239
 10
107.8659915603
 20
180.4379967181
 10
108.1058383164
 20
180.0296920764
 10
108.1808138456
 20
179.6516638277
 10
108.117593518
 20
179.2763311551
 10
108.0428578575
 20
179.1097083334
  0
LINE
  5
167
330
A
100
AcDbEntity
  8
1
  6
CONTINUOUS
370
    50
100
AcDbLine
 10
124.9041741612
 20
147.1757258373
 30
0.0
 11
127.1041741612
 21
147.1757258373
 31
0.0
  0
LINE
  5
168
330
A
100
AcDbEntity
  8
1
  6
CONTINUOUS
370
    50
100
AcDbLine
 10
127.1041741612
 20
221.4757258373
 30
0.0
 11
124.9041741612
 21
221.4757258373
 31
0.0
  0
LINE
  5
169
330
A
100
AcDbEntity
  8
1
  6
CONTINUOUS
370
    50
100
AcDbLine
 10
22.5646456539
 20
170.2953019201
 30
0.0
 11
22.5646456539
 21
196.1561497545
 31
0.0
  0
LINE
  5
16A
330
A
100
AcDbEntity
  8
1
  6
CONTINUOUS
370
    50
100
AcDbLine
 10
126.7935139894
 20
147.9257258373
 30
0.0
 11
124.9041741612
 21
147.9257258373
 31
0.0
  0
LINE
  5
16B
330
A
100
AcDbEntity
  8
1
  6
CONTINUOUS
370
    50
100
AcDbLine
 10
124.9041741612
 20
220.7257258373
 30
0.0
 11
126.7935139894
 21
220.7257258373
 31
0.0
  0
LINE
  5
16C
330
A
100
AcDbEntity
  8
1
  6
CONTINUOUS
370
    50
100
AcDbLine
 10
126.254174159
 20
136.4663885351
 30
0.0
 11
127.1041741612
 21
137.3163885373
 31
0.0
  0
LINE
  5
16D
330
A
100
AcDbEntity
  8
1
  6
CONTINUOUS
370
    50
100
AcDbLine
 10
126.254174159
 20
229.9850631394
 30
0.0
 11
127.1041741612
 21
229.1350631373
 31
0.0
  0
LINE
  5
16E
330
A
100
AcDbEntity
  8
1
  6
CONTINUOUS
370
    50
100
AcDbLine
 10
23.0646456539
 20
170.5839770547
 30
0.0
 11
23.0646456539
 21
195.8674746199
 31
0.0
  0
LINE
  5
16F
330
A
100
AcDbEntity
  8
1
  6
CONTINUOUS
370
    50
100
AcDbLine
 10
127.1041741612
 20
137.3163885373
 30
0.0
 11
131.8779320677
 21
137.3163885373
 31
0.0
  0
LINE
  5
170
330
A
100
AcDbEntity
  8
1
  6
CONTINUOUS
370
    50
100
AcDbLine
 10
137.1304162547
 20
137.3163885373
 30
0.0
 11
142.4541741612
 21
137.3163885373
 31
0.0
  0
LINE
  5
171
330
A
100
AcDbEntity
  8
1
  6
CONTINUOUS
370
    50
100
AcDbLine
 10
127.1041741612
 20
137.3163885373
 30
0.0
 11
127.1041741612
 21
147.1757258373
 31
0.0
  0
LINE
  5
172
330
A
100
AcDbEntity
  8
1
  6
CONTINUOUS
370
    50
100
AcDbLine
 10
127.1041741612
 20
147.1757258373
 30
0.0
 11
142.4541741612
 21
147.1757258373
 31
0.0
  0
LINE
  5
173
330
A
100
AcDbEntity
  8
1
  6
CONTINUOUS
370
    50
100
AcDbLine
 10
142.4541741612
 20
147.9257258373
 30
0.0
 11
126.7935139894
 21
147.9257258373
 31
0.0
  0
LINE
  5
174
330
A
100
AcDbEntity
  8
1
  6
CONTINUOUS
370
    50
100
AcDbLine
 10
127.1041741612
 20
147.1757258373
 30
0.0
 11
126.7935139894
 21
147.9257258373
 31
0.0
  0
LINE
  5
175
330
A
100
AcDbEntity
  8
1
  6
CONTINUOUS
370
    50
100
AcDbLine
 10
126.7935139894
 20
220.7257258373
 30
0.0
 11
142.4541741612
 21
220.7257258373
 31
0.0
  0
LINE
  5
176
330
A
100
AcDbEntity
  8
1
  6
CONTINUOUS
370
    50
100
AcDbLine
 10
127.1041741612
 20
221.4757258373
 30
0.0
 11
126.7935139894
 21
220.7257258373
 31
0.0
  0
LINE
  5
177
330
A
100
AcDbEntity
  8
1
  6
CONTINUOUS
370
    50
100
AcDbLine
 10
142.4541741612
 20
221.4757258373
 30
0.0
 11
127.1041741612
 21
221.4757258373
 31
0.0
  0
LINE
  5
178
330
A
100
AcDbEntity
  8
1
  6
CONTINUOUS
370
    50
100
AcDbLine
 10
127.1041741612
 20
229.1350631373
 30
0.0
 11
131.8779320678
 21
229.1350631372
 31
0.0
  0
LINE
  5
179
330
A
100
AcDbEntity
  8
1
  6
CONTINUOUS
370
    50
100
AcDbLine
 10
137.1304162547
 20
229.1350631373
 30
0.0
 11
142.4541741612
 21
229.1350631373
 31
0.0
  0
LINE
  5
17A
330
A
100
AcDbEntity
  8
1
  6
CONTINUOUS
370
    50
100
AcDbLine
 10
127.1041741612
 20
229.1350631373
 30
0.0
 11
127.1041741612
 21
221.4757258373
 31
0.0
  0
LINE
  5
17B
330
A
100
AcDbEntity
  8
1
  6
CONTINUOUS
370
    50
100
AcDbLine
 10
30.5340779718
 20
195.7257258373
 30
0.0
 11
30.5340779718
 21
170.7257258373
 31
0.0
  0
LINE
  5
17C
330
A
100
AcDbEntity
  8
1
  6
CONTINUOUS
370
    50
100
AcDbLine
 10
30.7938855929
 20
195.8757258373
 30
0.0
 11
30.7938855929
 21
170.5757258373
 31
0.0
  0
LINE
  5
17D
330
A
100
AcDbEntity
  8
1
  6
CONTINUOUS
370
    50
100
AcDbLine
 10
34.7093928481
 20
193.7882258373
 30
0.0
 11
34.7093928481
 21
172.6632258373
 31
0.0
  0
LINE
  5
17E
330
A
100
AcDbEntity
  8
1
  6
CONTINUOUS
370
    50
100
AcDbLine
 10
33.5041741612
 20
195.8757258373
 30
0.0
 11
33.5041741612
 21
170.5757258373
 31
0.0
  0
LINE
  5
17F
330
A
100
AcDbEntity
  8
1
  6
CONTINUOUS
370
    50
100
AcDbLine
 10
23.8041741612
 20
195.7257258373
 30
0.0
 11
23.8041741612
 21
170.7257258373
 31
0.0
  0
LINE
  5
180
330
A
100
AcDbEntity
  8
1
  6
CONTINUOUS
370
    50
100
AcDbLine
 10
70.8041741612
 20
195.2257258373
 30
0.0
 11
70.8041741612
 21
171.2257258373
 31
0.0
  0
LINE
  5
181
330
A
100
AcDbEntity
  8
1
  6
CONTINUOUS
370
    50
100
AcDbLine
 10
70.8141741612
 20
195.2257258373
 30
0.0
 11
70.8141741612
 21
171.2257258373
 31
0.0
  0
LINE
  5
182
330
A
100
AcDbEntity
  8
1
  6
CONTINUOUS
370
    50
100
AcDbLine
 10
85.8041741612
 20
193.7882258373
 30
0.0
 11
85.8041741612
 21
172.6632258373
 31
0.0
  0
LINE
  5
183
330
A
100
AcDbEntity
  8
1
  6
CONTINUOUS
370
    50
100
AcDbLine
 10
85.8269223008
 20
193.7257258373
 30
0.0
 11
85.8269223008
 21
172.7257258373
 31
0.0
  0
LINE
  5
184
330
A
100
AcDbEntity
  8
1
  6
CONTINUOUS
370
    50
100
AcDbLine
 10
134.6909255072
 20
177.7257258373
 30
0.0
 11
134.6909255072
 21
188.7257258373
 31
0.0
  0
LINE
  5
185
330
A
100
AcDbEntity
  8
1
  6
CONTINUOUS
370
    50
100
AcDbLine
 10
131.8041741612
 20
193.7257258373
 30
0.0
 11
131.8041741612
 21
172.7257258373
 31
0.0
  0
LWPOLYLINE
  5
186
330
A
100
AcDbEntity
  8
1
  6
CONTINUOUS
370
    50
100
AcDbPolyline
 90
       22
 70
   128
 43
0.0
 10
108.0428578575
 20
187.3417433411
 10
107.5963673613
 20
187.856815921
 10
106.714658606
 20
188.3486839784
 10
105.1297962672
 20
188.699245901
 10
104.2869361012
 20
188.705810958
 10
103.4583768895
 20
188.5807426749
 10
102.5983263301
 20
188.2489267051
 10
102.0407469261
 20
187.8071936925
 10
101.7447803403
 20
187.3314029427
 10
101.647484122
 20
186.7769164338
 10
101.7520468217
 20
186.2736290981
 10
102.0166425922
 20
185.8188529879
 10
102.5653568484
 20
185.3257917868
 10
103.4984502351
 20
184.9180503069
 10
104.9544669225
 20
184.779469595
 10
106.4356353512
 20
185.0810375453
 10
107.358373731
 20
185.5499963506
 10
107.8659915603
 20
186.0134549564
 10
108.1058383164
 20
186.4217595981
 10
108.1808138456
 20
186.7997878468
 10
108.117593518
 20
187.1751205194
 10
108.0428578575
 20
187.3417433411
  0
LINE
  5
19E
330
A
100
AcDbEntity
  8
1
  6
CONTINUOUS
370
    50
100
AcDbLine
 10
202.3409521368
 20
174.2257258373
 30
0.0
 11
202.3409521368
 21
192.2257258373
 31
0.0
  0
LINE
  5
19F
330
A
100
AcDbEntity
  8
1
  6
CONTINUOUS
370
    50
100
AcDbLine
 10
153.9041741612
 20
192.4257258373
 30
0.0
 11
153.9041741612
 21
174.0257258373
 31
0.0
  0
LINE
  5
1A0
330
A
100
AcDbEntity
  8
1
  6
CONTINUOUS
370
    50
100
AcDbLine
 10
153.4041741612
 20
174.525725938
 30
0.0
 11
153.4041741612
 21
191.9257258373
 31
0.0
  0
LINE
  5
1A1
330
A
100
AcDbEntity
  8
1
  6
CONTINUOUS
370
    50
100
AcDbLine
 10
163.2887041112
 20
174.0257258373
 30
0.0
 11
163.2887041112
 21
192.4257258373
 31
0.0
  0
LINE
  5
1A2
330
A
100
AcDbEntity
  8
1
  6
CONTINUOUS
370
    50
100
AcDbLine
 10
163.404174165
 20
192.2257258373
 30
0.0
 11
163.404174165
 21
174.2257258373
 31
0.0
  0
LINE
  5
1A3
330
A
100
AcDbEntity
  8
1
  6
CONTINUOUS
370
    50
100
AcDbLine
 10
129.5041741612
 20
220.5257258373
 30
0.0
 11
139.5041741612
 21
220.5257258373
 31
0.0
  0
LINE
  5
1A4
330
A
100
AcDbEntity
  8
1
  6
CONTINUOUS
370
    50
100
AcDbLine
 10
129.804174342
 20
216.0257258373
 30
0.0
 11
139.2041741612
 21
216.0257258373
 31
0.0
  0
LINE
  5
1A5
330
A
100
AcDbEntity
  8
1
  6
CONTINUOUS
370
    50
100
AcDbLine
 10
139.5041741612
 20
216.3257258373
 30
0.0
 11
129.5243026912
 21
216.3257258373
 31
0.0
  0
LINE
  5
1A6
330
A
100
AcDbEntity
  8
1
  6
CONTINUOUS
370
    50
100
AcDbLine
 10
133.4041741612
 20
215.6257258373
 30
0.0
 11
135.6041741612
 21
215.6257258373
 31
0.0
  0
LINE
  5
1A7
330
A
100
AcDbEntity
  8
1
  6
CONTINUOUS
370
    50
100
AcDbLine
 10
133.2541741612
 20
212.2257258373
 30
0.0
 11
135.7541741612
 21
212.2257258373
 31
0.0
  0
LINE
  5
1A8
330
A
100
AcDbEntity
  8
1
  6
CONTINUOUS
370
    50
100
AcDbLine
 10
133.2541741612
 20
212.2157258373
 30
0.0
 11
135.7541741612
 21
212.2157258373
 31
0.0
  0
LINE
  5
1A9
330
A
100
AcDbEntity
  8
1
  6
CONTINUOUS
370
    50
100
AcDbLine
 10
133.4041741612
 20
209.6257258373
 30
0.0
 11
135.6041741612
 21
209.6257258373
 31
0.0
  0
LWPOLYLINE
  5
1AA
330
A
100
AcDbEntity
  8
1
  6
CONTINUOUS
370
    50
100
AcDbPolyline
 90
       24
 70
   128
 43
0.0
 10
131.741585686
 20
194.1430169759
 10
131.5955578034
 20
194.6957287096
 10
131.3639258574
 20
195.2074483425
 10
131.0638689298
 20
195.6402239704
 10
130.7176408703
 20
195.9619586047
 10
130.3509198301
 20
196.1487906596
 10
129.9909038311
 20
196.1868636562
 10
129.6642936131
 20
196.0733538944
 10
129.3953123618
 20
195.8166798741
 10
129.203909186
 20
195.4358779332
 10
129.1042795837
 20
194.9591904095
 10
129.1038126268
 20
194.4219710359
 10
129.2025429472
 20
193.8640629159
 10
129.3931481689
 20
193.3268435424
 10
129.6614919744
 20
192.8501560187
 10
129.9876725312
 20
192.4693540777
 10
130.3474985198
 20
192.2126800574
 10
130.7142832925
 20
192.0991702957
 10
131.0608241008
 20
192.1372432922
 10
131.3614195981
 20
192.3240753471
 10
131.5937759917
 20
192.6458099815
 10
131.7406604707
 20
193.0785856093
 10
131.7911792852
 20
193.5903052422
 10
131.741585686
 20
194.1430169759
  0
LINE
  5
1C4
330
A
100
AcDbEntity
  8
1
  6
CONTINUOUS
370
    50
100
AcDbLine
 10
133.0791741612
 20
139.5779595714
 30
0.0
 11
133.0791741612
 21
226.8734921031
 31
0.0
  0
LINE
  5
1C5
330
A
100
AcDbEntity
  8
1
  6
CONTINUOUS
370
    50
100
AcDbLine
 10
132.5791741612
 20
213.0757258373
 30
0.0
 11
132.5791741612
 21
218.2254044072
 31
0.0
  0
LINE
  5
1C6
330
A
100
AcDbEntity
  8
1
  6
CONTINUOUS
370
    50
100
AcDbLine
 10
135.9291741612
 20
139.5779595714
 30
0.0
 11
135.9291741612
 21
226.8734921031
 31
0.0
  0
LINE
  5
1C7
330
A
100
AcDbEntity
  8
1
  6
CONTINUOUS
370
    50
100
AcDbLine
 10
136.4291741612
 20
213.0757258373
 30
0.0
 11
136.4291741612
 21
218.2254044072
 31
0.0
  0
LINE
  5
1C8
330
A
100
AcDbEntity
  8
1
  6
CONTINUOUS
370
    50
100
AcDbLine
 10
131.2710126537
 20
221.7368037889
 30
0.0
 11
131.2710126537
 21
213.0757258373
 31
0.0
  0
LINE
  5
1C9
330
A
100
AcDbEntity
  8
1
  6
CONTINUOUS
370
    50
100
AcDbLine
 10
141.9541741612
 20
221.7368037889
 30
0.0
 11
141.9541741612
 21
213.0757258373
 31
0.0
  0
LINE
  5
1CA
330
A
100
AcDbEntity
  8
1
  6
CONTINUOUS
370
    50
100
AcDbLine
 10
137.7373356687
 20
213.0757258373
 30
0.0
 11
137.7373356687
 21
221.7368037889
 31
0.0
  0
LINE
  5
1CB
330
A
100
AcDbEntity
  8
1
  6
CONTINUOUS
370
    50
100
AcDbLine
 10
125.4041741612
 20
213.0757258373
 30
0.0
 11
125.4041741612
 21
221.7368037889
 31
0.0
  0
LWPOLYLINE
  5
1CC
330
A
100
AcDbEntity
  8
1
  6
CONTINUOUS
370
    50
100
AcDbPolyline
 90
       26
 70
   128
 43
0.0
 10
131.9892541226
 20
194.1430169759
 10
131.8332912704
 20
194.7495309002
 10
131.5898661457
 20
195.317935324
 10
131.2742740444
 20
195.812515307
 10
130.9063447788
 20
196.2021945698
 10
130.5091966979
 20
196.4624881313
 10
130.1077840761
 20
196.5770407897
 10
129.7273291449
 20
196.5386547801
 10
129.3917372867
 20
196.3497420368
 10
129.1220949723
 20
196.0221726421
 10
128.9353448199
 20
195.5765289859
 10
128.8432210284
 20
195.040812498
 10
128.8515120744
 20
194.4486842155
 10
128.959697001
 20
193.8373497363
 10
129.1609781515
 20
193.2452214539
 10
129.4427082908
 20
192.709504966
 10
129.7871852782
 20
192.2638613097
 10
130.1727643576
 20
191.936291915
 10
130.5752181775
 20
191.7473791717
 10
130.9692590843
 20
191.7089931621
 10
131.3301280384
 20
191.8235458205
 10
131.6351503165
 20
192.083839382
 10
131.8651602469
 20
192.4735186448
 10
132.0057054599
 20
192.9680986278
 10
132.0479549828
 20
193.5365030516
 10
131.9892541226
 20
194.1430169759
  0
LWPOLYLINE
  5
1E8
330
A
100
AcDbEntity
  8
1
  6
CONTINUOUS
370
    50
100
AcDbPolyline
 90
       26
 70
   128
 43
0.0
 10
131.996914567
 20
194.145215439
 10
131.8409517148
 20
194.7517293633
 10
131.5975265901
 20
195.3201337871
 10
131.2819344888
 20
195.8147137701
 10
130.9140052232
 20
196.2043930329
 10
130.5168571423
 20
196.4646865944
 10
130.1154445206
 20
196.5792392528
 10
129.7349895893
 20
196.5408532432
 10
129.3993977312
 20
196.3519404999
 10
129.1297554167
 20
196.0243711052
 10
128.9430052643
 20
195.578727449
 10
128.8508814728
 20
195.0430109611
 10
128.8591725188
 20
194.4508826787
 10
128.9673574454
 20
193.8395481994
 10
129.1686385959
 20
193.247419917
 10
129.4503687352
 20
192.7117034291
 10
129.7948457226
 20
192.2660597728
 10
130.1804248021
 20
191.9384903781
 10
130.582878622
 20
191.7495776348
 10
130.9769195287
 20
191.7111916252
 10
131.3377884829
 20
191.8257442836
 10
131.6428107609
 20
192.0860378451
 10
131.8728206914
 20
192.4757171079
 10
132.0133659043
 20
192.9702970909
 10
132.0556154272
 20
193.5387015147
 10
131.996914567
 20
194.145215439
  0
LWPOLYLINE
  5
204
330
A
100
AcDbEntity
  8
1
  6
CONTINUOUS
370
    50
100
AcDbPolyline
 90
       24
 70
   128
 43
0.0
 10
131.7492461305
 20
194.145215439
 10
131.6032182478
 20
194.6979271727
 10
131.3715863018
 20
195.2096468056
 10
131.0715293742
 20
195.6424224335
 10
130.7253013147
 20
195.9641570678
 10
130.3585802745
 20
196.1509891227
 10
129.9985642755
 20
196.1890621193
 10
129.6719540575
 20
196.0755523575
 10
129.4029728062
 20
195.8188783372
 10
129.2115696304
 20
195.4380763963
 10
129.1119400282
 20
194.9613888726
 10
129.1114730712
 20
194.424169499
 10
129.2102033917
 20
193.866261379
 10
129.4008086133
 20
193.3290420055
 10
129.6691524188
 20
192.8523544818
 10
129.9953329757
 20
192.4715525408
 10
130.3551589642
 20
192.2148785205
 10
130.721943737
 20
192.1013687588
 10
131.0684845452
 20
192.1394417553
 10
131.3690800426
 20
192.3262738102
 10
131.6014364361
 20
192.6480084446
 10
131.7483209151
 20
193.0807840724
 10
131.7988397297
 20
193.5925037053
 10
131.7492461305
 20
194.145215439
  0
LWPOLYLINE
  5
21E
330
A
100
AcDbEntity
  8
1
  6
CONTINUOUS
370
    50
100
AcDbPolyline
 90
       25
 70
   128
 43
0.0
 10
133.5182615042
 20
195.4560447776
 10
133.4954557695
 20
194.8304649051
 10
133.4463062027
 20
194.2742751467
 10
133.3092178444
 20
193.7547009736
 10
133.1733215353
 20
193.5823600218
 10
132.9881144258
 20
193.4878591088
 10
132.748102569
 20
193.4533892714
 10
132.2560328848
 20
193.508598561
 10
131.3556125552
 20
193.8849067976
 10
130.8778524664
 20
194.3051630364
 10
130.6364924802
 20
194.7254767194
 10
130.5711657029
 20
195.2051699285
 10
130.6760725041
 20
195.6094758897
 10
130.9764786457
 20
196.0532636938
 10
131.5853444137
 20
196.524916734
 10
132.502570042
 20
196.9148633296
 10
132.8297807161
 20
197.0132095673
 10
133.0598782556
 20
197.0792822033
 10
133.2243620702
 20
197.1247344235
 10
133.3706589261
 20
197.1374716352
 10
133.472952484
 20
196.9768376597
 10
133.5090989043
 20
196.6473234535
 10
133.5219030715
 20
196.2306775053
 10
133.5222804074
 20
195.714581965
 10
133.5182615042
 20
195.4560447776
  0
LWPOLYLINE
  5
239
330
A
100
AcDbEntity
  8
1
  6
CONTINUOUS
370
    50
100
AcDbPolyline
 90
       24
 70
   128
 43
0.0
 10
140.9341190034
 20
196.7811727006
 10
140.7880911208
 20
197.3338844343
 10
140.5564591748
 20
197.8456040672
 10
140.2564022472
 20
198.2783796951
 10
139.9101741877
 20
198.6001143295
 10
139.5434531475
 20
198.7869463843
 10
139.1834371485
 20
198.8250193809
 10
138.8568269305
 20
198.7115096191
 10
138.5878456792
 20
198.4548355988
 10
138.3964425034
 20
198.0740336579
 10
138.2968129012
 20
197.5973461342
 10
138.2963459442
 20
197.0601267606
 10
138.3950762647
 20
196.5022186406
 10
138.5856814863
 20
195.9649992671
 10
138.8540252918
 20
195.4883117434
 10
139.1802058487
 20
195.1075098024
 10
139.5400318372
 20
194.8508357822
 10
139.9068166099
 20
194.7373260204
 10
140.2533574182
 20
194.7753990169
 10
140.5539529156
 20
194.9622310718
 10
140.7863093091
 20
195.2839657062
 10
140.9331937881
 20
195.7167413341
 10
140.9837126027
 20
196.2284609669
 10
140.9341190034
 20
196.7811727006
  0
LINE
  5
253
330
A
100
AcDbEntity
  8
1
  6
CONTINUOUS
370
    50
100
AcDbLine
 10
138.3541741612
 20
202.1833570332
 30
0.0
 11
138.3541741612
 21
207.5772488337
 31
0.0
  0
LINE
  5
254
330
A
100
AcDbEntity
  8
1
  6
CONTINUOUS
370
    50
100
AcDbLine
 10
138.3541741612
 20
200.0772488337
 30
0.0
 11
138.3541741612
 21
202.1833570332
 31
0.0
  0
LWPOLYLINE
  5
255
330
A
100
AcDbEntity
  8
1
  6
CONTINUOUS
370
    50
100
AcDbPolyline
 90
       26
 70
   128
 43
0.0
 10
141.6267267707
 20
196.8910958558
 10
141.4645254044
 20
197.5218703371
 10
141.2113632748
 20
198.1130109379
 10
140.8831474894
 20
198.6273741202
 10
140.5005010532
 20
199.0326405535
 10
140.087467049
 20
199.3033458575
 10
139.6699979224
 20
199.4224806222
 10
139.2743247939
 20
199.3825591722
 10
138.9253092614
 20
199.1860899192
 10
138.6448812544
 20
198.8454177487
 10
138.4506610959
 20
198.3819483462
 10
138.3548523527
 20
197.8248031988
 10
138.3634750406
 20
197.208989785
 10
138.4759873643
 20
196.5732019266
 10
138.6853197608
 20
195.9573885129
 10
138.9783191056
 20
195.4002433655
 10
139.3365751725
 20
194.936773963
 10
139.7375774152
 20
194.5961017925
 10
140.1561293879
 20
194.3996325394
 10
140.5659319309
 20
194.3597110895
 10
140.9412356432
 20
194.4788458542
 10
141.2584588124
 20
194.7495511582
 10
141.4976691401
 20
195.1548175915
 10
141.6438361615
 20
195.6691807738
 10
141.6877756653
 20
196.2603213746
 10
141.6267267707
 20
196.8910958558
  0
LINE
  5
271
330
A
100
AcDbEntity
  8
1
  6
CONTINUOUS
370
    50
100
AcDbLine
 10
138.3541741612
 20
186.7119555472
 30
0.0
 11
138.3541741612
 21
190.4619555472
 31
0.0
  0
LINE
  5
272
330
A
100
AcDbEntity
  8
1
  6
CONTINUOUS
370
    50
100
AcDbLine
 10
138.3541741612
 20
182.9619555472
 30
0.0
 11
138.3541741612
 21
186.7119555472
 31
0.0
  0
LINE
  5
273
330
A
100
AcDbEntity
  8
1
  6
CONTINUOUS
370
    50
100
AcDbLine
 10
126.7041741612
 20
163.2257258373
 30
0.0
 11
130.7041741612
 21
163.2257258373
 31
0.0
  0
LINE
  5
274
330
A
100
AcDbEntity
  8
1
  6
CONTINUOUS
370
    50
100
AcDbLine
 10
126.7041741612
 20
203.2257258373
 30
0.0
 11
126.7041741612
 21
163.2257258373
 31
0.0
  0
LINE
  5
275
330
A
100
AcDbEntity
  8
1
  6
CONTINUOUS
370
    50
100
AcDbLine
 10
130.7041741612
 20
163.2257258373
 30
0.0
 11
130.7041741612
 21
170.7764700442
 31
0.0
  0
LINE
  5
276
330
A
100
AcDbEntity
  8
1
  6
CONTINUOUS
370
    50
100
AcDbLine
 10
130.7041741612
 20
171.8295304357
 30
0.0
 11
130.7041741612
 21
194.6157808155
 31
0.0
  0
LINE
  5
277
330
A
100
AcDbEntity
  8
1
  6
CONTINUOUS
370
    50
100
AcDbLine
 10
130.7041741612
 20
195.6548860206
 30
0.0
 11
130.7041741612
 21
203.2257258373
 31
0.0
  0
LINE
  5
278
330
A
100
AcDbEntity
  8
1
  6
CONTINUOUS
370
    50
100
AcDbLine
 10
141.5041741612
 20
163.2257258373
 30
0.0
 11
141.5041741612
 21
203.2257258373
 31
0.0
  0
LINE
  5
279
330
A
100
AcDbEntity
  8
1
  6
CONTINUOUS
370
    50
100
AcDbLine
 10
139.5041741612
 20
163.2257258373
 30
0.0
 11
141.5041741612
 21
163.2257258373
 31
0.0
  0
LINE
  5
27A
330
A
100
AcDbEntity
  8
1
  6
CONTINUOUS
370
    50
100
AcDbLine
 10
139.5041741612
 20
203.2257258373
 30
0.0
 11
139.5041741612
 21
163.2257258373
 31
0.0
  0
LINE
  5
27B
330
A
100
AcDbEntity
  8
1
  6
CONTINUOUS
370
    50
100
AcDbLine
 10
141.5041741612
 20
203.2257258373
 30
0.0
 11
139.5041741612
 21
203.2257258373
 31
0.0
  0
LINE
  5
27C
330
A
100
AcDbEntity
  8
1
  6
CONTINUOUS
370
    50
100
AcDbLine
 10
130.7041741612
 20
203.2257258373
 30
0.0
 11
126.7041741612
 21
203.2257258373
 31
0.0
  0
LINE
  5
27D
330
A
100
AcDbEntity
  8
1
  6
CONTINUOUS
370
    50
100
AcDbLine
 10
139.2996623158
 20
167.0612367697
 30
0.0
 11
142.4541741612
 21
166.1559266451
 31
0.0
  0
LINE
  5
27E
330
A
100
AcDbEntity
  8
1
  6
CONTINUOUS
370
    50
100
AcDbLine
 10
142.4541741612
 20
171.5658329901
 30
0.0
 11
140.73410155
 21
172.0594748677
 31
0.0
  0
LINE
  5
27F
330
A
100
AcDbEntity
  8
1
  6
CONTINUOUS
370
    50
100
AcDbLine
 10
124.9041741612
 20
166.8841832684
 30
0.0
 11
133.3701982675
 21
169.3138388585
 31
0.0
  0
LINE
  5
280
330
A
100
AcDbEntity
  8
1
  6
CONTINUOUS
370
    50
100
AcDbLine
 10
132.1007123877
 20
172.902903504
 30
0.0
 11
124.9041741612
 21
170.8375763667
 31
0.0
  0
LINE
  5
281
330
A
100
AcDbEntity
  8
1
  6
CONTINUOUS
370
    50
100
AcDbLine
 10
139.3407019314
 20
171.5190386596
 30
0.0
 11
139.0877143255
 21
171.2522920377
 31
0.0
  0
LINE
  5
282
330
A
100
AcDbEntity
  8
1
  6
CONTINUOUS
370
    50
100
AcDbLine
 10
138.3318894503
 20
168.6186547273
 30
0.0
 11
138.4049187526
 21
168.2583448467
 31
0.0
  0
LINE
  5
283
330
A
100
AcDbEntity
  8
1
  6
CONTINUOUS
370
    50
100
AcDbLine
 10
132.9928829178
 20
169.3913962342
 30
0.0
 11
139.0545669437
 21
167.651759742
 31
0.0
  0
LINE
  5
284
330
A
100
AcDbEntity
  8
1
  6
CONTINUOUS
370
    50
100
AcDbLine
 10
129.8696940707
 20
170.2877170036
 30
0.0
 11
132.9928829178
 21
169.3913962342
 31
0.0
  0
LINE
  5
285
330
A
100
AcDbEntity
  8
1
  6
CONTINUOUS
370
    50
100
AcDbLine
 10
140.213152479
 20
171.6887982057
 30
0.0
 11
131.028279606
 21
174.3247554673
 31
0.0
  0
LINE
  5
286
330
A
100
AcDbEntity
  8
1
  6
CONTINUOUS
370
    50
100
AcDbLine
 10
125.1573280547
 20
219.4683848686
 30
0.0
 11
124.9041741612
 21
220.0112751452
 31
0.0
  0
ARC
  5
287
330
A
100
AcDbEntity
  8
1
  6
CONTINUOUS
370
    50
100
AcDbCircle
 10
124.7041741612
 20
219.2570757377
 30
0.0
 40
0.5
100
AcDbArc
 50
360.0
 51
25.0
  0
ARC
  5
288
330
A
100
AcDbEntity
  8
1
  6
CONTINUOUS
370
    50
100
AcDbCircle
 10
124.7041741612
 20
148.1007258373
 30
0.0
 40
0.5
100
AcDbArc
 50
0.0
 51
66.4218215218
  0
ARC
  5
289
330
A
100
AcDbEntity
  8
1
  6
CONTINUOUS
370
    50
100
AcDbCircle
 10
124.7041741612
 20
218.3507258373
 30
0.0
 40
0.5
100
AcDbArc
 50
293.5781784782001
 51
0.0
  0
LINE
  5
28A
330
A
100
AcDbEntity
  8
1
  6
CONTINUOUS
370
    50
100
AcDbLine
 10
103.3157552596
 20
177.908404715
 30
0.0
 11
129.8620336263
 21
170.2899154667
 31
0.0
  0
LINE
  5
28B
330
A
100
AcDbEntity
  8
1
  6
CONTINUOUS
370
    50
100
AcDbLine
 10
131.0206191615
 20
174.3269539305
 30
0.0
 11
106.1060151958
 21
181.477170613
 31
0.0
  0
ARC
  5
28C
330
A
100
AcDbEntity
  8
1
  6
CONTINUOUS
370
    50
100
AcDbCircle
 10
23.8041741612
 20
168.7257258373
 30
0.0
 40
2.0
100
AcDbArc
 50
128.2989210679
 51
180.0
  0
ARC
  5
28D
330
A
100
AcDbEntity
  8
1
  6
CONTINUOUS
370
    50
100
AcDbCircle
 10
23.8041741612
 20
197.7257258373
 30
0.0
 40
2.0
100
AcDbArc
 50
180.0
 51
231.7010789321
  0
LINE
  5
28E
330
A
100
AcDbEntity
  8
1
  6
CONTINUOUS
370
    50
100
AcDbLine
 10
22.5646456539
 20
170.2953019201
 30
0.0
 11
23.0646456539
 21
170.5839770547
 31
0.0
  0
LINE
  5
28F
330
A
100
AcDbEntity
  8
1
  6
CONTINUOUS
370
    50
100
AcDbLine
 10
23.0646456539
 20
195.8674746199
 30
0.0
 11
22.5646456539
 21
196.1561497545
 31
0.0
  0
LINE
  5
290
330
A
100
AcDbEntity
  8
1
  6
CONTINUOUS
370
    50
100
AcDbLine
 10
30.7938855929
 20
195.8757258373
 30
0.0
 11
30.5340779718
 21
195.7257258373
 31
0.0
  0
LINE
  5
291
330
A
100
AcDbEntity
  8
1
  6
CONTINUOUS
370
    50
100
AcDbLine
 10
30.5340779718
 20
170.7257258373
 30
0.0
 11
30.7938855929
 21
170.5757258373
 31
0.0
  0
LINE
  5
292
330
A
100
AcDbEntity
  8
1
  6
CONTINUOUS
370
    50
100
AcDbLine
 10
33.5041741612
 20
170.5757258373
 30
0.0
 11
34.7093928481
 21
172.6632258373
 31
0.0
  0
LINE
  5
293
330
A
100
AcDbEntity
  8
1
  6
CONTINUOUS
370
    50
100
AcDbLine
 10
34.7093928481
 20
193.7882258373
 30
0.0
 11
33.5041741612
 21
195.8757258373
 31
0.0
  0
LINE
  5
294
330
A
100
AcDbEntity
  8
1
  6
CONTINUOUS
370
    50
100
AcDbLine
 10
33.5041741612
 20
195.8757258373
 30
0.0
 11
30.7938855929
 21
195.8757258373
 31
0.0
  0
LINE
  5
295
330
A
100
AcDbEntity
  8
1
  6
CONTINUOUS
370
    50
100
AcDbLine
 10
30.7938855929
 20
170.5757258373
 30
0.0
 11
33.5041741612
 21
170.5757258373
 31
0.0
  0
ARC
  5
296
330
A
100
AcDbEntity
  8
1
  6
CONTINUOUS
370
    50
100
AcDbCircle
 10
23.8041741612
 20
168.7257258373
 30
0.0
 40
2.0
100
AcDbArc
 50
90.0
 51
111.7010789321
  0
ARC
  5
297
330
A
100
AcDbEntity
  8
1
  6
CONTINUOUS
370
    50
100
AcDbCircle
 10
23.8041741612
 20
197.7257258373
 30
0.0
 40
2.0
100
AcDbArc
 50
248.2989210679
 51
270.0
  0
LINE
  5
298
330
A
100
AcDbEntity
  8
1
  6
CONTINUOUS
370
    50
100
AcDbLine
 10
23.8041741612
 20
170.7257258373
 30
0.0
 11
30.5340779718
 21
170.7257258373
 31
0.0
  0
LINE
  5
299
330
A
100
AcDbEntity
  8
1
  6
CONTINUOUS
370
    50
100
AcDbLine
 10
30.5340779718
 20
195.7257258373
 30
0.0
 11
23.8041741612
 21
195.7257258373
 31
0.0
  0
LINE
  5
29A
330
A
100
AcDbEntity
  8
1
  6
CONTINUOUS
370
    50
100
AcDbLine
 10
85.8041741612
 20
193.7882258373
 30
0.0
 11
70.8141741612
 21
193.7882258373
 31
0.0
  0
LINE
  5
29B
330
A
100
AcDbEntity
  8
1
  6
CONTINUOUS
370
    50
100
AcDbLine
 10
70.8141741612
 20
172.6632258373
 30
0.0
 11
85.8041741612
 21
172.6632258373
 31
0.0
  0
LINE
  5
29C
330
A
100
AcDbEntity
  8
1
  6
CONTINUOUS
370
    50
100
AcDbLine
 10
70.8041741612
 20
193.7882258373
 30
0.0
 11
34.7093928481
 21
193.7882258373
 31
0.0
  0
LINE
  5
29D
330
A
100
AcDbEntity
  8
1
  6
CONTINUOUS
370
    50
100
AcDbLine
 10
34.7093928481
 20
172.6632258373
 30
0.0
 11
70.8041741612
 21
172.6632258373
 31
0.0
  0
LINE
  5
29E
330
A
100
AcDbEntity
  8
1
  6
CONTINUOUS
370
    50
100
AcDbLine
 10
131.8041741612
 20
172.7257258373
 30
0.0
 11
134.6909255072
 21
177.7257258373
 31
0.0
  0
LINE
  5
29F
330
A
100
AcDbEntity
  8
1
  6
CONTINUOUS
370
    50
100
AcDbLine
 10
134.6909255072
 20
188.7257258373
 30
0.0
 11
131.8041741612
 21
193.7257258373
 31
0.0
  0
LINE
  5
2A0
330
A
100
AcDbEntity
  8
1
  6
CONTINUOUS
370
    50
100
AcDbLine
 10
131.8041741612
 20
193.7257258373
 30
0.0
 11
85.8269223008
 21
193.7257258373
 31
0.0
  0
LINE
  5
2A1
330
A
100
AcDbEntity
  8
1
  6
CONTINUOUS
370
    50
100
AcDbLine
 10
85.8269223008
 20
172.7257258373
 30
0.0
 11
131.8041741612
 21
172.7257258373
 31
0.0
  0
ARC
  5
2A2
330
A
100
AcDbEntity
  8
1
  6
CONTINUOUS
370
    50
100
AcDbCircle
 10
201.9041741612
 20
172.7907258373
 30
0.0
 40
1.5
100
AcDbArc
 50
0.0
 51
73.0710674448
  0
ARC
  5
2A3
330
A
100
AcDbEntity
  8
1
  6
CONTINUOUS
370
    50
100
AcDbCircle
 10
201.9041741612
 20
193.6607258373
 30
0.0
 40
1.5
100
AcDbArc
 50
286.9289325552
 51
0.0
  0
ARC
  5
2A4
330
A
100
AcDbEntity
  8
1
  6
CONTINUOUS
370
    50
100
AcDbCircle
 10
153.9041741612
 20
174.5257258373
 30
0.0
 40
0.5
100
AcDbArc
 50
180.0
 51
270.0
  0
ARC
  5
2A5
330
A
100
AcDbEntity
  8
1
  6
CONTINUOUS
370
    50
100
AcDbCircle
 10
153.9041741612
 20
191.9257258373
 30
0.0
 40
0.5
100
AcDbArc
 50
90.0
 51
180.0
  0
LINE
  5
2A6
330
A
100
AcDbEntity
  8
1
  6
CONTINUOUS
370
    50
100
AcDbLine
 10
153.9041741612
 20
174.0257258373
 30
0.0
 11
163.2887041112
 21
174.0257258373
 31
0.0
  0
LINE
  5
2A7
330
A
100
AcDbEntity
  8
1
  6
CONTINUOUS
370
    50
100
AcDbLine
 10
163.2887041112
 20
192.4257258373
 30
0.0
 11
153.9041741612
 21
192.4257258373
 31
0.0
  0
LINE
  5
2A8
330
A
100
AcDbEntity
  8
1
  6
CONTINUOUS
370
    50
100
AcDbLine
 10
163.2887041112
 20
174.0257258373
 30
0.0
 11
163.404174165
 21
174.2257258373
 31
0.0
  0
LINE
  5
2A9
330
A
100
AcDbEntity
  8
1
  6
CONTINUOUS
370
    50
100
AcDbLine
 10
163.404174165
 20
192.2257258373
 30
0.0
 11
163.2887041112
 21
192.4257258373
 31
0.0
  0
LINE
  5
2AA
330
A
100
AcDbEntity
  8
1
  6
CONTINUOUS
370
    50
100
AcDbLine
 10
163.404174165
 20
174.2257258373
 30
0.0
 11
202.3409521368
 21
174.2257258373
 31
0.0
  0
LINE
  5
2AB
330
A
100
AcDbEntity
  8
1
  6
CONTINUOUS
370
    50
100
AcDbLine
 10
202.3409521368
 20
192.2257258373
 30
0.0
 11
163.404174165
 21
192.2257258373
 31
0.0
  0
LINE
  5
2AC
330
A
100
AcDbEntity
  8
1
  6
CONTINUOUS
370
    50
100
AcDbLine
 10
134.6909255072
 20
177.7257258373
 30
0.0
 11
153.4041741612
 21
177.7257258373
 31
0.0
  0
LINE
  5
2AD
330
A
100
AcDbEntity
  8
1
  6
CONTINUOUS
370
    50
100
AcDbLine
 10
153.4041741612
 20
188.7257258373
 30
0.0
 11
134.6909255072
 21
188.7257258373
 31
0.0
  0
LINE
  5
2AE
330
A
100
AcDbEntity
  8
1
  6
CONTINUOUS
370
    50
100
AcDbLine
 10
129.3041741612
 20
220.7257258373
 30
0.0
 11
129.5041741612
 21
220.5257258373
 31
0.0
  0
LINE
  5
2AF
330
A
100
AcDbEntity
  8
1
  6
CONTINUOUS
370
    50
100
AcDbLine
 10
139.5041741612
 20
220.5257258373
 30
0.0
 11
139.7041741612
 21
220.7257258373
 31
0.0
  0
ARC
  5
2B0
330
A
100
AcDbEntity
  8
1
  6
CONTINUOUS
370
    50
100
AcDbCircle
 10
129.8041741612
 20
216.3257258373
 30
0.0
 40
0.3
100
AcDbArc
 50
180.0
 51
270.0
  0
ARC
  5
2B1
330
A
100
AcDbEntity
  8
1
  6
CONTINUOUS
370
    50
100
AcDbCircle
 10
139.2041741612
 20
216.3257258373
 30
0.0
 40
0.3
100
AcDbArc
 50
270.0
 51
0.0
  0
LINE
  5
2B2
330
A
100
AcDbEntity
  8
1
  6
CONTINUOUS
370
    50
100
AcDbLine
 10
129.5041741612
 20
220.5257258373
 30
0.0
 11
129.5041741612
 21
216.3257258373
 31
0.0
  0
LINE
  5
2B3
330
A
100
AcDbEntity
  8
1
  6
CONTINUOUS
370
    50
100
AcDbLine
 10
139.5041741612
 20
216.3257258373
 30
0.0
 11
139.5041741612
 21
220.5257258373
 31
0.0
  0
LINE
  5
2B4
330
A
100
AcDbEntity
  8
1
  6
CONTINUOUS
370
    50
100
AcDbLine
 10
133.0041741612
 20
216.0257258373
 30
0.0
 11
133.4041741612
 21
215.6257258373
 31
0.0
  0
LINE
  5
2B5
330
A
100
AcDbEntity
  8
1
  6
CONTINUOUS
370
    50
100
AcDbLine
 10
135.6041741612
 20
215.6257258373
 30
0.0
 11
136.0041741612
 21
216.0257258373
 31
0.0
  0
LINE
  5
2B6
330
A
100
AcDbEntity
  8
1
  6
CONTINUOUS
370
    50
100
AcDbLine
 10
133.4041741612
 20
209.6257258373
 30
0.0
 11
134.5041741612
 21
209.2253585796
 31
0.0
  0
LINE
  5
2B7
330
A
100
AcDbEntity
  8
1
  6
CONTINUOUS
370
    50
100
AcDbLine
 10
134.5041741612
 20
209.2253585796
 30
0.0
 11
135.6041741612
 21
209.6257258373
 31
0.0
  0
LINE
  5
2B8
330
A
100
AcDbEntity
  8
1
  6
CONTINUOUS
370
    50
100
AcDbLine
 10
133.4041741612
 20
212.2157258373
 30
0.0
 11
133.4041741612
 21
209.6257258373
 31
0.0
  0
LINE
  5
2B9
330
A
100
AcDbEntity
  8
1
  6
CONTINUOUS
370
    50
100
AcDbLine
 10
135.6041741612
 20
209.6257258373
 30
0.0
 11
135.6041741612
 21
212.2157258373
 31
0.0
  0
LINE
  5
2BA
330
A
100
AcDbEntity
  8
1
  6
CONTINUOUS
370
    50
100
AcDbLine
 10
133.4041741612
 20
215.6257258373
 30
0.0
 11
133.4041741612
 21
212.2257258373
 31
0.0
  0
LINE
  5
2BB
330
A
100
AcDbEntity
  8
1
  6
CONTINUOUS
370
    50
100
AcDbLine
 10
135.6041741612
 20
212.2257258373
 30
0.0
 11
135.6041741612
 21
215.6257258373
 31
0.0
  0
LINE
  5
2BC
330
A
100
AcDbEntity
  8
1
  6
CONTINUOUS
370
    50
100
AcDbLine
 10
106.1060151958
 20
184.9742810615
 30
0.0
 11
131.0206191615
 21
192.1244977441
 31
0.0
  0
LINE
  5
2BD
330
A
100
AcDbEntity
  8
1
  6
CONTINUOUS
370
    50
100
AcDbLine
 10
129.8620336263
 20
196.1615362078
 30
0.0
 11
103.3157552596
 21
188.5430469595
 31
0.0
  0
LINE
  5
2BE
330
A
100
AcDbEntity
  8
1
  6
CONTINUOUS
370
    50
100
AcDbLine
 10
131.028279606
 20
192.1266962072
 30
0.0
 11
140.213152479
 21
194.7626534688
 31
0.0
  0
LINE
  5
2BF
330
A
100
AcDbEntity
  8
1
  6
CONTINUOUS
370
    50
100
AcDbLine
 10
133.045724772
 20
197.07522047
 30
0.0
 11
129.8696940707
 21
196.1637346709
 31
0.0
  0
LINE
  5
2C0
330
A
100
AcDbEntity
  8
1
  6
CONTINUOUS
370
    50
100
AcDbLine
 10
139.0545669437
 20
198.7996919325
 30
0.0
 11
133.045724772
 21
197.07522047
 31
0.0
  0
LINE
  5
2C1
330
A
100
AcDbEntity
  8
1
  6
CONTINUOUS
370
    50
100
AcDbLine
 10
138.3541741612
 20
207.5772488337
 30
0.0
 11
136.9892857827
 21
203.8272488337
 31
0.0
  0
LINE
  5
2C2
330
A
100
AcDbEntity
  8
1
  6
CONTINUOUS
370
    50
100
AcDbLine
 10
136.9892857827
 20
203.8272488337
 30
0.0
 11
138.3541741612
 21
200.0772488337
 31
0.0
  0
LINE
  5
2C3
330
A
100
AcDbEntity
  8
1
  6
CONTINUOUS
370
    50
100
AcDbLine
 10
138.3541741612
 20
200.0772488337
 30
0.0
 11
142.4541741612
 21
200.0772488337
 31
0.0
  0
LINE
  5
2C4
330
A
100
AcDbEntity
  8
1
  6
CONTINUOUS
370
    50
100
AcDbLine
 10
142.4541741612
 20
207.5772488337
 30
0.0
 11
138.3541741612
 21
207.5772488337
 31
0.0
  0
LINE
  5
2C5
330
A
100
AcDbEntity
  8
1
  6
CONTINUOUS
370
    50
100
AcDbLine
 10
124.9041741612
 20
195.6138753078
 30
0.0
 11
132.1032538601
 21
193.547818796
 31
0.0
  0
LINE
  5
2C6
330
A
100
AcDbEntity
  8
1
  6
CONTINUOUS
370
    50
100
AcDbLine
 10
133.3718765333
 20
197.1371311722
 30
0.0
 11
124.9041741612
 21
199.5672684061
 31
0.0
  0
LINE
  5
2C7
330
A
100
AcDbEntity
  8
1
  6
CONTINUOUS
370
    50
100
AcDbLine
 10
140.73410155
 20
194.3919768069
 30
0.0
 11
142.4541741612
 21
194.8856186844
 31
0.0
  0
LINE
  5
2C8
330
A
100
AcDbEntity
  8
1
  6
CONTINUOUS
370
    50
100
AcDbLine
 10
142.4541741612
 20
200.2955250295
 30
0.0
 11
139.2996623158
 21
199.3902149048
 31
0.0
  0
LINE
  5
2C9
330
A
100
AcDbEntity
  8
1
  6
CONTINUOUS
370
    50
100
AcDbLine
 10
138.4049187526
 20
198.1931068278
 30
0.0
 11
138.3318894503
 21
197.8327969472
 31
0.0
  0
LINE
  5
2CA
330
A
100
AcDbEntity
  8
1
  6
CONTINUOUS
370
    50
100
AcDbLine
 10
139.0877143255
 20
195.1991596368
 30
0.0
 11
139.3407019314
 21
194.9324130149
 31
0.0
  0
LINE
  5
2CB
330
A
100
AcDbEntity
  8
1
  6
CONTINUOUS
370
    50
100
AcDbLine
 10
138.3541741612
 20
182.9619555472
 30
0.0
 11
142.4541741612
 21
182.9619555472
 31
0.0
  0
LINE
  5
2CC
330
A
100
AcDbEntity
  8
1
  6
CONTINUOUS
370
    50
100
AcDbLine
 10
142.4541741612
 20
190.4619555472
 30
0.0
 11
138.3541741612
 21
190.4619555472
 31
0.0
  0
LINE
  5
2CD
330
A
100
AcDbEntity
  8
1
  6
CONTINUOUS
370
    50
100
AcDbLine
 10
138.3541741612
 20
190.4619555472
 30
0.0
 11
136.9892857827
 21
186.7119555472
 31
0.0
  0
LINE
  5
2CE
330
A
100
AcDbEntity
  8
1
  6
CONTINUOUS
370
    50
100
AcDbLine
 10
136.9892857827
 20
186.7119555472
 30
0.0
 11
138.3541741612
 21
182.9619555472
 31
0.0
  0
LINE
  5
2CF
330
A
100
AcDbEntity
  8
1
  6
CONTINUOUS
370
    50
100
AcDbLine
 10
124.7041741612
 20
217.8507258373
 30
0.0
 11
124.7041741612
 21
148.6007258373
 31
0.0
  0
LINE
  5
2D0
330
A
100
AcDbEntity
  8
1
  6
CONTINUOUS
370
    50
100
AcDbLine
 10
123.9470644378
 20
217.8975719437
 30
0.0
 11
123.9470644378
 21
148.5538797308
 31
0.0
  0
LINE
  5
2D1
330
A
100
AcDbEntity
  8
1
  6
CONTINUOUS
370
    50
100
AcDbLine
 10
124.1583735687
 20
217.8507258373
 30
0.0
 11
124.1583735687
 21
148.6007258373
 31
0.0
  0
LINE
  5
2D2
330
A
100
AcDbEntity
  8
1
  6
CONTINUOUS
370
    50
100
AcDbLine
 10
23.5863728569
 20
203.5892163653
 30
0.0
 11
23.5863728569
 21
162.8622353092
 31
0.0
  0
LINE
  5
2D3
330
A
100
AcDbEntity
  8
1
  6
CONTINUOUS
370
    50
100
AcDbLine
 10
70.7041741612
 20
195.2257258373
 30
0.0
 11
33.8794518362
 21
195.2257258373
 31
0.0
  0
LINE
  5
2D4
330
A
100
AcDbEntity
  8
1
  6
CONTINUOUS
370
    50
100
AcDbLine
 10
33.8794518362
 20
171.2257258373
 30
0.0
 11
70.7041741612
 21
171.2257258373
 31
0.0
  0
LINE
  5
2D5
330
A
100
AcDbEntity
  8
1
  6
CONTINUOUS
370
    50
100
AcDbLine
 10
70.7041741612
 20
195.2257258373
 30
0.0
 11
70.7041741612
 21
195.1599885817
 31
0.0
  0
LINE
  5
2D6
330
A
100
AcDbEntity
  8
1
  6
CONTINUOUS
370
    50
100
AcDbLine
 10
70.7041741612
 20
195.1599885817
 30
0.0
 11
70.7041741612
 21
171.2257258373
 31
0.0
  0
LINE
  5
2D7
330
A
100
AcDbEntity
  8
1
  6
CONTINUOUS
370
    50
100
AcDbLine
 10
70.7041741612
 20
193.7882258373
 30
0.0
 11
70.7041741612
 21
193.758690945
 31
0.0
  0
LINE
  5
2D8
330
A
100
AcDbEntity
  8
1
  6
CONTINUOUS
370
    50
100
AcDbLine
 10
70.7041741612
 20
193.758690945
 30
0.0
 11
70.7041741612
 21
183.2257258373
 31
0.0
  0
LINE
  5
2D9
330
A
100
AcDbEntity
  8
1
  6
CONTINUOUS
370
    50
100
AcDbLine
 10
128.9010591096
 20
194.145215439
 30
0.0
 11
129.1101884661
 21
193.3915735758
 31
0.0
  0
LINE
  5
2DA
330
A
100
AcDbEntity
  8
1
  6
CONTINUOUS
370
    50
100
AcDbLine
 10
129.1101884661
 20
193.3915735758
 30
0.0
 11
129.4503687352
 21
192.7117034291
 31
0.0
  0
LINE
  5
2DB
330
A
100
AcDbEntity
  8
1
  6
CONTINUOUS
370
    50
100
AcDbLine
 10
129.4503687352
 20
192.7117034291
 30
0.0
 11
129.888300702
 21
192.1721554257
 31
0.0
  0
LINE
  5
2DC
330
A
100
AcDbEntity
  8
1
  6
CONTINUOUS
370
    50
100
AcDbLine
 10
129.888300702
 20
192.1721554257
 30
0.0
 11
130.3811165344
 21
191.8257442836
 31
0.0
  0
LINE
  5
2DD
330
A
100
AcDbEntity
  8
1
  6
CONTINUOUS
370
    50
100
AcDbLine
 10
130.3811165344
 20
191.8257442836
 30
0.0
 11
130.880575985
 21
191.7063791389
 31
0.0
  0
LINE
  5
2DE
330
A
100
AcDbEntity
  8
1
  6
CONTINUOUS
370
    50
100
AcDbLine
 10
130.880575985
 20
191.7063791389
 30
0.0
 11
131.3377884829
 21
191.8257442836
 31
0.0
  0
LINE
  5
2DF
330
A
100
AcDbEntity
  8
1
  6
CONTINUOUS
370
    50
100
AcDbLine
 10
131.3377884829
 20
191.8257442836
 30
0.0
 11
131.7079988831
 21
192.1721554257
 31
0.0
  0
LINE
  5
2E0
330
A
100
AcDbEntity
  8
1
  6
CONTINUOUS
370
    50
100
AcDbLine
 10
131.7079988831
 20
192.1721554257
 30
0.0
 11
131.9549684124
 21
192.7117034291
 31
0.0
  0
LINE
  5
2E1
330
A
100
AcDbEntity
  8
1
  6
CONTINUOUS
370
    50
100
AcDbLine
 10
131.9549684124
 20
192.7117034291
 30
0.0
 11
132.0545219724
 21
193.3915735758
 31
0.0
  0
LINE
  5
2E2
330
A
100
AcDbEntity
  8
1
  6
CONTINUOUS
370
    50
100
AcDbLine
 10
132.0545219724
 20
193.3915735758
 30
0.0
 11
131.996914567
 21
194.145215439
 31
0.0
  0
LINE
  5
2E3
330
A
100
AcDbEntity
  8
1
  6
CONTINUOUS
370
    50
100
AcDbLine
 10
131.996914567
 20
194.145215439
 30
0.0
 11
131.7877852106
 21
194.8988573023
 31
0.0
  0
LINE
  5
2E4
330
A
100
AcDbEntity
  8
1
  6
CONTINUOUS
370
    50
100
AcDbLine
 10
131.7877852106
 20
194.8988573023
 30
0.0
 11
131.4476049415
 21
195.578727449
 31
0.0
  0
LINE
  5
2E5
330
A
100
AcDbEntity
  8
1
  6
CONTINUOUS
370
    50
100
AcDbLine
 10
131.4476049415
 20
195.578727449
 30
0.0
 11
131.0096729747
 21
196.1182754523
 31
0.0
  0
LINE
  5
2E6
330
A
100
AcDbEntity
  8
1
  6
CONTINUOUS
370
    50
100
AcDbLine
 10
131.0096729747
 20
196.1182754523
 30
0.0
 11
130.5168571423
 21
196.4646865944
 31
0.0
  0
LINE
  5
2E7
330
A
100
AcDbEntity
  8
1
  6
CONTINUOUS
370
    50
100
AcDbLine
 10
130.5168571423
 20
196.4646865944
 30
0.0
 11
130.0173976917
 21
196.5840517391
 31
0.0
  0
LINE
  5
2E8
330
A
100
AcDbEntity
  8
1
  6
CONTINUOUS
370
    50
100
AcDbLine
 10
130.0173976917
 20
196.5840517391
 30
0.0
 11
129.5601851938
 21
196.4646865944
 31
0.0
  0
LINE
  5
2E9
330
A
100
AcDbEntity
  8
1
  6
CONTINUOUS
370
    50
100
AcDbLine
 10
129.5601851938
 20
196.4646865944
 30
0.0
 11
129.1899747936
 21
196.1182754523
 31
0.0
  0
LINE
  5
2EA
330
A
100
AcDbEntity
  8
1
  6
CONTINUOUS
370
    50
100
AcDbLine
 10
129.1899747936
 20
196.1182754523
 30
0.0
 11
128.9430052643
 21
195.578727449
 31
0.0
  0
LINE
  5
2EB
330
A
100
AcDbEntity
  8
1
  6
CONTINUOUS
370
    50
100
AcDbLine
 10
128.9430052643
 20
195.578727449
 30
0.0
 11
128.8434517043
 21
194.8988573023
 31
0.0
  0
LINE
  5
2EC
330
A
100
AcDbEntity
  8
1
  6
CONTINUOUS
370
    50
100
AcDbLine
 10
128.8434517043
 20
194.8988573023
 30
0.0
 11
128.9010591096
 21
194.145215439
 31
0.0
  0
LINE
  5
2ED
330
A
100
AcDbEntity
  8
1
  6
CONTINUOUS
370
    50
100
AcDbLine
 10
138.3923497599
 20
196.8691112248
 30
0.0
 11
138.3347423545
 21
197.622753088
 31
0.0
  0
LINE
  5
2EE
330
A
100
AcDbEntity
  8
1
  6
CONTINUOUS
370
    50
100
AcDbLine
 10
138.3347423545
 20
197.622753088
 30
0.0
 11
138.4342959145
 21
198.3026232348
 31
0.0
  0
LINE
  5
2EF
330
A
100
AcDbEntity
  8
1
  6
CONTINUOUS
370
    50
100
AcDbLine
 10
138.4342959145
 20
198.3026232348
 30
0.0
 11
138.6812654438
 21
198.8421712381
 31
0.0
  0
LINE
  5
2F0
330
A
100
AcDbEntity
  8
1
  6
CONTINUOUS
370
    50
100
AcDbLine
 10
138.6812654438
 20
198.8421712381
 30
0.0
 11
139.0514758441
 21
199.1885823802
 31
0.0
  0
LINE
  5
2F1
330
A
100
AcDbEntity
  8
1
  6
CONTINUOUS
370
    50
100
AcDbLine
 10
139.0514758441
 20
199.1885823802
 30
0.0
 11
139.5086883419
 21
199.3079475249
 31
0.0
  0
LINE
  5
2F2
330
A
100
AcDbEntity
  8
1
  6
CONTINUOUS
370
    50
100
AcDbLine
 10
139.5086883419
 20
199.3079475249
 30
0.0
 11
140.0081477925
 21
199.1885823802
 31
0.0
  0
LINE
  5
2F3
330
A
100
AcDbEntity
  8
1
  6
CONTINUOUS
370
    50
100
AcDbLine
 10
140.0081477925
 20
199.1885823802
 30
0.0
 11
140.5009636249
 21
198.8421712381
 31
0.0
  0
LINE
  5
2F4
330
A
100
AcDbEntity
  8
1
  6
CONTINUOUS
370
    50
100
AcDbLine
 10
140.5009636249
 20
198.8421712381
 30
0.0
 11
140.9388955917
 21
198.3026232348
 31
0.0
  0
LINE
  5
2F5
330
A
100
AcDbEntity
  8
1
  6
CONTINUOUS
370
    50
100
AcDbLine
 10
140.9388955917
 20
198.3026232348
 30
0.0
 11
141.2790758608
 21
197.622753088
 31
0.0
  0
LINE
  5
2F6
330
A
100
AcDbEntity
  8
1
  6
CONTINUOUS
370
    50
100
AcDbLine
 10
141.2790758608
 20
197.622753088
 30
0.0
 11
141.4882052173
 21
196.8691112248
 31
0.0
  0
LINE
  5
2F7
330
A
100
AcDbEntity
  8
1
  6
CONTINUOUS
370
    50
100
AcDbLine
 10
141.4882052173
 20
196.8691112248
 30
0.0
 11
141.5458126226
 21
196.1154693616
 31
0.0
  0
LINE
  5
2F8
330
A
100
AcDbEntity
  8
1
  6
CONTINUOUS
370
    50
100
AcDbLine
 10
141.5458126226
 20
196.1154693616
 30
0.0
 11
141.4462590626
 21
195.4355992148
 31
0.0
  0
LINE
  5
2F9
330
A
100
AcDbEntity
  8
1
  6
CONTINUOUS
370
    50
100
AcDbLine
 10
141.4462590626
 20
195.4355992148
 30
0.0
 11
141.1992895334
 21
194.8960512115
 31
0.0
  0
LINE
  5
2FA
330
A
100
AcDbEntity
  8
1
  6
CONTINUOUS
370
    50
100
AcDbLine
 10
141.1992895334
 20
194.8960512115
 30
0.0
 11
140.8290791331
 21
194.5496400694
 31
0.0
  0
LINE
  5
2FB
330
A
100
AcDbEntity
  8
1
  6
CONTINUOUS
370
    50
100
AcDbLine
 10
140.8290791331
 20
194.5496400694
 30
0.0
 11
140.3718666352
 21
194.4302749247
 31
0.0
  0
LINE
  5
2FC
330
A
100
AcDbEntity
  8
1
  6
CONTINUOUS
370
    50
100
AcDbLine
 10
140.3718666352
 20
194.4302749247
 30
0.0
 11
139.8724071846
 21
194.5496400694
 31
0.0
  0
LINE
  5
2FD
330
A
100
AcDbEntity
  8
1
  6
CONTINUOUS
370
    50
100
AcDbLine
 10
139.8724071846
 20
194.5496400694
 30
0.0
 11
139.3795913523
 21
194.8960512115
 31
0.0
  0
LINE
  5
2FE
330
A
100
AcDbEntity
  8
1
  6
CONTINUOUS
370
    50
100
AcDbLine
 10
139.3795913523
 20
194.8960512115
 30
0.0
 11
138.9416593855
 21
195.4355992148
 31
0.0
  0
LINE
  5
2FF
330
A
100
AcDbEntity
  8
1
  6
CONTINUOUS
370
    50
100
AcDbLine
 10
138.9416593855
 20
195.4355992148
 30
0.0
 11
138.6014791164
 21
196.1154693616
 31
0.0
  0
LINE
  5
300
330
A
100
AcDbEntity
  8
1
  6
CONTINUOUS
370
    50
100
AcDbLine
 10
138.6014791164
 20
196.1154693616
 30
0.0
 11
138.3923497599
 21
196.8691112248
 31
0.0
  0
LINE
  5
301
330
A
100
AcDbEntity
  8
1
  6
CONTINUOUS
370
    50
100
AcDbLine
 10
131.996914567
 20
172.3062362355
 30
0.0
 11
131.7877852106
 21
171.5525943723
 31
0.0
  0
LINE
  5
302
330
A
100
AcDbEntity
  8
1
  6
CONTINUOUS
370
    50
100
AcDbLine
 10
131.7877852106
 20
171.5525943723
 30
0.0
 11
131.4476049415
 21
170.8727242255
 31
0.0
  0
LINE
  5
303
330
A
100
AcDbEntity
  8
1
  6
CONTINUOUS
370
    50
100
AcDbLine
 10
131.4476049415
 20
170.8727242255
 30
0.0
 11
131.0096729747
 21
170.3331762222
 31
0.0
  0
LINE
  5
304
330
A
100
AcDbEntity
  8
1
  6
CONTINUOUS
370
    50
100
AcDbLine
 10
131.0096729747
 20
170.3331762222
 30
0.0
 11
130.5168571423
 21
169.9867650801
 31
0.0
  0
LINE
  5
305
330
A
100
AcDbEntity
  8
1
  6
CONTINUOUS
370
    50
100
AcDbLine
 10
130.5168571423
 20
169.9867650801
 30
0.0
 11
130.0173976917
 21
169.8673999354
 31
0.0
  0
LINE
  5
306
330
A
100
AcDbEntity
  8
1
  6
CONTINUOUS
370
    50
100
AcDbLine
 10
130.0173976917
 20
169.8673999354
 30
0.0
 11
129.5601851938
 21
169.9867650801
 31
0.0
  0
LINE
  5
307
330
A
100
AcDbEntity
  8
1
  6
CONTINUOUS
370
    50
100
AcDbLine
 10
129.5601851938
 20
169.9867650801
 30
0.0
 11
129.1899747936
 21
170.3331762222
 31
0.0
  0
LINE
  5
308
330
A
100
AcDbEntity
  8
1
  6
CONTINUOUS
370
    50
100
AcDbLine
 10
129.1899747936
 20
170.3331762222
 30
0.0
 11
128.9430052643
 21
170.8727242255
 31
0.0
  0
LINE
  5
309
330
A
100
AcDbEntity
  8
1
  6
CONTINUOUS
370
    50
100
AcDbLine
 10
128.9430052643
 20
170.8727242255
 30
0.0
 11
128.8434517043
 21
171.5525943723
 31
0.0
  0
LINE
  5
30A
330
A
100
AcDbEntity
  8
1
  6
CONTINUOUS
370
    50
100
AcDbLine
 10
128.8434517043
 20
171.5525943723
 30
0.0
 11
128.9010591096
 21
172.3062362355
 31
0.0
  0
LINE
  5
30B
330
A
100
AcDbEntity
  8
1
  6
CONTINUOUS
370
    50
100
AcDbLine
 10
128.9010591096
 20
172.3062362355
 30
0.0
 11
129.1101884661
 21
173.0598780987
 31
0.0
  0
LINE
  5
30C
330
A
100
AcDbEntity
  8
1
  6
CONTINUOUS
370
    50
100
AcDbLine
 10
129.1101884661
 20
173.0598780987
 30
0.0
 11
129.4503687352
 21
173.7397482455
 31
0.0
  0
LINE
  5
30D
330
A
100
AcDbEntity
  8
1
  6
CONTINUOUS
370
    50
100
AcDbLine
 10
129.4503687352
 20
173.7397482455
 30
0.0
 11
129.888300702
 21
174.2792962488
 31
0.0
  0
LINE
  5
30E
330
A
100
AcDbEntity
  8
1
  6
CONTINUOUS
370
    50
100
AcDbLine
 10
129.888300702
 20
174.2792962488
 30
0.0
 11
130.3811165344
 21
174.6257073909
 31
0.0
  0
LINE
  5
30F
330
A
100
AcDbEntity
  8
1
  6
CONTINUOUS
370
    50
100
AcDbLine
 10
130.3811165344
 20
174.6257073909
 30
0.0
 11
130.880575985
 21
174.7450725356
 31
0.0
  0
LINE
  5
310
330
A
100
AcDbEntity
  8
1
  6
CONTINUOUS
370
    50
100
AcDbLine
 10
130.880575985
 20
174.7450725356
 30
0.0
 11
131.3377884829
 21
174.6257073909
 31
0.0
  0
LINE
  5
311
330
A
100
AcDbEntity
  8
1
  6
CONTINUOUS
370
    50
100
AcDbLine
 10
131.3377884829
 20
174.6257073909
 30
0.0
 11
131.7079988831
 21
174.2792962488
 31
0.0
  0
LINE
  5
312
330
A
100
AcDbEntity
  8
1
  6
CONTINUOUS
370
    50
100
AcDbLine
 10
131.7079988831
 20
174.2792962488
 30
0.0
 11
131.9549684124
 21
173.7397482455
 31
0.0
  0
LINE
  5
313
330
A
100
AcDbEntity
  8
1
  6
CONTINUOUS
370
    50
100
AcDbLine
 10
131.9549684124
 20
173.7397482455
 30
0.0
 11
132.0545219724
 21
173.0598780987
 31
0.0
  0
LINE
  5
314
330
A
100
AcDbEntity
  8
1
  6
CONTINUOUS
370
    50
100
AcDbLine
 10
132.0545219724
 20
173.0598780987
 30
0.0
 11
131.996914567
 21
172.3062362355
 31
0.0
  0
LINE
  5
315
330
A
100
AcDbEntity
  8
1
  6
CONTINUOUS
370
    50
100
AcDbLine
 10
141.4882052173
 20
169.5823404497
 30
0.0
 11
141.5458126226
 21
170.335982313
 31
0.0
  0
LINE
  5
316
330
A
100
AcDbEntity
  8
1
  6
CONTINUOUS
370
    50
100
AcDbLine
 10
141.5458126226
 20
170.335982313
 30
0.0
 11
141.4462590626
 21
171.0158524597
 31
0.0
  0
LINE
  5
317
330
A
100
AcDbEntity
  8
1
  6
CONTINUOUS
370
    50
100
AcDbLine
 10
141.4462590626
 20
171.0158524597
 30
0.0
 11
141.1992895334
 21
171.555400463
 31
0.0
  0
LINE
  5
318
330
A
100
AcDbEntity
  8
1
  6
CONTINUOUS
370
    50
100
AcDbLine
 10
141.1992895334
 20
171.555400463
 30
0.0
 11
140.8290791331
 21
171.9018116051
 31
0.0
  0
LINE
  5
319
330
A
100
AcDbEntity
  8
1
  6
CONTINUOUS
370
    50
100
AcDbLine
 10
140.8290791331
 20
171.9018116051
 30
0.0
 11
140.3718666352
 21
172.0211767498
 31
0.0
  0
LINE
  5
31A
330
A
100
AcDbEntity
  8
1
  6
CONTINUOUS
370
    50
100
AcDbLine
 10
140.3718666352
 20
172.0211767498
 30
0.0
 11
139.8724071846
 21
171.9018116051
 31
0.0
  0
LINE
  5
31B
330
A
100
AcDbEntity
  8
1
  6
CONTINUOUS
370
    50
100
AcDbLine
 10
139.8724071846
 20
171.9018116051
 30
0.0
 11
139.3795913523
 21
171.555400463
 31
0.0
  0
LINE
  5
31C
330
A
100
AcDbEntity
  8
1
  6
CONTINUOUS
370
    50
100
AcDbLine
 10
139.3795913523
 20
171.555400463
 30
0.0
 11
138.9416593855
 21
171.0158524597
 31
0.0
  0
LINE
  5
31D
330
A
100
AcDbEntity
  8
1
  6
CONTINUOUS
370
    50
100
AcDbLine
 10
138.9416593855
 20
171.0158524597
 30
0.0
 11
138.6014791164
 21
170.335982313
 31
0.0
  0
LINE
  5
31E
330
A
100
AcDbEntity
  8
1
  6
CONTINUOUS
370
    50
100
AcDbLine
 10
138.6014791164
 20
170.335982313
 30
0.0
 11
138.3923497599
 21
169.5823404497
 31
0.0
  0
LINE
  5
31F
330
A
100
AcDbEntity
  8
1
  6
CONTINUOUS
370
    50
100
AcDbLine
 10
138.3923497599
 20
169.5823404497
 30
0.0
 11
138.3347423545
 21
168.8286985865
 31
0.0
  0
LINE
  5
320
330
A
100
AcDbEntity
  8
1
  6
CONTINUOUS
370
    50
100
AcDbLine
 10
138.3347423545
 20
168.8286985865
 30
0.0
 11
138.4342959145
 21
168.1488284398
 31
0.0
  0
LINE
  5
321
330
A
100
AcDbEntity
  8
1
  6
CONTINUOUS
370
    50
100
AcDbLine
 10
138.4342959145
 20
168.1488284398
 30
0.0
 11
138.6812654438
 21
167.6092804364
 31
0.0
  0
LINE
  5
322
330
A
100
AcDbEntity
  8
1
  6
CONTINUOUS
370
    50
100
AcDbLine
 10
138.6812654438
 20
167.6092804364
 30
0.0
 11
139.0514758441
 21
167.2628692943
 31
0.0
  0
LINE
  5
323
330
A
100
AcDbEntity
  8
1
  6
CONTINUOUS
370
    50
100
AcDbLine
 10
139.0514758441
 20
167.2628692943
 30
0.0
 11
139.5086883419
 21
167.1435041496
 31
0.0
  0
LINE
  5
324
330
A
100
AcDbEntity
  8
1
  6
CONTINUOUS
370
    50
100
AcDbLine
 10
139.5086883419
 20
167.1435041496
 30
0.0
 11
140.0081477925
 21
167.2628692943
 31
0.0
  0
LINE
  5
325
330
A
100
AcDbEntity
  8
1
  6
CONTINUOUS
370
    50
100
AcDbLine
 10
140.0081477925
 20
167.2628692943
 30
0.0
 11
140.5009636249
 21
167.6092804364
 31
0.0
  0
LINE
  5
326
330
A
100
AcDbEntity
  8
1
  6
CONTINUOUS
370
    50
100
AcDbLine
 10
140.5009636249
 20
167.6092804364
 30
0.0
 11
140.9388955917
 21
168.1488284398
 31
0.0
  0
LINE
  5
327
330
A
100
AcDbEntity
  8
1
  6
CONTINUOUS
370
    50
100
AcDbLine
 10
140.9388955917
 20
168.1488284398
 30
0.0
 11
141.2790758608
 21
168.8286985865
 31
0.0
  0
LINE
  5
328
330
A
100
AcDbEntity
  8
1
  6
CONTINUOUS
370
    50
100
AcDbLine
 10
141.2790758608
 20
168.8286985865
 30
0.0
 11
141.4882052173
 21
169.5823404497
 31
0.0
  0
LINE
  5
329
330
A
100
AcDbEntity
  8
1
  6
CONTINUOUS
370
    50
100
AcDbLine
 10
131.9892541226
 20
172.3084346986
 30
0.0
 11
131.7801247661
 21
171.5547928354
 31
0.0
  0
LINE
  5
32A
330
A
100
AcDbEntity
  8
1
  6
CONTINUOUS
370
    50
100
AcDbLine
 10
131.7801247661
 20
171.5547928354
 30
0.0
 11
131.439944497
 21
170.8749226886
 31
0.0
  0
LINE
  5
32B
330
A
100
AcDbEntity
  8
1
  6
CONTINUOUS
370
    50
100
AcDbLine
 10
131.439944497
 20
170.8749226886
 30
0.0
 11
131.0020125302
 21
170.3353746853
 31
0.0
  0
LINE
  5
32C
330
A
100
AcDbEntity
  8
1
  6
CONTINUOUS
370
    50
100
AcDbLine
 10
131.0020125302
 20
170.3353746853
 30
0.0
 11
130.5091966979
 21
169.9889635432
 31
0.0
  0
LINE
  5
32D
330
A
100
AcDbEntity
  8
1
  6
CONTINUOUS
370
    50
100
AcDbLine
 10
130.5091966979
 20
169.9889635432
 30
0.0
 11
130.0097372473
 21
169.8695983985
 31
0.0
  0
LINE
  5
32E
330
A
100
AcDbEntity
  8
1
  6
CONTINUOUS
370
    50
100
AcDbLine
 10
130.0097372473
 20
169.8695983985
 30
0.0
 11
129.5525247494
 21
169.9889635432
 31
0.0
  0
LINE
  5
32F
330
A
100
AcDbEntity
  8
1
  6
CONTINUOUS
370
    50
100
AcDbLine
 10
129.5525247494
 20
169.9889635432
 30
0.0
 11
129.1823143491
 21
170.3353746853
 31
0.0
  0
LINE
  5
330
330
A
100
AcDbEntity
  8
1
  6
CONTINUOUS
370
    50
100
AcDbLine
 10
129.1823143491
 20
170.3353746853
 30
0.0
 11
128.9353448199
 21
170.8749226886
 31
0.0
  0
LINE
  5
331
330
A
100
AcDbEntity
  8
1
  6
CONTINUOUS
370
    50
100
AcDbLine
 10
128.9353448199
 20
170.8749226886
 30
0.0
 11
128.8357912599
 21
171.5547928354
 31
0.0
  0
LINE
  5
332
330
A
100
AcDbEntity
  8
1
  6
CONTINUOUS
370
    50
100
AcDbLine
 10
128.8357912599
 20
171.5547928354
 30
0.0
 11
128.8933986652
 21
172.3084346986
 31
0.0
  0
LINE
  5
333
330
A
100
AcDbEntity
  8
1
  6
CONTINUOUS
370
    50
100
AcDbLine
 10
128.8933986652
 20
172.3084346986
 30
0.0
 11
129.1025280217
 21
173.0620765618
 31
0.0
  0
LINE
  5
334
330
A
100
AcDbEntity
  8
1
  6
CONTINUOUS
370
    50
100
AcDbLine
 10
129.1025280217
 20
173.0620765618
 30
0.0
 11
129.4427082908
 21
173.7419467086
 31
0.0
  0
LINE
  5
335
330
A
100
AcDbEntity
  8
1
  6
CONTINUOUS
370
    50
100
AcDbLine
 10
129.4427082908
 20
173.7419467086
 30
0.0
 11
129.8806402576
 21
174.2814947119
 31
0.0
  0
LINE
  5
336
330
A
100
AcDbEntity
  8
1
  6
CONTINUOUS
370
    50
100
AcDbLine
 10
129.8806402576
 20
174.2814947119
 30
0.0
 11
130.37345609
 21
174.627905854
 31
0.0
  0
LINE
  5
337
330
A
100
AcDbEntity
  8
1
  6
CONTINUOUS
370
    50
100
AcDbLine
 10
130.37345609
 20
174.627905854
 30
0.0
 11
130.8729155406
 21
174.7472709987
 31
0.0
  0
LINE
  5
338
330
A
100
AcDbEntity
  8
1
  6
CONTINUOUS
370
    50
100
AcDbLine
 10
130.8729155406
 20
174.7472709987
 30
0.0
 11
131.3301280384
 21
174.627905854
 31
0.0
  0
LINE
  5
339
330
A
100
AcDbEntity
  8
1
  6
CONTINUOUS
370
    50
100
AcDbLine
 10
131.3301280384
 20
174.627905854
 30
0.0
 11
131.7003384387
 21
174.2814947119
 31
0.0
  0
LINE
  5
33A
330
A
100
AcDbEntity
  8
1
  6
CONTINUOUS
370
    50
100
AcDbLine
 10
131.7003384387
 20
174.2814947119
 30
0.0
 11
131.9473079679
 21
173.7419467086
 31
0.0
  0
LINE
  5
33B
330
A
100
AcDbEntity
  8
1
  6
CONTINUOUS
370
    50
100
AcDbLine
 10
131.9473079679
 20
173.7419467086
 30
0.0
 11
132.046861528
 21
173.0620765618
 31
0.0
  0
LINE
  5
33C
330
A
100
AcDbEntity
  8
1
  6
CONTINUOUS
370
    50
100
AcDbLine
 10
132.046861528
 20
173.0620765618
 30
0.0
 11
131.9892541226
 21
172.3084346986
 31
0.0
  0
LINE
  5
33D
330
A
100
AcDbEntity
  8
1
  6
CONTINUOUS
370
    50
100
AcDbLine
 10
141.4882052173
 20
169.5823404497
 30
0.0
 11
141.5458126226
 21
170.335982313
 31
0.0
  0
LINE
  5
33E
330
A
100
AcDbEntity
  8
1
  6
CONTINUOUS
370
    50
100
AcDbLine
 10
141.5458126226
 20
170.335982313
 30
0.0
 11
141.4462590626
 21
171.0158524597
 31
0.0
  0
LINE
  5
33F
330
A
100
AcDbEntity
  8
1
  6
CONTINUOUS
370
    50
100
AcDbLine
 10
141.4462590626
 20
171.0158524597
 30
0.0
 11
141.1992895334
 21
171.555400463
 31
0.0
  0
LINE
  5
340
330
A
100
AcDbEntity
  8
1
  6
CONTINUOUS
370
    50
100
AcDbLine
 10
141.1992895334
 20
171.555400463
 30
0.0
 11
140.8290791331
 21
171.9018116051
 31
0.0
  0
LINE
  5
341
330
A
100
AcDbEntity
  8
1
  6
CONTINUOUS
370
    50
100
AcDbLine
 10
140.8290791331
 20
171.9018116051
 30
0.0
 11
140.3718666352
 21
172.0211767498
 31
0.0
  0
LINE
  5
342
330
A
100
AcDbEntity
  8
1
  6
CONTINUOUS
370
    50
100
AcDbLine
 10
140.3718666352
 20
172.0211767498
 30
0.0
 11
139.8724071846
 21
171.9018116051
 31
0.0
  0
LINE
  5
343
330
A
100
AcDbEntity
  8
1
  6
CONTINUOUS
370
    50
100
AcDbLine
 10
139.8724071846
 20
171.9018116051
 30
0.0
 11
139.3795913523
 21
171.555400463
 31
0.0
  0
LINE
  5
344
330
A
100
AcDbEntity
  8
1
  6
CONTINUOUS
370
    50
100
AcDbLine
 10
139.3795913523
 20
171.555400463
 30
0.0
 11
138.9416593855
 21
171.0158524597
 31
0.0
  0
LINE
  5
345
330
A
100
AcDbEntity
  8
1
  6
CONTINUOUS
370
    50
100
AcDbLine
 10
138.9416593855
 20
171.0158524597
 30
0.0
 11
138.6014791164
 21
170.335982313
 31
0.0
  0
LINE
  5
346
330
A
100
AcDbEntity
  8
1
  6
CONTINUOUS
370
    50
100
AcDbLine
 10
138.6014791164
 20
170.335982313
 30
0.0
 11
138.3923497599
 21
169.5823404497
 31
0.0
  0
LINE
  5
347
330
A
100
AcDbEntity
  8
1
  6
CONTINUOUS
370
    50
100
AcDbLine
 10
138.3923497599
 20
169.5823404497
 30
0.0
 11
138.3347423545
 21
168.8286985865
 31
0.0
  0
LINE
  5
348
330
A
100
AcDbEntity
  8
1
  6
CONTINUOUS
370
    50
100
AcDbLine
 10
138.3347423545
 20
168.8286985865
 30
0.0
 11
138.4342959145
 21
168.1488284398
 31
0.0
  0
LINE
  5
349
330
A
100
AcDbEntity
  8
1
  6
CONTINUOUS
370
    50
100
AcDbLine
 10
138.4342959145
 20
168.1488284398
 30
0.0
 11
138.6812654438
 21
167.6092804364
 31
0.0
  0
LINE
  5
34A
330
A
100
AcDbEntity
  8
1
  6
CONTINUOUS
370
    50
100
AcDbLine
 10
138.6812654438
 20
167.6092804364
 30
0.0
 11
139.0514758441
 21
167.2628692943
 31
0.0
  0
LINE
  5
34B
330
A
100
AcDbEntity
  8
1
  6
CONTINUOUS
370
    50
100
AcDbLine
 10
139.0514758441
 20
167.2628692943
 30
0.0
 11
139.5086883419
 21
167.1435041496
 31
0.0
  0
LINE
  5
34C
330
A
100
AcDbEntity
  8
1
  6
CONTINUOUS
370
    50
100
AcDbLine
 10
139.5086883419
 20
167.1435041496
 30
0.0
 11
140.0081477925
 21
167.2628692943
 31
0.0
  0
LINE
  5
34D
330
A
100
AcDbEntity
  8
1
  6
CONTINUOUS
370
    50
100
AcDbLine
 10
140.0081477925
 20
167.2628692943
 30
0.0
 11
140.5009636249
 21
167.6092804364
 31
0.0
  0
LINE
  5
34E
330
A
100
AcDbEntity
  8
1
  6
CONTINUOUS
370
    50
100
AcDbLine
 10
140.5009636249
 20
167.6092804364
 30
0.0
 11
140.9388955917
 21
168.1488284398
 31
0.0
  0
LINE
  5
34F
330
A
100
AcDbEntity
  8
1
  6
CONTINUOUS
370
    50
100
AcDbLine
 10
140.9388955917
 20
168.1488284398
 30
0.0
 11
141.2790758608
 21
168.8286985865
 31
0.0
  0
LINE
  5
350
330
A
100
AcDbEntity
  8
1
  6
CONTINUOUS
370
    50
100
AcDbLine
 10
141.2790758608
 20
168.8286985865
 30
0.0
 11
141.4882052173
 21
169.5823404497
 31
0.0
  0
LINE
  5
351
330
A
100
AcDbEntity
  8
1
  6
CONTINUOUS
370
    50
100
AcDbLine
 10
131.996914567
 20
172.3062362355
 30
0.0
 11
131.7877852106
 21
171.5525943723
 31
0.0
  0
LINE
  5
352
330
A
100
AcDbEntity
  8
1
  6
CONTINUOUS
370
    50
100
AcDbLine
 10
131.7877852106
 20
171.5525943723
 30
0.0
 11
131.4476049415
 21
170.8727242255
 31
0.0
  0
LINE
  5
353
330
A
100
AcDbEntity
  8
1
  6
CONTINUOUS
370
    50
100
AcDbLine
 10
131.4476049415
 20
170.8727242255
 30
0.0
 11
131.0096729747
 21
170.3331762222
 31
0.0
  0
LINE
  5
354
330
A
100
AcDbEntity
  8
1
  6
CONTINUOUS
370
    50
100
AcDbLine
 10
131.0096729747
 20
170.3331762222
 30
0.0
 11
130.5168571423
 21
169.9867650801
 31
0.0
  0
LINE
  5
355
330
A
100
AcDbEntity
  8
1
  6
CONTINUOUS
370
    50
100
AcDbLine
 10
130.5168571423
 20
169.9867650801
 30
0.0
 11
130.0173976917
 21
169.8673999354
 31
0.0
  0
LINE
  5
356
330
A
100
AcDbEntity
  8
1
  6
CONTINUOUS
370
    50
100
AcDbLine
 10
130.0173976917
 20
169.8673999354
 30
0.0
 11
129.5601851938
 21
169.9867650801
 31
0.0
  0
LINE
  5
357
330
A
100
AcDbEntity
  8
1
  6
CONTINUOUS
370
    50
100
AcDbLine
 10
129.5601851938
 20
169.9867650801
 30
0.0
 11
129.1899747936
 21
170.3331762222
 31
0.0
  0
LINE
  5
358
330
A
100
AcDbEntity
  8
1
  6
CONTINUOUS
370
    50
100
AcDbLine
 10
129.1899747936
 20
170.3331762222
 30
0.0
 11
128.9430052643
 21
170.8727242255
 31
0.0
  0
LINE
  5
359
330
A
100
AcDbEntity
  8
1
  6
CONTINUOUS
370
    50
100
AcDbLine
 10
128.9430052643
 20
170.8727242255
 30
0.0
 11
128.8434517043
 21
171.5525943723
 31
0.0
  0
LINE
  5
35A
330
A
100
AcDbEntity
  8
1
  6
CONTINUOUS
370
    50
100
AcDbLine
 10
128.8434517043
 20
171.5525943723
 30
0.0
 11
128.9010591096
 21
172.3062362355
 31
0.0
  0
LINE
  5
35B
330
A
100
AcDbEntity
  8
1
  6
CONTINUOUS
370
    50
100
AcDbLine
 10
128.9010591096
 20
172.3062362355
 30
0.0
 11
129.1101884661
 21
173.0598780987
 31
0.0
  0
LINE
  5
35C
330
A
100
AcDbEntity
  8
1
  6
CONTINUOUS
370
    50
100
AcDbLine
 10
129.1101884661
 20
173.0598780987
 30
0.0
 11
129.4503687352
 21
173.7397482455
 31
0.0
  0
LINE
  5
35D
330
A
100
AcDbEntity
  8
1
  6
CONTINUOUS
370
    50
100
AcDbLine
 10
129.4503687352
 20
173.7397482455
 30
0.0
 11
129.888300702
 21
174.2792962488
 31
0.0
  0
LINE
  5
35E
330
A
100
AcDbEntity
  8
1
  6
CONTINUOUS
370
    50
100
AcDbLine
 10
129.888300702
 20
174.2792962488
 30
0.0
 11
130.3811165344
 21
174.6257073909
 31
0.0
  0
LINE
  5
35F
330
A
100
AcDbEntity
  8
1
  6
CONTINUOUS
370
    50
100
AcDbLine
 10
130.3811165344
 20
174.6257073909
 30
0.0
 11
130.880575985
 21
174.7450725356
 31
0.0
  0
LINE
  5
360
330
A
100
AcDbEntity
  8
1
  6
CONTINUOUS
370
    50
100
AcDbLine
 10
130.880575985
 20
174.7450725356
 30
0.0
 11
131.3377884829
 21
174.6257073909
 31
0.0
  0
LINE
  5
361
330
A
100
AcDbEntity
  8
1
  6
CONTINUOUS
370
    50
100
AcDbLine
 10
131.3377884829
 20
174.6257073909
 30
0.0
 11
131.7079988831
 21
174.2792962488
 31
0.0
  0
LINE
  5
362
330
A
100
AcDbEntity
  8
1
  6
CONTINUOUS
370
    50
100
AcDbLine
 10
131.7079988831
 20
174.2792962488
 30
0.0
 11
131.9549684124
 21
173.7397482455
 31
0.0
  0
LINE
  5
363
330
A
100
AcDbEntity
  8
1
  6
CONTINUOUS
370
    50
100
AcDbLine
 10
131.9549684124
 20
173.7397482455
 30
0.0
 11
132.0545219724
 21
173.0598780987
 31
0.0
  0
LINE
  5
364
330
A
100
AcDbEntity
  8
1
  6
CONTINUOUS
370
    50
100
AcDbLine
 10
132.0545219724
 20
173.0598780987
 30
0.0
 11
131.996914567
 21
172.3062362355
 31
0.0
  0
LINE
  5
365
330
A
100
AcDbEntity
  8
1
  6
CONTINUOUS
370
    50
100
AcDbLine
 10
153.4009255072
 20
189.2257258373
 30
0.0
 11
134.6909255072
 21
189.2257258373
 31
0.0
  0
LINE
  5
366
330
A
100
AcDbEntity
  8
1
  6
CONTINUOUS
370
    50
100
AcDbLine
 10
134.6909255072
 20
177.2257258373
 30
0.0
 11
153.4009255072
 21
177.2257258373
 31
0.0
  0
LINE
  5
367
330
A
100
AcDbEntity
  8
1
  6
CONTINUOUS
370
    50
100
AcDbLine
 10
153.4009255072
 20
189.2257258373
 30
0.0
 11
153.4009255072
 21
189.1104375197
 31
0.0
  0
LINE
  5
368
330
A
100
AcDbEntity
  8
1
  6
CONTINUOUS
370
    50
100
AcDbLine
 10
153.4009255072
 20
189.1104375197
 30
0.0
 11
153.4009255072
 21
177.2257258373
 31
0.0
  0
ENDSEC
  0
SECTION
  2
OBJECTS
  0
DICTIONARY
  5
19
330
0
100
AcDbDictionary
281
     1
  3
ACAD_GROUP
350
1A
  3
ACAD_LAYOUT
350
38D
  3
ACAD_MATERIAL
350
3A1
  3
ACAD_MLEADERSTYLE
350
3A9
  3
ACAD_MLINESTYLE
350
1B
  3
ACAD_SCALELIST
350
36B
  3
ACAD_VISUALSTYLE
350
390
  3
ACDB_RECOMPOSE_DATA
350
3D6
  3
AcDbVariableDictionary
350
3A7
  0
DICTIONARY
  5
3AD
330
7
100
AcDbDictionary
280
     1
281
     1
  3
ACAD_XREC_ROUNDTRIP
360
3AE
  0
DICTIONARY
  5
1A
102
{ACAD_REACTORS
330
19
102
}
330
19
100
AcDbDictionary
281
     1
  0
DICTIONARY
  5
38D
102
{ACAD_REACTORS
330
19
102
}
330
19
100
AcDbDictionary
281
     1
  3
Layout1
350
38F
  3
Model
350
38E
  0
DICTIONARY
  5
3A1
102
{ACAD_REACTORS
330
19
102
}
330
19
100
AcDbDictionary
281
     1
  3
ByBlock
350
3A3
  3
ByLayer
350
3A2
  3
Global
350
3A4
  0
DICTIONARY
  5
3A9
102
{ACAD_REACTORS
330
19
102
}
330
19
100
AcDbDictionary
281
     1
  0
DICTIONARY
  5
1B
102
{ACAD_REACTORS
330
19
102
}
330
19
100
AcDbDictionary
281
     1
  3
STANDARD
350
1C
  0
DICTIONARY
  5
36B
102
{ACAD_REACTORS
330
19
102
}
330
19
100
AcDbDictionary
281
     1
  3
A0
350
36C
  3
A1
350
36D
  3
A2
350
36E
  3
A3
350
36F
  3
A4
350
370
  3
A5
350
371
  3
A6
350
372
  3
A7
350
373
  3
A8
350
374
  3
A9
350
375
  3
B0
350
376
  3
B1
350
377
  3
B2
350
378
  3
B3
350
379
  3
B4
350
37A
  3
B5
350
37B
  3
B6
350
37C
  3
B7
350
37D
  3
B8
350
37E
  3
B9
350
37F
  3
C0
350
380
  3
C1
350
381
  3
C2
350
382
  3
C3
350
383
  3
C4
350
384
  3
C5
350
385
  3
C6
350
386
  3
C7
350
387
  3
C8
350
388
  3
C9
350
389
  3
D0
350
38A
  3
D1
350
38B
  3
D2
350
38C
  0
DICTIONARY
  5
390
102
{ACAD_REACTORS
330
19
102
}
330
19
100
AcDbDictionary
281
     1
  3
2dWireframe
350
395
  3
3D Hidden
350
397
  3
3dWireframe
350
396
  3
Basic
350
398
  3
Brighten
350
39C
  3
ColorChange
350
3A0
  3
Conceptual
350
39A
  3
Dim
350
39B
  3
Facepattern
350
39F
  3
Flat
350
391
  3
FlatWithEdges
350
392
  3
Gouraud
350
393
  3
GouraudWithEdges
350
394
  3
Linepattern
350
39E
  3
Realistic
350
399
  3
Thicken
350
39D
  0
XRECORD
  5
3D6
102
{ACAD_REACTORS
330
19
102
}
330
19
100
AcDbXrecord
280
     1
  0
DICTIONARY
  5
3A7
102
{ACAD_REACTORS
330
19
102
}
330
19
100
AcDbDictionary
281
     1
  3
CANNOSCALE
350
3AF
  3
DIMASSOC
350
3AB
  3
HIDETEXT
350
3AC
  3
MSLTSCALE
350
3AA
  0
XRECORD
  5
3AE
102
{ACAD_REACTORS
330
3AD
102
}
330
3AD
100
AcDbXrecord
280
     1
102
VTR_0.000_0.000_1.000_1.000_VISUALSTYLE
340
395
102
VTR_0.000_0.000_1.000_1.000_GRIDDISPLAY
 70
     3
102
VTR_0.000_0.000_1.000_1.000_GRIDMAJOR
 70
     5
102
VTR_0.000_0.000_1.000_1.000_DEFAULTLIGHTING
280
     1
102
VTR_0.000_0.000_1.000_1.000_DEFAULTLIGHTINGTYPE
 70
     1
102
VTR_0.000_0.000_1.000_1.000_BRIGHTNESS
141
0.0
102
VTR_0.000_0.000_1.000_1.000_CONTRAST
142
0.0
  0
LAYOUT
  5
38F
102
{ACAD_REACTORS
330
38D
102
}
330
38D
100
AcDbPlotSettings
  1

  2
none_device
  4

  6

 40
0.0
 41
0.0
 42
0.0
 43
0.0
 44
0.0
 45
0.0
 46
0.0
 47
0.0
 48
0.0
 49
0.0
140
0.0
141
0.0
142
1.0
143
1.0
 70
   688
 72
     0
 73
     0
 74
     5
  7

 75
    16
147
1.0
148
0.0
149
0.0
100
AcDbLayout
  1
Layout1
 70
     1
 71
     1
 10
0.0
 20
0.0
 11
12.0
 21
9.0
 12
0.0
 22
0.0
 32
0.0
 14
1.000000000000000E+20
 24
1.000000000000000E+20
 34
1.000000000000000E+20
 15
-1.000000000000000E+20
 25
-1.000000000000000E+20
 35
-1.000000000000000E+20
146
0.0
 13
0.0
 23
0.0
 33
0.0
 16
1.0
 26
0.0
 36
0.0
 17
0.0
 27
1.0
 37
0.0
 76
     0
330
B
  0
LAYOUT
  5
38E
102
{ACAD_REACTORS
330
38D
102
}
330
38D
100
AcDbPlotSettings
  1

  2
none_device
  4

  6

 40
0.0
 41
0.0
 42
0.0
 43
0.0
 44
0.0
 45
0.0
 46
0.0
 47
0.0
 48
0.0
 49
0.0
140
0.0
141
0.0
142
1.0
143
1.0
 70
  1712
 72
     0
 73
     0
 74
     0
  7

 75
     0
147
1.0
148
2667.54428576817
149
0.0
100
AcDbLayout
  1
Model
 70
     1
 71
     0
 10
0.0
 20
0.0
 11
0.0
 21
0.0
 12
0.0
 22
0.0
 32
0.0
 14
0.0
 24
0.0
 34
0.0
 15
210.0
 25
297.0
 35
0.0
146
0.0
 13
0.0
 23
0.0
 33
0.0
 16
1.0
 26
0.0
 36
0.0
 17
0.0
 27
1.0
 37
0.0
 76
     0
330
A
331
15
  0
MATERIAL
  5
3A3
102
{ACAD_REACTORS
330
3A1
102
}
102
{ACAD_XDICTIONARY
360
3D2
102
}
330
3A1
100
AcDbMaterial
  1
ByBlock
  0
MATERIAL
  5
3A2
102
{ACAD_REACTORS
330
3A1
102
}
102
{ACAD_XDICTIONARY
360
3D0
102
}
330
3A1
100
AcDbMaterial
  1
ByLayer
  0
MATERIAL
  5
3A4
102
{ACAD_REACTORS
330
3A1
102
}
102
{ACAD_XDICTIONARY
360
3D4
102
}
330
3A1
100
AcDbMaterial
  1
Global
  0
MLINESTYLE
  5
1C
102
{ACAD_REACTORS
330
1B
102
}
330
1B
100
AcDbMlineStyle
  2
STANDARD
 70
     0
  3

 62
     0
 51
90.0
 52
90.0
 71
     2
 49
0.5
 62
   256
  6
BYLAYER
 49
-0.5
 62
   256
  6
BYLAYER
  0
SCALE
  5
36C
102
{ACAD_REACTORS
330
36B
102
}
330
36B
100
AcDbScale
 70
     0
300
1:1
140
1.0
141
1.0
290
     1
  0
SCALE
  5
36D
102
{ACAD_REACTORS
330
36B
102
}
330
36B
100
AcDbScale
 70
     0
300
1:2
140
1.0
141
2.0
290
     0
  0
SCALE
  5
36E
102
{ACAD_REACTORS
330
36B
102
}
330
36B
100
AcDbScale
 70
     0
300
1:4
140
1.0
141
4.0
290
     0
  0
SCALE
  5
36F
102
{ACAD_REACTORS
330
36B
102
}
330
36B
100
AcDbScale
 70
     0
300
1:5
140
1.0
141
5.0
290
     0
  0
SCALE
  5
370
102
{ACAD_REACTORS
330
36B
102
}
330
36B
100
AcDbScale
 70
     0
300
1:8
140
1.0
141
8.0
290
     0
  0
SCALE
  5
371
102
{ACAD_REACTORS
330
36B
102
}
330
36B
100
AcDbScale
 70
     0
300
1:10
140
1.0
141
10.0
290
     0
  0
SCALE
  5
372
102
{ACAD_REACTORS
330
36B
102
}
330
36B
100
AcDbScale
 70
     0
300
1:16
140
1.0
141
16.0
290
     0
  0
SCALE
  5
373
102
{ACAD_REACTORS
330
36B
102
}
330
36B
100
AcDbScale
 70
     0
300
1:20
140
1.0
141
20.0
290
     0
  0
SCALE
  5
374
102
{ACAD_REACTORS
330
36B
102
}
330
36B
100
AcDbScale
 70
     0
300
1:30
140
1.0
141
30.0
290
     0
  0
SCALE
  5
375
102
{ACAD_REACTORS
330
36B
102
}
330
36B
100
AcDbScale
 70
     0
300
1:40
140
1.0
141
40.0
290
     0
  0
SCALE
  5
376
102
{ACAD_REACTORS
330
36B
102
}
330
36B
100
AcDbScale
 70
     0
300
1:50
140
1.0
141
50.0
290
     0
  0
SCALE
  5
377
102
{ACAD_REACTORS
330
36B
102
}
330
36B
100
AcDbScale
 70
     0
300
1:100
140
1.0
141
100.0
290
     0
  0
SCALE
  5
378
102
{ACAD_REACTORS
330
36B
102
}
330
36B
100
AcDbScale
 70
     0
300
2:1
140
2.0
141
1.0
290
     0
  0
SCALE
  5
379
102
{ACAD_REACTORS
330
36B
102
}
330
36B
100
AcDbScale
 70
     0
300
4:1
140
4.0
141
1.0
290
     0
  0
SCALE
  5
37A
102
{ACAD_REACTORS
330
36B
102
}
330
36B
100
AcDbScale
 70
     0
300
8:1
140
8.0
141
1.0
290
     0
  0
SCALE
  5
37B
102
{ACAD_REACTORS
330
36B
102
}
330
36B
100
AcDbScale
 70
     0
300
10:1
140
10.0
141
1.0
290
     0
  0
SCALE
  5
37C
102
{ACAD_REACTORS
330
36B
102
}
330
36B
100
AcDbScale
 70
     0
300
100:1
140
100.0
141
1.0
290
     0
  0
SCALE
  5
37D
102
{ACAD_REACTORS
330
36B
102
}
330
36B
100
AcDbScale
 70
     0
300
1/128" = 1'-0"
140
0.0078125
141
12.0
290
     0
  0
SCALE
  5
37E
102
{ACAD_REACTORS
330
36B
102
}
330
36B
100
AcDbScale
 70
     0
300
1/64" = 1'-0"
140
0.015625
141
12.0
290
     0
  0
SCALE
  5
37F
102
{ACAD_REACTORS
330
36B
102
}
330
36B
100
AcDbScale
 70
     0
300
1/32" = 1'-0"
140
0.03125
141
12.0
290
     0
  0
SCALE
  5
380
102
{ACAD_REACTORS
330
36B
102
}
330
36B
100
AcDbScale
 70
     0
300
1/16" = 1'-0"
140
0.0625
141
12.0
290
     0
  0
SCALE
  5
381
102
{ACAD_REACTORS
330
36B
102
}
330
36B
100
AcDbScale
 70
     0
300
3/32" = 1'-0"
140
0.09375
141
12.0
290
     0
  0
SCALE
  5
382
102
{ACAD_REACTORS
330
36B
102
}
330
36B
100
AcDbScale
 70
     0
300
1/8" = 1'-0"
140
0.125
141
12.0
290
     0
  0
SCALE
  5
383
102
{ACAD_REACTORS
330
36B
102
}
330
36B
100
AcDbScale
 70
     0
300
3/16" = 1'-0"
140
0.1875
141
12.0
290
     0
  0
SCALE
  5
384
102
{ACAD_REACTORS
330
36B
102
}
330
36B
100
AcDbScale
 70
     0
300
1/4" = 1'-0"
140
0.25
141
12.0
290
     0
  0
SCALE
  5
385
102
{ACAD_REACTORS
330
36B
102
}
330
36B
100
AcDbScale
 70
     0
300
3/8" = 1'-0"
140
0.375
141
12.0
290
     0
  0
SCALE
  5
386
102
{ACAD_REACTORS
330
36B
102
}
330
36B
100
AcDbScale
 70
     0
300
1/2" = 1'-0"
140
0.5
141
12.0
290
     0
  0
SCALE
  5
387
102
{ACAD_REACTORS
330
36B
102
}
330
36B
100
AcDbScale
 70
     0
300
3/4" = 1'-0"
140
0.75
141
12.0
290
     0
  0
SCALE
  5
388
102
{ACAD_REACTORS
330
36B
102
}
330
36B
100
AcDbScale
 70
     0
300
1" = 1'-0"
140
1.0
141
12.0
290
     0
  0
SCALE
  5
389
102
{ACAD_REACTORS
330
36B
102
}
330
36B
100
AcDbScale
 70
     0
300
1-1/2" = 1'-0"
140
1.5
141
12.0
290
     0
  0
SCALE
  5
38A
102
{ACAD_REACTORS
330
36B
102
}
330
36B
100
AcDbScale
 70
     0
300
3" = 1'-0"
140
3.0
141
12.0
290
     0
  0
SCALE
  5
38B
102
{ACAD_REACTORS
330
36B
102
}
330
36B
100
AcDbScale
 70
     0
300
6" = 1'-0"
140
6.0
141
12.0
290
     0
  0
SCALE
  5
38C
102
{ACAD_REACTORS
330
36B
102
}
330
36B
100
AcDbScale
 70
     0
300
1'-0" = 1'-0"
140
12.0
141
12.0
290
     0
  0
VISUALSTYLE
  5
395
102
{ACAD_REACTORS
330
390
102
}
102
{ACAD_XDICTIONARY
360
3B8
102
}
330
390
100
AcDbVisualStyle
  2
2dWireframe
 70
     4
 71
     0
 72
     2
 73
     0
 90
        0
 40
-0.6
 41
-30.0
 62
     5
 63
     7
 74
     1
 91
        4
 64
     7
 65
   257
 75
     1
175
     1
 42
1.0
 92
        0
 66
   257
 43
1.0
 76
     1
 77
     6
 78
     2
 67
     7
 79
     5
170
     0
171
     0
290
     0
174
     0
 93
        1
 44
0.0
173
     0
291
     0
 45
0.0
1001
ACAD
1000
AcDbSavedByObjectVersion
1070
     0
  0
VISUALSTYLE
  5
397
102
{ACAD_REACTORS
330
390
102
}
102
{ACAD_XDICTIONARY
360
3BC
102
}
330
390
100
AcDbVisualStyle
  2
3D Hidden
 70
     6
 71
     1
 72
     2
 73
     2
 90
        0
 40
-0.6
 41
-30.0
 62
     5
 63
     7
 74
     2
 91
        2
 64
     7
 65
   257
 75
     2
175
     1
 42
40.0
 92
        0
 66
   257
 43
1.0
 76
     1
 77
     6
 78
     2
 67
     7
 79
     3
170
     0
171
     0
290
     0
174
     0
 93
        1
 44
0.0
173
     0
291
     0
 45
0.0
1001
ACAD
1000
AcDbSavedByObjectVersion
1070
     0
  0
VISUALSTYLE
  5
396
102
{ACAD_REACTORS
330
390
102
}
102
{ACAD_XDICTIONARY
360
3BA
102
}
330
390
100
AcDbVisualStyle
  2
3dWireframe
 70
     5
 71
     0
 72
     2
 73
     0
 90
        0
 40
-0.6
 41
-30.0
 62
     5
 63
     7
 74
     1
 91
        4
 64
     7
 65
   257
 75
     1
175
     1
 42
1.0
 92
        0
 66
   257
 43
1.0
 76
     1
 77
     6
 78
     2
 67
     7
 79
     5
170
     0
171
     0
290
     0
174
     0
 93
        1
 44
0.0
173
     0
291
     0
 45
0.0
1001
ACAD
1000
AcDbSavedByObjectVersion
1070
     0
  0
VISUALSTYLE
  5
398
102
{ACAD_REACTORS
330
390
102
}
102
{ACAD_XDICTIONARY
360
3BE
102
}
330
390
100
AcDbVisualStyle
  2
Basic
 70
     7
 71
     1
 72
     0
 73
     1
 90
        0
 40
-0.6
 41
-30.0
 62
     5
 63
     7
 74
     0
 91
        4
 64
     7
 65
   257
 75
     1
175
     1
 42
1.0
 92
        8
 66
     7
 43
1.0
 76
     1
 77
     6
 78
     2
 67
     7
 79
     5
170
     0
171
     0
290
     0
174
     0
 93
        1
 44
0.0
173
     0
291
     1
 45
0.0
1001
ACAD
1000
AcDbSavedByObjectVersion
1070
     0
  0
VISUALSTYLE
  5
39C
102
{ACAD_REACTORS
330
390
102
}
102
{ACAD_XDICTIONARY
360
3C6
102
}
330
390
100
AcDbVisualStyle
  2
Brighten
 70
    12
 71
     2
 72
     2
 73
     0
 90
        0
 40
-0.6
 41
-30.0
 62
     5
 63
     7
 74
     1
 91
        4
 64
     7
 65
   257
 75
     1
175
     1
 42
1.0
 92
        8
 66
     7
 43
1.0
 76
     1
 77
     6
 78
     2
 67
     7
 79
     5
170
     0
171
     0
290
     0
174
     0
 93
        1
 44
50.0
173
     0
291
     1
 45
0.0
1001
ACAD
1000
AcDbSavedByObjectVersion
1070
     0
  0
VISUALSTYLE
  5
3A0
102
{ACAD_REACTORS
330
390
102
}
102
{ACAD_XDICTIONARY
360
3CE
102
}
330
390
100
AcDbVisualStyle
  2
ColorChange
 70
    16
 71
     2
 72
     2
 73
     3
 90
        0
 40
-0.6
 41
-30.0
 62
     5
 63
     8
 74
     1
 91
        4
 64
     7
 65
   257
 75
     1
175
     1
 42
1.0
 92
        8
 66
     8
 43
1.0
 76
     1
 77
     6
 78
     2
 67
     7
 79
     5
170
     0
171
     0
290
     0
174
     0
 93
        1
 44
0.0
173
     0
291
     1
 45
0.0
1001
ACAD
1000
AcDbSavedByObjectVersion
1070
     0
  0
VISUALSTYLE
  5
39A
102
{ACAD_REACTORS
330
390
102
}
102
{ACAD_XDICTIONARY
360
3C2
102
}
330
390
100
AcDbVisualStyle
  2
Conceptual
 70
     9
 71
     3
 72
     2
 73
     0
 90
        0
 40
-0.6
 41
-30.0
 62
     5
 63
     7
 74
     2
 91
        2
 64
     7
 65
   257
 75
     1
175
     1
 42
40.0
 92
        8
 66
     7
 43
1.0
 76
     1
 77
     6
 78
     2
 67
     7
 79
     3
170
     0
171
     0
290
     0
174
     0
 93
        1
 44
0.0
173
     0
291
     0
 45
0.0
1001
ACAD
1000
AcDbSavedByObjectVersion
1070
     0
  0
VISUALSTYLE
  5
39B
102
{ACAD_REACTORS
330
390
102
}
102
{ACAD_XDICTIONARY
360
3C4
102
}
330
390
100
AcDbVisualStyle
  2
Dim
 70
    11
 71
     2
 72
     2
 73
     0
 90
        0
 40
-0.6
 41
-30.0
 62
     5
 63
     7
 74
     1
 91
        4
 64
     7
 65
   257
 75
     1
175
     1
 42
1.0
 92
        8
 66
     7
 43
1.0
 76
     1
 77
     6
 78
     2
 67
     7
 79
     5
170
     0
171
     0
290
     0
174
     0
 93
        1
 44
-50.0
173
     0
291
     1
 45
0.0
1001
ACAD
1000
AcDbSavedByObjectVersion
1070
     0
  0
VISUALSTYLE
  5
39F
102
{ACAD_REACTORS
330
390
102
}
102
{ACAD_XDICTIONARY
360
3CC
102
}
330
390
100
AcDbVisualStyle
  2
Facepattern
 70
    15
 71
     2
 72
     2
 73
     0
 90
        0
 40
-0.6
 41
-30.0
 62
     5
 63
     7
 74
     1
 91
        4
 64
     7
 65
   257
 75
     1
175
     1
 42
1.0
 92
        8
 66
     7
 43
1.0
 76
     1
 77
     6
 78
     2
 67
     7
 79
     5
170
     0
171
     0
290
     0
174
     0
 93
        1
 44
0.0
173
     0
291
     1
 45
0.0
1001
ACAD
1000
AcDbSavedByObjectVersion
1070
     0
  0
VISUALSTYLE
  5
391
102
{ACAD_REACTORS
330
390
102
}
102
{ACAD_XDICTIONARY
360
3B0
102
}
330
390
100
AcDbVisualStyle
  2
Flat
 70
     0
 71
     2
 72
     1
 73
     1
 90
        2
 40
-0.6
 41
30.0
 62
     5
 63
     7
 74
     0
 91
        4
 64
     7
 65
   257
 75
     1
175
     1
 42
1.0
 92
        8
 66
     7
 43
1.0
 76
     1
 77
     6
 78
     2
 67
     7
 79
     5
170
     0
171
     0
290
     0
174
     0
 93
       13
 44
0.0
173
     0
291
     1
 45
0.0
1001
ACAD
1000
AcDbSavedByObjectVersion
1070
     0
  0
VISUALSTYLE
  5
392
102
{ACAD_REACTORS
330
390
102
}
102
{ACAD_XDICTIONARY
360
3B2
102
}
330
390
100
AcDbVisualStyle
  2
FlatWithEdges
 70
     1
 71
     2
 72
     1
 73
     1
 90
        2
 40
-0.6
 41
30.0
 62
     5
 63
     7
 74
     1
 91
        4
 64
     7
 65
   257
 75
     1
175
     1
 42
1.0
 92
        0
 66
   257
 43
1.0
 76
     1
 77
     6
 78
     2
 67
     7
 79
     5
170
     0
171
     0
290
     0
174
     0
 93
       13
 44
0.0
173
     0
291
     1
 45
0.0
1001
ACAD
1000
AcDbSavedByObjectVersion
1070
     0
  0
VISUALSTYLE
  5
393
102
{ACAD_REACTORS
330
390
102
}
102
{ACAD_XDICTIONARY
360
3B4
102
}
330
390
100
AcDbVisualStyle
  2
Gouraud
 70
     2
 71
     2
 72
     2
 73
     1
 90
        2
 40
-0.6
 41
30.0
 62
     5
 63
     7
 74
     0
 91
        4
 64
     7
 65
   257
 75
     1
175
     1
 42
1.0
 92
        0
 66
     7
 43
1.0
 76
     1
 77
     6
 78
     2
 67
     7
 79
     5
170
     0
171
     0
290
     0
174
     0
 93
       13
 44
0.0
173
     0
291
     1
 45
0.0
1001
ACAD
1000
AcDbSavedByObjectVersion
1070
     0
  0
VISUALSTYLE
  5
394
102
{ACAD_REACTORS
330
390
102
}
102
{ACAD_XDICTIONARY
360
3B6
102
}
330
390
100
AcDbVisualStyle
  2
GouraudWithEdges
 70
     3
 71
     2
 72
     2
 73
     1
 90
        2
 40
-0.6
 41
30.0
 62
     5
 63
     7
 74
     1
 91
        4
 64
     7
 65
   257
 75
     1
175
     1
 42
1.0
 92
        0
 66
   257
 43
1.0
 76
     1
 77
     6
 78
     2
 67
     7
 79
     5
170
     0
171
     0
290
     0
174
     0
 93
       13
 44
0.0
173
     0
291
     1
 45
0.0
1001
ACAD
1000
AcDbSavedByObjectVersion
1070
     0
  0
VISUALSTYLE
  5
39E
102
{ACAD_REACTORS
330
390
102
}
102
{ACAD_XDICTIONARY
360
3CA
102
}
330
390
100
AcDbVisualStyle
  2
Linepattern
 70
    14
 71
     2
 72
     2
 73
     0
 90
        0
 40
-0.6
 41
-30.0
 62
     5
 63
     7
 74
     1
 91
        4
 64
     7
 65
   257
 75
     7
175
     7
 42
1.0
 92
        8
 66
     7
 43
1.0
 76
     1
 77
     6
 78
     2
 67
     7
 79
     5
170
     0
171
     0
290
     0
174
     0
 93
        1
 44
0.0
173
     0
291
     1
 45
0.0
1001
ACAD
1000
AcDbSavedByObjectVersion
1070
     0
  0
VISUALSTYLE
  5
399
102
{ACAD_REACTORS
330
390
102
}
102
{ACAD_XDICTIONARY
360
3C0
102
}
330
390
100
AcDbVisualStyle
  2
Realistic
 70
     8
 71
     2
 72
     2
 73
     0
 90
        0
 40
-0.6
 41
-30.0
 62
     5
 63
     7
 74
     1
 91
        0
 64
     7
 65
   257
 75
     1
175
     1
 42
1.0
 92
        8
 66
     8
 43
1.0
 76
     1
 77
     6
 78
     2
 67
     7
 79
     5
170
     0
171
     0
290
     0
174
     0
 93
       13
 44
0.0
173
     0
291
     0
 45
0.0
1001
ACAD
1000
AcDbSavedByObjectVersion
1070
     0
  0
VISUALSTYLE
  5
39D
102
{ACAD_REACTORS
330
390
102
}
102
{ACAD_XDICTIONARY
360
3C8
102
}
330
390
100
AcDbVisualStyle
  2
Thicken
 70
    13
 71
     2
 72
     2
 73
     0
 90
        0
 40
-0.6
 41
-30.0
 62
     5
 63
     7
 74
     1
 91
        4
 64
     7
 65
   257
 75
     1
175
     1
 42
1.0
 92
       12
 66
     7
 43
1.0
 76
     1
 77
     6
 78
     2
 67
     7
 79
     5
170
     0
171
     0
290
     0
174
     0
 93
        1
 44
0.0
173
     0
291
     1
 45
0.0
1001
ACAD
1000
AcDbSavedByObjectVersion
1070
     0
  0
DICTIONARYVAR
  5
3AF
102
{ACAD_REACTORS
330
3A7
102
}
330
3A7
100
DictionaryVariables
280
     0
  1
1:1
  0
DICTIONARYVAR
  5
3AB
102
{ACAD_REACTORS
330
3A7
102
}
330
3A7
100
DictionaryVariables
280
     0
  1
2
  0
DICTIONARYVAR
  5
3AC
102
{ACAD_REACTORS
330
3A7
102
}
330
3A7
100
DictionaryVariables
280
     0
  1
1
  0
DICTIONARYVAR
  5
3AA
102
{ACAD_REACTORS
330
3A7
102
}
330
3A7
100
DictionaryVariables
280
     0
  1
0
  0
DICTIONARY
  5
3D2
330
3A3
100
AcDbDictionary
280
     1
281
     1
  3
ACAD_XREC_ROUNDTRIP
360
3D3
  0
DICTIONARY
  5
3D0
330
3A2
100
AcDbDictionary
280
     1
281
     1
  3
ACAD_XREC_ROUNDTRIP
360
3D1
  0
DICTIONARY
  5
3D4
330
3A4
100
AcDbDictionary
280
     1
281
     1
  3
ACAD_XREC_ROUNDTRIP
360
3D5
  0
DICTIONARY
  5
3B8
330
395
100
AcDbDictionary
280
     1
281
     1
  3
ACAD_XREC_ROUNDTRIP
360
3B9
  0
DICTIONARY
  5
3BC
330
397
100
AcDbDictionary
280
     1
281
     1
  3
ACAD_XREC_ROUNDTRIP
360
3BD
  0
DICTIONARY
  5
3BA
330
396
100
AcDbDictionary
280
     1
281
     1
  3
ACAD_XREC_ROUNDTRIP
360
3BB
  0
DICTIONARY
  5
3BE
330
398
100
AcDbDictionary
280
     1
281
     1
  3
ACAD_XREC_ROUNDTRIP
360
3BF
  0
DICTIONARY
  5
3C6
330
39C
100
AcDbDictionary
280
     1
281
     1
  3
ACAD_XREC_ROUNDTRIP
360
3C7
  0
DICTIONARY
  5
3CE
330
3A0
100
AcDbDictionary
280
     1
281
     1
  3
ACAD_XREC_ROUNDTRIP
360
3CF
  0
DICTIONARY
  5
3C2
330
39A
100
AcDbDictionary
280
     1
281
     1
  3
ACAD_XREC_ROUNDTRIP
360
3C3
  0
DICTIONARY
  5
3C4
330
39B
100
AcDbDictionary
280
     1
281
     1
  3
ACAD_XREC_ROUNDTRIP
360
3C5
  0
DICTIONARY
  5
3CC
330
39F
100
AcDbDictionary
280
     1
281
     1
  3
ACAD_XREC_ROUNDTRIP
360
3CD
  0
DICTIONARY
  5
3B0
330
391
100
AcDbDictionary
280
     1
281
     1
  3
ACAD_XREC_ROUNDTRIP
360
3B1
  0
DICTIONARY
  5
3B2
330
392
100
AcDbDictionary
280
     1
281
     1
  3
ACAD_XREC_ROUNDTRIP
360
3B3
  0
DICTIONARY
  5
3B4
330
393
100
AcDbDictionary
280
     1
281
     1
  3
ACAD_XREC_ROUNDTRIP
360
3B5
  0
DICTIONARY
  5
3B6
330
394
100
AcDbDictionary
280
     1
281
     1
  3
ACAD_XREC_ROUNDTRIP
360
3B7
  0
DICTIONARY
  5
3CA
330
39E
100
AcDbDictionary
280
     1
281
     1
  3
ACAD_XREC_ROUNDTRIP
360
3CB
  0
DICTIONARY
  5
3C0
330
399
100
AcDbDictionary
280
     1
281
     1
  3
ACAD_XREC_ROUNDTRIP
360
3C1
  0
DICTIONARY
  5
3C8
330
39D
100
AcDbDictionary
280
     1
281
     1
  3
ACAD_XREC_ROUNDTRIP
360
3C9
  0
XRECORD
  5
3D3
102
{ACAD_REACTORS
330
3D2
102
}
330
3D2
100
AcDbXrecord
280
     1
102
MATERIAL
148
0.0
149
0.0
149
0.0
 93
        0
 94
      127
282
     0
 72
     1
 77
     1
171
     1
175
     1
179
     1
273
     0
  0
XRECORD
  5
3D1
102
{ACAD_REACTORS
330
3D0
102
}
330
3D0
100
AcDbXrecord
280
     1
102
MATERIAL
148
0.0
149
0.0
149
0.0
 93
        0
 94
      127
282
     0
 72
     1
 77
     1
171
     1
175
     1
179
     1
273
     0
  0
XRECORD
  5
3D5
102
{ACAD_REACTORS
330
3D4
102
}
330
3D4
100
AcDbXrecord
280
     1
102
MATERIAL
148
0.0
149
0.0
149
0.0
 93
        0
 94
      127
282
     0
 72
     1
 77
     1
171
     1
175
     1
179
     1
273
     0
  0
XRECORD
  5
3B9
102
{ACAD_REACTORS
330
3B8
102
}
330
3B8
100
AcDbXrecord
280
     1
102
RTVSPropertyOp0
 70
     1
102
RTVSPropertyOp1
 70
     1
102
RTVSPropertyOp2
 70
     1
102
RTVSPropertyOp3
 70
     1
102
RTVSPropertyOp4
 70
     1
102
RTVSPropertyOp5
 70
     1
102
RTVSPropertyOp6
 70
     1
102
RTVSPropertyOp7
 70
     1
102
RTVSPropertyOp8
 70
     1
102
RTVSPropertyOp9
 70
     1
102
RTVSPropertyOp10
 70
     1
102
RTVSPropertyOp11
 70
     1
102
RTVSPropertyOp12
 70
     1
102
RTVSPropertyOp13
 70
     1
102
RTVSPropertyOp14
 70
     1
102
RTVSPropertyOp15
 70
     1
102
RTVSPropertyOp16
 70
     1
102
RTVSPropertyOp17
 70
     1
102
RTVSPropertyOp18
 70
     1
102
RTVSPropertyOp19
 70
     1
102
RTVSPropertyOp20
 70
     1
102
RTVSPropertyOp21
 70
     1
102
RTVSPropertyOp22
 70
     1
102
RTVSPropertyOp23
 70
     1
102
RTVSPropertyOp24
 70
     1
102
RTVSPropertyOp25
 70
     1
102
RTVSPropertyOp26
 70
     1
102
RTVSPropertyOp27
 70
     1
102
RTVSPropertyOp28
 70
     1
102
RTVSPropertyOp29
 70
     1
102
RTVSPropertyOp30
 70
     1
102
RTVSPropertyOp31
 70
     1
102
RTVSPropertyOp32
 70
     1
  0
XRECORD
  5
3BD
102
{ACAD_REACTORS
330
3BC
102
}
330
3BC
100
AcDbXrecord
280
     1
102
RTVSPropertyOp0
 70
     1
102
RTVSPropertyOp1
 70
     1
102
RTVSPropertyOp2
 70
     1
102
RTVSPropertyOp3
 70
     1
102
RTVSPropertyOp4
 70
     1
102
RTVSPropertyOp5
 70
     1
102
RTVSPropertyOp6
 70
     1
102
RTVSPropertyOp7
 70
     1
102
RTVSPropertyOp8
 70
     1
102
RTVSPropertyOp9
 70
     1
102
RTVSPropertyOp10
 70
     1
102
RTVSPropertyOp11
 70
     1
102
RTVSPropertyOp12
 70
     1
102
RTVSPropertyOp13
 70
     1
102
RTVSPropertyOp14
 70
     1
102
RTVSPropertyOp15
 70
     1
102
RTVSPropertyOp16
 70
     1
102
RTVSPropertyOp17
 70
     1
102
RTVSPropertyOp18
 70
     1
102
RTVSPropertyOp19
 70
     1
102
RTVSPropertyOp20
 70
     1
102
RTVSPropertyOp21
 70
     1
102
RTVSPropertyOp22
 70
     1
102
RTVSPropertyOp23
 70
     1
102
RTVSPropertyOp24
 70
     1
102
RTVSPropertyOp25
 70
     1
102
RTVSPropertyOp26
 70
     1
102
RTVSPropertyOp27
 70
     1
102
RTVSPropertyOp28
 70
     1
102
RTVSPropertyOp29
 70
     1
102
RTVSPropertyOp30
 70
     1
102
RTVSPropertyOp31
 70
     1
102
RTVSPropertyOp32
 70
     1
  0
XRECORD
  5
3BB
102
{ACAD_REACTORS
330
3BA
102
}
330
3BA
100
AcDbXrecord
280
     1
102
RTVSPropertyOp0
 70
     1
102
RTVSPropertyOp1
 70
     1
102
RTVSPropertyOp2
 70
     1
102
RTVSPropertyOp3
 70
     1
102
RTVSPropertyOp4
 70
     1
102
RTVSPropertyOp5
 70
     1
102
RTVSPropertyOp6
 70
     1
102
RTVSPropertyOp7
 70
     1
102
RTVSPropertyOp8
 70
     1
102
RTVSPropertyOp9
 70
     1
102
RTVSPropertyOp10
 70
     1
102
RTVSPropertyOp11
 70
     1
102
RTVSPropertyOp12
 70
     1
102
RTVSPropertyOp13
 70
     1
102
RTVSPropertyOp14
 70
     1
102
RTVSPropertyOp15
 70
     1
102
RTVSPropertyOp16
 70
     1
102
RTVSPropertyOp17
 70
     1
102
RTVSPropertyOp18
 70
     1
102
RTVSPropertyOp19
 70
     1
102
RTVSPropertyOp20
 70
     1
102
RTVSPropertyOp21
 70
     1
102
RTVSPropertyOp22
 70
     1
102
RTVSPropertyOp23
 70
     1
102
RTVSPropertyOp24
 70
     1
102
RTVSPropertyOp25
 70
     1
102
RTVSPropertyOp26
 70
     1
102
RTVSPropertyOp27
 70
     1
102
RTVSPropertyOp28
 70
     1
102
RTVSPropertyOp29
 70
     1
102
RTVSPropertyOp30
 70
     1
102
RTVSPropertyOp31
 70
     1
102
RTVSPropertyOp32
 70
     1
  0
XRECORD
  5
3BF
102
{ACAD_REACTORS
330
3BE
102
}
330
3BE
100
AcDbXrecord
280
     1
102
RTVSPropertyOp0
 70
     1
102
RTVSPropertyOp1
 70
     1
102
RTVSPropertyOp2
 70
     1
102
RTVSPropertyOp3
 70
     1
102
RTVSPropertyOp4
 70
     1
102
RTVSPropertyOp5
 70
     1
102
RTVSPropertyOp6
 70
     1
102
RTVSPropertyOp7
 70
     1
102
RTVSPropertyOp8
 70
     1
102
RTVSPropertyOp9
 70
     1
102
RTVSPropertyOp10
 70
     1
102
RTVSPropertyOp11
 70
     1
102
RTVSPropertyOp12
 70
     1
102
RTVSPropertyOp13
 70
     1
102
RTVSPropertyOp14
 70
     1
102
RTVSPropertyOp15
 70
     1
102
RTVSPropertyOp16
 70
     1
102
RTVSPropertyOp17
 70
     1
102
RTVSPropertyOp18
 70
     1
102
RTVSPropertyOp19
 70
     1
102
RTVSPropertyOp20
 70
     1
102
RTVSPropertyOp21
 70
     1
102
RTVSPropertyOp22
 70
     1
102
RTVSPropertyOp23
 70
     1
102
RTVSPropertyOp24
 70
     1
102
RTVSPropertyOp25
 70
     1
102
RTVSPropertyOp26
 70
     1
102
RTVSPropertyOp27
 70
     1
102
RTVSPropertyOp28
 70
     1
102
RTVSPropertyOp29
 70
     1
102
RTVSPropertyOp30
 70
     1
102
RTVSPropertyOp31
 70
     1
102
RTVSPropertyOp32
 70
     1
  0
XRECORD
  5
3C7
102
{ACAD_REACTORS
330
3C6
102
}
330
3C6
100
AcDbXrecord
280
     1
102
RTVSPropertyOp0
 70
     1
102
RTVSPropertyOp1
 70
     1
102
RTVSPropertyOp2
 70
     1
102
RTVSPropertyOp3
 70
     1
102
RTVSPropertyOp4
 70
     1
102
RTVSPropertyOp5
 70
     1
102
RTVSPropertyOp6
 70
     1
102
RTVSPropertyOp7
 70
     1
102
RTVSPropertyOp8
 70
     1
102
RTVSPropertyOp9
 70
     1
102
RTVSPropertyOp10
 70
     1
102
RTVSPropertyOp11
 70
     1
102
RTVSPropertyOp12
 70
     1
102
RTVSPropertyOp13
 70
     1
102
RTVSPropertyOp14
 70
     1
102
RTVSPropertyOp15
 70
     1
102
RTVSPropertyOp16
 70
     1
102
RTVSPropertyOp17
 70
     1
102
RTVSPropertyOp18
 70
     1
102
RTVSPropertyOp19
 70
     1
102
RTVSPropertyOp20
 70
     1
102
RTVSPropertyOp21
 70
     1
102
RTVSPropertyOp22
 70
     1
102
RTVSPropertyOp23
 70
     1
102
RTVSPropertyOp24
 70
     1
102
RTVSPropertyOp25
 70
     1
102
RTVSPropertyOp26
 70
     1
102
RTVSPropertyOp27
 70
     1
102
RTVSPropertyOp28
 70
     1
102
RTVSPropertyOp29
 70
     1
102
RTVSPropertyOp30
 70
     1
102
RTVSPropertyOp31
 70
     1
102
RTVSPropertyOp32
 70
     1
  0
XRECORD
  5
3CF
102
{ACAD_REACTORS
330
3CE
102
}
330
3CE
100
AcDbXrecord
280
     1
102
RTVSPropertyOp0
 70
     1
102
RTVSPropertyOp1
 70
     1
102
RTVSPropertyOp2
 70
     1
102
RTVSPropertyOp3
 70
     1
102
RTVSPropertyOp4
 70
     1
102
RTVSPropertyOp5
 70
     1
102
RTVSPropertyOp6
 70
     1
102
RTVSPropertyOp7
 70
     1
102
RTVSPropertyOp8
 70
     1
102
RTVSPropertyOp9
 70
     1
102
RTVSPropertyOp10
 70
     1
102
RTVSPropertyOp11
 70
     1
102
RTVSPropertyOp12
 70
     1
102
RTVSPropertyOp13
 70
     1
102
RTVSPropertyOp14
 70
     1
102
RTVSPropertyOp15
 70
     1
102
RTVSPropertyOp16
 70
     1
102
RTVSPropertyOp17
 70
     1
102
RTVSPropertyOp18
 70
     1
102
RTVSPropertyOp19
 70
     1
102
RTVSPropertyOp20
 70
     1
102
RTVSPropertyOp21
 70
     1
102
RTVSPropertyOp22
 70
     1
102
RTVSPropertyOp23
 70
     1
102
RTVSPropertyOp24
 70
     1
102
RTVSPropertyOp25
 70
     1
102
RTVSPropertyOp26
 70
     1
102
RTVSPropertyOp27
 70
     1
102
RTVSPropertyOp28
 70
     1
102
RTVSPropertyOp29
 70
     1
102
RTVSPropertyOp30
 70
     1
102
RTVSPropertyOp31
 70
     1
102
RTVSPropertyOp32
 70
     1
  0
XRECORD
  5
3C3
102
{ACAD_REACTORS
330
3C2
102
}
330
3C2
100
AcDbXrecord
280
     1
102
RTVSPropertyOp0
 70
     1
102
RTVSPropertyOp1
 70
     1
102
RTVSPropertyOp2
 70
     1
102
RTVSPropertyOp3
 70
     1
102
RTVSPropertyOp4
 70
     1
102
RTVSPropertyOp5
 70
     1
102
RTVSPropertyOp6
 70
     1
102
RTVSPropertyOp7
 70
     1
102
RTVSPropertyOp8
 70
     1
102
RTVSPropertyOp9
 70
     1
102
RTVSPropertyOp10
 70
     1
102
RTVSPropertyOp11
 70
     1
102
RTVSPropertyOp12
 70
     1
102
RTVSPropertyOp13
 70
     1
102
RTVSPropertyOp14
 70
     1
102
RTVSPropertyOp15
 70
     1
102
RTVSPropertyOp16
 70
     1
102
RTVSPropertyOp17
 70
     1
102
RTVSPropertyOp18
 70
     1
102
RTVSPropertyOp19
 70
     1
102
RTVSPropertyOp20
 70
     1
102
RTVSPropertyOp21
 70
     1
102
RTVSPropertyOp22
 70
     1
102
RTVSPropertyOp23
 70
     1
102
RTVSPropertyOp24
 70
     1
102
RTVSPropertyOp25
 70
     1
102
RTVSPropertyOp26
 70
     1
102
RTVSPropertyOp27
 70
     1
102
RTVSPropertyOp28
 70
     1
102
RTVSPropertyOp29
 70
     1
102
RTVSPropertyOp30
 70
     1
102
RTVSPropertyOp31
 70
     1
102
RTVSPropertyOp32
 70
     1
  0
XRECORD
  5
3C5
102
{ACAD_REACTORS
330
3C4
102
}
330
3C4
100
AcDbXrecord
280
     1
102
RTVSPropertyOp0
 70
     1
102
RTVSPropertyOp1
 70
     1
102
RTVSPropertyOp2
 70
     1
102
RTVSPropertyOp3
 70
     1
102
RTVSPropertyOp4
 70
     1
102
RTVSPropertyOp5
 70
     1
102
RTVSPropertyOp6
 70
     1
102
RTVSPropertyOp7
 70
     1
102
RTVSPropertyOp8
 70
     1
102
RTVSPropertyOp9
 70
     1
102
RTVSPropertyOp10
 70
     1
102
RTVSPropertyOp11
 70
     1
102
RTVSPropertyOp12
 70
     1
102
RTVSPropertyOp13
 70
     1
102
RTVSPropertyOp14
 70
     1
102
RTVSPropertyOp15
 70
     1
102
RTVSPropertyOp16
 70
     1
102
RTVSPropertyOp17
 70
     1
102
RTVSPropertyOp18
 70
     1
102
RTVSPropertyOp19
 70
     1
102
RTVSPropertyOp20
 70
     1
102
RTVSPropertyOp21
 70
     1
102
RTVSPropertyOp22
 70
     1
102
RTVSPropertyOp23
 70
     1
102
RTVSPropertyOp24
 70
     1
102
RTVSPropertyOp25
 70
     1
102
RTVSPropertyOp26
 70
     1
102
RTVSPropertyOp27
 70
     1
102
RTVSPropertyOp28
 70
     1
102
RTVSPropertyOp29
 70
     1
102
RTVSPropertyOp30
 70
     1
102
RTVSPropertyOp31
 70
     1
102
RTVSPropertyOp32
 70
     1
  0
XRECORD
  5
3CD
102
{ACAD_REACTORS
330
3CC
102
}
330
3CC
100
AcDbXrecord
280
     1
102
RTVSPropertyOp0
 70
     1
102
RTVSPropertyOp1
 70
     1
102
RTVSPropertyOp2
 70
     1
102
RTVSPropertyOp3
 70
     1
102
RTVSPropertyOp4
 70
     1
102
RTVSPropertyOp5
 70
     1
102
RTVSPropertyOp6
 70
     1
102
RTVSPropertyOp7
 70
     1
102
RTVSPropertyOp8
 70
     1
102
RTVSPropertyOp9
 70
     1
102
RTVSPropertyOp10
 70
     1
102
RTVSPropertyOp11
 70
     1
102
RTVSPropertyOp12
 70
     1
102
RTVSPropertyOp13
 70
     1
102
RTVSPropertyOp14
 70
     1
102
RTVSPropertyOp15
 70
     1
102
RTVSPropertyOp16
 70
     1
102
RTVSPropertyOp17
 70
     1
102
RTVSPropertyOp18
 70
     1
102
RTVSPropertyOp19
 70
     1
102
RTVSPropertyOp20
 70
     1
102
RTVSPropertyOp21
 70
     1
102
RTVSPropertyOp22
 70
     1
102
RTVSPropertyOp23
 70
     1
102
RTVSPropertyOp24
 70
     1
102
RTVSPropertyOp25
 70
     1
102
RTVSPropertyOp26
 70
     1
102
RTVSPropertyOp27
 70
     1
102
RTVSPropertyOp28
 70
     1
102
RTVSPropertyOp29
 70
     1
102
RTVSPropertyOp30
 70
     1
102
RTVSPropertyOp31
 70
     1
102
RTVSPropertyOp32
 70
     1
  0
XRECORD
  5
3B1
102
{ACAD_REACTORS
330
3B0
102
}
330
3B0
100
AcDbXrecord
280
     1
102
RTVSPropertyOp0
 70
     1
102
RTVSPropertyOp1
 70
     1
102
RTVSPropertyOp2
 70
     1
102
RTVSPropertyOp3
 70
     1
102
RTVSPropertyOp4
 70
     1
102
RTVSPropertyOp5
 70
     1
102
RTVSPropertyOp6
 70
     1
102
RTVSPropertyOp7
 70
     1
102
RTVSPropertyOp8
 70
     1
102
RTVSPropertyOp9
 70
     1
102
RTVSPropertyOp10
 70
     1
102
RTVSPropertyOp11
 70
     1
102
RTVSPropertyOp12
 70
     1
102
RTVSPropertyOp13
 70
     1
102
RTVSPropertyOp14
 70
     1
102
RTVSPropertyOp15
 70
     1
102
RTVSPropertyOp16
 70
     1
102
RTVSPropertyOp17
 70
     1
102
RTVSPropertyOp18
 70
     1
102
RTVSPropertyOp19
 70
     1
102
RTVSPropertyOp20
 70
     1
102
RTVSPropertyOp21
 70
     1
102
RTVSPropertyOp22
 70
     1
102
RTVSPropertyOp23
 70
     1
102
RTVSPropertyOp24
 70
     1
102
RTVSPropertyOp25
 70
     1
102
RTVSPropertyOp26
 70
     1
102
RTVSPropertyOp27
 70
     1
102
RTVSPropertyOp28
 70
     1
102
RTVSPropertyOp29
 70
     1
102
RTVSPropertyOp30
 70
     1
102
RTVSPropertyOp31
 70
     1
102
RTVSPropertyOp32
 70
     1
  0
XRECORD
  5
3B3
102
{ACAD_REACTORS
330
3B2
102
}
330
3B2
100
AcDbXrecord
280
     1
102
RTVSPropertyOp0
 70
     1
102
RTVSPropertyOp1
 70
     1
102
RTVSPropertyOp2
 70
     1
102
RTVSPropertyOp3
 70
     1
102
RTVSPropertyOp4
 70
     1
102
RTVSPropertyOp5
 70
     1
102
RTVSPropertyOp6
 70
     1
102
RTVSPropertyOp7
 70
     1
102
RTVSPropertyOp8
 70
     1
102
RTVSPropertyOp9
 70
     1
102
RTVSPropertyOp10
 70
     1
102
RTVSPropertyOp11
 70
     1
102
RTVSPropertyOp12
 70
     1
102
RTVSPropertyOp13
 70
     1
102
RTVSPropertyOp14
 70
     1
102
RTVSPropertyOp15
 70
     1
102
RTVSPropertyOp16
 70
     1
102
RTVSPropertyOp17
 70
     1
102
RTVSPropertyOp18
 70
     1
102
RTVSPropertyOp19
 70
     1
102
RTVSPropertyOp20
 70
     1
102
RTVSPropertyOp21
 70
     1
102
RTVSPropertyOp22
 70
     1
102
RTVSPropertyOp23
 70
     1
102
RTVSPropertyOp24
 70
     1
102
RTVSPropertyOp25
 70
     1
102
RTVSPropertyOp26
 70
     1
102
RTVSPropertyOp27
 70
     1
102
RTVSPropertyOp28
 70
     1
102
RTVSPropertyOp29
 70
     1
102
RTVSPropertyOp30
 70
     1
102
RTVSPropertyOp31
 70
     1
102
RTVSPropertyOp32
 70
     1
  0
XRECORD
  5
3B5
102
{ACAD_REACTORS
330
3B4
102
}
330
3B4
100
AcDbXrecord
280
     1
102
RTVSPropertyOp0
 70
     1
102
RTVSPropertyOp1
 70
     1
102
RTVSPropertyOp2
 70
     1
102
RTVSPropertyOp3
 70
     1
102
RTVSPropertyOp4
 70
     1
102
RTVSPropertyOp5
 70
     1
102
RTVSPropertyOp6
 70
     1
102
RTVSPropertyOp7
 70
     1
102
RTVSPropertyOp8
 70
     1
102
RTVSPropertyOp9
 70
     1
102
RTVSPropertyOp10
 70
     1
102
RTVSPropertyOp11
 70
     1
102
RTVSPropertyOp12
 70
     1
102
RTVSPropertyOp13
 70
     1
102
RTVSPropertyOp14
 70
     1
102
RTVSPropertyOp15
 70
     1
102
RTVSPropertyOp16
 70
     1
102
RTVSPropertyOp17
 70
     1
102
RTVSPropertyOp18
 70
     1
102
RTVSPropertyOp19
 70
     1
102
RTVSPropertyOp20
 70
     1
102
RTVSPropertyOp21
 70
     1
102
RTVSPropertyOp22
 70
     1
102
RTVSPropertyOp23
 70
     1
102
RTVSPropertyOp24
 70
     1
102
RTVSPropertyOp25
 70
     1
102
RTVSPropertyOp26
 70
     1
102
RTVSPropertyOp27
 70
     1
102
RTVSPropertyOp28
 70
     1
102
RTVSPropertyOp29
 70
     1
102
RTVSPropertyOp30
 70
     1
102
RTVSPropertyOp31
 70
     1
102
RTVSPropertyOp32
 70
     1
  0
XRECORD
  5
3B7
102
{ACAD_REACTORS
330
3B6
102
}
330
3B6
100
AcDbXrecord
280
     1
102
RTVSPropertyOp0
 70
     1
102
RTVSPropertyOp1
 70
     1
102
RTVSPropertyOp2
 70
     1
102
RTVSPropertyOp3
 70
     1
102
RTVSPropertyOp4
 70
     1
102
RTVSPropertyOp5
 70
     1
102
RTVSPropertyOp6
 70
     1
102
RTVSPropertyOp7
 70
     1
102
RTVSPropertyOp8
 70
     1
102
RTVSPropertyOp9
 70
     1
102
RTVSPropertyOp10
 70
     1
102
RTVSPropertyOp11
 70
     1
102
RTVSPropertyOp12
 70
     1
102
RTVSPropertyOp13
 70
     1
102
RTVSPropertyOp14
 70
     1
102
RTVSPropertyOp15
 70
     1
102
RTVSPropertyOp16
 70
     1
102
RTVSPropertyOp17
 70
     1
102
RTVSPropertyOp18
 70
     1
102
RTVSPropertyOp19
 70
     1
102
RTVSPropertyOp20
 70
     1
102
RTVSPropertyOp21
 70
     1
102
RTVSPropertyOp22
 70
     1
102
RTVSPropertyOp23
 70
     1
102
RTVSPropertyOp24
 70
     1
102
RTVSPropertyOp25
 70
     1
102
RTVSPropertyOp26
 70
     1
102
RTVSPropertyOp27
 70
     1
102
RTVSPropertyOp28
 70
     1
102
RTVSPropertyOp29
 70
     1
102
RTVSPropertyOp30
 70
     1
102
RTVSPropertyOp31
 70
     1
102
RTVSPropertyOp32
 70
     1
  0
XRECORD
  5
3CB
102
{ACAD_REACTORS
330
3CA
102
}
330
3CA
100
AcDbXrecord
280
     1
102
RTVSPropertyOp0
 70
     1
102
RTVSPropertyOp1
 70
     1
102
RTVSPropertyOp2
 70
     1
102
RTVSPropertyOp3
 70
     1
102
RTVSPropertyOp4
 70
     1
102
RTVSPropertyOp5
 70
     1
102
RTVSPropertyOp6
 70
     1
102
RTVSPropertyOp7
 70
     1
102
RTVSPropertyOp8
 70
     1
102
RTVSPropertyOp9
 70
     1
102
RTVSPropertyOp10
 70
     1
102
RTVSPropertyOp11
 70
     1
102
RTVSPropertyOp12
 70
     1
102
RTVSPropertyOp13
 70
     1
102
RTVSPropertyOp14
 70
     1
102
RTVSPropertyOp15
 70
     1
102
RTVSPropertyOp16
 70
     1
102
RTVSPropertyOp17
 70
     1
102
RTVSPropertyOp18
 70
     1
102
RTVSPropertyOp19
 70
     1
102
RTVSPropertyOp20
 70
     1
102
RTVSPropertyOp21
 70
     1
102
RTVSPropertyOp22
 70
     1
102
RTVSPropertyOp23
 70
     1
102
RTVSPropertyOp24
 70
     1
102
RTVSPropertyOp25
 70
     1
102
RTVSPropertyOp26
 70
     1
102
RTVSPropertyOp27
 70
     1
102
RTVSPropertyOp28
 70
     1
102
RTVSPropertyOp29
 70
     1
102
RTVSPropertyOp30
 70
     1
102
RTVSPropertyOp31
 70
     1
102
RTVSPropertyOp32
 70
     1
  0
XRECORD
  5
3C1
102
{ACAD_REACTORS
330
3C0
102
}
330
3C0
100
AcDbXrecord
280
     1
102
RTVSPropertyOp0
 70
     1
102
RTVSPropertyOp1
 70
     1
102
RTVSPropertyOp2
 70
     1
102
RTVSPropertyOp3
 70
     1
102
RTVSPropertyOp4
 70
     1
102
RTVSPropertyOp5
 70
     1
102
RTVSPropertyOp6
 70
     1
102
RTVSPropertyOp7
 70
     1
102
RTVSPropertyOp8
 70
     1
102
RTVSPropertyOp9
 70
     1
102
RTVSPropertyOp10
 70
     1
102
RTVSPropertyOp11
 70
     1
102
RTVSPropertyOp12
 70
     1
102
RTVSPropertyOp13
 70
     1
102
RTVSPropertyOp14
 70
     1
102
RTVSPropertyOp15
 70
     1
102
RTVSPropertyOp16
 70
     1
102
RTVSPropertyOp17
 70
     1
102
RTVSPropertyOp18
 70
     1
102
RTVSPropertyOp19
 70
     1
102
RTVSPropertyOp20
 70
     1
102
RTVSPropertyOp21
 70
     1
102
RTVSPropertyOp22
 70
     1
102
RTVSPropertyOp23
 70
     1
102
RTVSPropertyOp24
 70
     1
102
RTVSPropertyOp25
 70
     1
102
RTVSPropertyOp26
 70
     1
102
RTVSPropertyOp27
 70
     1
102
RTVSPropertyOp28
 70
     1
102
RTVSPropertyOp29
 70
     1
102
RTVSPropertyOp30
 70
     1
102
RTVSPropertyOp31
 70
     1
102
RTVSPropertyOp32
 70
     1
  0
XRECORD
  5
3C9
102
{ACAD_REACTORS
330
3C8
102
}
330
3C8
100
AcDbXrecord
280
     1
102
RTVSPropertyOp0
 70
     1
102
RTVSPropertyOp1
 70
     1
102
RTVSPropertyOp2
 70
     1
102
RTVSPropertyOp3
 70
     1
102
RTVSPropertyOp4
 70
     1
102
RTVSPropertyOp5
 70
     1
102
RTVSPropertyOp6
 70
     1
102
RTVSPropertyOp7
 70
     1
102
RTVSPropertyOp8
 70
     1
102
RTVSPropertyOp9
 70
     1
102
RTVSPropertyOp10
 70
     1
102
RTVSPropertyOp11
 70
     1
102
RTVSPropertyOp12
 70
     1
102
RTVSPropertyOp13
 70
     1
102
RTVSPropertyOp14
 70
     1
102
RTVSPropertyOp15
 70
     1
102
RTVSPropertyOp16
 70
     1
102
RTVSPropertyOp17
 70
     1
102
RTVSPropertyOp18
 70
     1
102
RTVSPropertyOp19
 70
     1
102
RTVSPropertyOp20
 70
     1
102
RTVSPropertyOp21
 70
     1
102
RTVSPropertyOp22
 70
     1
102
RTVSPropertyOp23
 70
     1
102
RTVSPropertyOp24
 70
     1
102
RTVSPropertyOp25
 70
     1
102
RTVSPropertyOp26
 70
     1
102
RTVSPropertyOp27
 70
     1
102
RTVSPropertyOp28
 70
     1
102
RTVSPropertyOp29
 70
     1
102
RTVSPropertyOp30
 70
     1
102
RTVSPropertyOp31
 70
     1
102
RTVSPropertyOp32
 70
     1
  0
ENDSEC
  0
EOF
