  0
SECTION
  2
HEADER
  9
$ACADVER
  1
AC1015
  9
$ACADMAINTVER
 70
     6
  9
$DWGCODEPAGE
  3
ANSI_1252
  9
$INSBASE
 10
0.0
 20
0.0
 30
0.0
  9
$EXTMIN
 10
0.0
 20
0.0
 30
0.0
  9
$EXTMAX
 10
210.0
 20
297.0
 30
0.0
  9
$LIMMIN
 10
0.0
 20
0.0
  9
$LIMMAX
 10
0.0
 20
0.0
  9
$ORTHOMODE
 70
     0
  9
$REGENMODE
 70
     1
  9
$FILLMODE
 70
     1
  9
$QTEXTMODE
 70
     0
  9
$MIRRTEXT
 70
     1
  9
$LTSCALE
 40
1.0
  9
$ATTMODE
 70
     1
  9
$TEXTSIZE
 40
0.0
  9
$TRACEWID
 40
0.05
  9
$TEXTSTYLE
  7
STANDARD
  9
$CLAYER
  8
0
  9
$CELTYPE
  6
CONTINUOUS
  9
$CECOLOR
 62
   256
  9
$CELTSCALE
 40
1.0
  9
$DISPSILH
 70
     0
  9
$DIMSCALE
 40
1.0
  9
$DIMASZ
 40
0.0
  9
$DIMEXO
 40
0.0
  9
$DIMDLI
 40
0.38
  9
$DIMRND
 40
0.0
  9
$DIMDLE
 40
1000.0
  9
$DIMEXE
 40
0.18
  9
$DIMTP
 40
0.0
  9
$DIMTM
 40
0.0
  9
$DIMTXT
 40
3.5
  9
$DIMCEN
 40
0.09
  9
$DIMTSZ
 40
0.0
  9
$DIMTOL
 70
     0
  9
$DIMLIM
 70
     0
  9
$DIMTIH
 70
     1
  9
$DIMTOH
 70
     1
  9
$DIMSE1
 70
     0
  9
$DIMSE2
 70
     0
  9
$DIMTAD
 70
     1
  9
$DIMZIN
 70
     0
  9
$DIMBLK
  1

  9
$DIMASO
 70
     1
  9
$DIMSHO
 70
     1
  9
$DIMPOST
  1

  9
$DIMAPOST
  1

  9
$DIMALT
 70
     0
  9
$DIMALTD
 70
     2
  9
$DIMALTF
 40
0.0394
  9
$DIMLFAC
 40
1.0
  9
$DIMTOFL
 70
     0
  9
$DIMTVP
 40
0.0
  9
$DIMTIX
 70
     0
  9
$DIMSOXD
 70
     0
  9
$DIMSAH
 70
     0
  9
$DIMBLK1
  1

  9
$DIMBLK2
  1

  9
$DIMSTYLE
  2
STANDARD
  9
$DIMCLRD
 70
     0
  9
$DIMCLRE
 70
     0
  9
$DIMCLRT
 70
     0
  9
$DIMTFAC
 40
1.0
  9
$DIMGAP
 40
0.0
  9
$DIMJUST
 70
     0
  9
$DIMSD1
 70
     0
  9
$DIMSD2
 70
     0
  9
$DIMTOLJ
 70
     1
  9
$DIMTZIN
 70
     0
  9
$DIMALTZ
 70
     0
  9
$DIMALTTZ
 70
     0
  9
$DIMUPT
 70
     0
  9
$DIMDEC
 70
     4
  9
$DIMTDEC
 70
     4
  9
$DIMALTU
 70
     2
  9
$DIMALTTD
 70
     2
  9
$DIMTXSTY
  7
STANDARD
  9
$DIMAUNIT
 70
     0
  9
$DIMADEC
 70
     0
  9
$DIMALTRND
 40
0.0
  9
$DIMAZIN
 70
     0
  9
$DIMDSEP
 70
    46
  9
$DIMATFIT
 70
     3
  9
$DIMFRAC
 70
     0
  9
$DIMLDRBLK
  1

  9
$DIMLUNIT
 70
     2
  9
$DIMLWD
 70
    -2
  9
$DIMLWE
 70
    -2
  9
$DIMTMOVE
 70
     2
  9
$LUNITS
 70
     2
  9
$LUPREC
 70
     2
  9
$SKETCHINC
 40
0.1
  9
$FILLETRAD
 40
0.0
  9
$AUNITS
 70
     0
  9
$AUPREC
 70
     2
  9
$MENU
  1
acad
  9
$ELEVATION
 40
0.0
  9
$PELEVATION
 40
0.0
  9
$THICKNESS
 40
0.0
  9
$LIMCHECK
 70
     0
  9
$CHAMFERA
 40
0.0
  9
$CHAMFERB
 40
0.0
  9
$CHAMFERC
 40
0.0
  9
$CHAMFERD
 40
0.0
  9
$SKPOLY
 70
     0
  9
$TDCREATE
 40
2447893.0
  9
$TDUCREATE
 40
2447892.916666667
  9
$TDUPDATE
 40
2458327.548781134
  9
$TDUUPDATE
 40
2458327.465447801
  9
$TDINDWG
 40
0.0
  9
$TDUSRTIMER
 40
0.0
  9
$USRTIMER
 70
     1
  9
$ANGBASE
 50
0.0
  9
$ANGDIR
 70
     0
  9
$PDMODE
 70
     0
  9
$PDSIZE
 40
-1.0
  9
$PLINEWID
 40
0.0
  9
$SPLFRAME
 70
     0
  9
$SPLINETYPE
 70
     6
  9
$SPLINESEGS
 70
     8
  9
$HANDSEED
  5
46D
  9
$SURFTAB1
 70
     6
  9
$SURFTAB2
 70
     6
  9
$SURFTYPE
 70
     6
  9
$SURFU
 70
     6
  9
$SURFV
 70
     6
  9
$UCSBASE
  2

  9
$UCSNAME
  2

  9
$UCSORG
 10
0.0
 20
0.0
 30
0.0
  9
$UCSXDIR
 10
1.0
 20
0.0
 30
0.0
  9
$UCSYDIR
 10
0.0
 20
1.0
 30
0.0
  9
$UCSORTHOREF
  2

  9
$UCSORTHOVIEW
 70
     0
  9
$UCSORGTOP
 10
0.0
 20
0.0
 30
0.0
  9
$UCSORGBOTTOM
 10
0.0
 20
0.0
 30
0.0
  9
$UCSORGLEFT
 10
0.0
 20
0.0
 30
0.0
  9
$UCSORGRIGHT
 10
0.0
 20
0.0
 30
0.0
  9
$UCSORGFRONT
 10
0.0
 20
0.0
 30
0.0
  9
$UCSORGBACK
 10
0.0
 20
0.0
 30
0.0
  9
$PUCSBASE
  2

  9
$PUCSNAME
  2

  9
$PUCSORG
 10
0.0
 20
0.0
 30
0.0
  9
$PUCSXDIR
 10
1.0
 20
0.0
 30
0.0
  9
$PUCSYDIR
 10
0.0
 20
1.0
 30
0.0
  9
$PUCSORTHOREF
  2

  9
$PUCSORTHOVIEW
 70
     0
  9
$PUCSORGTOP
 10
0.0
 20
0.0
 30
0.0
  9
$PUCSORGBOTTOM
 10
0.0
 20
0.0
 30
0.0
  9
$PUCSORGLEFT
 10
0.0
 20
0.0
 30
0.0
  9
$PUCSORGRIGHT
 10
0.0
 20
0.0
 30
0.0
  9
$PUCSORGFRONT
 10
0.0
 20
0.0
 30
0.0
  9
$PUCSORGBACK
 10
0.0
 20
0.0
 30
0.0
  9
$USERI1
 70
     0
  9
$USERI2
 70
     0
  9
$USERI3
 70
     0
  9
$USERI4
 70
     0
  9
$USERI5
 70
     0
  9
$USERR1
 40
0.0
  9
$USERR2
 40
0.0
  9
$USERR3
 40
0.0
  9
$USERR4
 40
0.0
  9
$USERR5
 40
0.0
  9
$WORLDVIEW
 70
     1
  9
$SHADEDGE
 70
     3
  9
$SHADEDIF
 70
    70
  9
$TILEMODE
 70
     1
  9
$MAXACTVP
 70
    16
  9
$PINSBASE
 10
0.0
 20
0.0
 30
0.0
  9
$PLIMCHECK
 70
     0
  9
$PEXTMIN
 10
1.000000000000000E+20
 20
1.000000000000000E+20
 30
1.000000000000000E+20
  9
$PEXTMAX
 10
-1.000000000000000E+20
 20
-1.000000000000000E+20
 30
-1.000000000000000E+20
  9
$PLIMMIN
 10
0.0
 20
0.0
  9
$PLIMMAX
 10
12.0
 20
9.0
  9
$UNITMODE
 70
     0
  9
$VISRETAIN
 70
     0
  9
$PLINEGEN
 70
     1
  9
$PSLTSCALE
 70
     1
  9
$TREEDEPTH
 70
  3020
  9
$CMLSTYLE
  2
STANDARD
  9
$CMLJUST
 70
     0
  9
$CMLSCALE
 40
1.0
  9
$PROXYGRAPHICS
 70
     1
  9
$MEASUREMENT
 70
     0
  9
$CELWEIGHT
370
    -1
  9
$ENDCAPS
280
     0
  9
$JOINSTYLE
280
     0
  9
$LWDISPLAY
290
     0
  9
$INSUNITS
 70
     0
  9
$HYPERLINKBASE
  1

  9
$STYLESHEET
  1

  9
$XEDIT
290
     1
  9
$CEPSNTYPE
380
     0
  9
$PSTYLEMODE
290
     1
  9
$FINGERPRINTGUID
  2
{67657401-871A-4F28-B5A1-47FE6408F40B}
  9
$VERSIONGUID
  2
{FAEB1C32-E019-11D5-929B-00C0DF256EC4}
  9
$EXTNAMES
290
     1
  9
$PSVPSCALE
 40
0.0
  9
$OLESTARTUP
290
     0
  0
ENDSEC
  0
SECTION
  2
CLASSES
  0
CLASS
  1
LWPOLYLINE
  2
AcDbPolyline
  3
ObjectDBX Classes
 90
        0
280
     0
281
     1
  0
CLASS
  1
IMAGE
  2
AcDbRasterImage
  3
ISM
 90
      127
280
     0
281
     1
  0
CLASS
  1
OLE2FRAME
  2
AcDbOle2Frame
  3
ObjectDBX Classes
 90
        0
280
     0
281
     1
  0
CLASS
  1
HATCH
  2
AcDbHatch
  3
ObjectDBX Classes
 90
        0
280
     0
281
     1
  0
CLASS
  1
DICTIONARYVAR
  2
AcDbDictionaryVar
  3
ObjectDBX Classes
 90
        0
280
     0
281
     0
  0
CLASS
  1
RASTERVARIABLES
  2
AcDbRasterVariables
  3
ISM
 90
        0
280
     0
281
     0
  0
CLASS
  1
IMAGEDEF
  2
AcDbRasterImageDef
  3
ISM
 90
        0
280
     0
281
     0
  0
CLASS
  1
IMAGEDEF_REACTOR
  2
AcDbRasterImageDefReactor
  3
ISM
 90
        1
280
     0
281
     0
  0
CLASS
  1
IDBUFFER
  2
AcDbIdBuffer
  3
ObjectDBX Classes
 90
        0
280
     0
281
     0
  0
CLASS
  1
SPATIAL_FILTER
  2
AcDbSpatialFilter
  3
ObjectDBX Classes
 90
        0
280
     0
281
     0
  0
CLASS
  1
XRECORD
  2
AcDbXrecord
  3
ObjectDBX Classes
 90
        0
280
     0
281
     0
  0
CLASS
  1
SORTENTSTABLE
  2
AcDbSortentsTable
  3
ObjectDBX Classes
 90
        0
280
     0
281
     0
  0
CLASS
  1
LAYER_INDEX
  2
AcDbLayerIndex
  3
ObjectDBX Classes
 90
        0
280
     0
281
     0
  0
CLASS
  1
SPATIAL_INDEX
  2
AcDbSpatialIndex
  3
AutoCAD 2000
 90
        0
280
     0
281
     0
  0
CLASS
  1
OBJECT_PTR
  2
CAseDLPNTableRecord
  3
ASE-LPNTableRecord
 90
        1
280
     0
281
     0
  0
CLASS
  1
LAYOUT
  2
AcDbLayout
  3
ObjectDBX Classes
 90
        0
280
     0
281
     0
  0
CLASS
  1
PLOTSETTINGS
  2
AcDbPlotSettings
  3
ObjectDBX Classes
 90
        0
280
     0
281
     0
  0
CLASS
  1
ACDBDICTIONARYWDFLT
  2
AcDbDictionaryWithDefault
  3
ObjectDBX Classes
 90
        0
280
     0
281
     0
  0
CLASS
  1
ACDBPLACEHOLDER
  2
AcDbPlaceHolder
  3
ObjectDBX Classes
 90
        0
280
     0
281
     0
  0
CLASS
  1
VBA_PROJECT
  2
AcDbVbaProject
  3
ObjectDBX Classes
 90
        0
280
     0
281
     0
  0
CLASS
  1
WIPEOUT
  2
AcDbWipeout
  3
WipeOut|AutoCAD Express Tool|expresstools@autodesk.com
 90
      127
280
     0
281
     1
  0
CLASS
  1
WIPEOUTVARIABLES
  2
AcDbWipeoutVariables
  3
WipeOut|AutoCAD Express Tool|expresstools@autodesk.com
 90
        0
280
     0
281
     0
  0
CLASS
  1
RTEXT
  2
RText
  3
RText|AutoCAD Express Tool|expresstools@autodesk.com
 90
        0
280
     0
281
     1
  0
CLASS
  1
ARCALIGNEDTEXT
  2
AcDbArcAlignedText
  3
ATEXT|AutoCAD Express Tool|expresstools@autodesk.com
 90
        0
280
     0
281
     1
  0
CLASS
  1
SCALE
  2
AcDbScale
  3
ObjectDBX Classes
 90
     1153
280
     0
281
     0
  0
CLASS
  1
VISUALSTYLE
  2
AcDbVisualStyle
  3
ObjectDBX Classes
 90
     4095
280
     0
281
     0
  0
CLASS
  1
MATERIAL
  2
AcDbMaterial
  3
ObjectDBX Classes
 90
     1153
280
     0
281
     0
  0
ENDSEC
  0
SECTION
  2
TABLES
  0
TABLE
  2
VPORT
  5
7
102
{ACAD_XDICTIONARY
360
432
102
}
330
0
100
AcDbSymbolTable
 70
     1
  0
VPORT
  5
15
330
7
100
AcDbSymbolTableRecord
100
AcDbViewportTableRecord
  2
*ACTIVE
 70
     0
 10
0.0
 20
0.0
 11
1.0
 21
1.0
 12
105.0
 22
148.5
 13
0.0
 23
0.0
 14
1.0
 24
1.0
 15
0.0
 25
0.0
 16
0.0
 26
0.0
 36
1.0
 17
0.0
 27
0.0
 37
0.0
 40
297.0
 41
1.4142857143
 42
50.0
 43
0.0
 44
0.0
 50
0.0
 51
0.0
 71
     0
 72
  2000
 73
     1
 74
     1
 75
     0
 76
     0
 77
     0
 78
     0
281
     0
 65
     1
110
0.0
120
0.0
130
0.0
111
1.0
121
0.0
131
0.0
112
0.0
122
1.0
132
0.0
 79
     0
146
0.0
  0
ENDTAB
  0
TABLE
  2
LTYPE
  5
4
330
0
100
AcDbSymbolTable
 70
     6
  0
LTYPE
  5
11
330
4
100
AcDbSymbolTableRecord
100
AcDbLinetypeTableRecord
  2
BYBLOCK
 70
     0
  3

 72
    65
 73
     0
 40
0.0
  0
LTYPE
  5
12
330
4
100
AcDbSymbolTableRecord
100
AcDbLinetypeTableRecord
  2
BYLAYER
 70
     0
  3

 72
    65
 73
     0
 40
0.0
  0
LTYPE
  5
13
330
4
100
AcDbSymbolTableRecord
100
AcDbLinetypeTableRecord
  2
CONTINUOUS
 70
     0
  3
Solid line
 72
    65
 73
     0
 40
0.0
  0
LTYPE
  5
1D
330
4
100
AcDbSymbolTableRecord
100
AcDbLinetypeTableRecord
  2
HIDDEN
 70
     0
  3
Hidden __ __ __ __ __ __ __ __ __ __ __ __ __ __
 72
    65
 73
     2
 40
1.905
 49
1.27
 74
     0
 49
-0.635
 74
     0
  0
LTYPE
  5
1E
330
4
100
AcDbSymbolTableRecord
100
AcDbLinetypeTableRecord
  2
PHANTOM
 70
     0
  3
Phantom ______  __  __  ______  __  __  ______
 72
    65
 73
     6
 40
12.7
 49
6.35
 74
     0
 49
-1.27
 74
     0
 49
1.27
 74
     0
 49
-1.27
 74
     0
 49
1.27
 74
     0
 49
-1.27
 74
     0
  0
LTYPE
  5
1F
330
4
100
AcDbSymbolTableRecord
100
AcDbLinetypeTableRecord
  2
CENTER
 70
     0
  3
Center ____ _ ____ _ ____ _ ____ _ ____ _ ____
 72
    65
 73
     4
 40
10.16
 49
6.35
 74
     0
 49
-1.27
 74
     0
 49
1.27
 74
     0
 49
-1.27
 74
     0
  0
LTYPE
  5
20
330
4
100
AcDbSymbolTableRecord
100
AcDbLinetypeTableRecord
  2
CENTERX2
 70
     0
  3
Center (2x) ________  __  ________  __  _____
 72
    65
 73
     4
 40
20.32
 49
12.7
 74
     0
 49
-2.54
 74
     0
 49
2.54
 74
     0
 49
-2.54
 74
     0
  0
LTYPE
  5
21
330
4
100
AcDbSymbolTableRecord
100
AcDbLinetypeTableRecord
  2
DOT2
 70
     0
  3
Dot (.5x) ........................................
 72
    65
 73
     2
 40
0.635
 49
0.0
 74
     0
 49
-0.635
 74
     0
  0
LTYPE
  5
45C
330
5
100
AcDbSymbolTableRecord
100
AcDbLinetypeTableRecord
  2
DASH
 70
     0
  3
DASH _ _ _ _ _
 72
    65
 73
     2
 40
0.75
 49
0.40
 74
     0
 49
-0.35
 74
     0
  0
LTYPE
  5
45D
330
5
100
AcDbSymbolTableRecord
100
AcDbLinetypeTableRecord
  2
LONGDASH_DASH
 70
     0
  3
LONGDASH_DASH __ . __ . __
 72
    65
 73
     4
 40
0.85
 49
0.40
 74
     0
 49
-0.20
 74
     0
 49
0.05
 74
     0
 49
-0.20
 74
     0
  0
LTYPE
  5
45E
330
5
100
AcDbSymbolTableRecord
100
AcDbLinetypeTableRecord
  2
LONGDASH_DASH_DASH
 70
     0
  3
LONGDASH_DASH_DASH __ . . __ . . __
 72
    65
 73
     6
 40
1.10
 49
0.40
 74
     0
 49
-0.20
 74
     0
 49
0.05
 74
     0
 49
-0.20
 74
     0
 49
0.05
 74
     0
 49
-0.20
 74
     0
  0
ENDTAB
  0
TABLE
  2
LAYER
  5
2
330
0
100
AcDbSymbolTable
 70
     8
  0
LAYER
  5
23
330
2
100
AcDbSymbolTableRecord
100
AcDbLayerTableRecord
  2
DEFPOINTS
 70
     0
 62
     7
  6
CONTINUOUS
290
     0
370
    -3
390
0
  0
LAYER
  5
45F
330
2
100
AcDbSymbolTableRecord
100
AcDbLayerTableRecord
  2
0
 70
     0
 62
     -1
  6
CONTINUOUS
370
    -3
390
F
  0
LAYER
  5
460
330
2
100
AcDbSymbolTableRecord
100
AcDbLayerTableRecord
  2
1
 70
     0
 62
     4
  6
CONTINUOUS
370
    50
390
F
  0
LAYER
  5
461
330
2
100
AcDbSymbolTableRecord
100
AcDbLayerTableRecord
  2
2
 70
     0
 62
     7
  6
CONTINUOUS
370
    25
390
F
  0
LAYER
  5
462
330
2
100
AcDbSymbolTableRecord
100
AcDbLayerTableRecord
  2
3
 70
     0
 62
     1
  6
DASH
370
    35
390
F
  0
LAYER
  5
463
330
2
100
AcDbSymbolTableRecord
100
AcDbLayerTableRecord
  2
4
 70
     0
 62
     2
  6
LONGDASH_DASH
370
    25
390
F
  0
LAYER
  5
464
330
2
100
AcDbSymbolTableRecord
100
AcDbLayerTableRecord
  2
6
 70
     0
 62
     5
  6
CONTINUOUS
370
    -3
390
F
  0
LAYER
  5
465
330
2
100
AcDbSymbolTableRecord
100
AcDbLayerTableRecord
  2
CUT
 70
     0
 62
     1
  6
CONTINUOUS
370
    25
390
F
  0
LAYER
  5
466
330
2
100
AcDbSymbolTableRecord
100
AcDbLayerTableRecord
  2
NOCUT
 70
     0
 62
     7
  6
CONTINUOUS
370
    25
390
F
  0
LAYER
  5
467
330
2
100
AcDbSymbolTableRecord
100
AcDbLayerTableRecord
  2
SK1
 70
     0
 62
     4
  6
CONTINUOUS
370
    50
390
F
  0
LAYER
  5
468
330
2
100
AcDbSymbolTableRecord
100
AcDbLayerTableRecord
  2
SK2
 70
     0
 62
     7
  6
CONTINUOUS
370
    25
390
F
  0
LAYER
  5
469
330
2
100
AcDbSymbolTableRecord
100
AcDbLayerTableRecord
  2
SK3
 70
     0
 62
     1
  6
DASH
370
    35
390
F
  0
LAYER
  5
46A
330
2
100
AcDbSymbolTableRecord
100
AcDbLayerTableRecord
  2
SK4
 70
     0
 62
     2
  6
LONGDASH_DASH
370
    25
390
F
  0
LAYER
  5
46B
330
2
100
AcDbSymbolTableRecord
100
AcDbLayerTableRecord
  2
SK6
 70
     0
 62
     5
  6
CONTINUOUS
370
    -3
390
F
  0
LAYER
  5
46C
330
2
100
AcDbSymbolTableRecord
100
AcDbLayerTableRecord
  2
INFTOTAL
 70
     0
 62
     9
  6
CONTINUOUS
370
    18
390
F
  0
ENDTAB
  0
TABLE
  2
STYLE
  5
3
330
0
100
AcDbSymbolTable
 70
     2
  0
STYLE
  5
17
330
3
100
AcDbSymbolTableRecord
100
AcDbTextStyleTableRecord
  2
STANDARD
 70
     0
 40
0.0
 41
1.0
 50
0.0
 71
     0
 42
0.2
  3
txt
  4

  0
STYLE
  5
42A
330
3
100
AcDbSymbolTableRecord
100
AcDbTextStyleTableRecord
  2
BMG_Text
 70
     0
 40
3.5
 41
1.0
 50
0.0
 71
     0
 42
0.0
  3
monos.ttf
  4

1001
ACAD
1000
Monospac821 BT
1071
       49
  0
ENDTAB
  0
TABLE
  2
VIEW
  5
5
330
0
100
AcDbSymbolTable
 70
     0
  0
ENDTAB
  0
TABLE
  2
UCS
  5
6
330
0
100
AcDbSymbolTable
 70
     0
  0
ENDTAB
  0
TABLE
  2
APPID
  5
8
330
0
100
AcDbSymbolTable
 70
     1
  0
APPID
  5
16
330
8
100
AcDbSymbolTableRecord
100
AcDbRegAppTableRecord
  2
ACAD
 70
     0
  0
ENDTAB
  0
TABLE
  2
DIMSTYLE
  5
9
330
0
100
AcDbSymbolTable
 70
     1
100
AcDbDimStyleTable
  0
DIMSTYLE
105
18
330
9
100
AcDbSymbolTableRecord
100
AcDbDimStyleTableRecord
  2
STANDARD
 70
     0
178
     0
340
17
  0
ENDTAB
  0
TABLE
  2
BLOCK_RECORD
  5
1
330
0
100
AcDbSymbolTable
 70
     0
  0
BLOCK_RECORD
  5
A
330
1
100
AcDbSymbolTableRecord
100
AcDbBlockTableRecord
  2
*MODEL_SPACE
340
413
  0
BLOCK_RECORD
  5
B
330
1
100
AcDbSymbolTableRecord
100
AcDbBlockTableRecord
  2
*PAPER_SPACE
340
414
  0
ENDTAB
  0
ENDSEC
  0
SECTION
  2
BLOCKS
  0
BLOCK
  5
D
330
A
100
AcDbEntity
  8
0
100
AcDbBlockBegin
  2
*MODEL_SPACE
 70
     0
 10
0.0
 20
0.0
 30
0.0
  3
*MODEL_SPACE
  1

  0
ENDBLK
  5
E
330
A
100
AcDbEntity
  8
0
100
AcDbBlockEnd
  0
BLOCK
  5
F
330
B
100
AcDbEntity
 67
     1
  8
0
100
AcDbBlockBegin
  2
*PAPER_SPACE
 70
     0
 10
0.0
 20
0.0
 30
0.0
  3
*PAPER_SPACE
  1

  0
ENDBLK
  5
10
330
B
100
AcDbEntity
 67
     1
  8
0
100
AcDbBlockEnd
  0
ENDSEC
  0
SECTION
  2
ENTITIES
  0
ARC
  5
29
330
A
100
AcDbEntity
  8
1
  6
CONTINUOUS
370
    50
100
AcDbCircle
 10
77.1752391694
 20
151.5178875687
 30
0.0
 40
0.5
100
AcDbArc
 50
66.4218215218
 51
90.0
  0
ARC
  5
2A
330
A
100
AcDbEntity
  8
1
  6
CONTINUOUS
370
    50
100
AcDbCircle
 10
77.1752391694
 20
196.3678875687
 30
0.0
 40
0.5
100
AcDbArc
 50
270.0
 51
293.5781784782001
  0
LINE
  5
2B
330
A
100
AcDbEntity
  8
1
  6
CONTINUOUS
370
    50
100
AcDbLine
 10
76.3752391694
 20
196.1678875687
 30
0.0
 11
8.907760528
 21
186.3288802667
 31
0.0
  0
LINE
  5
2C
330
A
100
AcDbEntity
  8
1
  6
CONTINUOUS
370
    50
100
AcDbLine
 10
8.907760528
 20
161.5568948708
 30
0.0
 11
76.3752391694
 21
151.7178875687
 31
0.0
  0
LINE
  5
2D
330
A
100
AcDbEntity
  8
1
  6
CONTINUOUS
370
    50
100
AcDbLine
 10
76.3752391694
 20
151.7178875687
 30
0.0
 11
76.918129446
 21
151.9710414623
 31
0.0
  0
LINE
  5
2E
330
A
100
AcDbEntity
  8
1
  6
CONTINUOUS
370
    50
100
AcDbLine
 10
76.918129446
 20
195.9147336752
 30
0.0
 11
76.3752391694
 21
196.1678875687
 31
0.0
  0
ARC
  5
2F
330
A
100
AcDbEntity
  8
1
  6
CONTINUOUS
370
    50
100
AcDbCircle
 10
77.1294385769
 20
151.5178875687
 30
0.0
 40
0.5
100
AcDbArc
 50
90.0
 51
115.0
  0
ARC
  5
30
330
A
100
AcDbEntity
  8
1
  6
CONTINUOUS
370
    50
100
AcDbCircle
 10
77.1294385769
 20
196.3678875687
 30
0.0
 40
0.5
100
AcDbArc
 50
245.0
 51
270.0
  0
ARC
  5
31
330
A
100
AcDbEntity
  8
1
  6
CONTINUOUS
370
    50
100
AcDbCircle
 10
100.4252391694
 20
155.4928875687
 30
0.0
 40
5.0
100
AcDbArc
 50
81.890385544
 51
180.0
  0
ARC
  5
32
330
A
100
AcDbEntity
  8
1
  6
CONTINUOUS
370
    50
100
AcDbCircle
 10
100.4252391694
 20
192.3928875687
 30
0.0
 40
5.0
100
AcDbArc
 50
180.0
 51
278.109614456
  0
LINE
  5
33
330
A
100
AcDbEntity
  8
1
  6
CONTINUOUS
370
    50
100
AcDbLine
 10
158.2566249609
 20
160.4428875687
 30
0.0
 11
195.3421110654
 21
163.3615786236
 31
0.0
  0
LINE
  5
34
330
A
100
AcDbEntity
  8
1
  6
CONTINUOUS
370
    50
100
AcDbLine
 10
195.3421110654
 20
184.5241965139
 30
0.0
 11
158.2566249609
 21
187.4428875687
 31
0.0
  0
LINE
  5
35
330
A
100
AcDbEntity
  8
1
  6
CONTINUOUS
370
    50
100
AcDbLine
 10
101.1305759684
 20
160.4428875687
 30
0.0
 11
158.2566249609
 21
160.4428875687
 31
0.0
  0
LINE
  5
36
330
A
100
AcDbEntity
  8
1
  6
CONTINUOUS
370
    50
100
AcDbLine
 10
158.2566249609
 20
187.4428875687
 30
0.0
 11
101.1305759684
 21
187.4428875687
 31
0.0
  0
ARC
  5
37
330
A
100
AcDbEntity
  8
1
  6
CONTINUOUS
370
    50
100
AcDbCircle
 10
9.0752391694
 20
162.4925197518
 30
0.0
 40
0.95
100
AcDbArc
 50
180.0
 51
258.0
  0
ARC
  5
38
330
A
100
AcDbEntity
  8
1
  6
CONTINUOUS
370
    50
100
AcDbCircle
 10
9.0752391694
 20
185.3932553857
 30
0.0
 40
0.95
100
AcDbArc
 50
102.0
 51
180.0
  0
ARC
  5
39
330
A
100
AcDbEntity
  8
1
  6
CONTINUOUS
370
    50
100
AcDbCircle
 10
194.3752391694
 20
165.1123380979
 30
0.0
 40
2.0
100
AcDbArc
 50
298.9100507073
 51
0.0
  0
ARC
  5
3A
330
A
100
AcDbEntity
  8
1
  6
CONTINUOUS
370
    50
100
AcDbCircle
 10
194.3752391694
 20
182.7734370396
 30
0.0
 40
2.0
100
AcDbArc
 50
0.0
 51
61.08994929269999
  0
LINE
  5
3B
330
A
100
AcDbEntity
  8
1
  6
CONTINUOUS
370
    50
100
AcDbLine
 10
95.4252391694
 20
192.2928875687
 30
0.0
 11
95.4252391694
 21
143.8699324146
 31
0.0
  0
LINE
  5
3C
330
A
100
AcDbEntity
  8
1
  6
CONTINUOUS
370
    50
100
AcDbLine
 10
95.4252391694
 20
143.8699324146
 30
0.0
 11
94.9252391694
 21
143.4658060163
 31
0.0
  0
LINE
  5
3D
330
A
100
AcDbEntity
  8
1
  6
CONTINUOUS
370
    50
100
AcDbLine
 10
94.9252391694
 20
143.4658060163
 30
0.0
 11
94.9252391694
 21
192.2928875687
 31
0.0
  0
LINE
  5
3E
330
A
100
AcDbEntity
  8
1
  6
CONTINUOUS
370
    50
100
AcDbLine
 10
94.9252391694
 20
192.2928875687
 30
0.0
 11
95.4252391694
 21
192.2928875687
 31
0.0
  0
LINE
  5
3F
330
A
100
AcDbEntity
  8
1
  6
CONTINUOUS
370
    50
100
AcDbLine
 10
77.8752391694
 20
192.2928875687
 30
0.0
 11
77.8752391694
 21
143.8929291661
 31
0.0
  0
LINE
  5
40
330
A
100
AcDbEntity
  8
1
  6
CONTINUOUS
370
    50
100
AcDbLine
 10
77.8752391694
 20
143.8929291661
 30
0.0
 11
77.3752391694
 21
144.6000860665
 31
0.0
  0
LINE
  5
41
330
A
100
AcDbEntity
  8
1
  6
CONTINUOUS
370
    50
100
AcDbLine
 10
77.3752391694
 20
144.6000860665
 30
0.0
 11
77.3752391694
 21
192.2928875687
 31
0.0
  0
LINE
  5
42
330
A
100
AcDbEntity
  8
1
  6
CONTINUOUS
370
    50
100
AcDbLine
 10
77.3752391694
 20
192.2928875687
 30
0.0
 11
77.8752391694
 21
192.2928875687
 31
0.0
  0
LINE
  5
43
330
A
100
AcDbEntity
  8
1
  6
CONTINUOUS
370
    50
100
AcDbLine
 10
90.9970758115
 20
143.4658060163
 30
0.0
 11
90.9970758115
 21
192.2928875687
 31
0.0
  0
LINE
  5
44
330
A
100
AcDbEntity
  8
1
  6
CONTINUOUS
370
    50
100
AcDbLine
 10
94.9252391694
 20
192.2928875687
 30
0.0
 11
90.9970758115
 21
192.2928875687
 31
0.0
  0
LINE
  5
45
330
A
100
AcDbEntity
  8
1
  6
CONTINUOUS
370
    50
100
AcDbLine
 10
94.9252391694
 20
143.4658060163
 30
0.0
 11
90.9970758115
 21
143.4658060163
 31
0.0
  0
LINE
  5
46
330
A
100
AcDbEntity
  8
1
  6
CONTINUOUS
370
    50
100
AcDbLine
 10
90.9970758115
 20
143.4658060163
 30
0.0
 11
90.3915769862
 21
144.3158060187
 31
0.0
  0
LWPOLYLINE
  5
47
330
A
100
AcDbEntity
  8
1
  6
CONTINUOUS
370
    50
100
AcDbPolyline
 90
        3
 70
   128
 43
0.0
 10
89.4002391694
 20
146.0990153098
 10
89.9794045612
 20
145.0562442612
 10
90.3915769862
 20
144.3158060187
  0
LINE
  5
4C
330
A
100
AcDbEntity
  8
1
  6
CONTINUOUS
370
    50
100
AcDbLine
 10
89.4002391694
 20
192.2928875687
 30
0.0
 11
89.4002391694
 21
146.0990153098
 31
0.0
  0
LINE
  5
4D
330
A
100
AcDbEntity
  8
1
  6
CONTINUOUS
370
    50
100
AcDbLine
 10
90.9970758115
 20
192.2928875687
 30
0.0
 11
89.4002391694
 21
192.2928875687
 31
0.0
  0
LINE
  5
4E
330
A
100
AcDbEntity
  8
1
  6
CONTINUOUS
370
    50
100
AcDbLine
 10
84.5589013526
 20
144.3158060187
 30
0.0
 11
83.9534025273
 21
143.4658060163
 31
0.0
  0
LINE
  5
4F
330
A
100
AcDbEntity
  8
1
  6
CONTINUOUS
370
    50
100
AcDbLine
 10
83.9534025273
 20
143.4658060163
 30
0.0
 11
83.9534025273
 21
192.2928875687
 31
0.0
  0
LINE
  5
50
330
A
100
AcDbEntity
  8
1
  6
CONTINUOUS
370
    50
100
AcDbLine
 10
85.5502391694
 20
192.2928875687
 30
0.0
 11
83.9534025273
 21
192.2928875687
 31
0.0
  0
LINE
  5
51
330
A
100
AcDbEntity
  8
1
  6
CONTINUOUS
370
    50
100
AcDbLine
 10
85.5502391694
 20
146.0990153098
 30
0.0
 11
85.5502391694
 21
192.2928875687
 31
0.0
  0
LWPOLYLINE
  5
52
330
A
100
AcDbEntity
  8
1
  6
CONTINUOUS
370
    50
100
AcDbPolyline
 90
        3
 70
   128
 43
0.0
 10
84.5589013526
 20
144.3158060187
 10
84.9710737776
 20
145.0562442612
 10
85.5502391694
 20
146.0990153098
  0
LINE
  5
57
330
A
100
AcDbEntity
  8
1
  6
CONTINUOUS
370
    50
100
AcDbLine
 10
83.9534025273
 20
143.4658060163
 30
0.0
 11
79.2252391669
 21
143.4658060163
 31
0.0
  0
LWPOLYLINE
  5
58
330
A
100
AcDbEntity
  8
1
  6
CONTINUOUS
370
    50
100
AcDbPolyline
 90
        3
 70
   128
 43
0.0
 10
77.8752391694
 20
143.8929291661
 10
78.547857817
 20
143.6718408999
 10
79.2252391669
 20
143.4658060163
  0
LINE
  5
5D
330
A
100
AcDbEntity
  8
1
  6
CONTINUOUS
370
    50
100
AcDbLine
 10
83.9534025273
 20
192.2928875687
 30
0.0
 11
77.8752391694
 21
192.2928875687
 31
0.0
  0
ARC
  5
5E
330
A
100
AcDbEntity
  8
1
  6
CONTINUOUS
370
    50
100
AcDbCircle
 10
88.8905366789
 20
146.6152811306
 30
0.0
 40
0.5098409115
100
AcDbArc
 50
358.6648465179001
 51
88.90957100250002
  0
LINE
  5
5F
330
A
100
AcDbEntity
  8
1
  6
CONTINUOUS
370
    50
100
AcDbLine
 10
88.9002391694
 20
192.2928875687
 30
0.0
 11
88.9002391694
 21
147.1250297125
 31
0.0
  0
LINE
  5
60
330
A
100
AcDbEntity
  8
1
  6
CONTINUOUS
370
    50
100
AcDbLine
 10
88.9002391694
 20
192.2928875687
 30
0.0
 11
89.4002391694
 21
192.2928875687
 31
0.0
  0
ARC
  5
61
330
A
100
AcDbEntity
  8
1
  6
CONTINUOUS
370
    50
100
AcDbCircle
 10
86.0616351082
 20
146.6136578976
 30
0.0
 40
0.5114987785
100
AcDbArc
 50
91.27662714070001
 51
181.1489553388
  0
LINE
  5
62
330
A
100
AcDbEntity
  8
1
  6
CONTINUOUS
370
    50
100
AcDbLine
 10
85.5502391694
 20
192.2928875687
 30
0.0
 11
86.0502391694
 21
192.2928875687
 31
0.0
  0
LINE
  5
63
330
A
100
AcDbEntity
  8
1
  6
CONTINUOUS
370
    50
100
AcDbLine
 10
86.0502391694
 20
192.2928875687
 30
0.0
 11
86.0502391694
 21
147.1250297125
 31
0.0
  0
LINE
  5
64
330
A
100
AcDbEntity
  8
1
  6
CONTINUOUS
370
    50
100
AcDbLine
 10
88.9002391694
 20
147.1250297125
 30
0.0
 11
86.0502391694
 21
147.1250297125
 31
0.0
  0
LINE
  5
65
330
A
100
AcDbEntity
  8
1
  6
CONTINUOUS
370
    50
100
AcDbLine
 10
86.0502391694
 20
192.2928875687
 30
0.0
 11
88.9002391694
 21
192.2928875687
 31
0.0
  0
LINE
  5
66
330
A
100
AcDbEntity
  8
1
  6
CONTINUOUS
370
    50
100
AcDbLine
 10
8.907760528
 20
186.3288802667
 30
0.0
 11
8.907760528
 21
161.5568948708
 31
0.0
  0
LINE
  5
67
330
A
100
AcDbEntity
  8
1
  6
CONTINUOUS
370
    50
100
AcDbLine
 10
76.3752391694
 20
151.7178875687
 30
0.0
 11
76.3752391694
 21
196.1678875687
 31
0.0
  0
LINE
  5
68
330
A
100
AcDbEntity
  8
1
  6
CONTINUOUS
370
    50
100
AcDbLine
 10
101.1305759684
 20
160.4428875687
 30
0.0
 11
101.1305759684
 21
187.4428875687
 31
0.0
  0
LINE
  5
69
330
A
100
AcDbEntity
  8
1
  6
CONTINUOUS
370
    50
100
AcDbLine
 10
77.8752391694
 20
199.8531172088
 30
0.0
 11
77.3752391694
 21
199.2379463748
 31
0.0
  0
LINE
  5
6A
330
A
100
AcDbEntity
  8
1
  6
CONTINUOUS
370
    50
100
AcDbLine
 10
77.8752391694
 20
199.8531172088
 30
0.0
 11
83.9534025273
 21
199.8531172088
 31
0.0
  0
LINE
  5
6B
330
A
100
AcDbEntity
  8
1
  6
CONTINUOUS
370
    50
100
AcDbLine
 10
83.9534025273
 20
199.8531172088
 30
0.0
 11
85.5502391694
 21
196.3786006703
 31
0.0
  0
LINE
  5
6C
330
A
100
AcDbEntity
  8
1
  6
CONTINUOUS
370
    50
100
AcDbLine
 10
85.5502391694
 20
195.7494806085
 30
0.0
 11
85.5502391694
 21
196.3786006703
 31
0.0
  0
ARC
  5
6D
330
A
100
AcDbEntity
  8
1
  6
CONTINUOUS
370
    50
100
AcDbCircle
 10
86.1239594802
 20
195.666768572
 30
0.0
 40
0.5796518576
100
AcDbArc
 50
171.7963139134
 51
262.6933157896
  0
LINE
  5
6E
330
A
100
AcDbEntity
  8
1
  6
CONTINUOUS
370
    50
100
AcDbLine
 10
88.9002391694
 20
195.0918237122
 30
0.0
 11
86.0502391694
 21
195.0918237122
 31
0.0
  0
LWPOLYLINE
  5
6F
330
A
100
AcDbEntity
  8
1
  6
CONTINUOUS
370
    50
100
AcDbPolyline
 90
        7
 70
   128
 43
0.0
 10
89.4002391694
 20
195.7494806085
 10
89.3557306411
 20
195.4792608173
 10
89.2508458856
 20
195.2814784211
 10
89.1289382665
 20
195.1650747776
 10
89.0579347533
 20
195.1255980174
 10
88.9314564945
 20
195.0931151665
 10
88.9002391694
 20
195.0918237122
  0
LINE
  5
78
330
A
100
AcDbEntity
  8
1
  6
CONTINUOUS
370
    50
100
AcDbLine
 10
89.4002391694
 20
196.3786006703
 30
0.0
 11
89.4002391694
 21
195.7494806085
 31
0.0
  0
LINE
  5
79
330
A
100
AcDbEntity
  8
1
  6
CONTINUOUS
370
    50
100
AcDbLine
 10
89.4002391694
 20
196.3786006703
 30
0.0
 11
90.9970758115
 21
199.8531172088
 31
0.0
  0
LINE
  5
7A
330
A
100
AcDbEntity
  8
1
  6
CONTINUOUS
370
    50
100
AcDbLine
 10
90.9970758115
 20
199.8531172088
 30
0.0
 11
94.9252391694
 21
199.8531172088
 31
0.0
  0
LINE
  5
7B
330
A
100
AcDbEntity
  8
1
  6
CONTINUOUS
370
    50
100
AcDbLine
 10
95.4252391694
 20
199.2379463748
 30
0.0
 11
94.9252391694
 21
199.8531172088
 31
0.0
  0
LINE
  5
7C
330
A
100
AcDbEntity
  8
1
  6
CONTINUOUS
370
    50
100
AcDbLine
 10
77.3752391694
 20
199.2379463748
 30
0.0
 11
77.3752391694
 21
192.2928875687
 31
0.0
  0
LINE
  5
7D
330
A
100
AcDbEntity
  8
1
  6
CONTINUOUS
370
    50
100
AcDbLine
 10
95.4252391694
 20
199.2379463748
 30
0.0
 11
95.4252391694
 21
192.2928875687
 31
0.0
  0
LINE
  5
7E
330
A
100
AcDbEntity
  8
1
  6
CONTINUOUS
370
    50
100
AcDbLine
 10
86.0502391694
 20
200.760745425
 30
0.0
 11
86.0502391694
 21
195.0918237122
 31
0.0
  0
ARC
  5
7F
330
A
100
AcDbEntity
  8
1
  6
CONTINUOUS
370
    50
100
AcDbCircle
 10
86.0625328231
 20
201.2729777329
 30
0.0
 40
0.5123798114
100
AcDbArc
 50
178.9492610515
 51
268.6251564688
  0
LINE
  5
80
330
A
100
AcDbEntity
  8
1
  6
CONTINUOUS
370
    50
100
AcDbLine
 10
88.9002391694
 20
200.760745425
 30
0.0
 11
88.9002391694
 21
195.0918237122
 31
0.0
  0
LINE
  5
81
330
A
100
AcDbEntity
  8
1
  6
CONTINUOUS
370
    50
100
AcDbLine
 10
88.9002391694
 20
200.760745425
 30
0.0
 11
86.0502391694
 21
200.760745425
 31
0.0
  0
ARC
  5
82
330
A
100
AcDbEntity
  8
1
  6
CONTINUOUS
370
    50
100
AcDbCircle
 10
88.8896057611
 20
201.2713863261
 30
0.0
 40
0.5107516023
100
AcDbArc
 50
271.1929349478
 51
1.2326475318
  0
LINE
  5
83
330
A
100
AcDbEntity
  8
1
  6
CONTINUOUS
370
    50
100
AcDbLine
 10
83.9534025273
 20
204.4199691212
 30
0.0
 11
84.5589013526
 21
203.5699691187
 31
0.0
  0
LINE
  5
84
330
A
100
AcDbEntity
  8
1
  6
CONTINUOUS
370
    50
100
AcDbLine
 10
84.5589013526
 20
203.5699691187
 30
0.0
 11
85.5502391694
 21
201.7867598277
 31
0.0
  0
LINE
  5
85
330
A
100
AcDbEntity
  8
1
  6
CONTINUOUS
370
    50
100
AcDbLine
 10
83.9534025273
 20
199.8531172088
 30
0.0
 11
83.9534025273
 21
204.4199691212
 31
0.0
  0
LINE
  5
86
330
A
100
AcDbEntity
  8
1
  6
CONTINUOUS
370
    50
100
AcDbLine
 10
85.5502391694
 20
196.3786006703
 30
0.0
 11
85.5502391694
 21
201.7867598277
 31
0.0
  0
LINE
  5
87
330
A
100
AcDbEntity
  8
1
  6
CONTINUOUS
370
    50
100
AcDbLine
 10
90.3915769862
 20
203.5699691187
 30
0.0
 11
90.9970758115
 21
204.4199691212
 31
0.0
  0
LINE
  5
88
330
A
100
AcDbEntity
  8
1
  6
CONTINUOUS
370
    50
100
AcDbLine
 10
90.9970758115
 20
199.8531172088
 30
0.0
 11
90.9970758115
 21
204.4199691212
 31
0.0
  0
LINE
  5
89
330
A
100
AcDbEntity
  8
1
  6
CONTINUOUS
370
    50
100
AcDbLine
 10
89.4002391694
 20
201.7867598277
 30
0.0
 11
90.3915769862
 21
203.5699691187
 31
0.0
  0
LINE
  5
8A
330
A
100
AcDbEntity
  8
1
  6
CONTINUOUS
370
    50
100
AcDbLine
 10
89.4002391694
 20
201.7867598277
 30
0.0
 11
89.4002391694
 21
196.3786006703
 31
0.0
  0
LINE
  5
8B
330
A
100
AcDbEntity
  8
1
  6
CONTINUOUS
370
    50
100
AcDbLine
 10
77.8752391694
 20
203.9928459714
 30
0.0
 11
77.8752391694
 21
199.8531172088
 31
0.0
  0
LINE
  5
8C
330
A
100
AcDbEntity
  8
1
  6
CONTINUOUS
370
    50
100
AcDbLine
 10
77.3752391694
 20
203.285689071
 30
0.0
 11
77.8752391694
 21
203.9928459714
 31
0.0
  0
LINE
  5
8D
330
A
100
AcDbEntity
  8
1
  6
CONTINUOUS
370
    50
100
AcDbLine
 10
77.3752391694
 20
199.2379463748
 30
0.0
 11
77.3752391694
 21
203.285689071
 31
0.0
  0
LINE
  5
8E
330
A
100
AcDbEntity
  8
1
  6
CONTINUOUS
370
    50
100
AcDbLine
 10
94.9252391694
 20
199.8531172088
 30
0.0
 11
94.9252391694
 21
204.4199691212
 31
0.0
  0
LINE
  5
8F
330
A
100
AcDbEntity
  8
1
  6
CONTINUOUS
370
    50
100
AcDbLine
 10
94.9252391694
 20
204.4199691212
 30
0.0
 11
95.4252391694
 21
204.0158427229
 31
0.0
  0
LINE
  5
90
330
A
100
AcDbEntity
  8
1
  6
CONTINUOUS
370
    50
100
AcDbLine
 10
95.4252391694
 20
204.0158427229
 30
0.0
 11
95.4252391694
 21
199.2379463748
 31
0.0
  0
LINE
  5
91
330
A
100
AcDbEntity
  8
1
  6
CONTINUOUS
370
    50
100
AcDbLine
 10
90.9970758115
 20
204.4199691212
 30
0.0
 11
94.9252391694
 21
204.4199691212
 31
0.0
  0
LINE
  5
92
330
A
100
AcDbEntity
  8
1
  6
CONTINUOUS
370
    50
100
AcDbLine
 10
79.2252391669
 20
204.4199691212
 30
0.0
 11
83.9534025273
 21
204.4199691212
 31
0.0
  0
LWPOLYLINE
  5
93
330
A
100
AcDbEntity
  8
1
  6
CONTINUOUS
370
    50
100
AcDbPolyline
 90
        3
 70
   128
 43
0.0
 10
77.8752391694
 20
203.9928459714
 10
78.547857817
 20
204.2139342376
 10
79.2252391669
 20
204.4199691212
  0
LINE
  5
98
330
A
100
AcDbEntity
  8
1
  6
CONTINUOUS
370
    50
100
AcDbLine
 10
195.3421110654
 20
184.5241965139
 30
0.0
 11
195.3421110654
 21
163.3615786236
 31
0.0
  0
LINE
  5
99
330
A
100
AcDbEntity
  8
1
  6
CONTINUOUS
370
    50
100
AcDbLine
 10
158.2566249609
 20
160.4428875687
 30
0.0
 11
158.2566249609
 21
187.4428875687
 31
0.0
  0
LINE
  5
9A
330
A
100
AcDbEntity
  8
1
  6
CONTINUOUS
370
    50
100
AcDbLine
 10
8.1252391694
 20
162.492519779
 30
0.0
 11
8.1252391694
 21
185.3932553857
 31
0.0
  0
LINE
  5
9B
330
A
100
AcDbEntity
  8
1
  6
CONTINUOUS
370
    50
100
AcDbLine
 10
196.3752391694
 20
165.1123381217
 30
0.0
 11
196.3752391694
 21
182.7734370396
 31
0.0
  0
LINE
  5
9C
330
A
100
AcDbEntity
  8
1
  6
CONTINUOUS
370
    50
100
AcDbLine
 10
77.1752391694
 20
152.0178875687
 30
0.0
 11
77.1752391694
 21
195.8678875687
 31
0.0
  0
LINE
  5
9D
330
A
100
AcDbEntity
  8
1
  6
CONTINUOUS
370
    50
100
AcDbLine
 10
76.918129446
 20
151.9710414623
 30
0.0
 11
76.918129446
 21
195.9147336752
 31
0.0
  0
LINE
  5
9E
330
A
100
AcDbEntity
  8
1
  6
CONTINUOUS
370
    50
100
AcDbLine
 10
77.1294385769
 20
152.0178875687
 30
0.0
 11
77.1294385769
 21
195.8678875687
 31
0.0
  0
LINE
  5
9F
330
A
100
AcDbEntity
  8
1
  6
CONTINUOUS
370
    50
100
AcDbLine
 10
8.8777230631
 20
161.5632795311
 30
0.0
 11
8.8777230631
 21
186.3224956064
 31
0.0
  0
LWPOLYLINE
  5
A0
330
A
100
AcDbEntity
  8
1
  6
CONTINUOUS
370
    50
100
AcDbPolyline
 90
       25
 70
   128
 43
0.0
 10
92.0260181032
 20
165.3107225894
 10
91.9764924319
 20
164.7805000723
 10
92.0189523752
 20
164.2864113434
 10
92.1505043582
 20
163.8621277332
 10
92.3621833306
 20
163.5365634685
 10
92.6395637203
 20
163.331905216
 10
92.9637425121
 20
163.2621000973
 10
93.312627457
 20
163.331905216
 10
93.6624426227
 20
163.5365634685
 10
93.9893486837
 20
163.8621277332
 10
94.2710675321
 20
164.2864113434
 10
94.4884004941
 20
164.7805000723
 10
94.6265366874
 20
165.3107225894
 10
94.6760623587
 20
165.8409451066
 10
94.6336024153
 20
166.3350338355
 10
94.5020504323
 20
166.7593174457
 10
94.2903714599
 20
167.0848817104
 10
94.0129910702
 20
167.2895399629
 10
93.6888122785
 20
167.3593450815
 10
93.3399273335
 20
167.2895399629
 10
92.9901121678
 20
167.0848817104
 10
92.6632061068
 20
166.7593174457
 10
92.3814872584
 20
166.3350338355
 10
92.1641542964
 20
165.8409451066
 10
92.0260181032
 20
165.3107225894
  0
LWPOLYLINE
  5
BB
330
A
100
AcDbEntity
  8
1
  6
CONTINUOUS
370
    50
100
AcDbPolyline
 90
       18
 70
   128
 43
0.0
 10
87.2145673061
 20
165.514223186
 10
87.1978977874
 20
165.4100417786
 10
87.1817959293
 20
165.3622083177
 10
87.166810061
 20
165.3723517143
 10
87.1534505084
 20
165.4401265472
 10
87.1421722151
 20
165.5632248259
 10
87.1333592498
 20
165.7374545859
 10
87.1273117275
 20
165.9568826419
 10
87.1242355892
 20
166.2140366346
 10
87.1242355892
 20
166.5001594931
 10
87.1273117275
 20
166.8055076467
 10
87.1333592498
 20
167.1196828302
 10
87.1421722151
 20
167.4319861846
 10
87.1534505084
 20
167.7317825937
 10
87.166810061
 20
168.0088628504
 10
87.1817959293
 20
168.2537913188
 10
87.1978977874
 20
168.4582272537
 10
87.2145673061
 20
168.6152088346
  0
LWPOLYLINE
  5
CF
330
A
100
AcDbEntity
  8
1
  6
CONTINUOUS
370
    50
100
AcDbPolyline
 90
       18
 70
   128
 43
0.0
 10
87.2145673061
 20
168.6152088346
 10
86.7170027046
 20
168.5962388412
 10
86.2363820688
 20
168.5251146746
 10
85.7890723581
 20
168.4042583831
 10
85.3903061682
 20
168.2377855827
 10
85.0536630033
 20
168.0313653049
 10
84.7906068428
 20
167.7920269448
 10
84.6100957486
 20
167.5279208831
 10
84.5182768096
 20
167.2480409351
 10
84.5182768096
 20
166.9619180766
 10
84.6100957486
 20
166.6792958784
 10
84.7906068428
 20
166.4097987005
 10
85.0536630033
 20
166.1626039462
 10
85.3903061682
 20
165.9461295362
 10
85.7890723581
 20
165.767747247
 10
86.2363820688
 20
165.6335316735
 10
86.7170027046
 20
165.5480533661
 10
87.2145673061
 20
165.514223186
  0
LWPOLYLINE
  5
E3
330
A
100
AcDbEntity
  8
1
  6
CONTINUOUS
370
    50
100
AcDbPolyline
 90
       25
 70
   128
 43
0.0
 10
92.0274435573
 20
165.3117454017
 10
92.1650496899
 20
165.839933332
 10
92.3815486948
 20
166.3321261277
 10
92.6621865226
 20
166.7547816631
 10
92.9878381691
 20
167.0790966621
 10
93.3363110128
 20
167.2829695934
 10
93.6838572052
 20
167.3525068536
 10
94.0067920477
 20
167.2829695934
 10
94.2831080644
 20
167.0790966621
 10
94.4939747754
 20
166.7547816631
 10
94.6250219629
 20
166.3321261277
 10
94.6673189776
 20
165.839933332
 10
94.6179833478
 20
165.3117454017
 10
94.4803772152
 20
164.7835574714
 10
94.2638782103
 20
164.2913646758
 10
93.9832403825
 20
163.8687091403
 10
93.657588736
 20
163.5443941413
 10
93.3091158923
 20
163.34052121
 10
92.9615696999
 20
163.2709839498
 10
92.6386348574
 20
163.34052121
 10
92.3623188407
 20
163.5443941413
 10
92.1514521296
 20
163.8687091403
 10
92.0204049421
 20
164.2913646758
 10
91.9781079275
 20
164.7835574714
 10
92.0274435573
 20
165.3117454017
  0
LWPOLYLINE
  5
FE
330
A
100
AcDbEntity
  8
1
  6
CONTINUOUS
370
    50
100
AcDbPolyline
 90
       22
 70
   128
 43
0.0
 10
94.0602710323
 20
165.3932717151
 10
93.9309221071
 20
164.9188243665
 10
93.7222898882
 20
164.486533747
 10
93.4529122639
 20
164.1348107751
 10
93.1467246182
 20
163.8949075803
 10
92.8309330671
 20
163.7881406144
 10
92.5335970758
 20
163.8239965908
 10
92.281136252
 20
163.9992895486
 10
92.0959828477
 20
164.2984439393
 10
91.9945885554
 20
164.6948785825
 10
91.985962703
 20
165.1533685203
 10
92.0708717353
 20
165.6331749098
 10
92.2417711122
 20
166.0916648477
 10
92.483475674
 20
166.4880994908
 10
92.7745089098
 20
166.7872538815
 10
93.0890112393
 20
166.9625468394
 10
93.3990377505
 20
166.9984028157
 10
93.6770412272
 20
166.8916358498
 10
93.8983198406
 20
166.6517326551
 10
94.0432120148
 20
166.3000096832
 10
94.0988434442
 20
165.8677190636
 10
94.0602710323
 20
165.3932717151
  0
ARC
  5
116
330
A
100
AcDbEntity
  8
1
  6
CONTINUOUS
370
    50
100
AcDbCircle
 10
88.7865860616
 20
168.4201882797
 30
0.0
 40
1.584069438
100
AcDbArc
 50
169.5837820602
 51
172.9281661007
  0
ARC
  5
117
330
A
100
AcDbEntity
  8
1
  6
CONTINUOUS
370
    50
100
AcDbCircle
 10
82.9885499509
 20
158.6601709033
 30
0.0
 40
10.904523201
100
AcDbArc
 50
65.7827110027
 51
67.117906288
  0
ARC
  5
118
330
A
100
AcDbEntity
  8
1
  6
CONTINUOUS
370
    50
100
AcDbCircle
 10
87.1441778978
 20
163.8929135199
 30
0.0
 40
4.7228198894
100
AcDbArc
 50
86.1466391327
 51
89.1460260108
  0
ARC
  5
119
330
A
100
AcDbEntity
  8
1
  6
CONTINUOUS
370
    50
100
AcDbCircle
 10
87.2850948632
 20
170.2298724734
 30
0.0
 40
4.7161766654
100
AcDbArc
 50
269.1431444837
 51
272.1444122428
  0
ARC
  5
11A
330
A
100
AcDbEntity
  8
1
  6
CONTINUOUS
370
    50
100
AcDbCircle
 10
93.2349624556
 20
176.4656774555
 30
0.0
 40
12.3776279007
100
AcDbArc
 50
240.9706336715
 51
242.1966722692
  0
ARC
  5
11B
330
A
100
AcDbEntity
  8
1
  6
CONTINUOUS
370
    50
100
AcDbCircle
 10
82.9592720256
 20
166.0436707648
 30
0.0
 40
4.2881059529
100
AcDbArc
 50
352.9076566908
 51
354.6390928971
  0
LWPOLYLINE
  5
11C
330
A
100
AcDbEntity
  8
1
  6
CONTINUOUS
370
    50
100
AcDbPolyline
 90
       22
 70
   128
 43
0.0
 10
83.87815622
 20
167.7290320038
 10
83.8395838081
 20
167.2545846552
 10
83.8952152375
 20
166.8222940357
 10
84.0401074117
 20
166.4705710637
 10
84.2613860251
 20
166.230667869
 10
84.5393895018
 20
166.1239009031
 10
84.849416013
 20
166.1597568795
 10
85.1639183425
 20
166.3350498373
 10
85.4549515783
 20
166.634204228
 10
85.6966561402
 20
167.0306388712
 10
85.867555517
 20
167.489128809
 10
85.9524645493
 20
167.9689351985
 10
85.9438386969
 20
168.4274251363
 10
85.8424444046
 20
168.8238597795
 10
85.6572910003
 20
169.1230141702
 10
85.4048301765
 20
169.298307128
 10
85.1074941852
 20
169.3341631044
 10
84.7917026341
 20
169.2273961385
 10
84.4855149884
 20
168.9874929438
 10
84.2161373641
 20
168.6357699718
 10
84.0075051452
 20
168.2034793523
 10
83.87815622
 20
167.7290320038
  0
LINE
  5
134
330
A
100
AcDbEntity
  8
1
  6
CONTINUOUS
370
    50
100
AcDbLine
 10
77.6283930629
 20
151.3428875687
 30
0.0
 11
77.6283930629
 21
196.9176841374
 31
0.0
  0
LINE
  5
135
330
A
100
AcDbEntity
  8
1
  6
CONTINUOUS
370
    50
100
AcDbLine
 10
77.6752391694
 20
151.3428875687
 30
0.0
 11
77.6752391694
 21
196.7242374692
 31
0.0
  0
LWPOLYLINE
  5
136
330
A
100
AcDbEntity
  8
1
  6
CONTINUOUS
370
    50
100
AcDbPolyline
 90
        9
 70
   128
 43
0.0
 10
87.4615662562
 20
168.6050565926
 10
87.4324443063
 20
168.622910169
 10
87.4032678772
 20
168.6393164477
 10
87.3740647551
 20
168.6542598042
 10
87.3448627514
 20
168.6677260074
 10
87.3156896766
 20
168.6797022326
 10
87.2865733136
 20
168.6901770743
 10
87.2575413914
 20
168.699140557
 10
87.2286215584
 20
168.7065841441
  0
LWPOLYLINE
  5
141
330
A
100
AcDbEntity
  8
1
  6
CONTINUOUS
370
    50
100
AcDbPolyline
 90
       24
 70
   128
 43
0.0
 10
83.6537858936
 20
167.7312304669
 10
83.6065538943
 20
167.2048383395
 10
83.654667051
 20
166.7174863082
 10
83.794557031
 20
166.3053190436
 10
84.0158488344
 20
165.9989051061
 10
84.3021302605
 20
165.8209698157
 10
84.6321691255
 20
165.784709819
 10
84.9814879566
 20
165.892814354
 10
85.3241793743
 20
166.1372658019
 10
85.6348275237
 20
166.4999343171
 10
85.8903930527
 20
166.9539224349
 10
86.0719218353
 20
167.4655599335
 10
86.1659507119
 20
167.9969010002
 10
86.165505991
 20
168.5085384988
 10
86.0706206555
 20
168.9625266166
 10
85.8883319167
 20
169.3251951318
 10
85.6321592963
 20
169.5696465797
 10
85.3211019458
 20
169.6777511147
 10
84.9782295659
 20
169.641491118
 10
84.6289714324
 20
169.4635558276
 10
84.2992304233
 20
169.1571418902
 10
84.0134619208
 20
168.7449746255
 10
83.7928600675
 20
168.2576225942
 10
83.6537858936
 20
167.7312304669
  0
LWPOLYLINE
  5
15B
330
A
100
AcDbEntity
  8
1
  6
CONTINUOUS
370
    50
100
AcDbPolyline
 90
       24
 70
   128
 43
0.0
 10
83.661446338
 20
167.7290320038
 10
83.6142143387
 20
167.2026398764
 10
83.6623274955
 20
166.7152878451
 10
83.8022174755
 20
166.3031205805
 10
84.0235092788
 20
165.996706643
 10
84.3097907049
 20
165.8187713526
 10
84.6398295699
 20
165.7825113559
 10
84.9891484011
 20
165.8906158909
 10
85.3318398187
 20
166.1350673388
 10
85.6424879681
 20
166.497735854
 10
85.8980534972
 20
166.9517239718
 10
86.0795822797
 20
167.4633614704
 10
86.1736111563
 20
167.9947025371
 10
86.1731664354
 20
168.5063400357
 10
86.0782810999
 20
168.9603281535
 10
85.8959923611
 20
169.3229966687
 10
85.6398197408
 20
169.5674481166
 10
85.3287623903
 20
169.6755526516
 10
84.9858900103
 20
169.6392926549
 10
84.6366318768
 20
169.4613573645
 10
84.3068908677
 20
169.154943427
 10
84.0211223652
 20
168.7427761624
 10
83.8005205119
 20
168.2554241311
 10
83.661446338
 20
167.7290320038
  0
LWPOLYLINE
  5
175
330
A
100
AcDbEntity
  8
1
  6
CONTINUOUS
370
    50
100
AcDbPolyline
 90
       22
 70
   128
 43
0.0
 10
83.8704957756
 20
167.7312304669
 10
83.8319233637
 20
167.2567831183
 10
83.8875547931
 20
166.8244924988
 10
84.0324469673
 20
166.4727695268
 10
84.2537255807
 20
166.2328663321
 10
84.5317290574
 20
166.1260993662
 10
84.8417555685
 20
166.1619553426
 10
85.1562578981
 20
166.3372483004
 10
85.4472911339
 20
166.6364026911
 10
85.6889956957
 20
167.0328373343
 10
85.8598950726
 20
167.4913272721
 10
85.9448041049
 20
167.9711336616
 10
85.9361782525
 20
168.4296235994
 10
85.8347839602
 20
168.8260582426
 10
85.6496305559
 20
169.1252126333
 10
85.397169732
 20
169.3005055911
 10
85.0998337407
 20
169.3363615675
 10
84.7840421897
 20
169.2295946016
 10
84.477854544
 20
168.9896914069
 10
84.2084769197
 20
168.6379684349
 10
83.9998447008
 20
168.2056778154
 10
83.8704957756
 20
167.7312304669
  0
LWPOLYLINE
  5
18D
330
A
100
AcDbEntity
  8
1
  6
CONTINUOUS
370
    50
100
AcDbPolyline
 90
       21
 70
   128
 43
0.0
 10
69.1306544969
 20
171.9614024236
 10
69.0531106409
 20
171.5548385745
 10
69.1205906322
 20
171.1553122572
 10
69.3186569219
 20
170.8063054078
 10
69.6485004935
 20
170.504048442
 10
70.284685257
 20
170.2071549961
 10
71.299758345
 20
170.0577162038
 10
72.6600086651
 20
170.2280882043
 10
73.4926900251
 20
170.5724728947
 10
73.9003074443
 20
170.8917283871
 10
74.1120026482
 20
171.200452384
 10
74.1850894266
 20
171.4865900302
 10
74.1496065894
 20
171.7845080498
 10
74.0231066485
 20
172.0511509665
 10
73.6818803969
 20
172.422832728
 10
72.9378739922
 20
172.8543583941
 10
71.6254778539
 20
173.1506574853
 10
70.5032376149
 20
173.0480341617
 10
69.8141114731
 20
172.7552388247
 10
69.3754323966
 20
172.3774795621
 10
69.1306544969
 20
171.9614024236
  0
LWPOLYLINE
  5
1A4
330
A
100
AcDbEntity
  8
1
  6
CONTINUOUS
370
    50
100
AcDbPolyline
 90
        9
 70
   128
 43
0.0
 10
87.2286215584
 20
165.6430372289
 10
87.2575413914
 20
165.6222287197
 10
87.2865733136
 20
165.6028306047
 10
87.3156896766
 20
165.5848613579
 10
87.3448627514
 20
165.5683380921
 10
87.3740647551
 20
165.5532765432
 10
87.4032678772
 20
165.5396910552
 10
87.4324443063
 20
165.527594566
 10
87.4615662562
 20
165.5169985958
  0
LINE
  5
1AF
330
A
100
AcDbEntity
  8
1
  6
CONTINUOUS
370
    50
100
AcDbLine
 10
77.3752391694
 20
150.5928875687
 30
0.0
 11
80.0752391694
 21
150.5928875687
 31
0.0
  0
LINE
  5
1B0
330
A
100
AcDbEntity
  8
1
  6
CONTINUOUS
370
    50
100
AcDbLine
 10
80.0752391694
 20
199.4928875687
 30
0.0
 11
77.3752391694
 21
199.4928875687
 31
0.0
  0
LINE
  5
1B1
330
A
100
AcDbEntity
  8
1
  6
CONTINUOUS
370
    50
100
AcDbLine
 10
79.7645789976
 20
151.3428875687
 30
0.0
 11
77.3752391694
 21
151.3428875687
 31
0.0
  0
LINE
  5
1B2
330
A
100
AcDbEntity
  8
1
  6
CONTINUOUS
370
    50
100
AcDbLine
 10
77.3752391694
 20
198.7428875687
 30
0.0
 11
79.7645789976
 21
198.7428875687
 31
0.0
  0
LINE
  5
1B3
330
A
100
AcDbEntity
  8
1
  6
CONTINUOUS
370
    50
100
AcDbLine
 10
8.3965256155
 20
165.127706199
 30
0.0
 11
8.3965256155
 21
182.7580689385
 31
0.0
  0
LINE
  5
1B4
330
A
100
AcDbEntity
  8
1
  6
CONTINUOUS
370
    50
100
AcDbLine
 10
79.2252391669
 20
143.4658060163
 30
0.0
 11
80.0752391694
 21
144.3158060187
 31
0.0
  0
LINE
  5
1B5
330
A
100
AcDbEntity
  8
1
  6
CONTINUOUS
370
    50
100
AcDbLine
 10
79.2252391669
 20
204.4199691212
 30
0.0
 11
80.0752391694
 21
203.5699691187
 31
0.0
  0
LINE
  5
1B6
330
A
100
AcDbEntity
  8
1
  6
CONTINUOUS
370
    50
100
AcDbLine
 10
8.8965256155
 20
165.4163813336
 30
0.0
 11
8.8965256155
 21
182.4693938039
 31
0.0
  0
LINE
  5
1B7
330
A
100
AcDbEntity
  8
1
  6
CONTINUOUS
370
    50
100
AcDbLine
 10
14.05514298
 20
182.4428875687
 30
0.0
 11
14.05514298
 21
165.4428875687
 31
0.0
  0
LINE
  5
1B8
330
A
100
AcDbEntity
  8
1
  6
CONTINUOUS
370
    50
100
AcDbLine
 10
14.3149506011
 20
182.5928875687
 30
0.0
 11
14.3149506011
 21
165.2928875687
 31
0.0
  0
LINE
  5
1B9
330
A
100
AcDbEntity
  8
1
  6
CONTINUOUS
370
    50
100
AcDbLine
 10
17.5345658434
 20
181.0178875687
 30
0.0
 11
17.5345658434
 21
166.8678875687
 31
0.0
  0
LINE
  5
1BA
330
A
100
AcDbEntity
  8
1
  6
CONTINUOUS
370
    50
100
AcDbLine
 10
16.6252391694
 20
182.5928875687
 30
0.0
 11
16.6252391694
 21
165.2928875687
 31
0.0
  0
LINE
  5
1BB
330
A
100
AcDbEntity
  8
1
  6
CONTINUOUS
370
    50
100
AcDbLine
 10
9.1252391694
 20
182.4428875687
 30
0.0
 11
9.1252391694
 21
165.4428875687
 31
0.0
  0
LINE
  5
1BC
330
A
100
AcDbEntity
  8
1
  6
CONTINUOUS
370
    50
100
AcDbLine
 10
90.3915769862
 20
144.3158060187
 30
0.0
 11
95.4252391694
 21
144.3158060187
 31
0.0
  0
LINE
  5
1BD
330
A
100
AcDbEntity
  8
1
  6
CONTINUOUS
370
    50
100
AcDbLine
 10
80.0752391694
 20
144.3158060187
 30
0.0
 11
84.5589013526
 21
144.3158060187
 31
0.0
  0
LINE
  5
1BE
330
A
100
AcDbEntity
  8
1
  6
CONTINUOUS
370
    50
100
AcDbLine
 10
80.0752391694
 20
144.3158060187
 30
0.0
 11
80.0752391694
 21
150.5928875687
 31
0.0
  0
LINE
  5
1BF
330
A
100
AcDbEntity
  8
1
  6
CONTINUOUS
370
    50
100
AcDbLine
 10
80.0752391694
 20
150.5928875687
 30
0.0
 11
95.4252391694
 21
150.5928875687
 31
0.0
  0
LINE
  5
1C0
330
A
100
AcDbEntity
  8
1
  6
CONTINUOUS
370
    50
100
AcDbLine
 10
95.4252391694
 20
151.3428875687
 30
0.0
 11
79.7645789976
 21
151.3428875687
 31
0.0
  0
LINE
  5
1C1
330
A
100
AcDbEntity
  8
1
  6
CONTINUOUS
370
    50
100
AcDbLine
 10
80.0752391694
 20
150.5928875687
 30
0.0
 11
79.7645789976
 21
151.3428875687
 31
0.0
  0
LINE
  5
1C2
330
A
100
AcDbEntity
  8
1
  6
CONTINUOUS
370
    50
100
AcDbLine
 10
79.7645789976
 20
198.7428875687
 30
0.0
 11
95.4252391694
 21
198.7428875687
 31
0.0
  0
LINE
  5
1C3
330
A
100
AcDbEntity
  8
1
  6
CONTINUOUS
370
    50
100
AcDbLine
 10
80.0752391694
 20
199.4928875687
 30
0.0
 11
79.7645789976
 21
198.7428875687
 31
0.0
  0
LINE
  5
1C4
330
A
100
AcDbEntity
  8
1
  6
CONTINUOUS
370
    50
100
AcDbLine
 10
95.4252391694
 20
199.4928875687
 30
0.0
 11
80.0752391694
 21
199.4928875687
 31
0.0
  0
LINE
  5
1C5
330
A
100
AcDbEntity
  8
1
  6
CONTINUOUS
370
    50
100
AcDbLine
 10
90.3915769862
 20
203.5699691187
 30
0.0
 11
95.4252391694
 21
203.5699691187
 31
0.0
  0
LINE
  5
1C6
330
A
100
AcDbEntity
  8
1
  6
CONTINUOUS
370
    50
100
AcDbLine
 10
80.0752391694
 20
203.5699691187
 30
0.0
 11
84.5589013526
 21
203.5699691187
 31
0.0
  0
LINE
  5
1C7
330
A
100
AcDbEntity
  8
1
  6
CONTINUOUS
370
    50
100
AcDbLine
 10
80.0752391694
 20
203.5699691187
 30
0.0
 11
80.0752391694
 21
199.4928875687
 31
0.0
  0
LINE
  5
1C8
330
A
100
AcDbEntity
  8
1
  6
CONTINUOUS
370
    50
100
AcDbLine
 10
42.1152391694
 20
181.9428875687
 30
0.0
 11
42.1152391694
 21
165.9428875687
 31
0.0
  0
LINE
  5
1C9
330
A
100
AcDbEntity
  8
1
  6
CONTINUOUS
370
    50
100
AcDbLine
 10
42.1252391694
 20
181.9428875687
 30
0.0
 11
42.1252391694
 21
165.9428875687
 31
0.0
  0
LINE
  5
1CA
330
A
100
AcDbEntity
  8
1
  6
CONTINUOUS
370
    50
100
AcDbLine
 10
53.1252391694
 20
181.0178875687
 30
0.0
 11
53.1252391694
 21
166.8678875687
 31
0.0
  0
LINE
  5
1CB
330
A
100
AcDbEntity
  8
1
  6
CONTINUOUS
370
    50
100
AcDbLine
 10
53.1434376811
 20
180.9678875687
 30
0.0
 11
53.1434376811
 21
166.9178875687
 31
0.0
  0
LINE
  5
1CC
330
A
100
AcDbEntity
  8
1
  6
CONTINUOUS
370
    50
100
AcDbLine
 10
87.1252391694
 20
180.9678875687
 30
0.0
 11
87.1252391694
 21
166.9178875687
 31
0.0
  0
LWPOLYLINE
  5
1CD
330
A
100
AcDbEntity
  8
1
  6
CONTINUOUS
370
    50
100
AcDbPolyline
 90
       21
 70
   128
 43
0.0
 10
69.1306544969
 20
175.9243727139
 10
69.0531106409
 20
176.330936563
 10
69.1205906322
 20
176.7304628803
 10
69.3186569219
 20
177.0794697297
 10
69.6485004935
 20
177.3817266955
 10
70.284685257
 20
177.6786201414
 10
71.299758345
 20
177.8280589337
 10
72.6600086651
 20
177.6576869332
 10
73.4926900251
 20
177.3133022428
 10
73.9003074443
 20
176.9940467504
 10
74.1120026482
 20
176.6853227534
 10
74.1850894266
 20
176.3991851073
 10
74.1496065894
 20
176.1012670877
 10
74.0231066485
 20
175.834624171
 10
73.6818803969
 20
175.4629424095
 10
72.9378739922
 20
175.0314167434
 10
71.6254778539
 20
174.7351176522
 10
70.5032376149
 20
174.8377409758
 10
69.8141114731
 20
175.1305363128
 10
69.3754323966
 20
175.5082955754
 10
69.1306544969
 20
175.9243727139
  0
LINE
  5
1E4
330
A
100
AcDbEntity
  8
1
  6
CONTINUOUS
370
    50
100
AcDbLine
 10
88.2943734645
 20
168.9428875687
 30
0.0
 11
88.2943734645
 21
178.9428875687
 31
0.0
  0
LINE
  5
1E5
330
A
100
AcDbEntity
  8
1
  6
CONTINUOUS
370
    50
100
AcDbLine
 10
82.4752391694
 20
198.5428875687
 30
0.0
 11
92.4752391694
 21
198.5428875687
 31
0.0
  0
LINE
  5
1E6
330
A
100
AcDbEntity
  8
1
  6
CONTINUOUS
370
    50
100
AcDbLine
 10
146.1252391694
 20
168.9428875687
 30
0.0
 11
146.1252391694
 21
178.9428875687
 31
0.0
  0
LINE
  5
1E7
330
A
100
AcDbEntity
  8
1
  6
CONTINUOUS
370
    50
100
AcDbLine
 10
147.7995549501
 20
171.8428875687
 30
0.0
 11
147.7995549501
 21
176.0428875687
 31
0.0
  0
LINE
  5
1E8
330
A
100
AcDbEntity
  8
1
  6
CONTINUOUS
370
    50
100
AcDbLine
 10
92.1752391694
 20
194.0428875687
 30
0.0
 11
82.7752391694
 21
194.0428875687
 31
0.0
  0
LINE
  5
1E9
330
A
100
AcDbEntity
  8
1
  6
CONTINUOUS
370
    50
100
AcDbLine
 10
92.4752391694
 20
194.3428875687
 30
0.0
 11
82.4932517267
 21
194.3428875687
 31
0.0
  0
LINE
  5
1EA
330
A
100
AcDbEntity
  8
1
  6
CONTINUOUS
370
    50
100
AcDbLine
 10
195.2398965428
 20
176.9428875687
 30
0.0
 11
195.2398965428
 21
170.9428875687
 31
0.0
  0
LINE
  5
1EB
330
A
100
AcDbEntity
  8
1
  6
CONTINUOUS
370
    50
100
AcDbLine
 10
170.1876003319
 20
170.7428875687
 30
0.0
 11
170.1876003319
 21
177.1428875687
 31
0.0
  0
LINE
  5
1EC
330
A
100
AcDbEntity
  8
1
  6
CONTINUOUS
370
    50
100
AcDbLine
 10
160.8752391694
 20
177.1428875687
 30
0.0
 11
160.8752391694
 21
170.7616461059
 31
0.0
  0
LINE
  5
1ED
330
A
100
AcDbEntity
  8
1
  6
CONTINUOUS
370
    50
100
AcDbLine
 10
160.3752391694
 20
171.242887894
 30
0.0
 11
160.3752391694
 21
176.6428875687
 31
0.0
  0
LINE
  5
1EE
330
A
100
AcDbEntity
  8
1
  6
CONTINUOUS
370
    50
100
AcDbLine
 10
170.3030703858
 20
176.9428875687
 30
0.0
 11
170.3030703858
 21
170.9428875687
 31
0.0
  0
LINE
  5
1EF
330
A
100
AcDbEntity
  8
1
  6
CONTINUOUS
370
    50
100
AcDbLine
 10
86.3752391694
 20
193.6428875687
 30
0.0
 11
88.5752391694
 21
193.6428875687
 31
0.0
  0
LINE
  5
1F0
330
A
100
AcDbEntity
  8
1
  6
CONTINUOUS
370
    50
100
AcDbLine
 10
86.2252391694
 20
190.2328875687
 30
0.0
 11
88.7252391694
 21
190.2328875687
 31
0.0
  0
LINE
  5
1F1
330
A
100
AcDbEntity
  8
1
  6
CONTINUOUS
370
    50
100
AcDbLine
 10
86.2252391694
 20
190.2428875687
 30
0.0
 11
88.7252391694
 21
190.2428875687
 31
0.0
  0
LINE
  5
1F2
330
A
100
AcDbEntity
  8
1
  6
CONTINUOUS
370
    50
100
AcDbLine
 10
86.3752391694
 20
187.6428875687
 30
0.0
 11
88.5752391694
 21
187.6428875687
 31
0.0
  0
LWPOLYLINE
  5
1F3
330
A
100
AcDbEntity
  8
1
  6
CONTINUOUS
370
    50
100
AcDbPolyline
 90
       22
 70
   128
 43
0.0
 10
83.8704957756
 20
180.1545446706
 10
83.8319233637
 20
180.6289920192
 10
83.8875547931
 20
181.0612826387
 10
84.0324469673
 20
181.4130056107
 10
84.2537255807
 20
181.6529088054
 10
84.5317290574
 20
181.7596757713
 10
84.8417555685
 20
181.7238197949
 10
85.1562578981
 20
181.5485268371
 10
85.4472911339
 20
181.2493724464
 10
85.6889956957
 20
180.8529378032
 10
85.8598950726
 20
180.3944478654
 10
85.9448041049
 20
179.9146414759
 10
85.9361782525
 20
179.4561515381
 10
85.8347839602
 20
179.0597168949
 10
85.6496305559
 20
178.7605625042
 10
85.397169732
 20
178.5852695464
 10
85.0998337407
 20
178.54941357
 10
84.7840421897
 20
178.6561805359
 10
84.477854544
 20
178.8960837306
 10
84.2084769197
 20
179.2478067026
 10
83.9998447008
 20
179.6800973221
 10
83.8704957756
 20
180.1545446706
  0
LINE
  5
20B
330
A
100
AcDbEntity
  8
1
  6
CONTINUOUS
370
    50
100
AcDbLine
 10
88.9002391694
 20
147.1250297125
 30
0.0
 11
88.9002391694
 21
200.760745425
 31
0.0
  0
LINE
  5
20C
330
A
100
AcDbEntity
  8
1
  6
CONTINUOUS
370
    50
100
AcDbLine
 10
89.4002391694
 20
192.2928875687
 30
0.0
 11
89.4002391694
 21
195.7494806085
 31
0.0
  0
LINE
  5
20D
330
A
100
AcDbEntity
  8
1
  6
CONTINUOUS
370
    50
100
AcDbLine
 10
86.0502391694
 20
147.1250297125
 30
0.0
 11
86.0502391694
 21
200.760745425
 31
0.0
  0
LINE
  5
20E
330
A
100
AcDbEntity
  8
1
  6
CONTINUOUS
370
    50
100
AcDbLine
 10
85.5502391694
 20
192.2928875687
 30
0.0
 11
85.5502391694
 21
195.7494806085
 31
0.0
  0
LINE
  5
20F
330
A
100
AcDbEntity
  8
1
  6
CONTINUOUS
370
    50
100
AcDbLine
 10
83.9534025273
 20
199.8531172088
 30
0.0
 11
83.9534025273
 21
192.2928875687
 31
0.0
  0
LINE
  5
210
330
A
100
AcDbEntity
  8
1
  6
CONTINUOUS
370
    50
100
AcDbLine
 10
94.9252391694
 20
199.8531172088
 30
0.0
 11
94.9252391694
 21
192.2928875687
 31
0.0
  0
LINE
  5
211
330
A
100
AcDbEntity
  8
1
  6
CONTINUOUS
370
    50
100
AcDbLine
 10
90.9970758115
 20
199.8531172088
 30
0.0
 11
90.9970758115
 21
192.2928875687
 31
0.0
  0
LINE
  5
212
330
A
100
AcDbEntity
  8
1
  6
CONTINUOUS
370
    50
100
AcDbLine
 10
77.8752391694
 20
192.2928875687
 30
0.0
 11
77.8752391694
 21
199.8531172088
 31
0.0
  0
LWPOLYLINE
  5
213
330
A
100
AcDbEntity
  8
1
  6
CONTINUOUS
370
    50
100
AcDbPolyline
 90
       24
 70
   128
 43
0.0
 10
83.6537858936
 20
180.1545446706
 10
83.6065538943
 20
180.680936798
 10
83.654667051
 20
181.1682888293
 10
83.794557031
 20
181.5804560939
 10
84.0158488344
 20
181.8868700314
 10
84.3021302605
 20
182.0648053218
 10
84.6321691255
 20
182.1010653185
 10
84.9814879566
 20
181.9929607835
 10
85.3241793743
 20
181.7485093356
 10
85.6348275237
 20
181.3858408204
 10
85.8903930527
 20
180.9318527026
 10
86.0719218353
 20
180.420215204
 10
86.1659507119
 20
179.8888741373
 10
86.165505991
 20
179.3772366387
 10
86.0706206555
 20
178.9232485209
 10
85.8883319167
 20
178.5605800057
 10
85.6321592963
 20
178.3161285578
 10
85.3211019458
 20
178.2080240228
 10
84.9782295659
 20
178.2442840195
 10
84.6289714324
 20
178.4222193099
 10
84.2992304233
 20
178.7286332473
 10
84.0134619208
 20
179.140800512
 10
83.7928600675
 20
179.6281525433
 10
83.6537858936
 20
180.1545446706
  0
LWPOLYLINE
  5
22D
330
A
100
AcDbEntity
  8
1
  6
CONTINUOUS
370
    50
100
AcDbPolyline
 90
       24
 70
   128
 43
0.0
 10
83.661446338
 20
180.1567431337
 10
83.6142143387
 20
180.6831352611
 10
83.6623274955
 20
181.1704872924
 10
83.8022174755
 20
181.582654557
 10
84.0235092788
 20
181.8890684945
 10
84.3097907049
 20
182.0670037849
 10
84.6398295699
 20
182.1032637816
 10
84.9891484011
 20
181.9951592466
 10
85.3318398187
 20
181.7507077987
 10
85.6424879681
 20
181.3880392835
 10
85.8980534972
 20
180.9340511657
 10
86.0795822797
 20
180.4224136671
 10
86.1736111563
 20
179.8910726004
 10
86.1731664354
 20
179.3794351018
 10
86.0782810999
 20
178.925446984
 10
85.8959923611
 20
178.5627784688
 10
85.6398197408
 20
178.3183270209
 10
85.3287623903
 20
178.2102224859
 10
84.9858900103
 20
178.2464824826
 10
84.6366318768
 20
178.424417773
 10
84.3068908677
 20
178.7308317105
 10
84.0211223652
 20
179.1429989751
 10
83.8005205119
 20
179.6303510064
 10
83.661446338
 20
180.1567431337
  0
LWPOLYLINE
  5
247
330
A
100
AcDbEntity
  8
1
  6
CONTINUOUS
370
    50
100
AcDbPolyline
 90
       22
 70
   128
 43
0.0
 10
83.87815622
 20
180.1567431337
 10
83.8395838081
 20
180.6311904823
 10
83.8952152375
 20
181.0634811018
 10
84.0401074117
 20
181.4152040738
 10
84.2613860251
 20
181.6551072685
 10
84.5393895018
 20
181.7618742344
 10
84.849416013
 20
181.726018258
 10
85.1639183425
 20
181.5507253002
 10
85.4549515783
 20
181.2515709095
 10
85.6966561402
 20
180.8551362663
 10
85.867555517
 20
180.3966463285
 10
85.9524645493
 20
179.916839939
 10
85.9438386969
 20
179.4583500012
 10
85.8424444046
 20
179.061915358
 10
85.6572910003
 20
178.7627609673
 10
85.4048301765
 20
178.5874680095
 10
85.1074941852
 20
178.5516120331
 10
84.7917026341
 20
178.658378999
 10
84.4855149884
 20
178.8982821937
 10
84.2161373641
 20
179.2500051657
 10
84.0075051452
 20
179.6822957852
 10
83.87815622
 20
180.1567431337
  0
LWPOLYLINE
  5
25F
330
A
100
AcDbEntity
  8
1
  6
CONTINUOUS
370
    50
100
AcDbPolyline
 90
       22
 70
   128
 43
0.0
 10
94.0602710323
 20
182.4925034224
 10
93.9309221071
 20
182.966950771
 10
93.7222898882
 20
183.3992413905
 10
93.4529122639
 20
183.7509643624
 10
93.1467246182
 20
183.9908675572
 10
92.8309330671
 20
184.0976345231
 10
92.5335970758
 20
184.0617785467
 10
92.281136252
 20
183.8864855889
 10
92.0959828477
 20
183.5873311982
 10
91.9945885554
 20
183.190896555
 10
91.985962703
 20
182.7324066172
 10
92.0708717353
 20
182.2526002277
 10
92.2417711122
 20
181.7941102898
 10
92.483475674
 20
181.3976756467
 10
92.7745089098
 20
181.098521256
 10
93.0890112393
 20
180.9232282981
 10
93.3990377505
 20
180.8873723218
 10
93.6770412272
 20
180.9941392877
 10
93.8983198406
 20
181.2340424824
 10
94.0432120148
 20
181.5857654543
 10
94.0988434442
 20
182.0180560739
 10
94.0602710323
 20
182.4925034224
  0
ARC
  5
277
330
A
100
AcDbEntity
  8
1
  6
CONTINUOUS
370
    50
100
AcDbCircle
 10
88.7865860604
 20
179.4655868576
 30
0.0
 40
1.5840694368
100
AcDbArc
 50
187.071833898
 51
190.4162179411
  0
ARC
  5
278
330
A
100
AcDbEntity
  8
1
  6
CONTINUOUS
370
    50
100
AcDbCircle
 10
82.9885499505
 20
189.2256042352
 30
0.0
 40
10.9045232021
100
AcDbArc
 50
292.8820937121
 51
294.2172889972
  0
ARC
  5
279
330
A
100
AcDbEntity
  8
1
  6
CONTINUOUS
370
    50
100
AcDbCircle
 10
87.1441778978
 20
183.9928616182
 30
0.0
 40
4.72281989
100
AcDbArc
 50
270.8539739894
 51
273.8533608671
  0
LWPOLYLINE
  5
27A
330
A
100
AcDbEntity
  8
1
  6
CONTINUOUS
370
    50
100
AcDbPolyline
 90
       18
 70
   128
 43
0.0
 10
87.2145673061
 20
182.3715519515
 10
87.1978977874
 20
182.4757333589
 10
87.1817959293
 20
182.5235668198
 10
87.166810061
 20
182.5134234232
 10
87.1534505084
 20
182.4456485903
 10
87.1421722151
 20
182.3225503116
 10
87.1333592498
 20
182.1483205516
 10
87.1273117275
 20
181.9288924956
 10
87.1242355892
 20
181.6717385029
 10
87.1242355892
 20
181.3856156444
 10
87.1273117275
 20
181.0802674908
 10
87.1333592498
 20
180.7660923073
 10
87.1421722151
 20
180.4537889529
 10
87.1534505084
 20
180.1539925438
 10
87.166810061
 20
179.8769122871
 10
87.1817959293
 20
179.6319838187
 10
87.1978977874
 20
179.4275478838
 10
87.2145673061
 20
179.2705663029
  0
ARC
  5
28E
330
A
100
AcDbEntity
  8
1
  6
CONTINUOUS
370
    50
100
AcDbCircle
 10
87.2850948632
 20
177.6559026643
 30
0.0
 40
4.7161766651
100
AcDbArc
 50
87.85558775710001
 51
90.85685551630002
  0
ARC
  5
28F
330
A
100
AcDbEntity
  8
1
  6
CONTINUOUS
370
    50
100
AcDbCircle
 10
93.234962456
 20
171.4200976813
 30
0.0
 40
12.3776279015
100
AcDbArc
 50
117.8033277308
 51
119.0293663285
  0
ARC
  5
290
330
A
100
AcDbEntity
  8
1
  6
CONTINUOUS
370
    50
100
AcDbCircle
 10
82.9592720314
 20
181.8421043733
 30
0.0
 40
4.288105947
100
AcDbArc
 50
5.3609071018
 51
7.0923433104
  0
LWPOLYLINE
  5
291
330
A
100
AcDbEntity
  8
1
  6
CONTINUOUS
370
    50
100
AcDbPolyline
 90
       18
 70
   128
 43
0.0
 10
87.2145673061
 20
179.2705663029
 10
86.7170027046
 20
179.2895362963
 10
86.2363820688
 20
179.3606604629
 10
85.7890723581
 20
179.4815167544
 10
85.3903061682
 20
179.6479895548
 10
85.0536630033
 20
179.8544098326
 10
84.7906068428
 20
180.0937481927
 10
84.6100957486
 20
180.3578542544
 10
84.5182768096
 20
180.6377342024
 10
84.5182768096
 20
180.9238570609
 10
84.6100957486
 20
181.2064792591
 10
84.7906068428
 20
181.475976437
 10
85.0536630033
 20
181.7231711913
 10
85.3903061682
 20
181.9396456013
 10
85.7890723581
 20
182.1180278905
 10
86.2363820688
 20
182.252243464
 10
86.7170027046
 20
182.3377217714
 10
87.2145673061
 20
182.3715519515
  0
LWPOLYLINE
  5
2A5
330
A
100
AcDbEntity
  8
1
  6
CONTINUOUS
370
    50
100
AcDbPolyline
 90
        9
 70
   128
 43
0.0
 10
87.2286215584
 20
182.2427379086
 10
87.2575413914
 20
182.2635464178
 10
87.2865733136
 20
182.2829445328
 10
87.3156896766
 20
182.3009137796
 10
87.3448627514
 20
182.3174370454
 10
87.3740647551
 20
182.3324985943
 10
87.4032678772
 20
182.3460840823
 10
87.4324443063
 20
182.3581805715
 10
87.4615662562
 20
182.3687765417
  0
LWPOLYLINE
  5
2B0
330
A
100
AcDbEntity
  8
1
  6
CONTINUOUS
370
    50
100
AcDbPolyline
 90
       17
 70
   128
 43
0.0
 10
95.4252391694
 20
160.0207329294
 10
94.3862935653
 20
160.8654840862
 10
93.4553784905
 20
161.8223754269
 10
92.6451615276
 20
162.8783858924
 10
91.9666678393
 20
164.019145644
 10
91.429130142
 20
165.2291316025
 10
91.0398630696
 20
166.4918786818
 10
90.8041636389
 20
167.79020384
 10
90.7252391694
 20
169.1064399004
 10
90.8041636389
 20
170.4226759607
 10
91.0398630696
 20
171.7210011189
 10
91.429130142
 20
172.9837481982
 10
91.9666678393
 20
174.1937341567
 10
92.6451615276
 20
175.3344939083
 10
93.4553784905
 20
176.3905043739
 10
94.3862935653
 20
177.3473957145
 10
95.4252391694
 20
178.1921468714
  0
LWPOLYLINE
  5
2C3
330
A
100
AcDbEntity
  8
1
  6
CONTINUOUS
370
    50
100
AcDbPolyline
 90
       17
 70
   128
 43
0.0
 10
95.4252391694
 20
158.6710266033
 10
94.3862935653
 20
159.5157777601
 10
93.4553784905
 20
160.4726691008
 10
92.6451615276
 20
161.5286795664
 10
91.9666678393
 20
162.6694393179
 10
91.429130142
 20
163.8794252764
 10
91.0398630696
 20
165.1421723558
 10
90.8041636389
 20
166.4404975139
 10
90.7252391694
 20
167.7567335743
 10
90.8041636389
 20
169.0729696347
 10
91.0398630696
 20
170.3712947928
 10
91.429130142
 20
171.6340418721
 10
91.9666678393
 20
172.8440278307
 10
92.6451615276
 20
173.9847875822
 10
93.4553784905
 20
175.0407980478
 10
94.3862935653
 20
175.9976893884
 10
95.4252391694
 20
176.8424405453
  0
LWPOLYLINE
  5
2D6
330
A
100
AcDbEntity
  8
1
  6
CONTINUOUS
370
    50
100
AcDbPolyline
 90
        9
 70
   128
 43
0.0
 10
87.4615662562
 20
179.2807185449
 10
87.4324443063
 20
179.2628649685
 10
87.4032678772
 20
179.2464586898
 10
87.3740647551
 20
179.2315153333
 10
87.3448627514
 20
179.2180491301
 10
87.3156896766
 20
179.2060729049
 10
87.2865733136
 20
179.1955980632
 10
87.2575413914
 20
179.1866345805
 10
87.2286215584
 20
179.1791909934
  0
LWPOLYLINE
  5
2E1
330
A
100
AcDbEntity
  8
1
  6
CONTINUOUS
370
    50
100
AcDbPolyline
 90
       25
 70
   128
 43
0.0
 10
92.0260181032
 20
182.5750525481
 10
91.9764924319
 20
183.1052750652
 10
92.0189523752
 20
183.5993637941
 10
92.1505043582
 20
184.0236474043
 10
92.3621833306
 20
184.349211669
 10
92.6395637203
 20
184.5538699215
 10
92.9637425121
 20
184.6236750402
 10
93.312627457
 20
184.5538699215
 10
93.6624426227
 20
184.349211669
 10
93.9893486837
 20
184.0236474043
 10
94.2710675321
 20
183.5993637941
 10
94.4884004941
 20
183.1052750652
 10
94.6265366874
 20
182.5750525481
 10
94.6760623587
 20
182.0448300309
 10
94.6336024153
 20
181.550741302
 10
94.5020504323
 20
181.1264576918
 10
94.2903714599
 20
180.8008934271
 10
94.0129910702
 20
180.5962351746
 10
93.6888122785
 20
180.526430056
 10
93.3399273335
 20
180.5962351746
 10
92.9901121678
 20
180.8008934271
 10
92.6632061068
 20
181.1264576918
 10
92.3814872584
 20
181.550741302
 10
92.1641542964
 20
182.0448300309
 10
92.0260181032
 20
182.5750525481
  0
LWPOLYLINE
  5
2FC
330
A
100
AcDbEntity
  8
1
  6
CONTINUOUS
370
    50
100
AcDbPolyline
 90
       25
 70
   128
 43
0.0
 10
94.6179833478
 20
182.5740297358
 10
94.4803772152
 20
183.1022176661
 10
94.2638782103
 20
183.5944104617
 10
93.9832403825
 20
184.0170659972
 10
93.657588736
 20
184.3413809962
 10
93.3091158923
 20
184.5452539275
 10
92.9615696999
 20
184.6147911877
 10
92.6386348574
 20
184.5452539275
 10
92.3623188407
 20
184.3413809962
 10
92.1514521296
 20
184.0170659972
 10
92.0204049421
 20
183.5944104617
 10
91.9781079275
 20
183.1022176661
 10
92.0274435573
 20
182.5740297358
 10
92.1650496899
 20
182.0458418055
 10
92.3815486948
 20
181.5536490098
 10
92.6621865226
 20
181.1309934744
 10
92.9878381691
 20
180.8066784754
 10
93.3363110128
 20
180.6028055441
 10
93.6838572052
 20
180.5332682839
 10
94.0067920477
 20
180.6028055441
 10
94.2831080644
 20
180.8066784754
 10
94.4939747754
 20
181.1309934744
 10
94.6250219629
 20
181.5536490098
 10
94.6673189776
 20
182.0458418055
 10
94.6179833478
 20
182.5740297358
  0
LINE
  5
317
330
A
100
AcDbEntity
  8
1
  6
CONTINUOUS
370
    50
100
AcDbLine
 10
91.9752391694
 20
193.9428875687
 30
0.0
 11
91.9752391694
 21
153.9428875687
 31
0.0
  0
LINE
  5
318
330
A
100
AcDbEntity
  8
1
  6
CONTINUOUS
370
    50
100
AcDbLine
 10
93.9752391694
 20
153.9428875687
 30
0.0
 11
93.9752391694
 21
193.9428875687
 31
0.0
  0
LINE
  5
319
330
A
100
AcDbEntity
  8
1
  6
CONTINUOUS
370
    50
100
AcDbLine
 10
91.9752391694
 20
153.9428875687
 30
0.0
 11
93.9752391694
 21
153.9428875687
 31
0.0
  0
LINE
  5
31A
330
A
100
AcDbEntity
  8
1
  6
CONTINUOUS
370
    50
100
AcDbLine
 10
83.1752391694
 20
153.9428875687
 30
0.0
 11
83.1752391694
 21
193.9428875687
 31
0.0
  0
LINE
  5
31B
330
A
100
AcDbEntity
  8
1
  6
CONTINUOUS
370
    50
100
AcDbLine
 10
78.5752391694
 20
193.9428875687
 30
0.0
 11
78.5752391694
 21
153.9428875687
 31
0.0
  0
LINE
  5
31C
330
A
100
AcDbEntity
  8
1
  6
CONTINUOUS
370
    50
100
AcDbLine
 10
78.5752391694
 20
153.9428875687
 30
0.0
 11
83.1752391694
 21
153.9428875687
 31
0.0
  0
LINE
  5
31D
330
A
100
AcDbEntity
  8
1
  6
CONTINUOUS
370
    50
100
AcDbLine
 10
83.1752391694
 20
193.9428875687
 30
0.0
 11
78.5752391694
 21
193.9428875687
 31
0.0
  0
LINE
  5
31E
330
A
100
AcDbEntity
  8
1
  6
CONTINUOUS
370
    50
100
AcDbLine
 10
93.9752391694
 20
193.9428875687
 30
0.0
 11
91.9752391694
 21
193.9428875687
 31
0.0
  0
LINE
  5
31F
330
A
100
AcDbEntity
  8
1
  6
CONTINUOUS
370
    50
100
AcDbLine
 10
95.4252391694
 20
166.8931135691
 30
0.0
 11
93.9055701629
 21
167.3292418213
 31
0.0
  0
LINE
  5
320
330
A
100
AcDbEntity
  8
1
  6
CONTINUOUS
370
    50
100
AcDbLine
 10
92.7469846276
 20
163.2922033576
 30
0.0
 11
95.4252391694
 21
162.5235738288
 31
0.0
  0
LINE
  5
321
330
A
100
AcDbEntity
  8
1
  6
CONTINUOUS
370
    50
100
AcDbLine
 10
77.3752391694
 20
163.0116870372
 30
0.0
 11
87.1777311763
 21
165.359237645
 31
0.0
  0
LINE
  5
322
330
A
100
AcDbEntity
  8
1
  6
CONTINUOUS
370
    50
100
AcDbLine
 10
86.1150542007
 20
168.4980556851
 30
0.0
 11
77.3752391694
 21
166.4050003607
 31
0.0
  0
LINE
  5
323
330
A
100
AcDbEntity
  8
1
  6
CONTINUOUS
370
    50
100
AcDbLine
 10
92.473340766
 20
166.4895069505
 30
0.0
 11
92.3687037817
 21
166.3222203809
 31
0.0
  0
LINE
  5
324
330
A
100
AcDbEntity
  8
1
  6
CONTINUOUS
370
    50
100
AcDbLine
 10
91.9780391754
 20
164.9609673752
 30
0.0
 11
91.9780391754
 21
164.7636511446
 31
0.0
  0
LINE
  5
325
330
A
100
AcDbEntity
  8
1
  6
CONTINUOUS
370
    50
100
AcDbLine
 10
93.4937973345
 20
166.9792511115
 30
0.0
 11
85.3549471241
 21
169.3150114002
 31
0.0
  0
LINE
  5
326
330
A
100
AcDbEntity
  8
1
  6
CONTINUOUS
370
    50
100
AcDbLine
 10
87.175635176
 20
165.3592842045
 30
0.0
 11
92.5834801282
 21
163.8072923186
 31
0.0
  0
LINE
  5
327
330
A
100
AcDbEntity
  8
1
  6
CONTINUOUS
370
    50
100
AcDbLine
 10
84.4446299178
 20
166.1430526073
 30
0.0
 11
86.0524911711
 21
165.6816141525
 31
0.0
  0
LINE
  5
328
330
A
100
AcDbEntity
  8
1
  6
CONTINUOUS
370
    50
100
AcDbLine
 10
77.6283930629
 20
196.9355466001
 30
0.0
 11
77.3752391694
 21
197.4784368767
 31
0.0
  0
ARC
  5
329
330
A
100
AcDbEntity
  8
1
  6
CONTINUOUS
370
    50
100
AcDbCircle
 10
77.1752391694
 20
196.7242374692
 30
0.0
 40
0.5
100
AcDbArc
 50
0.0
 51
25.0
  0
ARC
  5
32A
330
A
100
AcDbEntity
  8
1
  6
CONTINUOUS
370
    50
100
AcDbCircle
 10
77.1752391694
 20
151.5178875687
 30
0.0
 40
0.5
100
AcDbArc
 50
0.0
 51
66.4218215218
  0
ARC
  5
32B
330
A
100
AcDbEntity
  8
1
  6
CONTINUOUS
370
    50
100
AcDbCircle
 10
77.1752391694
 20
196.3678875687
 30
0.0
 40
0.5
100
AcDbArc
 50
293.5781784782001
 51
0.0
  0
LINE
  5
32C
330
A
100
AcDbEntity
  8
1
  6
CONTINUOUS
370
    50
100
AcDbLine
 10
85.3472866797
 20
169.3172098633
 30
0.0
 11
72.5256360197
 21
172.9968822584
 31
0.0
  0
LINE
  5
32D
330
A
100
AcDbEntity
  8
1
  6
CONTINUOUS
370
    50
100
AcDbLine
 10
70.3309031857
 20
170.1935365914
 30
0.0
 11
84.4369694734
 21
166.1452510704
 31
0.0
  0
ARC
  5
32E
330
A
100
AcDbEntity
  8
1
  6
CONTINUOUS
370
    50
100
AcDbCircle
 10
9.1252391694
 20
164.4428875687
 30
0.0
 40
1.0
100
AcDbArc
 50
136.778654881
 51
180.0
  0
ARC
  5
32F
330
A
100
AcDbEntity
  8
1
  6
CONTINUOUS
370
    50
100
AcDbCircle
 10
9.1252391694
 20
183.4428875687
 30
0.0
 40
1.0
100
AcDbArc
 50
180.0
 51
223.221345119
  0
LINE
  5
330
330
A
100
AcDbEntity
  8
1
  6
CONTINUOUS
370
    50
100
AcDbLine
 10
8.3965256155
 20
165.127706199
 30
0.0
 11
8.8965256155
 21
165.4163813336
 31
0.0
  0
LINE
  5
331
330
A
100
AcDbEntity
  8
1
  6
CONTINUOUS
370
    50
100
AcDbLine
 10
8.8965256155
 20
182.4693938039
 30
0.0
 11
8.3965256155
 21
182.7580689385
 31
0.0
  0
LINE
  5
332
330
A
100
AcDbEntity
  8
1
  6
CONTINUOUS
370
    50
100
AcDbLine
 10
14.3149506011
 20
182.5928875687
 30
0.0
 11
14.05514298
 21
182.4428875687
 31
0.0
  0
LINE
  5
333
330
A
100
AcDbEntity
  8
1
  6
CONTINUOUS
370
    50
100
AcDbLine
 10
14.05514298
 20
165.4428875687
 30
0.0
 11
14.3149506011
 21
165.2928875687
 31
0.0
  0
LINE
  5
334
330
A
100
AcDbEntity
  8
1
  6
CONTINUOUS
370
    50
100
AcDbLine
 10
16.6252391694
 20
165.2928875687
 30
0.0
 11
17.5345658434
 21
166.8678875687
 31
0.0
  0
LINE
  5
335
330
A
100
AcDbEntity
  8
1
  6
CONTINUOUS
370
    50
100
AcDbLine
 10
17.5345658434
 20
181.0178875687
 30
0.0
 11
16.6252391694
 21
182.5928875687
 31
0.0
  0
LINE
  5
336
330
A
100
AcDbEntity
  8
1
  6
CONTINUOUS
370
    50
100
AcDbLine
 10
16.6252391694
 20
182.5928875687
 30
0.0
 11
14.3149506011
 21
182.5928875687
 31
0.0
  0
LINE
  5
337
330
A
100
AcDbEntity
  8
1
  6
CONTINUOUS
370
    50
100
AcDbLine
 10
14.3149506011
 20
165.2928875687
 30
0.0
 11
16.6252391694
 21
165.2928875687
 31
0.0
  0
ARC
  5
338
330
A
100
AcDbEntity
  8
1
  6
CONTINUOUS
370
    50
100
AcDbCircle
 10
9.1252391694
 20
164.4428875687
 30
0.0
 40
1.0
100
AcDbArc
 50
90.0
 51
103.221345119
  0
ARC
  5
339
330
A
100
AcDbEntity
  8
1
  6
CONTINUOUS
370
    50
100
AcDbCircle
 10
9.1252391694
 20
183.4428875687
 30
0.0
 40
1.0
100
AcDbArc
 50
256.778654881
 51
270.0
  0
LINE
  5
33A
330
A
100
AcDbEntity
  8
1
  6
CONTINUOUS
370
    50
100
AcDbLine
 10
9.1252391694
 20
165.4428875687
 30
0.0
 11
14.05514298
 21
165.4428875687
 31
0.0
  0
LINE
  5
33B
330
A
100
AcDbEntity
  8
1
  6
CONTINUOUS
370
    50
100
AcDbLine
 10
14.05514298
 20
182.4428875687
 30
0.0
 11
9.1252391694
 21
182.4428875687
 31
0.0
  0
LINE
  5
33C
330
A
100
AcDbEntity
  8
1
  6
CONTINUOUS
370
    50
100
AcDbLine
 10
42.1152391694
 20
181.0178875687
 30
0.0
 11
17.5345658434
 21
181.0178875687
 31
0.0
  0
LINE
  5
33D
330
A
100
AcDbEntity
  8
1
  6
CONTINUOUS
370
    50
100
AcDbLine
 10
17.5345658434
 20
166.8678875687
 30
0.0
 11
42.1152391694
 21
166.8678875687
 31
0.0
  0
LINE
  5
33E
330
A
100
AcDbEntity
  8
1
  6
CONTINUOUS
370
    50
100
AcDbLine
 10
53.1252391694
 20
181.0178875687
 30
0.0
 11
42.1252391694
 21
181.0178875687
 31
0.0
  0
LINE
  5
33F
330
A
100
AcDbEntity
  8
1
  6
CONTINUOUS
370
    50
100
AcDbLine
 10
42.1252391694
 20
166.8678875687
 30
0.0
 11
53.1252391694
 21
166.8678875687
 31
0.0
  0
LINE
  5
340
330
A
100
AcDbEntity
  8
1
  6
CONTINUOUS
370
    50
100
AcDbLine
 10
87.1252391694
 20
180.9678875687
 30
0.0
 11
53.1434376811
 21
180.9678875687
 31
0.0
  0
LINE
  5
341
330
A
100
AcDbEntity
  8
1
  6
CONTINUOUS
370
    50
100
AcDbLine
 10
53.1434376811
 20
166.9178875687
 30
0.0
 11
87.1252391694
 21
166.9178875687
 31
0.0
  0
LINE
  5
342
330
A
100
AcDbEntity
  8
1
  6
CONTINUOUS
370
    50
100
AcDbLine
 10
87.1252391694
 20
166.9178875687
 30
0.0
 11
88.2943734645
 21
168.9428875687
 31
0.0
  0
LINE
  5
343
330
A
100
AcDbEntity
  8
1
  6
CONTINUOUS
370
    50
100
AcDbLine
 10
88.2943734645
 20
178.9428875687
 30
0.0
 11
87.1252391694
 21
180.9678875687
 31
0.0
  0
LINE
  5
344
330
A
100
AcDbEntity
  8
1
  6
CONTINUOUS
370
    50
100
AcDbLine
 10
82.2752391694
 20
198.7428875687
 30
0.0
 11
82.4752391694
 21
198.5428875687
 31
0.0
  0
LINE
  5
345
330
A
100
AcDbEntity
  8
1
  6
CONTINUOUS
370
    50
100
AcDbLine
 10
92.4752391694
 20
198.5428875687
 30
0.0
 11
92.6752391694
 21
198.7428875687
 31
0.0
  0
LINE
  5
346
330
A
100
AcDbEntity
  8
1
  6
CONTINUOUS
370
    50
100
AcDbLine
 10
88.2943734645
 20
168.9428875687
 30
0.0
 11
146.1252391694
 21
168.9428875687
 31
0.0
  0
LINE
  5
347
330
A
100
AcDbEntity
  8
1
  6
CONTINUOUS
370
    50
100
AcDbLine
 10
146.1252391694
 20
178.9428875687
 30
0.0
 11
88.2943734645
 21
178.9428875687
 31
0.0
  0
LINE
  5
348
330
A
100
AcDbEntity
  8
1
  6
CONTINUOUS
370
    50
100
AcDbLine
 10
146.1252391694
 20
168.9428875687
 30
0.0
 11
147.7995549501
 21
171.8428875687
 31
0.0
  0
LINE
  5
349
330
A
100
AcDbEntity
  8
1
  6
CONTINUOUS
370
    50
100
AcDbLine
 10
147.7995549501
 20
176.0428875687
 30
0.0
 11
146.1252391694
 21
178.9428875687
 31
0.0
  0
ARC
  5
34A
330
A
100
AcDbEntity
  8
1
  6
CONTINUOUS
370
    50
100
AcDbCircle
 10
82.7752391694
 20
194.3428875687
 30
0.0
 40
0.3
100
AcDbArc
 50
180.0
 51
270.0
  0
ARC
  5
34B
330
A
100
AcDbEntity
  8
1
  6
CONTINUOUS
370
    50
100
AcDbCircle
 10
92.1752391694
 20
194.3428875687
 30
0.0
 40
0.3
100
AcDbArc
 50
270.0
 51
0.0
  0
LINE
  5
34C
330
A
100
AcDbEntity
  8
1
  6
CONTINUOUS
370
    50
100
AcDbLine
 10
82.4752391694
 20
198.5428875687
 30
0.0
 11
82.4752391694
 21
194.3428875687
 31
0.0
  0
LINE
  5
34D
330
A
100
AcDbEntity
  8
1
  6
CONTINUOUS
370
    50
100
AcDbLine
 10
92.4752391694
 20
194.3428875687
 30
0.0
 11
92.4752391694
 21
198.5428875687
 31
0.0
  0
ARC
  5
34E
330
A
100
AcDbEntity
  8
1
  6
CONTINUOUS
370
    50
100
AcDbCircle
 10
194.8752391694
 20
169.4878875687
 30
0.0
 40
1.5
100
AcDbArc
 50
0.0
 51
75.9301322524
  0
ARC
  5
34F
330
A
100
AcDbEntity
  8
1
  6
CONTINUOUS
370
    50
100
AcDbCircle
 10
194.8752391694
 20
178.3978875687
 30
0.0
 40
1.5
100
AcDbArc
 50
284.0698677476
 51
0.0
  0
LINE
  5
350
330
A
100
AcDbEntity
  8
1
  6
CONTINUOUS
370
    50
100
AcDbLine
 10
160.8752391694
 20
170.7428875687
 30
0.0
 11
170.1876003319
 21
170.7428875687
 31
0.0
  0
LINE
  5
351
330
A
100
AcDbEntity
  8
1
  6
CONTINUOUS
370
    50
100
AcDbLine
 10
170.1876003319
 20
177.1428875687
 30
0.0
 11
160.8752391694
 21
177.1428875687
 31
0.0
  0
ARC
  5
352
330
A
100
AcDbEntity
  8
1
  6
CONTINUOUS
370
    50
100
AcDbCircle
 10
160.8752391694
 20
171.2428875687
 30
0.0
 40
0.5
100
AcDbArc
 50
180.0
 51
270.0
  0
ARC
  5
353
330
A
100
AcDbEntity
  8
1
  6
CONTINUOUS
370
    50
100
AcDbCircle
 10
160.8752391694
 20
176.6428875687
 30
0.0
 40
0.5
100
AcDbArc
 50
90.0
 51
180.0
  0
LINE
  5
354
330
A
100
AcDbEntity
  8
1
  6
CONTINUOUS
370
    50
100
AcDbLine
 10
170.1876003319
 20
170.7428875687
 30
0.0
 11
170.3030703858
 21
170.9428875687
 31
0.0
  0
LINE
  5
355
330
A
100
AcDbEntity
  8
1
  6
CONTINUOUS
370
    50
100
AcDbLine
 10
170.3030703858
 20
176.9428875687
 30
0.0
 11
170.1876003319
 21
177.1428875687
 31
0.0
  0
LINE
  5
356
330
A
100
AcDbEntity
  8
1
  6
CONTINUOUS
370
    50
100
AcDbLine
 10
170.3030703858
 20
170.9428875687
 30
0.0
 11
195.2398965428
 21
170.9428875687
 31
0.0
  0
LINE
  5
357
330
A
100
AcDbEntity
  8
1
  6
CONTINUOUS
370
    50
100
AcDbLine
 10
195.2398965428
 20
176.9428875687
 30
0.0
 11
170.3030703858
 21
176.9428875687
 31
0.0
  0
LINE
  5
358
330
A
100
AcDbEntity
  8
1
  6
CONTINUOUS
370
    50
100
AcDbLine
 10
147.7995549501
 20
171.8428875687
 30
0.0
 11
160.3752391694
 21
171.8428875687
 31
0.0
  0
LINE
  5
359
330
A
100
AcDbEntity
  8
1
  6
CONTINUOUS
370
    50
100
AcDbLine
 10
160.3752391694
 20
176.0428875687
 30
0.0
 11
147.7995549501
 21
176.0428875687
 31
0.0
  0
LINE
  5
35A
330
A
100
AcDbEntity
  8
1
  6
CONTINUOUS
370
    50
100
AcDbLine
 10
85.9752391694
 20
194.0428875687
 30
0.0
 11
86.3752391694
 21
193.6428875687
 31
0.0
  0
LINE
  5
35B
330
A
100
AcDbEntity
  8
1
  6
CONTINUOUS
370
    50
100
AcDbLine
 10
88.5752391694
 20
193.6428875687
 30
0.0
 11
88.9752391694
 21
194.0428875687
 31
0.0
  0
LINE
  5
35C
330
A
100
AcDbEntity
  8
1
  6
CONTINUOUS
370
    50
100
AcDbLine
 10
86.3752391694
 20
187.6428875687
 30
0.0
 11
87.4752391694
 21
187.2425203111
 31
0.0
  0
LINE
  5
35D
330
A
100
AcDbEntity
  8
1
  6
CONTINUOUS
370
    50
100
AcDbLine
 10
87.4752391694
 20
187.2425203111
 30
0.0
 11
88.5752391694
 21
187.6428875687
 31
0.0
  0
LINE
  5
35E
330
A
100
AcDbEntity
  8
1
  6
CONTINUOUS
370
    50
100
AcDbLine
 10
86.3752391694
 20
190.2328875687
 30
0.0
 11
86.3752391694
 21
187.6428875687
 31
0.0
  0
LINE
  5
35F
330
A
100
AcDbEntity
  8
1
  6
CONTINUOUS
370
    50
100
AcDbLine
 10
88.5752391694
 20
187.6428875687
 30
0.0
 11
88.5752391694
 21
190.2328875687
 31
0.0
  0
LINE
  5
360
330
A
100
AcDbEntity
  8
1
  6
CONTINUOUS
370
    50
100
AcDbLine
 10
86.3752391694
 20
193.6428875687
 30
0.0
 11
86.3752391694
 21
190.2428875687
 31
0.0
  0
LINE
  5
361
330
A
100
AcDbEntity
  8
1
  6
CONTINUOUS
370
    50
100
AcDbLine
 10
88.5752391694
 20
190.2428875687
 30
0.0
 11
88.5752391694
 21
193.6428875687
 31
0.0
  0
LINE
  5
362
330
A
100
AcDbEntity
  8
1
  6
CONTINUOUS
370
    50
100
AcDbLine
 10
84.4369694734
 20
181.7405240671
 30
0.0
 11
70.3309031857
 21
177.6922385461
 31
0.0
  0
LINE
  5
363
330
A
100
AcDbEntity
  8
1
  6
CONTINUOUS
370
    50
100
AcDbLine
 10
72.5256360197
 20
174.8888928791
 30
0.0
 11
85.3472866797
 21
178.5685652742
 31
0.0
  0
LINE
  5
364
330
A
100
AcDbEntity
  8
1
  6
CONTINUOUS
370
    50
100
AcDbLine
 10
86.0524911711
 20
182.204160985
 30
0.0
 11
84.4446299178
 21
181.7427225302
 31
0.0
  0
LINE
  5
365
330
A
100
AcDbEntity
  8
1
  6
CONTINUOUS
370
    50
100
AcDbLine
 10
92.5834801282
 20
184.0784828189
 30
0.0
 11
87.175635176
 21
182.526490933
 31
0.0
  0
LINE
  5
366
330
A
100
AcDbEntity
  8
1
  6
CONTINUOUS
370
    50
100
AcDbLine
 10
85.3549471241
 20
178.5707637373
 30
0.0
 11
93.4937973345
 21
180.906524026
 31
0.0
  0
LINE
  5
367
330
A
100
AcDbEntity
  8
1
  6
CONTINUOUS
370
    50
100
AcDbLine
 10
77.3752391694
 20
181.4807747768
 30
0.0
 11
86.1150542007
 21
179.3877194524
 31
0.0
  0
LINE
  5
368
330
A
100
AcDbEntity
  8
1
  6
CONTINUOUS
370
    50
100
AcDbLine
 10
87.1777311763
 20
182.5265374925
 30
0.0
 11
77.3752391694
 21
184.8740881003
 31
0.0
  0
LINE
  5
369
330
A
100
AcDbEntity
  8
1
  6
CONTINUOUS
370
    50
100
AcDbLine
 10
90.7252391694
 20
169.1064399004
 30
0.0
 11
90.7252391694
 21
167.7567335743
 31
0.0
  0
LINE
  5
36A
330
A
100
AcDbEntity
  8
1
  6
CONTINUOUS
370
    50
100
AcDbLine
 10
95.4252391694
 20
185.3622013087
 30
0.0
 11
92.7469846276
 21
184.5935717799
 31
0.0
  0
LINE
  5
36B
330
A
100
AcDbEntity
  8
1
  6
CONTINUOUS
370
    50
100
AcDbLine
 10
93.9055701629
 20
180.5565333162
 30
0.0
 11
95.4252391694
 21
180.9926615684
 31
0.0
  0
LINE
  5
36C
330
A
100
AcDbEntity
  8
1
  6
CONTINUOUS
370
    50
100
AcDbLine
 10
91.9780391754
 20
183.1221239929
 30
0.0
 11
91.9780391754
 21
182.9248077623
 31
0.0
  0
LINE
  5
36D
330
A
100
AcDbEntity
  8
1
  6
CONTINUOUS
370
    50
100
AcDbLine
 10
92.3687037817
 20
181.5635547566
 30
0.0
 11
92.473340766
 21
181.396268187
 31
0.0
  0
LINE
  5
36E
330
A
100
AcDbEntity
  8
1
  6
CONTINUOUS
370
    50
100
AcDbLine
 10
77.1752391694
 20
195.8678875687
 30
0.0
 11
77.1752391694
 21
152.0178875687
 31
0.0
  0
LINE
  5
36F
330
A
100
AcDbEntity
  8
1
  6
CONTINUOUS
370
    50
100
AcDbLine
 10
76.918129446
 20
195.9147336752
 30
0.0
 11
76.918129446
 21
151.9710414623
 31
0.0
  0
LINE
  5
370
330
A
100
AcDbEntity
  8
1
  6
CONTINUOUS
370
    50
100
AcDbLine
 10
77.1294385769
 20
195.8678875687
 30
0.0
 11
77.1294385769
 21
152.0178875687
 31
0.0
  0
LINE
  5
371
330
A
100
AcDbEntity
  8
1
  6
CONTINUOUS
370
    50
100
AcDbLine
 10
8.8777230631
 20
186.3224956064
 30
0.0
 11
8.8777230631
 21
161.5632795311
 31
0.0
  0
LINE
  5
372
330
A
100
AcDbEntity
  8
1
  6
CONTINUOUS
370
    50
100
AcDbLine
 10
83.6537858936
 20
180.1545446706
 30
0.0
 11
83.6087732753
 21
180.7880557523
 31
0.0
  0
LINE
  5
373
330
A
100
AcDbEntity
  8
1
  6
CONTINUOUS
370
    50
100
AcDbLine
 10
83.6087732753
 20
180.7880557523
 30
0.0
 11
83.702832063
 21
181.3529160784
 31
0.0
  0
LINE
  5
374
330
A
100
AcDbEntity
  8
1
  6
CONTINUOUS
370
    50
100
AcDbLine
 10
83.702832063
 20
181.3529160784
 30
0.0
 11
83.9257695277
 21
181.7879142678
 31
0.0
  0
LINE
  5
375
330
A
100
AcDbEntity
  8
1
  6
CONTINUOUS
370
    50
100
AcDbLine
 10
83.9257695277
 20
181.7879142678
 30
0.0
 11
84.2534269357
 21
182.045911517
 31
0.0
  0
LINE
  5
376
330
A
100
AcDbEntity
  8
1
  6
CONTINUOUS
370
    50
100
AcDbLine
 10
84.2534269357
 20
182.045911517
 30
0.0
 11
84.6502975227
 21
182.0989498208
 31
0.0
  0
LINE
  5
377
330
A
100
AcDbEntity
  8
1
  6
CONTINUOUS
370
    50
100
AcDbLine
 10
84.6502975227
 20
182.0989498208
 30
0.0
 11
85.0733742027
 21
181.941281656
 31
0.0
  0
LINE
  5
378
330
A
100
AcDbEntity
  8
1
  6
CONTINUOUS
370
    50
100
AcDbLine
 10
85.0733742027
 20
181.941281656
 30
0.0
 11
85.4768100526
 21
181.5899928148
 31
0.0
  0
LINE
  5
379
330
A
100
AcDbEntity
  8
1
  6
CONTINUOUS
370
    50
100
AcDbLine
 10
85.4768100526
 20
181.5899928148
 30
0.0
 11
85.8168865381
 21
181.0831508939
 31
0.0
  0
LINE
  5
37A
330
A
100
AcDbEntity
  8
1
  6
CONTINUOUS
370
    50
100
AcDbLine
 10
85.8168865381
 20
181.0831508939
 30
0.0
 11
86.0567510952
 21
180.4756800799
 31
0.0
  0
LINE
  5
37B
330
A
100
AcDbEntity
  8
1
  6
CONTINUOUS
370
    50
100
AcDbLine
 10
86.0567510952
 20
180.4756800799
 30
0.0
 11
86.1704106772
 21
179.8334092614
 31
0.0
  0
LINE
  5
37C
330
A
100
AcDbEntity
  8
1
  6
CONTINUOUS
370
    50
100
AcDbLine
 10
86.1704106772
 20
179.8334092614
 30
0.0
 11
86.1455485048
 21
179.2259384474
 31
0.0
  0
LINE
  5
37D
330
A
100
AcDbEntity
  8
1
  6
CONTINUOUS
370
    50
100
AcDbLine
 10
86.1455485048
 20
179.2259384474
 30
0.0
 11
85.9848587802
 21
178.7190965265
 31
0.0
  0
LINE
  5
37E
330
A
100
AcDbEntity
  8
1
  6
CONTINUOUS
370
    50
100
AcDbLine
 10
85.9848587802
 20
178.7190965265
 30
0.0
 11
85.7057547284
 21
178.3678076853
 31
0.0
  0
LINE
  5
37F
330
A
100
AcDbEntity
  8
1
  6
CONTINUOUS
370
    50
100
AcDbLine
 10
85.7057547284
 20
178.3678076853
 30
0.0
 11
85.3384816042
 21
178.2101395205
 31
0.0
  0
LINE
  5
380
330
A
100
AcDbEntity
  8
1
  6
CONTINUOUS
370
    50
100
AcDbLine
 10
85.3384816042
 20
178.2101395205
 30
0.0
 11
84.9228391493
 21
178.2631778243
 31
0.0
  0
LINE
  5
381
330
A
100
AcDbEntity
  8
1
  6
CONTINUOUS
370
    50
100
AcDbLine
 10
84.9228391493
 20
178.2631778243
 30
0.0
 11
84.5038686732
 21
178.5211750735
 31
0.0
  0
LINE
  5
382
330
A
100
AcDbEntity
  8
1
  6
CONTINUOUS
370
    50
100
AcDbLine
 10
84.5038686732
 20
178.5211750735
 30
0.0
 11
84.1269721279
 21
178.9561732629
 31
0.0
  0
LINE
  5
383
330
A
100
AcDbEntity
  8
1
  6
CONTINUOUS
370
    50
100
AcDbLine
 10
84.1269721279
 20
178.9561732629
 30
0.0
 11
83.8329921022
 21
179.5210335889
 31
0.0
  0
LINE
  5
384
330
A
100
AcDbEntity
  8
1
  6
CONTINUOUS
370
    50
100
AcDbLine
 10
83.8329921022
 20
179.5210335889
 30
0.0
 11
83.6537858936
 21
180.1545446706
 31
0.0
  0
LINE
  5
385
330
A
100
AcDbEntity
  8
1
  6
CONTINUOUS
370
    50
100
AcDbLine
 10
91.8279853326
 20
183.618185071
 30
0.0
 11
91.7531622126
 21
183.039756527
 31
0.0
  0
LINE
  5
386
330
A
100
AcDbEntity
  8
1
  6
CONTINUOUS
370
    50
100
AcDbLine
 10
91.7531622126
 20
183.039756527
 30
0.0
 11
91.8176404196
 21
182.4020246176
 31
0.0
  0
LINE
  5
387
330
A
100
AcDbEntity
  8
1
  6
CONTINUOUS
370
    50
100
AcDbLine
 10
91.8176404196
 20
182.4020246176
 30
0.0
 11
92.0144327394
 21
181.7740974907
 31
0.0
  0
LINE
  5
388
330
A
100
AcDbEntity
  8
1
  6
CONTINUOUS
370
    50
100
AcDbLine
 10
92.0144327394
 20
181.7740974907
 30
0.0
 11
92.3222136706
 21
181.2240207936
 31
0.0
  0
LINE
  5
389
330
A
100
AcDbEntity
  8
1
  6
CONTINUOUS
370
    50
100
AcDbLine
 10
92.3222136706
 20
181.2240207936
 30
0.0
 11
92.7076303737
 21
180.8114038719
 31
0.0
  0
LINE
  5
38A
330
A
100
AcDbEntity
  8
1
  6
CONTINUOUS
370
    50
100
AcDbLine
 10
92.7076303737
 20
180.8114038719
 30
0.0
 11
93.1289169684
 21
180.5809601715
 31
0.0
  0
LINE
  5
38B
330
A
100
AcDbEntity
  8
1
  6
CONTINUOUS
370
    50
100
AcDbLine
 10
93.1289169684
 20
180.5809601715
 30
0.0
 11
93.5404205154
 21
180.5576618429
 31
0.0
  0
LINE
  5
38C
330
A
100
AcDbEntity
  8
1
  6
CONTINUOUS
370
    50
100
AcDbLine
 10
93.5404205154
 20
180.5576618429
 30
0.0
 11
93.8975482201
 21
180.7440336217
 31
0.0
  0
LINE
  5
38D
330
A
100
AcDbEntity
  8
1
  6
CONTINUOUS
370
    50
100
AcDbLine
 10
93.8975482201
 20
180.7440336217
 30
0.0
 11
94.1615997543
 21
181.1198792336
 31
0.0
  0
LINE
  5
38E
330
A
100
AcDbEntity
  8
1
  6
CONTINUOUS
370
    50
100
AcDbLine
 10
94.1615997543
 20
181.1198792336
 30
0.0
 11
94.3039610372
 21
181.6444699749
 31
0.0
  0
LINE
  5
38F
330
A
100
AcDbEntity
  8
1
  6
CONTINUOUS
370
    50
100
AcDbLine
 10
94.3039610372
 20
181.6444699749
 30
0.0
 11
94.3092050147
 21
182.2609582988
 31
0.0
  0
LINE
  5
390
330
A
100
AcDbEntity
  8
1
  6
CONTINUOUS
370
    50
100
AcDbLine
 10
94.3092050147
 20
182.2609582988
 30
0.0
 11
94.1767634205
 21
182.9025381296
 31
0.0
  0
LINE
  5
391
330
A
100
AcDbEntity
  8
1
  6
CONTINUOUS
370
    50
100
AcDbLine
 10
94.1767634205
 20
182.9025381296
 30
0.0
 11
93.9209883565
 21
183.4996843376
 31
0.0
  0
LINE
  5
392
330
A
100
AcDbEntity
  8
1
  6
CONTINUOUS
370
    50
100
AcDbLine
 10
93.9209883565
 20
183.4996843376
 30
0.0
 11
93.5695970195
 21
183.9876868654
 31
0.0
  0
LINE
  5
393
330
A
100
AcDbEntity
  8
1
  6
CONTINUOUS
370
    50
100
AcDbLine
 10
93.5695970195
 20
183.9876868654
 30
0.0
 11
93.1606681134
 21
184.313663067
 31
0.0
  0
LINE
  5
394
330
A
100
AcDbEntity
  8
1
  6
CONTINUOUS
370
    50
100
AcDbLine
 10
93.1606681134
 20
184.313663067
 30
0.0
 11
92.7385154302
 21
184.4422883629
 31
0.0
  0
LINE
  5
395
330
A
100
AcDbEntity
  8
1
  6
CONTINUOUS
370
    50
100
AcDbLine
 10
92.7385154302
 20
184.4422883629
 30
0.0
 11
92.3488857635
 21
184.3596242064
 31
0.0
  0
LINE
  5
396
330
A
100
AcDbEntity
  8
1
  6
CONTINUOUS
370
    50
100
AcDbLine
 10
92.3488857635
 20
184.3596242064
 30
0.0
 11
92.0340015336
 21
184.0746285417
 31
0.0
  0
LINE
  5
397
330
A
100
AcDbEntity
  8
1
  6
CONTINUOUS
370
    50
100
AcDbLine
 10
92.0340015336
 20
184.0746285417
 30
0.0
 11
91.8279853326
 21
183.618185071
 31
0.0
  0
LINE
  5
398
330
A
100
AcDbEntity
  8
1
  6
CONTINUOUS
370
    50
100
AcDbLine
 10
86.1381307039
 20
180.1567431337
 30
0.0
 11
86.1831433222
 21
179.523232052
 31
0.0
  0
LINE
  5
399
330
A
100
AcDbEntity
  8
1
  6
CONTINUOUS
370
    50
100
AcDbLine
 10
86.1831433222
 20
179.523232052
 30
0.0
 11
86.0890845344
 21
178.958371726
 31
0.0
  0
LINE
  5
39A
330
A
100
AcDbEntity
  8
1
  6
CONTINUOUS
370
    50
100
AcDbLine
 10
86.0890845344
 20
178.958371726
 30
0.0
 11
85.8661470698
 21
178.5233735366
 31
0.0
  0
LINE
  5
39B
330
A
100
AcDbEntity
  8
1
  6
CONTINUOUS
370
    50
100
AcDbLine
 10
85.8661470698
 20
178.5233735366
 30
0.0
 11
85.5384896618
 21
178.2653762874
 31
0.0
  0
LINE
  5
39C
330
A
100
AcDbEntity
  8
1
  6
CONTINUOUS
370
    50
100
AcDbLine
 10
85.5384896618
 20
178.2653762874
 30
0.0
 11
85.1416190747
 21
178.2123379836
 31
0.0
  0
LINE
  5
39D
330
A
100
AcDbEntity
  8
1
  6
CONTINUOUS
370
    50
100
AcDbLine
 10
85.1416190747
 20
178.2123379836
 30
0.0
 11
84.7185423948
 21
178.3700061484
 31
0.0
  0
LINE
  5
39E
330
A
100
AcDbEntity
  8
1
  6
CONTINUOUS
370
    50
100
AcDbLine
 10
84.7185423948
 20
178.3700061484
 30
0.0
 11
84.3151065449
 21
178.7212949896
 31
0.0
  0
LINE
  5
39F
330
A
100
AcDbEntity
  8
1
  6
CONTINUOUS
370
    50
100
AcDbLine
 10
84.3151065449
 20
178.7212949896
 30
0.0
 11
83.9750300594
 21
179.2281369105
 31
0.0
  0
LINE
  5
3A0
330
A
100
AcDbEntity
  8
1
  6
CONTINUOUS
370
    50
100
AcDbLine
 10
83.9750300594
 20
179.2281369105
 30
0.0
 11
83.7351655023
 21
179.8356077245
 31
0.0
  0
LINE
  5
3A1
330
A
100
AcDbEntity
  8
1
  6
CONTINUOUS
370
    50
100
AcDbLine
 10
83.7351655023
 20
179.8356077245
 30
0.0
 11
83.6215059203
 21
180.477878543
 31
0.0
  0
LINE
  5
3A2
330
A
100
AcDbEntity
  8
1
  6
CONTINUOUS
370
    50
100
AcDbLine
 10
83.6215059203
 20
180.477878543
 30
0.0
 11
83.6463680927
 21
181.085349357
 31
0.0
  0
LINE
  5
3A3
330
A
100
AcDbEntity
  8
1
  6
CONTINUOUS
370
    50
100
AcDbLine
 10
83.6463680927
 20
181.085349357
 30
0.0
 11
83.8070578172
 21
181.5921912779
 31
0.0
  0
LINE
  5
3A4
330
A
100
AcDbEntity
  8
1
  6
CONTINUOUS
370
    50
100
AcDbLine
 10
83.8070578172
 20
181.5921912779
 30
0.0
 11
84.086161869
 21
181.9434801191
 31
0.0
  0
LINE
  5
3A5
330
A
100
AcDbEntity
  8
1
  6
CONTINUOUS
370
    50
100
AcDbLine
 10
84.086161869
 20
181.9434801191
 30
0.0
 11
84.4534349933
 21
182.1011482839
 31
0.0
  0
LINE
  5
3A6
330
A
100
AcDbEntity
  8
1
  6
CONTINUOUS
370
    50
100
AcDbLine
 10
84.4534349933
 20
182.1011482839
 30
0.0
 11
84.8690774481
 21
182.0481099801
 31
0.0
  0
LINE
  5
3A7
330
A
100
AcDbEntity
  8
1
  6
CONTINUOUS
370
    50
100
AcDbLine
 10
84.8690774481
 20
182.0481099801
 30
0.0
 11
85.2880479243
 21
181.7901127309
 31
0.0
  0
LINE
  5
3A8
330
A
100
AcDbEntity
  8
1
  6
CONTINUOUS
370
    50
100
AcDbLine
 10
85.2880479243
 20
181.7901127309
 30
0.0
 11
85.6649444696
 21
181.3551145415
 31
0.0
  0
LINE
  5
3A9
330
A
100
AcDbEntity
  8
1
  6
CONTINUOUS
370
    50
100
AcDbLine
 10
85.6649444696
 20
181.3551145415
 30
0.0
 11
85.9589244953
 21
180.7902542154
 31
0.0
  0
LINE
  5
3AA
330
A
100
AcDbEntity
  8
1
  6
CONTINUOUS
370
    50
100
AcDbLine
 10
85.9589244953
 20
180.7902542154
 30
0.0
 11
86.1381307039
 21
180.1567431337
 31
0.0
  0
LINE
  5
3AB
330
A
100
AcDbEntity
  8
1
  6
CONTINUOUS
370
    50
100
AcDbLine
 10
83.6537858936
 20
167.7312304669
 30
0.0
 11
83.6087732753
 21
167.0977193852
 31
0.0
  0
LINE
  5
3AC
330
A
100
AcDbEntity
  8
1
  6
CONTINUOUS
370
    50
100
AcDbLine
 10
83.6087732753
 20
167.0977193852
 30
0.0
 11
83.702832063
 21
166.5328590591
 31
0.0
  0
LINE
  5
3AD
330
A
100
AcDbEntity
  8
1
  6
CONTINUOUS
370
    50
100
AcDbLine
 10
83.702832063
 20
166.5328590591
 30
0.0
 11
83.9257695277
 21
166.0978608697
 31
0.0
  0
LINE
  5
3AE
330
A
100
AcDbEntity
  8
1
  6
CONTINUOUS
370
    50
100
AcDbLine
 10
83.9257695277
 20
166.0978608697
 30
0.0
 11
84.2534269357
 21
165.8398636205
 31
0.0
  0
LINE
  5
3AF
330
A
100
AcDbEntity
  8
1
  6
CONTINUOUS
370
    50
100
AcDbLine
 10
84.2534269357
 20
165.8398636205
 30
0.0
 11
84.6502975227
 21
165.7868253167
 31
0.0
  0
LINE
  5
3B0
330
A
100
AcDbEntity
  8
1
  6
CONTINUOUS
370
    50
100
AcDbLine
 10
84.6502975227
 20
165.7868253167
 30
0.0
 11
85.0733742027
 21
165.9444934815
 31
0.0
  0
LINE
  5
3B1
330
A
100
AcDbEntity
  8
1
  6
CONTINUOUS
370
    50
100
AcDbLine
 10
85.0733742027
 20
165.9444934815
 30
0.0
 11
85.4768100526
 21
166.2957823227
 31
0.0
  0
LINE
  5
3B2
330
A
100
AcDbEntity
  8
1
  6
CONTINUOUS
370
    50
100
AcDbLine
 10
85.4768100526
 20
166.2957823227
 30
0.0
 11
85.8168865381
 21
166.8026242436
 31
0.0
  0
LINE
  5
3B3
330
A
100
AcDbEntity
  8
1
  6
CONTINUOUS
370
    50
100
AcDbLine
 10
85.8168865381
 20
166.8026242436
 30
0.0
 11
86.0567510952
 21
167.4100950576
 31
0.0
  0
LINE
  5
3B4
330
A
100
AcDbEntity
  8
1
  6
CONTINUOUS
370
    50
100
AcDbLine
 10
86.0567510952
 20
167.4100950576
 30
0.0
 11
86.1704106772
 21
168.0523658761
 31
0.0
  0
LINE
  5
3B5
330
A
100
AcDbEntity
  8
1
  6
CONTINUOUS
370
    50
100
AcDbLine
 10
86.1704106772
 20
168.0523658761
 30
0.0
 11
86.1455485048
 21
168.6598366901
 31
0.0
  0
LINE
  5
3B6
330
A
100
AcDbEntity
  8
1
  6
CONTINUOUS
370
    50
100
AcDbLine
 10
86.1455485048
 20
168.6598366901
 30
0.0
 11
85.9848587802
 21
169.166678611
 31
0.0
  0
LINE
  5
3B7
330
A
100
AcDbEntity
  8
1
  6
CONTINUOUS
370
    50
100
AcDbLine
 10
85.9848587802
 20
169.166678611
 30
0.0
 11
85.7057547284
 21
169.5179674522
 31
0.0
  0
LINE
  5
3B8
330
A
100
AcDbEntity
  8
1
  6
CONTINUOUS
370
    50
100
AcDbLine
 10
85.7057547284
 20
169.5179674522
 30
0.0
 11
85.3384816042
 21
169.675635617
 31
0.0
  0
LINE
  5
3B9
330
A
100
AcDbEntity
  8
1
  6
CONTINUOUS
370
    50
100
AcDbLine
 10
85.3384816042
 20
169.675635617
 30
0.0
 11
84.9228391493
 21
169.6225973132
 31
0.0
  0
LINE
  5
3BA
330
A
100
AcDbEntity
  8
1
  6
CONTINUOUS
370
    50
100
AcDbLine
 10
84.9228391493
 20
169.6225973132
 30
0.0
 11
84.5038686732
 21
169.364600064
 31
0.0
  0
LINE
  5
3BB
330
A
100
AcDbEntity
  8
1
  6
CONTINUOUS
370
    50
100
AcDbLine
 10
84.5038686732
 20
169.364600064
 30
0.0
 11
84.1269721279
 21
168.9296018746
 31
0.0
  0
LINE
  5
3BC
330
A
100
AcDbEntity
  8
1
  6
CONTINUOUS
370
    50
100
AcDbLine
 10
84.1269721279
 20
168.9296018746
 30
0.0
 11
83.8329921022
 21
168.3647415486
 31
0.0
  0
LINE
  5
3BD
330
A
100
AcDbEntity
  8
1
  6
CONTINUOUS
370
    50
100
AcDbLine
 10
83.8329921022
 20
168.3647415486
 30
0.0
 11
83.6537858936
 21
167.7312304669
 31
0.0
  0
LINE
  5
3BE
330
A
100
AcDbEntity
  8
1
  6
CONTINUOUS
370
    50
100
AcDbLine
 10
91.8279853326
 20
164.2675900665
 30
0.0
 11
91.7531622126
 21
164.8460186105
 31
0.0
  0
LINE
  5
3BF
330
A
100
AcDbEntity
  8
1
  6
CONTINUOUS
370
    50
100
AcDbLine
 10
91.7531622126
 20
164.8460186105
 30
0.0
 11
91.8176404196
 21
165.4837505199
 31
0.0
  0
LINE
  5
3C0
330
A
100
AcDbEntity
  8
1
  6
CONTINUOUS
370
    50
100
AcDbLine
 10
91.8176404196
 20
165.4837505199
 30
0.0
 11
92.0144327394
 21
166.1116776468
 31
0.0
  0
LINE
  5
3C1
330
A
100
AcDbEntity
  8
1
  6
CONTINUOUS
370
    50
100
AcDbLine
 10
92.0144327394
 20
166.1116776468
 30
0.0
 11
92.3222136706
 21
166.6617543439
 31
0.0
  0
LINE
  5
3C2
330
A
100
AcDbEntity
  8
1
  6
CONTINUOUS
370
    50
100
AcDbLine
 10
92.3222136706
 20
166.6617543439
 30
0.0
 11
92.7076303737
 21
167.0743712656
 31
0.0
  0
LINE
  5
3C3
330
A
100
AcDbEntity
  8
1
  6
CONTINUOUS
370
    50
100
AcDbLine
 10
92.7076303737
 20
167.0743712656
 30
0.0
 11
93.1289169684
 21
167.304814966
 31
0.0
  0
LINE
  5
3C4
330
A
100
AcDbEntity
  8
1
  6
CONTINUOUS
370
    50
100
AcDbLine
 10
93.1289169684
 20
167.304814966
 30
0.0
 11
93.5404205154
 21
167.3281132946
 31
0.0
  0
LINE
  5
3C5
330
A
100
AcDbEntity
  8
1
  6
CONTINUOUS
370
    50
100
AcDbLine
 10
93.5404205154
 20
167.3281132946
 30
0.0
 11
93.8975482201
 21
167.1417415158
 31
0.0
  0
LINE
  5
3C6
330
A
100
AcDbEntity
  8
1
  6
CONTINUOUS
370
    50
100
AcDbLine
 10
93.8975482201
 20
167.1417415158
 30
0.0
 11
94.1615997543
 21
166.7658959039
 31
0.0
  0
LINE
  5
3C7
330
A
100
AcDbEntity
  8
1
  6
CONTINUOUS
370
    50
100
AcDbLine
 10
94.1615997543
 20
166.7658959039
 30
0.0
 11
94.3039610372
 21
166.2413051626
 31
0.0
  0
LINE
  5
3C8
330
A
100
AcDbEntity
  8
1
  6
CONTINUOUS
370
    50
100
AcDbLine
 10
94.3039610372
 20
166.2413051626
 30
0.0
 11
94.3092050147
 21
165.6248168387
 31
0.0
  0
LINE
  5
3C9
330
A
100
AcDbEntity
  8
1
  6
CONTINUOUS
370
    50
100
AcDbLine
 10
94.3092050147
 20
165.6248168387
 30
0.0
 11
94.1767634205
 21
164.9832370079
 31
0.0
  0
LINE
  5
3CA
330
A
100
AcDbEntity
  8
1
  6
CONTINUOUS
370
    50
100
AcDbLine
 10
94.1767634205
 20
164.9832370079
 30
0.0
 11
93.9209883565
 21
164.3860907999
 31
0.0
  0
LINE
  5
3CB
330
A
100
AcDbEntity
  8
1
  6
CONTINUOUS
370
    50
100
AcDbLine
 10
93.9209883565
 20
164.3860907999
 30
0.0
 11
93.5695970195
 21
163.8980882721
 31
0.0
  0
LINE
  5
3CC
330
A
100
AcDbEntity
  8
1
  6
CONTINUOUS
370
    50
100
AcDbLine
 10
93.5695970195
 20
163.8980882721
 30
0.0
 11
93.1606681134
 21
163.5721120705
 31
0.0
  0
LINE
  5
3CD
330
A
100
AcDbEntity
  8
1
  6
CONTINUOUS
370
    50
100
AcDbLine
 10
93.1606681134
 20
163.5721120705
 30
0.0
 11
92.7385154302
 21
163.4434867746
 31
0.0
  0
LINE
  5
3CE
330
A
100
AcDbEntity
  8
1
  6
CONTINUOUS
370
    50
100
AcDbLine
 10
92.7385154302
 20
163.4434867746
 30
0.0
 11
92.3488857635
 21
163.5261509311
 31
0.0
  0
LINE
  5
3CF
330
A
100
AcDbEntity
  8
1
  6
CONTINUOUS
370
    50
100
AcDbLine
 10
92.3488857635
 20
163.5261509311
 30
0.0
 11
92.0340015336
 21
163.8111465958
 31
0.0
  0
LINE
  5
3D0
330
A
100
AcDbEntity
  8
1
  6
CONTINUOUS
370
    50
100
AcDbLine
 10
92.0340015336
 20
163.8111465958
 30
0.0
 11
91.8279853326
 21
164.2675900665
 31
0.0
  0
LINE
  5
3D1
330
A
100
AcDbEntity
  8
1
  6
CONTINUOUS
370
    50
100
AcDbLine
 10
83.661446338
 20
167.7290320038
 30
0.0
 11
83.6164337197
 21
167.0955209221
 31
0.0
  0
LINE
  5
3D2
330
A
100
AcDbEntity
  8
1
  6
CONTINUOUS
370
    50
100
AcDbLine
 10
83.6164337197
 20
167.0955209221
 30
0.0
 11
83.7104925075
 21
166.530660596
 31
0.0
  0
LINE
  5
3D3
330
A
100
AcDbEntity
  8
1
  6
CONTINUOUS
370
    50
100
AcDbLine
 10
83.7104925075
 20
166.530660596
 30
0.0
 11
83.9334299721
 21
166.0956624066
 31
0.0
  0
LINE
  5
3D4
330
A
100
AcDbEntity
  8
1
  6
CONTINUOUS
370
    50
100
AcDbLine
 10
83.9334299721
 20
166.0956624066
 30
0.0
 11
84.2610873801
 21
165.8376651574
 31
0.0
  0
LINE
  5
3D5
330
A
100
AcDbEntity
  8
1
  6
CONTINUOUS
370
    50
100
AcDbLine
 10
84.2610873801
 20
165.8376651574
 30
0.0
 11
84.6579579672
 21
165.7846268536
 31
0.0
  0
LINE
  5
3D6
330
A
100
AcDbEntity
  8
1
  6
CONTINUOUS
370
    50
100
AcDbLine
 10
84.6579579672
 20
165.7846268536
 30
0.0
 11
85.0810346471
 21
165.9422950184
 31
0.0
  0
LINE
  5
3D7
330
A
100
AcDbEntity
  8
1
  6
CONTINUOUS
370
    50
100
AcDbLine
 10
85.0810346471
 20
165.9422950184
 30
0.0
 11
85.484470497
 21
166.2935838596
 31
0.0
  0
LINE
  5
3D8
330
A
100
AcDbEntity
  8
1
  6
CONTINUOUS
370
    50
100
AcDbLine
 10
85.484470497
 20
166.2935838596
 30
0.0
 11
85.8245469825
 21
166.8004257805
 31
0.0
  0
LINE
  5
3D9
330
A
100
AcDbEntity
  8
1
  6
CONTINUOUS
370
    50
100
AcDbLine
 10
85.8245469825
 20
166.8004257805
 30
0.0
 11
86.0644115396
 21
167.4078965945
 31
0.0
  0
LINE
  5
3DA
330
A
100
AcDbEntity
  8
1
  6
CONTINUOUS
370
    50
100
AcDbLine
 10
86.0644115396
 20
167.4078965945
 30
0.0
 11
86.1780711216
 21
168.050167413
 31
0.0
  0
LINE
  5
3DB
330
A
100
AcDbEntity
  8
1
  6
CONTINUOUS
370
    50
100
AcDbLine
 10
86.1780711216
 20
168.050167413
 30
0.0
 11
86.1532089492
 21
168.657638227
 31
0.0
  0
LINE
  5
3DC
330
A
100
AcDbEntity
  8
1
  6
CONTINUOUS
370
    50
100
AcDbLine
 10
86.1532089492
 20
168.657638227
 30
0.0
 11
85.9925192247
 21
169.1644801479
 31
0.0
  0
LINE
  5
3DD
330
A
100
AcDbEntity
  8
1
  6
CONTINUOUS
370
    50
100
AcDbLine
 10
85.9925192247
 20
169.1644801479
 30
0.0
 11
85.7134151729
 21
169.5157689891
 31
0.0
  0
LINE
  5
3DE
330
A
100
AcDbEntity
  8
1
  6
CONTINUOUS
370
    50
100
AcDbLine
 10
85.7134151729
 20
169.5157689891
 30
0.0
 11
85.3461420486
 21
169.6734371539
 31
0.0
  0
LINE
  5
3DF
330
A
100
AcDbEntity
  8
1
  6
CONTINUOUS
370
    50
100
AcDbLine
 10
85.3461420486
 20
169.6734371539
 30
0.0
 11
84.9304995938
 21
169.6203988501
 31
0.0
  0
LINE
  5
3E0
330
A
100
AcDbEntity
  8
1
  6
CONTINUOUS
370
    50
100
AcDbLine
 10
84.9304995938
 20
169.6203988501
 30
0.0
 11
84.5115291176
 21
169.3624016009
 31
0.0
  0
LINE
  5
3E1
330
A
100
AcDbEntity
  8
1
  6
CONTINUOUS
370
    50
100
AcDbLine
 10
84.5115291176
 20
169.3624016009
 30
0.0
 11
84.1346325723
 21
168.9274034115
 31
0.0
  0
LINE
  5
3E2
330
A
100
AcDbEntity
  8
1
  6
CONTINUOUS
370
    50
100
AcDbLine
 10
84.1346325723
 20
168.9274034115
 30
0.0
 11
83.8406525466
 21
168.3625430855
 31
0.0
  0
LINE
  5
3E3
330
A
100
AcDbEntity
  8
1
  6
CONTINUOUS
370
    50
100
AcDbLine
 10
83.8406525466
 20
168.3625430855
 30
0.0
 11
83.661446338
 21
167.7290320038
 31
0.0
  0
LINE
  5
3E4
330
A
100
AcDbEntity
  8
1
  6
CONTINUOUS
370
    50
100
AcDbLine
 10
42.0352391694
 20
181.9428875687
 30
0.0
 11
17.0005168444
 21
181.9428875687
 31
0.0
  0
LINE
  5
3E5
330
A
100
AcDbEntity
  8
1
  6
CONTINUOUS
370
    50
100
AcDbLine
 10
17.0005168444
 20
165.9428875687
 30
0.0
 11
42.0352391694
 21
165.9428875687
 31
0.0
  0
LINE
  5
3E6
330
A
100
AcDbEntity
  8
1
  6
CONTINUOUS
370
    50
100
AcDbLine
 10
42.0352391694
 20
181.9428875687
 30
0.0
 11
42.0352391694
 21
181.9155635128
 31
0.0
  0
LINE
  5
3E7
330
A
100
AcDbEntity
  8
1
  6
CONTINUOUS
370
    50
100
AcDbLine
 10
42.0352391694
 20
181.9155635128
 30
0.0
 11
42.0352391694
 21
165.9428875687
 31
0.0
  0
LINE
  5
3E8
330
A
100
AcDbEntity
  8
1
  6
CONTINUOUS
370
    50
100
AcDbLine
 10
42.0352391694
 20
181.0178875687
 30
0.0
 11
42.0352391694
 21
180.9104024213
 31
0.0
  0
LINE
  5
3E9
330
A
100
AcDbEntity
  8
1
  6
CONTINUOUS
370
    50
100
AcDbLine
 10
42.0352391694
 20
180.9104024213
 30
0.0
 11
42.0352391694
 21
173.9428875687
 31
0.0
  0
LINE
  5
3EA
330
A
100
AcDbEntity
  8
1
  6
CONTINUOUS
370
    50
100
AcDbLine
 10
160.3695549501
 20
176.4428875687
 30
0.0
 11
147.7995549501
 21
176.4428875687
 31
0.0
  0
LINE
  5
3EB
330
A
100
AcDbEntity
  8
1
  6
CONTINUOUS
370
    50
100
AcDbLine
 10
147.7995549501
 20
171.4428875687
 30
0.0
 11
160.3695549501
 21
171.4428875687
 31
0.0
  0
LINE
  5
3EC
330
A
100
AcDbEntity
  8
1
  6
CONTINUOUS
370
    50
100
AcDbLine
 10
160.3695549501
 20
176.4428875687
 30
0.0
 11
160.3695549501
 21
176.3802073492
 31
0.0
  0
LINE
  5
3ED
330
A
100
AcDbEntity
  8
1
  6
CONTINUOUS
370
    50
100
AcDbLine
 10
160.3695549501
 20
176.3802073492
 30
0.0
 11
160.3695549501
 21
171.4428875687
 31
0.0
  0
ENDSEC
  0
SECTION
  2
OBJECTS
  0
DICTIONARY
  5
19
330
0
100
AcDbDictionary
281
     1
  3
ACAD_GROUP
350
1A
  3
ACAD_LAYOUT
350
412
  3
ACAD_MATERIAL
350
426
  3
ACAD_MLEADERSTYLE
350
42E
  3
ACAD_MLINESTYLE
350
1B
  3
ACAD_SCALELIST
350
3F0
  3
ACAD_VISUALSTYLE
350
415
  3
ACDB_RECOMPOSE_DATA
350
45B
  3
AcDbVariableDictionary
350
42C
  0
DICTIONARY
  5
432
330
7
100
AcDbDictionary
280
     1
281
     1
  3
ACAD_XREC_ROUNDTRIP
360
433
  0
DICTIONARY
  5
1A
102
{ACAD_REACTORS
330
19
102
}
330
19
100
AcDbDictionary
281
     1
  0
DICTIONARY
  5
412
102
{ACAD_REACTORS
330
19
102
}
330
19
100
AcDbDictionary
281
     1
  3
Layout1
350
414
  3
Model
350
413
  0
DICTIONARY
  5
426
102
{ACAD_REACTORS
330
19
102
}
330
19
100
AcDbDictionary
281
     1
  3
ByBlock
350
428
  3
ByLayer
350
427
  3
Global
350
429
  0
DICTIONARY
  5
42E
102
{ACAD_REACTORS
330
19
102
}
330
19
100
AcDbDictionary
281
     1
  0
DICTIONARY
  5
1B
102
{ACAD_REACTORS
330
19
102
}
330
19
100
AcDbDictionary
281
     1
  3
STANDARD
350
1C
  0
DICTIONARY
  5
3F0
102
{ACAD_REACTORS
330
19
102
}
330
19
100
AcDbDictionary
281
     1
  3
A0
350
3F1
  3
A1
350
3F2
  3
A2
350
3F3
  3
A3
350
3F4
  3
A4
350
3F5
  3
A5
350
3F6
  3
A6
350
3F7
  3
A7
350
3F8
  3
A8
350
3F9
  3
A9
350
3FA
  3
B0
350
3FB
  3
B1
350
3FC
  3
B2
350
3FD
  3
B3
350
3FE
  3
B4
350
3FF
  3
B5
350
400
  3
B6
350
401
  3
B7
350
402
  3
B8
350
403
  3
B9
350
404
  3
C0
350
405
  3
C1
350
406
  3
C2
350
407
  3
C3
350
408
  3
C4
350
409
  3
C5
350
40A
  3
C6
350
40B
  3
C7
350
40C
  3
C8
350
40D
  3
C9
350
40E
  3
D0
350
40F
  3
D1
350
410
  3
D2
350
411
  0
DICTIONARY
  5
415
102
{ACAD_REACTORS
330
19
102
}
330
19
100
AcDbDictionary
281
     1
  3
2dWireframe
350
41A
  3
3D Hidden
350
41C
  3
3dWireframe
350
41B
  3
Basic
350
41D
  3
Brighten
350
421
  3
ColorChange
350
425
  3
Conceptual
350
41F
  3
Dim
350
420
  3
Facepattern
350
424
  3
Flat
350
416
  3
FlatWithEdges
350
417
  3
Gouraud
350
418
  3
GouraudWithEdges
350
419
  3
Linepattern
350
423
  3
Realistic
350
41E
  3
Thicken
350
422
  0
XRECORD
  5
45B
102
{ACAD_REACTORS
330
19
102
}
330
19
100
AcDbXrecord
280
     1
  0
DICTIONARY
  5
42C
102
{ACAD_REACTORS
330
19
102
}
330
19
100
AcDbDictionary
281
     1
  3
CANNOSCALE
350
434
  3
DIMASSOC
350
430
  3
HIDETEXT
350
431
  3
MSLTSCALE
350
42F
  0
XRECORD
  5
433
102
{ACAD_REACTORS
330
432
102
}
330
432
100
AcDbXrecord
280
     1
102
VTR_0.000_0.000_1.000_1.000_VISUALSTYLE
340
41A
102
VTR_0.000_0.000_1.000_1.000_GRIDDISPLAY
 70
     3
102
VTR_0.000_0.000_1.000_1.000_GRIDMAJOR
 70
     5
102
VTR_0.000_0.000_1.000_1.000_DEFAULTLIGHTING
280
     1
102
VTR_0.000_0.000_1.000_1.000_DEFAULTLIGHTINGTYPE
 70
     1
102
VTR_0.000_0.000_1.000_1.000_BRIGHTNESS
141
0.0
102
VTR_0.000_0.000_1.000_1.000_CONTRAST
142
0.0
  0
LAYOUT
  5
414
102
{ACAD_REACTORS
330
412
102
}
330
412
100
AcDbPlotSettings
  1

  2
none_device
  4

  6

 40
0.0
 41
0.0
 42
0.0
 43
0.0
 44
0.0
 45
0.0
 46
0.0
 47
0.0
 48
0.0
 49
0.0
140
0.0
141
0.0
142
1.0
143
1.0
 70
   688
 72
     0
 73
     0
 74
     5
  7

 75
    16
147
1.0
148
0.0
149
0.0
100
AcDbLayout
  1
Layout1
 70
     1
 71
     1
 10
0.0
 20
0.0
 11
12.0
 21
9.0
 12
0.0
 22
0.0
 32
0.0
 14
1.000000000000000E+20
 24
1.000000000000000E+20
 34
1.000000000000000E+20
 15
-1.000000000000000E+20
 25
-1.000000000000000E+20
 35
-1.000000000000000E+20
146
0.0
 13
0.0
 23
0.0
 33
0.0
 16
1.0
 26
0.0
 36
0.0
 17
0.0
 27
1.0
 37
0.0
 76
     0
330
B
  0
LAYOUT
  5
413
102
{ACAD_REACTORS
330
412
102
}
330
412
100
AcDbPlotSettings
  1

  2
none_device
  4

  6

 40
0.0
 41
0.0
 42
0.0
 43
0.0
 44
0.0
 45
0.0
 46
0.0
 47
0.0
 48
0.0
 49
0.0
140
0.0
141
0.0
142
1.0
143
1.0
 70
  1712
 72
     0
 73
     0
 74
     0
  7

 75
     0
147
1.0
148
2667.54428576817
149
0.0
100
AcDbLayout
  1
Model
 70
     1
 71
     0
 10
0.0
 20
0.0
 11
0.0
 21
0.0
 12
0.0
 22
0.0
 32
0.0
 14
0.0
 24
0.0
 34
0.0
 15
210.0
 25
297.0
 35
0.0
146
0.0
 13
0.0
 23
0.0
 33
0.0
 16
1.0
 26
0.0
 36
0.0
 17
0.0
 27
1.0
 37
0.0
 76
     0
330
A
331
15
  0
MATERIAL
  5
428
102
{ACAD_REACTORS
330
426
102
}
102
{ACAD_XDICTIONARY
360
457
102
}
330
426
100
AcDbMaterial
  1
ByBlock
  0
MATERIAL
  5
427
102
{ACAD_REACTORS
330
426
102
}
102
{ACAD_XDICTIONARY
360
455
102
}
330
426
100
AcDbMaterial
  1
ByLayer
  0
MATERIAL
  5
429
102
{ACAD_REACTORS
330
426
102
}
102
{ACAD_XDICTIONARY
360
459
102
}
330
426
100
AcDbMaterial
  1
Global
  0
MLINESTYLE
  5
1C
102
{ACAD_REACTORS
330
1B
102
}
330
1B
100
AcDbMlineStyle
  2
STANDARD
 70
     0
  3

 62
     0
 51
90.0
 52
90.0
 71
     2
 49
0.5
 62
   256
  6
BYLAYER
 49
-0.5
 62
   256
  6
BYLAYER
  0
SCALE
  5
3F1
102
{ACAD_REACTORS
330
3F0
102
}
330
3F0
100
AcDbScale
 70
     0
300
1:1
140
1.0
141
1.0
290
     1
  0
SCALE
  5
3F2
102
{ACAD_REACTORS
330
3F0
102
}
330
3F0
100
AcDbScale
 70
     0
300
1:2
140
1.0
141
2.0
290
     0
  0
SCALE
  5
3F3
102
{ACAD_REACTORS
330
3F0
102
}
330
3F0
100
AcDbScale
 70
     0
300
1:4
140
1.0
141
4.0
290
     0
  0
SCALE
  5
3F4
102
{ACAD_REACTORS
330
3F0
102
}
330
3F0
100
AcDbScale
 70
     0
300
1:5
140
1.0
141
5.0
290
     0
  0
SCALE
  5
3F5
102
{ACAD_REACTORS
330
3F0
102
}
330
3F0
100
AcDbScale
 70
     0
300
1:8
140
1.0
141
8.0
290
     0
  0
SCALE
  5
3F6
102
{ACAD_REACTORS
330
3F0
102
}
330
3F0
100
AcDbScale
 70
     0
300
1:10
140
1.0
141
10.0
290
     0
  0
SCALE
  5
3F7
102
{ACAD_REACTORS
330
3F0
102
}
330
3F0
100
AcDbScale
 70
     0
300
1:16
140
1.0
141
16.0
290
     0
  0
SCALE
  5
3F8
102
{ACAD_REACTORS
330
3F0
102
}
330
3F0
100
AcDbScale
 70
     0
300
1:20
140
1.0
141
20.0
290
     0
  0
SCALE
  5
3F9
102
{ACAD_REACTORS
330
3F0
102
}
330
3F0
100
AcDbScale
 70
     0
300
1:30
140
1.0
141
30.0
290
     0
  0
SCALE
  5
3FA
102
{ACAD_REACTORS
330
3F0
102
}
330
3F0
100
AcDbScale
 70
     0
300
1:40
140
1.0
141
40.0
290
     0
  0
SCALE
  5
3FB
102
{ACAD_REACTORS
330
3F0
102
}
330
3F0
100
AcDbScale
 70
     0
300
1:50
140
1.0
141
50.0
290
     0
  0
SCALE
  5
3FC
102
{ACAD_REACTORS
330
3F0
102
}
330
3F0
100
AcDbScale
 70
     0
300
1:100
140
1.0
141
100.0
290
     0
  0
SCALE
  5
3FD
102
{ACAD_REACTORS
330
3F0
102
}
330
3F0
100
AcDbScale
 70
     0
300
2:1
140
2.0
141
1.0
290
     0
  0
SCALE
  5
3FE
102
{ACAD_REACTORS
330
3F0
102
}
330
3F0
100
AcDbScale
 70
     0
300
4:1
140
4.0
141
1.0
290
     0
  0
SCALE
  5
3FF
102
{ACAD_REACTORS
330
3F0
102
}
330
3F0
100
AcDbScale
 70
     0
300
8:1
140
8.0
141
1.0
290
     0
  0
SCALE
  5
400
102
{ACAD_REACTORS
330
3F0
102
}
330
3F0
100
AcDbScale
 70
     0
300
10:1
140
10.0
141
1.0
290
     0
  0
SCALE
  5
401
102
{ACAD_REACTORS
330
3F0
102
}
330
3F0
100
AcDbScale
 70
     0
300
100:1
140
100.0
141
1.0
290
     0
  0
SCALE
  5
402
102
{ACAD_REACTORS
330
3F0
102
}
330
3F0
100
AcDbScale
 70
     0
300
1/128" = 1'-0"
140
0.0078125
141
12.0
290
     0
  0
SCALE
  5
403
102
{ACAD_REACTORS
330
3F0
102
}
330
3F0
100
AcDbScale
 70
     0
300
1/64" = 1'-0"
140
0.015625
141
12.0
290
     0
  0
SCALE
  5
404
102
{ACAD_REACTORS
330
3F0
102
}
330
3F0
100
AcDbScale
 70
     0
300
1/32" = 1'-0"
140
0.03125
141
12.0
290
     0
  0
SCALE
  5
405
102
{ACAD_REACTORS
330
3F0
102
}
330
3F0
100
AcDbScale
 70
     0
300
1/16" = 1'-0"
140
0.0625
141
12.0
290
     0
  0
SCALE
  5
406
102
{ACAD_REACTORS
330
3F0
102
}
330
3F0
100
AcDbScale
 70
     0
300
3/32" = 1'-0"
140
0.09375
141
12.0
290
     0
  0
SCALE
  5
407
102
{ACAD_REACTORS
330
3F0
102
}
330
3F0
100
AcDbScale
 70
     0
300
1/8" = 1'-0"
140
0.125
141
12.0
290
     0
  0
SCALE
  5
408
102
{ACAD_REACTORS
330
3F0
102
}
330
3F0
100
AcDbScale
 70
     0
300
3/16" = 1'-0"
140
0.1875
141
12.0
290
     0
  0
SCALE
  5
409
102
{ACAD_REACTORS
330
3F0
102
}
330
3F0
100
AcDbScale
 70
     0
300
1/4" = 1'-0"
140
0.25
141
12.0
290
     0
  0
SCALE
  5
40A
102
{ACAD_REACTORS
330
3F0
102
}
330
3F0
100
AcDbScale
 70
     0
300
3/8" = 1'-0"
140
0.375
141
12.0
290
     0
  0
SCALE
  5
40B
102
{ACAD_REACTORS
330
3F0
102
}
330
3F0
100
AcDbScale
 70
     0
300
1/2" = 1'-0"
140
0.5
141
12.0
290
     0
  0
SCALE
  5
40C
102
{ACAD_REACTORS
330
3F0
102
}
330
3F0
100
AcDbScale
 70
     0
300
3/4" = 1'-0"
140
0.75
141
12.0
290
     0
  0
SCALE
  5
40D
102
{ACAD_REACTORS
330
3F0
102
}
330
3F0
100
AcDbScale
 70
     0
300
1" = 1'-0"
140
1.0
141
12.0
290
     0
  0
SCALE
  5
40E
102
{ACAD_REACTORS
330
3F0
102
}
330
3F0
100
AcDbScale
 70
     0
300
1-1/2" = 1'-0"
140
1.5
141
12.0
290
     0
  0
SCALE
  5
40F
102
{ACAD_REACTORS
330
3F0
102
}
330
3F0
100
AcDbScale
 70
     0
300
3" = 1'-0"
140
3.0
141
12.0
290
     0
  0
SCALE
  5
410
102
{ACAD_REACTORS
330
3F0
102
}
330
3F0
100
AcDbScale
 70
     0
300
6" = 1'-0"
140
6.0
141
12.0
290
     0
  0
SCALE
  5
411
102
{ACAD_REACTORS
330
3F0
102
}
330
3F0
100
AcDbScale
 70
     0
300
1'-0" = 1'-0"
140
12.0
141
12.0
290
     0
  0
VISUALSTYLE
  5
41A
102
{ACAD_REACTORS
330
415
102
}
102
{ACAD_XDICTIONARY
360
43D
102
}
330
415
100
AcDbVisualStyle
  2
2dWireframe
 70
     4
 71
     0
 72
     2
 73
     0
 90
        0
 40
-0.6
 41
-30.0
 62
     5
 63
     7
 74
     1
 91
        4
 64
     7
 65
   257
 75
     1
175
     1
 42
1.0
 92
        0
 66
   257
 43
1.0
 76
     1
 77
     6
 78
     2
 67
     7
 79
     5
170
     0
171
     0
290
     0
174
     0
 93
        1
 44
0.0
173
     0
291
     0
 45
0.0
1001
ACAD
1000
AcDbSavedByObjectVersion
1070
     0
  0
VISUALSTYLE
  5
41C
102
{ACAD_REACTORS
330
415
102
}
102
{ACAD_XDICTIONARY
360
441
102
}
330
415
100
AcDbVisualStyle
  2
3D Hidden
 70
     6
 71
     1
 72
     2
 73
     2
 90
        0
 40
-0.6
 41
-30.0
 62
     5
 63
     7
 74
     2
 91
        2
 64
     7
 65
   257
 75
     2
175
     1
 42
40.0
 92
        0
 66
   257
 43
1.0
 76
     1
 77
     6
 78
     2
 67
     7
 79
     3
170
     0
171
     0
290
     0
174
     0
 93
        1
 44
0.0
173
     0
291
     0
 45
0.0
1001
ACAD
1000
AcDbSavedByObjectVersion
1070
     0
  0
VISUALSTYLE
  5
41B
102
{ACAD_REACTORS
330
415
102
}
102
{ACAD_XDICTIONARY
360
43F
102
}
330
415
100
AcDbVisualStyle
  2
3dWireframe
 70
     5
 71
     0
 72
     2
 73
     0
 90
        0
 40
-0.6
 41
-30.0
 62
     5
 63
     7
 74
     1
 91
        4
 64
     7
 65
   257
 75
     1
175
     1
 42
1.0
 92
        0
 66
   257
 43
1.0
 76
     1
 77
     6
 78
     2
 67
     7
 79
     5
170
     0
171
     0
290
     0
174
     0
 93
        1
 44
0.0
173
     0
291
     0
 45
0.0
1001
ACAD
1000
AcDbSavedByObjectVersion
1070
     0
  0
VISUALSTYLE
  5
41D
102
{ACAD_REACTORS
330
415
102
}
102
{ACAD_XDICTIONARY
360
443
102
}
330
415
100
AcDbVisualStyle
  2
Basic
 70
     7
 71
     1
 72
     0
 73
     1
 90
        0
 40
-0.6
 41
-30.0
 62
     5
 63
     7
 74
     0
 91
        4
 64
     7
 65
   257
 75
     1
175
     1
 42
1.0
 92
        8
 66
     7
 43
1.0
 76
     1
 77
     6
 78
     2
 67
     7
 79
     5
170
     0
171
     0
290
     0
174
     0
 93
        1
 44
0.0
173
     0
291
     1
 45
0.0
1001
ACAD
1000
AcDbSavedByObjectVersion
1070
     0
  0
VISUALSTYLE
  5
421
102
{ACAD_REACTORS
330
415
102
}
102
{ACAD_XDICTIONARY
360
44B
102
}
330
415
100
AcDbVisualStyle
  2
Brighten
 70
    12
 71
     2
 72
     2
 73
     0
 90
        0
 40
-0.6
 41
-30.0
 62
     5
 63
     7
 74
     1
 91
        4
 64
     7
 65
   257
 75
     1
175
     1
 42
1.0
 92
        8
 66
     7
 43
1.0
 76
     1
 77
     6
 78
     2
 67
     7
 79
     5
170
     0
171
     0
290
     0
174
     0
 93
        1
 44
50.0
173
     0
291
     1
 45
0.0
1001
ACAD
1000
AcDbSavedByObjectVersion
1070
     0
  0
VISUALSTYLE
  5
425
102
{ACAD_REACTORS
330
415
102
}
102
{ACAD_XDICTIONARY
360
453
102
}
330
415
100
AcDbVisualStyle
  2
ColorChange
 70
    16
 71
     2
 72
     2
 73
     3
 90
        0
 40
-0.6
 41
-30.0
 62
     5
 63
     8
 74
     1
 91
        4
 64
     7
 65
   257
 75
     1
175
     1
 42
1.0
 92
        8
 66
     8
 43
1.0
 76
     1
 77
     6
 78
     2
 67
     7
 79
     5
170
     0
171
     0
290
     0
174
     0
 93
        1
 44
0.0
173
     0
291
     1
 45
0.0
1001
ACAD
1000
AcDbSavedByObjectVersion
1070
     0
  0
VISUALSTYLE
  5
41F
102
{ACAD_REACTORS
330
415
102
}
102
{ACAD_XDICTIONARY
360
447
102
}
330
415
100
AcDbVisualStyle
  2
Conceptual
 70
     9
 71
     3
 72
     2
 73
     0
 90
        0
 40
-0.6
 41
-30.0
 62
     5
 63
     7
 74
     2
 91
        2
 64
     7
 65
   257
 75
     1
175
     1
 42
40.0
 92
        8
 66
     7
 43
1.0
 76
     1
 77
     6
 78
     2
 67
     7
 79
     3
170
     0
171
     0
290
     0
174
     0
 93
        1
 44
0.0
173
     0
291
     0
 45
0.0
1001
ACAD
1000
AcDbSavedByObjectVersion
1070
     0
  0
VISUALSTYLE
  5
420
102
{ACAD_REACTORS
330
415
102
}
102
{ACAD_XDICTIONARY
360
449
102
}
330
415
100
AcDbVisualStyle
  2
Dim
 70
    11
 71
     2
 72
     2
 73
     0
 90
        0
 40
-0.6
 41
-30.0
 62
     5
 63
     7
 74
     1
 91
        4
 64
     7
 65
   257
 75
     1
175
     1
 42
1.0
 92
        8
 66
     7
 43
1.0
 76
     1
 77
     6
 78
     2
 67
     7
 79
     5
170
     0
171
     0
290
     0
174
     0
 93
        1
 44
-50.0
173
     0
291
     1
 45
0.0
1001
ACAD
1000
AcDbSavedByObjectVersion
1070
     0
  0
VISUALSTYLE
  5
424
102
{ACAD_REACTORS
330
415
102
}
102
{ACAD_XDICTIONARY
360
451
102
}
330
415
100
AcDbVisualStyle
  2
Facepattern
 70
    15
 71
     2
 72
     2
 73
     0
 90
        0
 40
-0.6
 41
-30.0
 62
     5
 63
     7
 74
     1
 91
        4
 64
     7
 65
   257
 75
     1
175
     1
 42
1.0
 92
        8
 66
     7
 43
1.0
 76
     1
 77
     6
 78
     2
 67
     7
 79
     5
170
     0
171
     0
290
     0
174
     0
 93
        1
 44
0.0
173
     0
291
     1
 45
0.0
1001
ACAD
1000
AcDbSavedByObjectVersion
1070
     0
  0
VISUALSTYLE
  5
416
102
{ACAD_REACTORS
330
415
102
}
102
{ACAD_XDICTIONARY
360
435
102
}
330
415
100
AcDbVisualStyle
  2
Flat
 70
     0
 71
     2
 72
     1
 73
     1
 90
        2
 40
-0.6
 41
30.0
 62
     5
 63
     7
 74
     0
 91
        4
 64
     7
 65
   257
 75
     1
175
     1
 42
1.0
 92
        8
 66
     7
 43
1.0
 76
     1
 77
     6
 78
     2
 67
     7
 79
     5
170
     0
171
     0
290
     0
174
     0
 93
       13
 44
0.0
173
     0
291
     1
 45
0.0
1001
ACAD
1000
AcDbSavedByObjectVersion
1070
     0
  0
VISUALSTYLE
  5
417
102
{ACAD_REACTORS
330
415
102
}
102
{ACAD_XDICTIONARY
360
437
102
}
330
415
100
AcDbVisualStyle
  2
FlatWithEdges
 70
     1
 71
     2
 72
     1
 73
     1
 90
        2
 40
-0.6
 41
30.0
 62
     5
 63
     7
 74
     1
 91
        4
 64
     7
 65
   257
 75
     1
175
     1
 42
1.0
 92
        0
 66
   257
 43
1.0
 76
     1
 77
     6
 78
     2
 67
     7
 79
     5
170
     0
171
     0
290
     0
174
     0
 93
       13
 44
0.0
173
     0
291
     1
 45
0.0
1001
ACAD
1000
AcDbSavedByObjectVersion
1070
     0
  0
VISUALSTYLE
  5
418
102
{ACAD_REACTORS
330
415
102
}
102
{ACAD_XDICTIONARY
360
439
102
}
330
415
100
AcDbVisualStyle
  2
Gouraud
 70
     2
 71
     2
 72
     2
 73
     1
 90
        2
 40
-0.6
 41
30.0
 62
     5
 63
     7
 74
     0
 91
        4
 64
     7
 65
   257
 75
     1
175
     1
 42
1.0
 92
        0
 66
     7
 43
1.0
 76
     1
 77
     6
 78
     2
 67
     7
 79
     5
170
     0
171
     0
290
     0
174
     0
 93
       13
 44
0.0
173
     0
291
     1
 45
0.0
1001
ACAD
1000
AcDbSavedByObjectVersion
1070
     0
  0
VISUALSTYLE
  5
419
102
{ACAD_REACTORS
330
415
102
}
102
{ACAD_XDICTIONARY
360
43B
102
}
330
415
100
AcDbVisualStyle
  2
GouraudWithEdges
 70
     3
 71
     2
 72
     2
 73
     1
 90
        2
 40
-0.6
 41
30.0
 62
     5
 63
     7
 74
     1
 91
        4
 64
     7
 65
   257
 75
     1
175
     1
 42
1.0
 92
        0
 66
   257
 43
1.0
 76
     1
 77
     6
 78
     2
 67
     7
 79
     5
170
     0
171
     0
290
     0
174
     0
 93
       13
 44
0.0
173
     0
291
     1
 45
0.0
1001
ACAD
1000
AcDbSavedByObjectVersion
1070
     0
  0
VISUALSTYLE
  5
423
102
{ACAD_REACTORS
330
415
102
}
102
{ACAD_XDICTIONARY
360
44F
102
}
330
415
100
AcDbVisualStyle
  2
Linepattern
 70
    14
 71
     2
 72
     2
 73
     0
 90
        0
 40
-0.6
 41
-30.0
 62
     5
 63
     7
 74
     1
 91
        4
 64
     7
 65
   257
 75
     7
175
     7
 42
1.0
 92
        8
 66
     7
 43
1.0
 76
     1
 77
     6
 78
     2
 67
     7
 79
     5
170
     0
171
     0
290
     0
174
     0
 93
        1
 44
0.0
173
     0
291
     1
 45
0.0
1001
ACAD
1000
AcDbSavedByObjectVersion
1070
     0
  0
VISUALSTYLE
  5
41E
102
{ACAD_REACTORS
330
415
102
}
102
{ACAD_XDICTIONARY
360
445
102
}
330
415
100
AcDbVisualStyle
  2
Realistic
 70
     8
 71
     2
 72
     2
 73
     0
 90
        0
 40
-0.6
 41
-30.0
 62
     5
 63
     7
 74
     1
 91
        0
 64
     7
 65
   257
 75
     1
175
     1
 42
1.0
 92
        8
 66
     8
 43
1.0
 76
     1
 77
     6
 78
     2
 67
     7
 79
     5
170
     0
171
     0
290
     0
174
     0
 93
       13
 44
0.0
173
     0
291
     0
 45
0.0
1001
ACAD
1000
AcDbSavedByObjectVersion
1070
     0
  0
VISUALSTYLE
  5
422
102
{ACAD_REACTORS
330
415
102
}
102
{ACAD_XDICTIONARY
360
44D
102
}
330
415
100
AcDbVisualStyle
  2
Thicken
 70
    13
 71
     2
 72
     2
 73
     0
 90
        0
 40
-0.6
 41
-30.0
 62
     5
 63
     7
 74
     1
 91
        4
 64
     7
 65
   257
 75
     1
175
     1
 42
1.0
 92
       12
 66
     7
 43
1.0
 76
     1
 77
     6
 78
     2
 67
     7
 79
     5
170
     0
171
     0
290
     0
174
     0
 93
        1
 44
0.0
173
     0
291
     1
 45
0.0
1001
ACAD
1000
AcDbSavedByObjectVersion
1070
     0
  0
DICTIONARYVAR
  5
434
102
{ACAD_REACTORS
330
42C
102
}
330
42C
100
DictionaryVariables
280
     0
  1
1:1
  0
DICTIONARYVAR
  5
430
102
{ACAD_REACTORS
330
42C
102
}
330
42C
100
DictionaryVariables
280
     0
  1
2
  0
DICTIONARYVAR
  5
431
102
{ACAD_REACTORS
330
42C
102
}
330
42C
100
DictionaryVariables
280
     0
  1
1
  0
DICTIONARYVAR
  5
42F
102
{ACAD_REACTORS
330
42C
102
}
330
42C
100
DictionaryVariables
280
     0
  1
0
  0
DICTIONARY
  5
457
330
428
100
AcDbDictionary
280
     1
281
     1
  3
ACAD_XREC_ROUNDTRIP
360
458
  0
DICTIONARY
  5
455
330
427
100
AcDbDictionary
280
     1
281
     1
  3
ACAD_XREC_ROUNDTRIP
360
456
  0
DICTIONARY
  5
459
330
429
100
AcDbDictionary
280
     1
281
     1
  3
ACAD_XREC_ROUNDTRIP
360
45A
  0
DICTIONARY
  5
43D
330
41A
100
AcDbDictionary
280
     1
281
     1
  3
ACAD_XREC_ROUNDTRIP
360
43E
  0
DICTIONARY
  5
441
330
41C
100
AcDbDictionary
280
     1
281
     1
  3
ACAD_XREC_ROUNDTRIP
360
442
  0
DICTIONARY
  5
43F
330
41B
100
AcDbDictionary
280
     1
281
     1
  3
ACAD_XREC_ROUNDTRIP
360
440
  0
DICTIONARY
  5
443
330
41D
100
AcDbDictionary
280
     1
281
     1
  3
ACAD_XREC_ROUNDTRIP
360
444
  0
DICTIONARY
  5
44B
330
421
100
AcDbDictionary
280
     1
281
     1
  3
ACAD_XREC_ROUNDTRIP
360
44C
  0
DICTIONARY
  5
453
330
425
100
AcDbDictionary
280
     1
281
     1
  3
ACAD_XREC_ROUNDTRIP
360
454
  0
DICTIONARY
  5
447
330
41F
100
AcDbDictionary
280
     1
281
     1
  3
ACAD_XREC_ROUNDTRIP
360
448
  0
DICTIONARY
  5
449
330
420
100
AcDbDictionary
280
     1
281
     1
  3
ACAD_XREC_ROUNDTRIP
360
44A
  0
DICTIONARY
  5
451
330
424
100
AcDbDictionary
280
     1
281
     1
  3
ACAD_XREC_ROUNDTRIP
360
452
  0
DICTIONARY
  5
435
330
416
100
AcDbDictionary
280
     1
281
     1
  3
ACAD_XREC_ROUNDTRIP
360
436
  0
DICTIONARY
  5
437
330
417
100
AcDbDictionary
280
     1
281
     1
  3
ACAD_XREC_ROUNDTRIP
360
438
  0
DICTIONARY
  5
439
330
418
100
AcDbDictionary
280
     1
281
     1
  3
ACAD_XREC_ROUNDTRIP
360
43A
  0
DICTIONARY
  5
43B
330
419
100
AcDbDictionary
280
     1
281
     1
  3
ACAD_XREC_ROUNDTRIP
360
43C
  0
DICTIONARY
  5
44F
330
423
100
AcDbDictionary
280
     1
281
     1
  3
ACAD_XREC_ROUNDTRIP
360
450
  0
DICTIONARY
  5
445
330
41E
100
AcDbDictionary
280
     1
281
     1
  3
ACAD_XREC_ROUNDTRIP
360
446
  0
DICTIONARY
  5
44D
330
422
100
AcDbDictionary
280
     1
281
     1
  3
ACAD_XREC_ROUNDTRIP
360
44E
  0
XRECORD
  5
458
102
{ACAD_REACTORS
330
457
102
}
330
457
100
AcDbXrecord
280
     1
102
MATERIAL
148
0.0
149
0.0
149
0.0
 93
        0
 94
      127
282
     0
 72
     1
 77
     1
171
     1
175
     1
179
     1
273
     0
  0
XRECORD
  5
456
102
{ACAD_REACTORS
330
455
102
}
330
455
100
AcDbXrecord
280
     1
102
MATERIAL
148
0.0
149
0.0
149
0.0
 93
        0
 94
      127
282
     0
 72
     1
 77
     1
171
     1
175
     1
179
     1
273
     0
  0
XRECORD
  5
45A
102
{ACAD_REACTORS
330
459
102
}
330
459
100
AcDbXrecord
280
     1
102
MATERIAL
148
0.0
149
0.0
149
0.0
 93
        0
 94
      127
282
     0
 72
     1
 77
     1
171
     1
175
     1
179
     1
273
     0
  0
XRECORD
  5
43E
102
{ACAD_REACTORS
330
43D
102
}
330
43D
100
AcDbXrecord
280
     1
102
RTVSPropertyOp0
 70
     1
102
RTVSPropertyOp1
 70
     1
102
RTVSPropertyOp2
 70
     1
102
RTVSPropertyOp3
 70
     1
102
RTVSPropertyOp4
 70
     1
102
RTVSPropertyOp5
 70
     1
102
RTVSPropertyOp6
 70
     1
102
RTVSPropertyOp7
 70
     1
102
RTVSPropertyOp8
 70
     1
102
RTVSPropertyOp9
 70
     1
102
RTVSPropertyOp10
 70
     1
102
RTVSPropertyOp11
 70
     1
102
RTVSPropertyOp12
 70
     1
102
RTVSPropertyOp13
 70
     1
102
RTVSPropertyOp14
 70
     1
102
RTVSPropertyOp15
 70
     1
102
RTVSPropertyOp16
 70
     1
102
RTVSPropertyOp17
 70
     1
102
RTVSPropertyOp18
 70
     1
102
RTVSPropertyOp19
 70
     1
102
RTVSPropertyOp20
 70
     1
102
RTVSPropertyOp21
 70
     1
102
RTVSPropertyOp22
 70
     1
102
RTVSPropertyOp23
 70
     1
102
RTVSPropertyOp24
 70
     1
102
RTVSPropertyOp25
 70
     1
102
RTVSPropertyOp26
 70
     1
102
RTVSPropertyOp27
 70
     1
102
RTVSPropertyOp28
 70
     1
102
RTVSPropertyOp29
 70
     1
102
RTVSPropertyOp30
 70
     1
102
RTVSPropertyOp31
 70
     1
102
RTVSPropertyOp32
 70
     1
  0
XRECORD
  5
442
102
{ACAD_REACTORS
330
441
102
}
330
441
100
AcDbXrecord
280
     1
102
RTVSPropertyOp0
 70
     1
102
RTVSPropertyOp1
 70
     1
102
RTVSPropertyOp2
 70
     1
102
RTVSPropertyOp3
 70
     1
102
RTVSPropertyOp4
 70
     1
102
RTVSPropertyOp5
 70
     1
102
RTVSPropertyOp6
 70
     1
102
RTVSPropertyOp7
 70
     1
102
RTVSPropertyOp8
 70
     1
102
RTVSPropertyOp9
 70
     1
102
RTVSPropertyOp10
 70
     1
102
RTVSPropertyOp11
 70
     1
102
RTVSPropertyOp12
 70
     1
102
RTVSPropertyOp13
 70
     1
102
RTVSPropertyOp14
 70
     1
102
RTVSPropertyOp15
 70
     1
102
RTVSPropertyOp16
 70
     1
102
RTVSPropertyOp17
 70
     1
102
RTVSPropertyOp18
 70
     1
102
RTVSPropertyOp19
 70
     1
102
RTVSPropertyOp20
 70
     1
102
RTVSPropertyOp21
 70
     1
102
RTVSPropertyOp22
 70
     1
102
RTVSPropertyOp23
 70
     1
102
RTVSPropertyOp24
 70
     1
102
RTVSPropertyOp25
 70
     1
102
RTVSPropertyOp26
 70
     1
102
RTVSPropertyOp27
 70
     1
102
RTVSPropertyOp28
 70
     1
102
RTVSPropertyOp29
 70
     1
102
RTVSPropertyOp30
 70
     1
102
RTVSPropertyOp31
 70
     1
102
RTVSPropertyOp32
 70
     1
  0
XRECORD
  5
440
102
{ACAD_REACTORS
330
43F
102
}
330
43F
100
AcDbXrecord
280
     1
102
RTVSPropertyOp0
 70
     1
102
RTVSPropertyOp1
 70
     1
102
RTVSPropertyOp2
 70
     1
102
RTVSPropertyOp3
 70
     1
102
RTVSPropertyOp4
 70
     1
102
RTVSPropertyOp5
 70
     1
102
RTVSPropertyOp6
 70
     1
102
RTVSPropertyOp7
 70
     1
102
RTVSPropertyOp8
 70
     1
102
RTVSPropertyOp9
 70
     1
102
RTVSPropertyOp10
 70
     1
102
RTVSPropertyOp11
 70
     1
102
RTVSPropertyOp12
 70
     1
102
RTVSPropertyOp13
 70
     1
102
RTVSPropertyOp14
 70
     1
102
RTVSPropertyOp15
 70
     1
102
RTVSPropertyOp16
 70
     1
102
RTVSPropertyOp17
 70
     1
102
RTVSPropertyOp18
 70
     1
102
RTVSPropertyOp19
 70
     1
102
RTVSPropertyOp20
 70
     1
102
RTVSPropertyOp21
 70
     1
102
RTVSPropertyOp22
 70
     1
102
RTVSPropertyOp23
 70
     1
102
RTVSPropertyOp24
 70
     1
102
RTVSPropertyOp25
 70
     1
102
RTVSPropertyOp26
 70
     1
102
RTVSPropertyOp27
 70
     1
102
RTVSPropertyOp28
 70
     1
102
RTVSPropertyOp29
 70
     1
102
RTVSPropertyOp30
 70
     1
102
RTVSPropertyOp31
 70
     1
102
RTVSPropertyOp32
 70
     1
  0
XRECORD
  5
444
102
{ACAD_REACTORS
330
443
102
}
330
443
100
AcDbXrecord
280
     1
102
RTVSPropertyOp0
 70
     1
102
RTVSPropertyOp1
 70
     1
102
RTVSPropertyOp2
 70
     1
102
RTVSPropertyOp3
 70
     1
102
RTVSPropertyOp4
 70
     1
102
RTVSPropertyOp5
 70
     1
102
RTVSPropertyOp6
 70
     1
102
RTVSPropertyOp7
 70
     1
102
RTVSPropertyOp8
 70
     1
102
RTVSPropertyOp9
 70
     1
102
RTVSPropertyOp10
 70
     1
102
RTVSPropertyOp11
 70
     1
102
RTVSPropertyOp12
 70
     1
102
RTVSPropertyOp13
 70
     1
102
RTVSPropertyOp14
 70
     1
102
RTVSPropertyOp15
 70
     1
102
RTVSPropertyOp16
 70
     1
102
RTVSPropertyOp17
 70
     1
102
RTVSPropertyOp18
 70
     1
102
RTVSPropertyOp19
 70
     1
102
RTVSPropertyOp20
 70
     1
102
RTVSPropertyOp21
 70
     1
102
RTVSPropertyOp22
 70
     1
102
RTVSPropertyOp23
 70
     1
102
RTVSPropertyOp24
 70
     1
102
RTVSPropertyOp25
 70
     1
102
RTVSPropertyOp26
 70
     1
102
RTVSPropertyOp27
 70
     1
102
RTVSPropertyOp28
 70
     1
102
RTVSPropertyOp29
 70
     1
102
RTVSPropertyOp30
 70
     1
102
RTVSPropertyOp31
 70
     1
102
RTVSPropertyOp32
 70
     1
  0
XRECORD
  5
44C
102
{ACAD_REACTORS
330
44B
102
}
330
44B
100
AcDbXrecord
280
     1
102
RTVSPropertyOp0
 70
     1
102
RTVSPropertyOp1
 70
     1
102
RTVSPropertyOp2
 70
     1
102
RTVSPropertyOp3
 70
     1
102
RTVSPropertyOp4
 70
     1
102
RTVSPropertyOp5
 70
     1
102
RTVSPropertyOp6
 70
     1
102
RTVSPropertyOp7
 70
     1
102
RTVSPropertyOp8
 70
     1
102
RTVSPropertyOp9
 70
     1
102
RTVSPropertyOp10
 70
     1
102
RTVSPropertyOp11
 70
     1
102
RTVSPropertyOp12
 70
     1
102
RTVSPropertyOp13
 70
     1
102
RTVSPropertyOp14
 70
     1
102
RTVSPropertyOp15
 70
     1
102
RTVSPropertyOp16
 70
     1
102
RTVSPropertyOp17
 70
     1
102
RTVSPropertyOp18
 70
     1
102
RTVSPropertyOp19
 70
     1
102
RTVSPropertyOp20
 70
     1
102
RTVSPropertyOp21
 70
     1
102
RTVSPropertyOp22
 70
     1
102
RTVSPropertyOp23
 70
     1
102
RTVSPropertyOp24
 70
     1
102
RTVSPropertyOp25
 70
     1
102
RTVSPropertyOp26
 70
     1
102
RTVSPropertyOp27
 70
     1
102
RTVSPropertyOp28
 70
     1
102
RTVSPropertyOp29
 70
     1
102
RTVSPropertyOp30
 70
     1
102
RTVSPropertyOp31
 70
     1
102
RTVSPropertyOp32
 70
     1
  0
XRECORD
  5
454
102
{ACAD_REACTORS
330
453
102
}
330
453
100
AcDbXrecord
280
     1
102
RTVSPropertyOp0
 70
     1
102
RTVSPropertyOp1
 70
     1
102
RTVSPropertyOp2
 70
     1
102
RTVSPropertyOp3
 70
     1
102
RTVSPropertyOp4
 70
     1
102
RTVSPropertyOp5
 70
     1
102
RTVSPropertyOp6
 70
     1
102
RTVSPropertyOp7
 70
     1
102
RTVSPropertyOp8
 70
     1
102
RTVSPropertyOp9
 70
     1
102
RTVSPropertyOp10
 70
     1
102
RTVSPropertyOp11
 70
     1
102
RTVSPropertyOp12
 70
     1
102
RTVSPropertyOp13
 70
     1
102
RTVSPropertyOp14
 70
     1
102
RTVSPropertyOp15
 70
     1
102
RTVSPropertyOp16
 70
     1
102
RTVSPropertyOp17
 70
     1
102
RTVSPropertyOp18
 70
     1
102
RTVSPropertyOp19
 70
     1
102
RTVSPropertyOp20
 70
     1
102
RTVSPropertyOp21
 70
     1
102
RTVSPropertyOp22
 70
     1
102
RTVSPropertyOp23
 70
     1
102
RTVSPropertyOp24
 70
     1
102
RTVSPropertyOp25
 70
     1
102
RTVSPropertyOp26
 70
     1
102
RTVSPropertyOp27
 70
     1
102
RTVSPropertyOp28
 70
     1
102
RTVSPropertyOp29
 70
     1
102
RTVSPropertyOp30
 70
     1
102
RTVSPropertyOp31
 70
     1
102
RTVSPropertyOp32
 70
     1
  0
XRECORD
  5
448
102
{ACAD_REACTORS
330
447
102
}
330
447
100
AcDbXrecord
280
     1
102
RTVSPropertyOp0
 70
     1
102
RTVSPropertyOp1
 70
     1
102
RTVSPropertyOp2
 70
     1
102
RTVSPropertyOp3
 70
     1
102
RTVSPropertyOp4
 70
     1
102
RTVSPropertyOp5
 70
     1
102
RTVSPropertyOp6
 70
     1
102
RTVSPropertyOp7
 70
     1
102
RTVSPropertyOp8
 70
     1
102
RTVSPropertyOp9
 70
     1
102
RTVSPropertyOp10
 70
     1
102
RTVSPropertyOp11
 70
     1
102
RTVSPropertyOp12
 70
     1
102
RTVSPropertyOp13
 70
     1
102
RTVSPropertyOp14
 70
     1
102
RTVSPropertyOp15
 70
     1
102
RTVSPropertyOp16
 70
     1
102
RTVSPropertyOp17
 70
     1
102
RTVSPropertyOp18
 70
     1
102
RTVSPropertyOp19
 70
     1
102
RTVSPropertyOp20
 70
     1
102
RTVSPropertyOp21
 70
     1
102
RTVSPropertyOp22
 70
     1
102
RTVSPropertyOp23
 70
     1
102
RTVSPropertyOp24
 70
     1
102
RTVSPropertyOp25
 70
     1
102
RTVSPropertyOp26
 70
     1
102
RTVSPropertyOp27
 70
     1
102
RTVSPropertyOp28
 70
     1
102
RTVSPropertyOp29
 70
     1
102
RTVSPropertyOp30
 70
     1
102
RTVSPropertyOp31
 70
     1
102
RTVSPropertyOp32
 70
     1
  0
XRECORD
  5
44A
102
{ACAD_REACTORS
330
449
102
}
330
449
100
AcDbXrecord
280
     1
102
RTVSPropertyOp0
 70
     1
102
RTVSPropertyOp1
 70
     1
102
RTVSPropertyOp2
 70
     1
102
RTVSPropertyOp3
 70
     1
102
RTVSPropertyOp4
 70
     1
102
RTVSPropertyOp5
 70
     1
102
RTVSPropertyOp6
 70
     1
102
RTVSPropertyOp7
 70
     1
102
RTVSPropertyOp8
 70
     1
102
RTVSPropertyOp9
 70
     1
102
RTVSPropertyOp10
 70
     1
102
RTVSPropertyOp11
 70
     1
102
RTVSPropertyOp12
 70
     1
102
RTVSPropertyOp13
 70
     1
102
RTVSPropertyOp14
 70
     1
102
RTVSPropertyOp15
 70
     1
102
RTVSPropertyOp16
 70
     1
102
RTVSPropertyOp17
 70
     1
102
RTVSPropertyOp18
 70
     1
102
RTVSPropertyOp19
 70
     1
102
RTVSPropertyOp20
 70
     1
102
RTVSPropertyOp21
 70
     1
102
RTVSPropertyOp22
 70
     1
102
RTVSPropertyOp23
 70
     1
102
RTVSPropertyOp24
 70
     1
102
RTVSPropertyOp25
 70
     1
102
RTVSPropertyOp26
 70
     1
102
RTVSPropertyOp27
 70
     1
102
RTVSPropertyOp28
 70
     1
102
RTVSPropertyOp29
 70
     1
102
RTVSPropertyOp30
 70
     1
102
RTVSPropertyOp31
 70
     1
102
RTVSPropertyOp32
 70
     1
  0
XRECORD
  5
452
102
{ACAD_REACTORS
330
451
102
}
330
451
100
AcDbXrecord
280
     1
102
RTVSPropertyOp0
 70
     1
102
RTVSPropertyOp1
 70
     1
102
RTVSPropertyOp2
 70
     1
102
RTVSPropertyOp3
 70
     1
102
RTVSPropertyOp4
 70
     1
102
RTVSPropertyOp5
 70
     1
102
RTVSPropertyOp6
 70
     1
102
RTVSPropertyOp7
 70
     1
102
RTVSPropertyOp8
 70
     1
102
RTVSPropertyOp9
 70
     1
102
RTVSPropertyOp10
 70
     1
102
RTVSPropertyOp11
 70
     1
102
RTVSPropertyOp12
 70
     1
102
RTVSPropertyOp13
 70
     1
102
RTVSPropertyOp14
 70
     1
102
RTVSPropertyOp15
 70
     1
102
RTVSPropertyOp16
 70
     1
102
RTVSPropertyOp17
 70
     1
102
RTVSPropertyOp18
 70
     1
102
RTVSPropertyOp19
 70
     1
102
RTVSPropertyOp20
 70
     1
102
RTVSPropertyOp21
 70
     1
102
RTVSPropertyOp22
 70
     1
102
RTVSPropertyOp23
 70
     1
102
RTVSPropertyOp24
 70
     1
102
RTVSPropertyOp25
 70
     1
102
RTVSPropertyOp26
 70
     1
102
RTVSPropertyOp27
 70
     1
102
RTVSPropertyOp28
 70
     1
102
RTVSPropertyOp29
 70
     1
102
RTVSPropertyOp30
 70
     1
102
RTVSPropertyOp31
 70
     1
102
RTVSPropertyOp32
 70
     1
  0
XRECORD
  5
436
102
{ACAD_REACTORS
330
435
102
}
330
435
100
AcDbXrecord
280
     1
102
RTVSPropertyOp0
 70
     1
102
RTVSPropertyOp1
 70
     1
102
RTVSPropertyOp2
 70
     1
102
RTVSPropertyOp3
 70
     1
102
RTVSPropertyOp4
 70
     1
102
RTVSPropertyOp5
 70
     1
102
RTVSPropertyOp6
 70
     1
102
RTVSPropertyOp7
 70
     1
102
RTVSPropertyOp8
 70
     1
102
RTVSPropertyOp9
 70
     1
102
RTVSPropertyOp10
 70
     1
102
RTVSPropertyOp11
 70
     1
102
RTVSPropertyOp12
 70
     1
102
RTVSPropertyOp13
 70
     1
102
RTVSPropertyOp14
 70
     1
102
RTVSPropertyOp15
 70
     1
102
RTVSPropertyOp16
 70
     1
102
RTVSPropertyOp17
 70
     1
102
RTVSPropertyOp18
 70
     1
102
RTVSPropertyOp19
 70
     1
102
RTVSPropertyOp20
 70
     1
102
RTVSPropertyOp21
 70
     1
102
RTVSPropertyOp22
 70
     1
102
RTVSPropertyOp23
 70
     1
102
RTVSPropertyOp24
 70
     1
102
RTVSPropertyOp25
 70
     1
102
RTVSPropertyOp26
 70
     1
102
RTVSPropertyOp27
 70
     1
102
RTVSPropertyOp28
 70
     1
102
RTVSPropertyOp29
 70
     1
102
RTVSPropertyOp30
 70
     1
102
RTVSPropertyOp31
 70
     1
102
RTVSPropertyOp32
 70
     1
  0
XRECORD
  5
438
102
{ACAD_REACTORS
330
437
102
}
330
437
100
AcDbXrecord
280
     1
102
RTVSPropertyOp0
 70
     1
102
RTVSPropertyOp1
 70
     1
102
RTVSPropertyOp2
 70
     1
102
RTVSPropertyOp3
 70
     1
102
RTVSPropertyOp4
 70
     1
102
RTVSPropertyOp5
 70
     1
102
RTVSPropertyOp6
 70
     1
102
RTVSPropertyOp7
 70
     1
102
RTVSPropertyOp8
 70
     1
102
RTVSPropertyOp9
 70
     1
102
RTVSPropertyOp10
 70
     1
102
RTVSPropertyOp11
 70
     1
102
RTVSPropertyOp12
 70
     1
102
RTVSPropertyOp13
 70
     1
102
RTVSPropertyOp14
 70
     1
102
RTVSPropertyOp15
 70
     1
102
RTVSPropertyOp16
 70
     1
102
RTVSPropertyOp17
 70
     1
102
RTVSPropertyOp18
 70
     1
102
RTVSPropertyOp19
 70
     1
102
RTVSPropertyOp20
 70
     1
102
RTVSPropertyOp21
 70
     1
102
RTVSPropertyOp22
 70
     1
102
RTVSPropertyOp23
 70
     1
102
RTVSPropertyOp24
 70
     1
102
RTVSPropertyOp25
 70
     1
102
RTVSPropertyOp26
 70
     1
102
RTVSPropertyOp27
 70
     1
102
RTVSPropertyOp28
 70
     1
102
RTVSPropertyOp29
 70
     1
102
RTVSPropertyOp30
 70
     1
102
RTVSPropertyOp31
 70
     1
102
RTVSPropertyOp32
 70
     1
  0
XRECORD
  5
43A
102
{ACAD_REACTORS
330
439
102
}
330
439
100
AcDbXrecord
280
     1
102
RTVSPropertyOp0
 70
     1
102
RTVSPropertyOp1
 70
     1
102
RTVSPropertyOp2
 70
     1
102
RTVSPropertyOp3
 70
     1
102
RTVSPropertyOp4
 70
     1
102
RTVSPropertyOp5
 70
     1
102
RTVSPropertyOp6
 70
     1
102
RTVSPropertyOp7
 70
     1
102
RTVSPropertyOp8
 70
     1
102
RTVSPropertyOp9
 70
     1
102
RTVSPropertyOp10
 70
     1
102
RTVSPropertyOp11
 70
     1
102
RTVSPropertyOp12
 70
     1
102
RTVSPropertyOp13
 70
     1
102
RTVSPropertyOp14
 70
     1
102
RTVSPropertyOp15
 70
     1
102
RTVSPropertyOp16
 70
     1
102
RTVSPropertyOp17
 70
     1
102
RTVSPropertyOp18
 70
     1
102
RTVSPropertyOp19
 70
     1
102
RTVSPropertyOp20
 70
     1
102
RTVSPropertyOp21
 70
     1
102
RTVSPropertyOp22
 70
     1
102
RTVSPropertyOp23
 70
     1
102
RTVSPropertyOp24
 70
     1
102
RTVSPropertyOp25
 70
     1
102
RTVSPropertyOp26
 70
     1
102
RTVSPropertyOp27
 70
     1
102
RTVSPropertyOp28
 70
     1
102
RTVSPropertyOp29
 70
     1
102
RTVSPropertyOp30
 70
     1
102
RTVSPropertyOp31
 70
     1
102
RTVSPropertyOp32
 70
     1
  0
XRECORD
  5
43C
102
{ACAD_REACTORS
330
43B
102
}
330
43B
100
AcDbXrecord
280
     1
102
RTVSPropertyOp0
 70
     1
102
RTVSPropertyOp1
 70
     1
102
RTVSPropertyOp2
 70
     1
102
RTVSPropertyOp3
 70
     1
102
RTVSPropertyOp4
 70
     1
102
RTVSPropertyOp5
 70
     1
102
RTVSPropertyOp6
 70
     1
102
RTVSPropertyOp7
 70
     1
102
RTVSPropertyOp8
 70
     1
102
RTVSPropertyOp9
 70
     1
102
RTVSPropertyOp10
 70
     1
102
RTVSPropertyOp11
 70
     1
102
RTVSPropertyOp12
 70
     1
102
RTVSPropertyOp13
 70
     1
102
RTVSPropertyOp14
 70
     1
102
RTVSPropertyOp15
 70
     1
102
RTVSPropertyOp16
 70
     1
102
RTVSPropertyOp17
 70
     1
102
RTVSPropertyOp18
 70
     1
102
RTVSPropertyOp19
 70
     1
102
RTVSPropertyOp20
 70
     1
102
RTVSPropertyOp21
 70
     1
102
RTVSPropertyOp22
 70
     1
102
RTVSPropertyOp23
 70
     1
102
RTVSPropertyOp24
 70
     1
102
RTVSPropertyOp25
 70
     1
102
RTVSPropertyOp26
 70
     1
102
RTVSPropertyOp27
 70
     1
102
RTVSPropertyOp28
 70
     1
102
RTVSPropertyOp29
 70
     1
102
RTVSPropertyOp30
 70
     1
102
RTVSPropertyOp31
 70
     1
102
RTVSPropertyOp32
 70
     1
  0
XRECORD
  5
450
102
{ACAD_REACTORS
330
44F
102
}
330
44F
100
AcDbXrecord
280
     1
102
RTVSPropertyOp0
 70
     1
102
RTVSPropertyOp1
 70
     1
102
RTVSPropertyOp2
 70
     1
102
RTVSPropertyOp3
 70
     1
102
RTVSPropertyOp4
 70
     1
102
RTVSPropertyOp5
 70
     1
102
RTVSPropertyOp6
 70
     1
102
RTVSPropertyOp7
 70
     1
102
RTVSPropertyOp8
 70
     1
102
RTVSPropertyOp9
 70
     1
102
RTVSPropertyOp10
 70
     1
102
RTVSPropertyOp11
 70
     1
102
RTVSPropertyOp12
 70
     1
102
RTVSPropertyOp13
 70
     1
102
RTVSPropertyOp14
 70
     1
102
RTVSPropertyOp15
 70
     1
102
RTVSPropertyOp16
 70
     1
102
RTVSPropertyOp17
 70
     1
102
RTVSPropertyOp18
 70
     1
102
RTVSPropertyOp19
 70
     1
102
RTVSPropertyOp20
 70
     1
102
RTVSPropertyOp21
 70
     1
102
RTVSPropertyOp22
 70
     1
102
RTVSPropertyOp23
 70
     1
102
RTVSPropertyOp24
 70
     1
102
RTVSPropertyOp25
 70
     1
102
RTVSPropertyOp26
 70
     1
102
RTVSPropertyOp27
 70
     1
102
RTVSPropertyOp28
 70
     1
102
RTVSPropertyOp29
 70
     1
102
RTVSPropertyOp30
 70
     1
102
RTVSPropertyOp31
 70
     1
102
RTVSPropertyOp32
 70
     1
  0
XRECORD
  5
446
102
{ACAD_REACTORS
330
445
102
}
330
445
100
AcDbXrecord
280
     1
102
RTVSPropertyOp0
 70
     1
102
RTVSPropertyOp1
 70
     1
102
RTVSPropertyOp2
 70
     1
102
RTVSPropertyOp3
 70
     1
102
RTVSPropertyOp4
 70
     1
102
RTVSPropertyOp5
 70
     1
102
RTVSPropertyOp6
 70
     1
102
RTVSPropertyOp7
 70
     1
102
RTVSPropertyOp8
 70
     1
102
RTVSPropertyOp9
 70
     1
102
RTVSPropertyOp10
 70
     1
102
RTVSPropertyOp11
 70
     1
102
RTVSPropertyOp12
 70
     1
102
RTVSPropertyOp13
 70
     1
102
RTVSPropertyOp14
 70
     1
102
RTVSPropertyOp15
 70
     1
102
RTVSPropertyOp16
 70
     1
102
RTVSPropertyOp17
 70
     1
102
RTVSPropertyOp18
 70
     1
102
RTVSPropertyOp19
 70
     1
102
RTVSPropertyOp20
 70
     1
102
RTVSPropertyOp21
 70
     1
102
RTVSPropertyOp22
 70
     1
102
RTVSPropertyOp23
 70
     1
102
RTVSPropertyOp24
 70
     1
102
RTVSPropertyOp25
 70
     1
102
RTVSPropertyOp26
 70
     1
102
RTVSPropertyOp27
 70
     1
102
RTVSPropertyOp28
 70
     1
102
RTVSPropertyOp29
 70
     1
102
RTVSPropertyOp30
 70
     1
102
RTVSPropertyOp31
 70
     1
102
RTVSPropertyOp32
 70
     1
  0
XRECORD
  5
44E
102
{ACAD_REACTORS
330
44D
102
}
330
44D
100
AcDbXrecord
280
     1
102
RTVSPropertyOp0
 70
     1
102
RTVSPropertyOp1
 70
     1
102
RTVSPropertyOp2
 70
     1
102
RTVSPropertyOp3
 70
     1
102
RTVSPropertyOp4
 70
     1
102
RTVSPropertyOp5
 70
     1
102
RTVSPropertyOp6
 70
     1
102
RTVSPropertyOp7
 70
     1
102
RTVSPropertyOp8
 70
     1
102
RTVSPropertyOp9
 70
     1
102
RTVSPropertyOp10
 70
     1
102
RTVSPropertyOp11
 70
     1
102
RTVSPropertyOp12
 70
     1
102
RTVSPropertyOp13
 70
     1
102
RTVSPropertyOp14
 70
     1
102
RTVSPropertyOp15
 70
     1
102
RTVSPropertyOp16
 70
     1
102
RTVSPropertyOp17
 70
     1
102
RTVSPropertyOp18
 70
     1
102
RTVSPropertyOp19
 70
     1
102
RTVSPropertyOp20
 70
     1
102
RTVSPropertyOp21
 70
     1
102
RTVSPropertyOp22
 70
     1
102
RTVSPropertyOp23
 70
     1
102
RTVSPropertyOp24
 70
     1
102
RTVSPropertyOp25
 70
     1
102
RTVSPropertyOp26
 70
     1
102
RTVSPropertyOp27
 70
     1
102
RTVSPropertyOp28
 70
     1
102
RTVSPropertyOp29
 70
     1
102
RTVSPropertyOp30
 70
     1
102
RTVSPropertyOp31
 70
     1
102
RTVSPropertyOp32
 70
     1
  0
ENDSEC
  0
EOF
