  0
SECTION
  2
HEADER
  9
$ACADVER
  1
AC1015
  9
$ACADMAINTVER
 70
     6
  9
$DWGCODEPAGE
  3
ANSI_1252
  9
$INSBASE
 10
0.0
 20
0.0
 30
0.0
  9
$EXTMIN
 10
0.0
 20
0.0
 30
0.0
  9
$EXTMAX
 10
210.0
 20
297.0
 30
0.0
  9
$LIMMIN
 10
0.0
 20
0.0
  9
$LIMMAX
 10
0.0
 20
0.0
  9
$ORTHOMODE
 70
     0
  9
$REGENMODE
 70
     1
  9
$FILLMODE
 70
     1
  9
$QTEXTMODE
 70
     0
  9
$MIRRTEXT
 70
     1
  9
$LTSCALE
 40
1.0
  9
$ATTMODE
 70
     1
  9
$TEXTSIZE
 40
0.0
  9
$TRACEWID
 40
0.05
  9
$TEXTSTYLE
  7
STANDARD
  9
$CLAYER
  8
0
  9
$CELTYPE
  6
CONTINUOUS
  9
$CECOLOR
 62
   256
  9
$CELTSCALE
 40
1.0
  9
$DISPSILH
 70
     0
  9
$DIMSCALE
 40
1.0
  9
$DIMASZ
 40
0.0
  9
$DIMEXO
 40
0.0
  9
$DIMDLI
 40
0.38
  9
$DIMRND
 40
0.0
  9
$DIMDLE
 40
1000.0
  9
$DIMEXE
 40
0.18
  9
$DIMTP
 40
0.0
  9
$DIMTM
 40
0.0
  9
$DIMTXT
 40
3.5
  9
$DIMCEN
 40
0.09
  9
$DIMTSZ
 40
0.0
  9
$DIMTOL
 70
     0
  9
$DIMLIM
 70
     0
  9
$DIMTIH
 70
     1
  9
$DIMTOH
 70
     1
  9
$DIMSE1
 70
     0
  9
$DIMSE2
 70
     0
  9
$DIMTAD
 70
     1
  9
$DIMZIN
 70
     0
  9
$DIMBLK
  1

  9
$DIMASO
 70
     1
  9
$DIMSHO
 70
     1
  9
$DIMPOST
  1

  9
$DIMAPOST
  1

  9
$DIMALT
 70
     0
  9
$DIMALTD
 70
     2
  9
$DIMALTF
 40
0.0394
  9
$DIMLFAC
 40
1.0
  9
$DIMTOFL
 70
     0
  9
$DIMTVP
 40
0.0
  9
$DIMTIX
 70
     0
  9
$DIMSOXD
 70
     0
  9
$DIMSAH
 70
     0
  9
$DIMBLK1
  1

  9
$DIMBLK2
  1

  9
$DIMSTYLE
  2
STANDARD
  9
$DIMCLRD
 70
     0
  9
$DIMCLRE
 70
     0
  9
$DIMCLRT
 70
     0
  9
$DIMTFAC
 40
1.0
  9
$DIMGAP
 40
0.0
  9
$DIMJUST
 70
     0
  9
$DIMSD1
 70
     0
  9
$DIMSD2
 70
     0
  9
$DIMTOLJ
 70
     1
  9
$DIMTZIN
 70
     0
  9
$DIMALTZ
 70
     0
  9
$DIMALTTZ
 70
     0
  9
$DIMUPT
 70
     0
  9
$DIMDEC
 70
     4
  9
$DIMTDEC
 70
     4
  9
$DIMALTU
 70
     2
  9
$DIMALTTD
 70
     2
  9
$DIMTXSTY
  7
STANDARD
  9
$DIMAUNIT
 70
     0
  9
$DIMADEC
 70
     0
  9
$DIMALTRND
 40
0.0
  9
$DIMAZIN
 70
     0
  9
$DIMDSEP
 70
    46
  9
$DIMATFIT
 70
     3
  9
$DIMFRAC
 70
     0
  9
$DIMLDRBLK
  1

  9
$DIMLUNIT
 70
     2
  9
$DIMLWD
 70
    -2
  9
$DIMLWE
 70
    -2
  9
$DIMTMOVE
 70
     2
  9
$LUNITS
 70
     2
  9
$LUPREC
 70
     2
  9
$SKETCHINC
 40
0.1
  9
$FILLETRAD
 40
0.0
  9
$AUNITS
 70
     0
  9
$AUPREC
 70
     2
  9
$MENU
  1
acad
  9
$ELEVATION
 40
0.0
  9
$PELEVATION
 40
0.0
  9
$THICKNESS
 40
0.0
  9
$LIMCHECK
 70
     0
  9
$CHAMFERA
 40
0.0
  9
$CHAMFERB
 40
0.0
  9
$CHAMFERC
 40
0.0
  9
$CHAMFERD
 40
0.0
  9
$SKPOLY
 70
     0
  9
$TDCREATE
 40
2447893.0
  9
$TDUCREATE
 40
2447892.916666667
  9
$TDUPDATE
 40
2458327.548776435
  9
$TDUUPDATE
 40
2458327.465443102
  9
$TDINDWG
 40
0.0
  9
$TDUSRTIMER
 40
0.0
  9
$USRTIMER
 70
     1
  9
$ANGBASE
 50
0.0
  9
$ANGDIR
 70
     0
  9
$PDMODE
 70
     0
  9
$PDSIZE
 40
-1.0
  9
$PLINEWID
 40
0.0
  9
$SPLFRAME
 70
     0
  9
$SPLINETYPE
 70
     6
  9
$SPLINESEGS
 70
     8
  9
$HANDSEED
  5
47D
  9
$SURFTAB1
 70
     6
  9
$SURFTAB2
 70
     6
  9
$SURFTYPE
 70
     6
  9
$SURFU
 70
     6
  9
$SURFV
 70
     6
  9
$UCSBASE
  2

  9
$UCSNAME
  2

  9
$UCSORG
 10
0.0
 20
0.0
 30
0.0
  9
$UCSXDIR
 10
1.0
 20
0.0
 30
0.0
  9
$UCSYDIR
 10
0.0
 20
1.0
 30
0.0
  9
$UCSORTHOREF
  2

  9
$UCSORTHOVIEW
 70
     0
  9
$UCSORGTOP
 10
0.0
 20
0.0
 30
0.0
  9
$UCSORGBOTTOM
 10
0.0
 20
0.0
 30
0.0
  9
$UCSORGLEFT
 10
0.0
 20
0.0
 30
0.0
  9
$UCSORGRIGHT
 10
0.0
 20
0.0
 30
0.0
  9
$UCSORGFRONT
 10
0.0
 20
0.0
 30
0.0
  9
$UCSORGBACK
 10
0.0
 20
0.0
 30
0.0
  9
$PUCSBASE
  2

  9
$PUCSNAME
  2

  9
$PUCSORG
 10
0.0
 20
0.0
 30
0.0
  9
$PUCSXDIR
 10
1.0
 20
0.0
 30
0.0
  9
$PUCSYDIR
 10
0.0
 20
1.0
 30
0.0
  9
$PUCSORTHOREF
  2

  9
$PUCSORTHOVIEW
 70
     0
  9
$PUCSORGTOP
 10
0.0
 20
0.0
 30
0.0
  9
$PUCSORGBOTTOM
 10
0.0
 20
0.0
 30
0.0
  9
$PUCSORGLEFT
 10
0.0
 20
0.0
 30
0.0
  9
$PUCSORGRIGHT
 10
0.0
 20
0.0
 30
0.0
  9
$PUCSORGFRONT
 10
0.0
 20
0.0
 30
0.0
  9
$PUCSORGBACK
 10
0.0
 20
0.0
 30
0.0
  9
$USERI1
 70
     0
  9
$USERI2
 70
     0
  9
$USERI3
 70
     0
  9
$USERI4
 70
     0
  9
$USERI5
 70
     0
  9
$USERR1
 40
0.0
  9
$USERR2
 40
0.0
  9
$USERR3
 40
0.0
  9
$USERR4
 40
0.0
  9
$USERR5
 40
0.0
  9
$WORLDVIEW
 70
     1
  9
$SHADEDGE
 70
     3
  9
$SHADEDIF
 70
    70
  9
$TILEMODE
 70
     1
  9
$MAXACTVP
 70
    16
  9
$PINSBASE
 10
0.0
 20
0.0
 30
0.0
  9
$PLIMCHECK
 70
     0
  9
$PEXTMIN
 10
1.000000000000000E+20
 20
1.000000000000000E+20
 30
1.000000000000000E+20
  9
$PEXTMAX
 10
-1.000000000000000E+20
 20
-1.000000000000000E+20
 30
-1.000000000000000E+20
  9
$PLIMMIN
 10
0.0
 20
0.0
  9
$PLIMMAX
 10
12.0
 20
9.0
  9
$UNITMODE
 70
     0
  9
$VISRETAIN
 70
     0
  9
$PLINEGEN
 70
     1
  9
$PSLTSCALE
 70
     1
  9
$TREEDEPTH
 70
  3020
  9
$CMLSTYLE
  2
STANDARD
  9
$CMLJUST
 70
     0
  9
$CMLSCALE
 40
1.0
  9
$PROXYGRAPHICS
 70
     1
  9
$MEASUREMENT
 70
     0
  9
$CELWEIGHT
370
    -1
  9
$ENDCAPS
280
     0
  9
$JOINSTYLE
280
     0
  9
$LWDISPLAY
290
     0
  9
$INSUNITS
 70
     0
  9
$HYPERLINKBASE
  1

  9
$STYLESHEET
  1

  9
$XEDIT
290
     1
  9
$CEPSNTYPE
380
     0
  9
$PSTYLEMODE
290
     1
  9
$FINGERPRINTGUID
  2
{AAF8556D-738D-45FB-BA8F-3B493BBFD7D5}
  9
$VERSIONGUID
  2
{FAEB1C32-E019-11D5-929B-00C0DF256EC4}
  9
$EXTNAMES
290
     1
  9
$PSVPSCALE
 40
0.0
  9
$OLESTARTUP
290
     0
  0
ENDSEC
  0
SECTION
  2
CLASSES
  0
CLASS
  1
LWPOLYLINE
  2
AcDbPolyline
  3
ObjectDBX Classes
 90
        0
280
     0
281
     1
  0
CLASS
  1
IMAGE
  2
AcDbRasterImage
  3
ISM
 90
      127
280
     0
281
     1
  0
CLASS
  1
OLE2FRAME
  2
AcDbOle2Frame
  3
ObjectDBX Classes
 90
        0
280
     0
281
     1
  0
CLASS
  1
HATCH
  2
AcDbHatch
  3
ObjectDBX Classes
 90
        0
280
     0
281
     1
  0
CLASS
  1
DICTIONARYVAR
  2
AcDbDictionaryVar
  3
ObjectDBX Classes
 90
        0
280
     0
281
     0
  0
CLASS
  1
RASTERVARIABLES
  2
AcDbRasterVariables
  3
ISM
 90
        0
280
     0
281
     0
  0
CLASS
  1
IMAGEDEF
  2
AcDbRasterImageDef
  3
ISM
 90
        0
280
     0
281
     0
  0
CLASS
  1
IMAGEDEF_REACTOR
  2
AcDbRasterImageDefReactor
  3
ISM
 90
        1
280
     0
281
     0
  0
CLASS
  1
IDBUFFER
  2
AcDbIdBuffer
  3
ObjectDBX Classes
 90
        0
280
     0
281
     0
  0
CLASS
  1
SPATIAL_FILTER
  2
AcDbSpatialFilter
  3
ObjectDBX Classes
 90
        0
280
     0
281
     0
  0
CLASS
  1
XRECORD
  2
AcDbXrecord
  3
ObjectDBX Classes
 90
        0
280
     0
281
     0
  0
CLASS
  1
SORTENTSTABLE
  2
AcDbSortentsTable
  3
ObjectDBX Classes
 90
        0
280
     0
281
     0
  0
CLASS
  1
LAYER_INDEX
  2
AcDbLayerIndex
  3
ObjectDBX Classes
 90
        0
280
     0
281
     0
  0
CLASS
  1
SPATIAL_INDEX
  2
AcDbSpatialIndex
  3
AutoCAD 2000
 90
        0
280
     0
281
     0
  0
CLASS
  1
OBJECT_PTR
  2
CAseDLPNTableRecord
  3
ASE-LPNTableRecord
 90
        1
280
     0
281
     0
  0
CLASS
  1
LAYOUT
  2
AcDbLayout
  3
ObjectDBX Classes
 90
        0
280
     0
281
     0
  0
CLASS
  1
PLOTSETTINGS
  2
AcDbPlotSettings
  3
ObjectDBX Classes
 90
        0
280
     0
281
     0
  0
CLASS
  1
ACDBDICTIONARYWDFLT
  2
AcDbDictionaryWithDefault
  3
ObjectDBX Classes
 90
        0
280
     0
281
     0
  0
CLASS
  1
ACDBPLACEHOLDER
  2
AcDbPlaceHolder
  3
ObjectDBX Classes
 90
        0
280
     0
281
     0
  0
CLASS
  1
VBA_PROJECT
  2
AcDbVbaProject
  3
ObjectDBX Classes
 90
        0
280
     0
281
     0
  0
CLASS
  1
WIPEOUT
  2
AcDbWipeout
  3
WipeOut|AutoCAD Express Tool|expresstools@autodesk.com
 90
      127
280
     0
281
     1
  0
CLASS
  1
WIPEOUTVARIABLES
  2
AcDbWipeoutVariables
  3
WipeOut|AutoCAD Express Tool|expresstools@autodesk.com
 90
        0
280
     0
281
     0
  0
CLASS
  1
RTEXT
  2
RText
  3
RText|AutoCAD Express Tool|expresstools@autodesk.com
 90
        0
280
     0
281
     1
  0
CLASS
  1
ARCALIGNEDTEXT
  2
AcDbArcAlignedText
  3
ATEXT|AutoCAD Express Tool|expresstools@autodesk.com
 90
        0
280
     0
281
     1
  0
CLASS
  1
SCALE
  2
AcDbScale
  3
ObjectDBX Classes
 90
     1153
280
     0
281
     0
  0
CLASS
  1
VISUALSTYLE
  2
AcDbVisualStyle
  3
ObjectDBX Classes
 90
     4095
280
     0
281
     0
  0
CLASS
  1
MATERIAL
  2
AcDbMaterial
  3
ObjectDBX Classes
 90
     1153
280
     0
281
     0
  0
ENDSEC
  0
SECTION
  2
TABLES
  0
TABLE
  2
VPORT
  5
7
102
{ACAD_XDICTIONARY
360
442
102
}
330
0
100
AcDbSymbolTable
 70
     1
  0
VPORT
  5
15
330
7
100
AcDbSymbolTableRecord
100
AcDbViewportTableRecord
  2
*ACTIVE
 70
     0
 10
0.0
 20
0.0
 11
1.0
 21
1.0
 12
105.0
 22
148.5
 13
0.0
 23
0.0
 14
1.0
 24
1.0
 15
0.0
 25
0.0
 16
0.0
 26
0.0
 36
1.0
 17
0.0
 27
0.0
 37
0.0
 40
297.0
 41
1.4142857143
 42
50.0
 43
0.0
 44
0.0
 50
0.0
 51
0.0
 71
     0
 72
  2000
 73
     1
 74
     1
 75
     0
 76
     0
 77
     0
 78
     0
281
     0
 65
     1
110
0.0
120
0.0
130
0.0
111
1.0
121
0.0
131
0.0
112
0.0
122
1.0
132
0.0
 79
     0
146
0.0
  0
ENDTAB
  0
TABLE
  2
LTYPE
  5
4
330
0
100
AcDbSymbolTable
 70
     6
  0
LTYPE
  5
11
330
4
100
AcDbSymbolTableRecord
100
AcDbLinetypeTableRecord
  2
BYBLOCK
 70
     0
  3

 72
    65
 73
     0
 40
0.0
  0
LTYPE
  5
12
330
4
100
AcDbSymbolTableRecord
100
AcDbLinetypeTableRecord
  2
BYLAYER
 70
     0
  3

 72
    65
 73
     0
 40
0.0
  0
LTYPE
  5
13
330
4
100
AcDbSymbolTableRecord
100
AcDbLinetypeTableRecord
  2
CONTINUOUS
 70
     0
  3
Solid line
 72
    65
 73
     0
 40
0.0
  0
LTYPE
  5
1D
330
4
100
AcDbSymbolTableRecord
100
AcDbLinetypeTableRecord
  2
HIDDEN
 70
     0
  3
Hidden __ __ __ __ __ __ __ __ __ __ __ __ __ __
 72
    65
 73
     2
 40
1.905
 49
1.27
 74
     0
 49
-0.635
 74
     0
  0
LTYPE
  5
1E
330
4
100
AcDbSymbolTableRecord
100
AcDbLinetypeTableRecord
  2
PHANTOM
 70
     0
  3
Phantom ______  __  __  ______  __  __  ______
 72
    65
 73
     6
 40
12.7
 49
6.35
 74
     0
 49
-1.27
 74
     0
 49
1.27
 74
     0
 49
-1.27
 74
     0
 49
1.27
 74
     0
 49
-1.27
 74
     0
  0
LTYPE
  5
1F
330
4
100
AcDbSymbolTableRecord
100
AcDbLinetypeTableRecord
  2
CENTER
 70
     0
  3
Center ____ _ ____ _ ____ _ ____ _ ____ _ ____
 72
    65
 73
     4
 40
10.16
 49
6.35
 74
     0
 49
-1.27
 74
     0
 49
1.27
 74
     0
 49
-1.27
 74
     0
  0
LTYPE
  5
20
330
4
100
AcDbSymbolTableRecord
100
AcDbLinetypeTableRecord
  2
CENTERX2
 70
     0
  3
Center (2x) ________  __  ________  __  _____
 72
    65
 73
     4
 40
20.32
 49
12.7
 74
     0
 49
-2.54
 74
     0
 49
2.54
 74
     0
 49
-2.54
 74
     0
  0
LTYPE
  5
21
330
4
100
AcDbSymbolTableRecord
100
AcDbLinetypeTableRecord
  2
DOT2
 70
     0
  3
Dot (.5x) ........................................
 72
    65
 73
     2
 40
0.635
 49
0.0
 74
     0
 49
-0.635
 74
     0
  0
LTYPE
  5
46C
330
5
100
AcDbSymbolTableRecord
100
AcDbLinetypeTableRecord
  2
DASH
 70
     0
  3
DASH _ _ _ _ _
 72
    65
 73
     2
 40
0.75
 49
0.40
 74
     0
 49
-0.35
 74
     0
  0
LTYPE
  5
46D
330
5
100
AcDbSymbolTableRecord
100
AcDbLinetypeTableRecord
  2
LONGDASH_DASH
 70
     0
  3
LONGDASH_DASH __ . __ . __
 72
    65
 73
     4
 40
0.85
 49
0.40
 74
     0
 49
-0.20
 74
     0
 49
0.05
 74
     0
 49
-0.20
 74
     0
  0
LTYPE
  5
46E
330
5
100
AcDbSymbolTableRecord
100
AcDbLinetypeTableRecord
  2
LONGDASH_DASH_DASH
 70
     0
  3
LONGDASH_DASH_DASH __ . . __ . . __
 72
    65
 73
     6
 40
1.10
 49
0.40
 74
     0
 49
-0.20
 74
     0
 49
0.05
 74
     0
 49
-0.20
 74
     0
 49
0.05
 74
     0
 49
-0.20
 74
     0
  0
ENDTAB
  0
TABLE
  2
LAYER
  5
2
330
0
100
AcDbSymbolTable
 70
     8
  0
LAYER
  5
23
330
2
100
AcDbSymbolTableRecord
100
AcDbLayerTableRecord
  2
DEFPOINTS
 70
     0
 62
     7
  6
CONTINUOUS
290
     0
370
    -3
390
0
  0
LAYER
  5
46F
330
2
100
AcDbSymbolTableRecord
100
AcDbLayerTableRecord
  2
0
 70
     0
 62
     -1
  6
CONTINUOUS
370
    -3
390
F
  0
LAYER
  5
470
330
2
100
AcDbSymbolTableRecord
100
AcDbLayerTableRecord
  2
1
 70
     0
 62
     4
  6
CONTINUOUS
370
    50
390
F
  0
LAYER
  5
471
330
2
100
AcDbSymbolTableRecord
100
AcDbLayerTableRecord
  2
2
 70
     0
 62
     7
  6
CONTINUOUS
370
    25
390
F
  0
LAYER
  5
472
330
2
100
AcDbSymbolTableRecord
100
AcDbLayerTableRecord
  2
3
 70
     0
 62
     1
  6
DASH
370
    35
390
F
  0
LAYER
  5
473
330
2
100
AcDbSymbolTableRecord
100
AcDbLayerTableRecord
  2
4
 70
     0
 62
     2
  6
LONGDASH_DASH
370
    25
390
F
  0
LAYER
  5
474
330
2
100
AcDbSymbolTableRecord
100
AcDbLayerTableRecord
  2
6
 70
     0
 62
     5
  6
CONTINUOUS
370
    -3
390
F
  0
LAYER
  5
475
330
2
100
AcDbSymbolTableRecord
100
AcDbLayerTableRecord
  2
CUT
 70
     0
 62
     1
  6
CONTINUOUS
370
    25
390
F
  0
LAYER
  5
476
330
2
100
AcDbSymbolTableRecord
100
AcDbLayerTableRecord
  2
NOCUT
 70
     0
 62
     7
  6
CONTINUOUS
370
    25
390
F
  0
LAYER
  5
477
330
2
100
AcDbSymbolTableRecord
100
AcDbLayerTableRecord
  2
SK1
 70
     0
 62
     4
  6
CONTINUOUS
370
    50
390
F
  0
LAYER
  5
478
330
2
100
AcDbSymbolTableRecord
100
AcDbLayerTableRecord
  2
SK2
 70
     0
 62
     7
  6
CONTINUOUS
370
    25
390
F
  0
LAYER
  5
479
330
2
100
AcDbSymbolTableRecord
100
AcDbLayerTableRecord
  2
SK3
 70
     0
 62
     1
  6
DASH
370
    35
390
F
  0
LAYER
  5
47A
330
2
100
AcDbSymbolTableRecord
100
AcDbLayerTableRecord
  2
SK4
 70
     0
 62
     2
  6
LONGDASH_DASH
370
    25
390
F
  0
LAYER
  5
47B
330
2
100
AcDbSymbolTableRecord
100
AcDbLayerTableRecord
  2
SK6
 70
     0
 62
     5
  6
CONTINUOUS
370
    -3
390
F
  0
LAYER
  5
47C
330
2
100
AcDbSymbolTableRecord
100
AcDbLayerTableRecord
  2
INFTOTAL
 70
     0
 62
     9
  6
CONTINUOUS
370
    18
390
F
  0
ENDTAB
  0
TABLE
  2
STYLE
  5
3
330
0
100
AcDbSymbolTable
 70
     2
  0
STYLE
  5
17
330
3
100
AcDbSymbolTableRecord
100
AcDbTextStyleTableRecord
  2
STANDARD
 70
     0
 40
0.0
 41
1.0
 50
0.0
 71
     0
 42
0.2
  3
txt
  4

  0
STYLE
  5
43A
330
3
100
AcDbSymbolTableRecord
100
AcDbTextStyleTableRecord
  2
BMG_Text
 70
     0
 40
3.5
 41
1.0
 50
0.0
 71
     0
 42
0.0
  3
monos.ttf
  4

1001
ACAD
1000
Monospac821 BT
1071
       49
  0
ENDTAB
  0
TABLE
  2
VIEW
  5
5
330
0
100
AcDbSymbolTable
 70
     0
  0
ENDTAB
  0
TABLE
  2
UCS
  5
6
330
0
100
AcDbSymbolTable
 70
     0
  0
ENDTAB
  0
TABLE
  2
APPID
  5
8
330
0
100
AcDbSymbolTable
 70
     1
  0
APPID
  5
16
330
8
100
AcDbSymbolTableRecord
100
AcDbRegAppTableRecord
  2
ACAD
 70
     0
  0
ENDTAB
  0
TABLE
  2
DIMSTYLE
  5
9
330
0
100
AcDbSymbolTable
 70
     1
100
AcDbDimStyleTable
  0
DIMSTYLE
105
18
330
9
100
AcDbSymbolTableRecord
100
AcDbDimStyleTableRecord
  2
STANDARD
 70
     0
178
     0
340
17
  0
ENDTAB
  0
TABLE
  2
BLOCK_RECORD
  5
1
330
0
100
AcDbSymbolTable
 70
     0
  0
BLOCK_RECORD
  5
A
330
1
100
AcDbSymbolTableRecord
100
AcDbBlockTableRecord
  2
*MODEL_SPACE
340
423
  0
BLOCK_RECORD
  5
B
330
1
100
AcDbSymbolTableRecord
100
AcDbBlockTableRecord
  2
*PAPER_SPACE
340
424
  0
ENDTAB
  0
ENDSEC
  0
SECTION
  2
BLOCKS
  0
BLOCK
  5
D
330
A
100
AcDbEntity
  8
0
100
AcDbBlockBegin
  2
*MODEL_SPACE
 70
     0
 10
0.0
 20
0.0
 30
0.0
  3
*MODEL_SPACE
  1

  0
ENDBLK
  5
E
330
A
100
AcDbEntity
  8
0
100
AcDbBlockEnd
  0
BLOCK
  5
F
330
B
100
AcDbEntity
 67
     1
  8
0
100
AcDbBlockBegin
  2
*PAPER_SPACE
 70
     0
 10
0.0
 20
0.0
 30
0.0
  3
*PAPER_SPACE
  1

  0
ENDBLK
  5
10
330
B
100
AcDbEntity
 67
     1
  8
0
100
AcDbBlockEnd
  0
ENDSEC
  0
SECTION
  2
ENTITIES
  0
ARC
  5
29
330
A
100
AcDbEntity
  8
1
  6
CONTINUOUS
370
    50
100
AcDbCircle
 10
104.6729162324
 20
144.7342749879
 30
0.0
 40
0.5
100
AcDbArc
 50
66.4218215218
 51
90.0
  0
ARC
  5
2A
330
A
100
AcDbEntity
  8
1
  6
CONTINUOUS
370
    50
100
AcDbCircle
 10
104.6729162324
 20
189.5842749879
 30
0.0
 40
0.5
100
AcDbArc
 50
270.0
 51
293.5781784782001
  0
LINE
  5
2B
330
A
100
AcDbEntity
  8
1
  6
CONTINUOUS
370
    50
100
AcDbLine
 10
103.8729162324
 20
189.3842749879
 30
0.0
 11
36.405437591
 21
179.5452676858
 31
0.0
  0
LINE
  5
2C
330
A
100
AcDbEntity
  8
1
  6
CONTINUOUS
370
    50
100
AcDbLine
 10
36.405437591
 20
154.77328229
 30
0.0
 11
103.8729162324
 21
144.9342749879
 31
0.0
  0
LINE
  5
2D
330
A
100
AcDbEntity
  8
1
  6
CONTINUOUS
370
    50
100
AcDbLine
 10
103.8729162324
 20
144.9342749879
 30
0.0
 11
104.415806509
 21
145.1874288814
 31
0.0
  0
LINE
  5
2E
330
A
100
AcDbEntity
  8
1
  6
CONTINUOUS
370
    50
100
AcDbLine
 10
104.415806509
 20
189.1311210944
 30
0.0
 11
103.8729162324
 21
189.3842749879
 31
0.0
  0
ARC
  5
2F
330
A
100
AcDbEntity
  8
1
  6
CONTINUOUS
370
    50
100
AcDbCircle
 10
104.6271156399
 20
144.7342749879
 30
0.0
 40
0.5
100
AcDbArc
 50
90.0
 51
115.0
  0
ARC
  5
30
330
A
100
AcDbEntity
  8
1
  6
CONTINUOUS
370
    50
100
AcDbCircle
 10
104.6271156399
 20
189.5842749879
 30
0.0
 40
0.5
100
AcDbArc
 50
245.0
 51
270.0
  0
ARC
  5
31
330
A
100
AcDbEntity
  8
1
  6
CONTINUOUS
370
    50
100
AcDbCircle
 10
127.9229162324
 20
148.7092749879
 30
0.0
 40
5.0
100
AcDbArc
 50
81.890385544
 51
180.0
  0
ARC
  5
32
330
A
100
AcDbEntity
  8
1
  6
CONTINUOUS
370
    50
100
AcDbCircle
 10
127.9229162324
 20
185.6092749879
 30
0.0
 40
5.0
100
AcDbArc
 50
180.0
 51
278.109614456
  0
LINE
  5
33
330
A
100
AcDbEntity
  8
1
  6
CONTINUOUS
370
    50
100
AcDbLine
 10
128.6282530314
 20
153.6592749879
 30
0.0
 11
145.7543020239
 21
153.6592749879
 31
0.0
  0
LINE
  5
34
330
A
100
AcDbEntity
  8
1
  6
CONTINUOUS
370
    50
100
AcDbLine
 10
145.7543020239
 20
180.6592749879
 30
0.0
 11
128.6282530314
 21
180.6592749879
 31
0.0
  0
LINE
  5
35
330
A
100
AcDbEntity
  8
1
  6
CONTINUOUS
370
    50
100
AcDbLine
 10
145.7543020239
 20
153.6592749879
 30
0.0
 11
182.8397881284
 21
156.5779660428
 31
0.0
  0
LINE
  5
36
330
A
100
AcDbEntity
  8
1
  6
CONTINUOUS
370
    50
100
AcDbLine
 10
182.8397881284
 20
177.7405839331
 30
0.0
 11
145.7543020239
 21
180.6592749879
 31
0.0
  0
ARC
  5
37
330
A
100
AcDbEntity
  8
1
  6
CONTINUOUS
370
    50
100
AcDbCircle
 10
36.5729162324
 20
155.7089071709
 30
0.0
 40
0.95
100
AcDbArc
 50
180.0
 51
258.0
  0
ARC
  5
38
330
A
100
AcDbEntity
  8
1
  6
CONTINUOUS
370
    50
100
AcDbCircle
 10
36.5729162324
 20
178.6096428049
 30
0.0
 40
0.95
100
AcDbArc
 50
102.0
 51
180.0
  0
ARC
  5
39
330
A
100
AcDbEntity
  8
1
  6
CONTINUOUS
370
    50
100
AcDbCircle
 10
181.8729162324
 20
158.328725517
 30
0.0
 40
2.0
100
AcDbArc
 50
298.9100507073
 51
0.0
  0
ARC
  5
3A
330
A
100
AcDbEntity
  8
1
  6
CONTINUOUS
370
    50
100
AcDbCircle
 10
181.8729162324
 20
175.9898244588
 30
0.0
 40
2.0
100
AcDbArc
 50
0.0
 51
61.08994929269999
  0
LINE
  5
3B
330
A
100
AcDbEntity
  8
1
  6
CONTINUOUS
370
    50
100
AcDbLine
 10
118.4947528745
 20
136.6821934354
 30
0.0
 11
118.4947528745
 21
185.5092749879
 31
0.0
  0
LINE
  5
3C
330
A
100
AcDbEntity
  8
1
  6
CONTINUOUS
370
    50
100
AcDbLine
 10
122.4229162324
 20
185.5092749879
 30
0.0
 11
118.4947528745
 21
185.5092749879
 31
0.0
  0
LINE
  5
3D
330
A
100
AcDbEntity
  8
1
  6
CONTINUOUS
370
    50
100
AcDbLine
 10
122.4229162324
 20
136.6821934354
 30
0.0
 11
122.4229162324
 21
185.5092749879
 31
0.0
  0
LINE
  5
3E
330
A
100
AcDbEntity
  8
1
  6
CONTINUOUS
370
    50
100
AcDbLine
 10
122.4229162324
 20
136.6821934354
 30
0.0
 11
118.4947528745
 21
136.6821934354
 31
0.0
  0
LINE
  5
3F
330
A
100
AcDbEntity
  8
1
  6
CONTINUOUS
370
    50
100
AcDbLine
 10
118.4947528745
 20
136.6821934354
 30
0.0
 11
117.8892540492
 21
137.5321934379
 31
0.0
  0
LWPOLYLINE
  5
40
330
A
100
AcDbEntity
  8
1
  6
CONTINUOUS
370
    50
100
AcDbPolyline
 90
        3
 70
   128
 43
0.0
 10
116.8979162324
 20
139.3154027289
 10
117.4770816242
 20
138.2726316803
 10
117.8892540492
 20
137.5321934379
  0
LINE
  5
45
330
A
100
AcDbEntity
  8
1
  6
CONTINUOUS
370
    50
100
AcDbLine
 10
116.8979162324
 20
185.5092749879
 30
0.0
 11
116.8979162324
 21
139.3154027289
 31
0.0
  0
LINE
  5
46
330
A
100
AcDbEntity
  8
1
  6
CONTINUOUS
370
    50
100
AcDbLine
 10
118.4947528745
 20
185.5092749879
 30
0.0
 11
116.8979162324
 21
185.5092749879
 31
0.0
  0
LINE
  5
47
330
A
100
AcDbEntity
  8
1
  6
CONTINUOUS
370
    50
100
AcDbLine
 10
122.9229162324
 20
185.5092749879
 30
0.0
 11
122.9229162324
 21
137.0863198338
 31
0.0
  0
LINE
  5
48
330
A
100
AcDbEntity
  8
1
  6
CONTINUOUS
370
    50
100
AcDbLine
 10
122.9229162324
 20
137.0863198338
 30
0.0
 11
122.4229162324
 21
136.6821934354
 31
0.0
  0
LINE
  5
49
330
A
100
AcDbEntity
  8
1
  6
CONTINUOUS
370
    50
100
AcDbLine
 10
122.4229162324
 20
185.5092749879
 30
0.0
 11
122.9229162324
 21
185.5092749879
 31
0.0
  0
LINE
  5
4A
330
A
100
AcDbEntity
  8
1
  6
CONTINUOUS
370
    50
100
AcDbLine
 10
111.4510795904
 20
136.6821934354
 30
0.0
 11
111.4510795904
 21
185.5092749879
 31
0.0
  0
LINE
  5
4B
330
A
100
AcDbEntity
  8
1
  6
CONTINUOUS
370
    50
100
AcDbLine
 10
111.4510795904
 20
136.6821934354
 30
0.0
 11
106.72291623
 21
136.6821934354
 31
0.0
  0
LWPOLYLINE
  5
4C
330
A
100
AcDbEntity
  8
1
  6
CONTINUOUS
370
    50
100
AcDbPolyline
 90
        3
 70
   128
 43
0.0
 10
105.3729162324
 20
137.1093165853
 10
106.04553488
 20
136.888228319
 10
106.72291623
 20
136.6821934354
  0
LINE
  5
51
330
A
100
AcDbEntity
  8
1
  6
CONTINUOUS
370
    50
100
AcDbLine
 10
105.3729162324
 20
185.5092749879
 30
0.0
 11
105.3729162324
 21
137.1093165853
 31
0.0
  0
LINE
  5
52
330
A
100
AcDbEntity
  8
1
  6
CONTINUOUS
370
    50
100
AcDbLine
 10
111.4510795904
 20
185.5092749879
 30
0.0
 11
105.3729162324
 21
185.5092749879
 31
0.0
  0
LINE
  5
53
330
A
100
AcDbEntity
  8
1
  6
CONTINUOUS
370
    50
100
AcDbLine
 10
112.0565784157
 20
137.5321934379
 30
0.0
 11
111.4510795904
 21
136.6821934354
 31
0.0
  0
LINE
  5
54
330
A
100
AcDbEntity
  8
1
  6
CONTINUOUS
370
    50
100
AcDbLine
 10
113.0479162324
 20
185.5092749879
 30
0.0
 11
111.4510795904
 21
185.5092749879
 31
0.0
  0
LINE
  5
55
330
A
100
AcDbEntity
  8
1
  6
CONTINUOUS
370
    50
100
AcDbLine
 10
113.0479162324
 20
139.3154027289
 30
0.0
 11
113.0479162324
 21
185.5092749879
 31
0.0
  0
LWPOLYLINE
  5
56
330
A
100
AcDbEntity
  8
1
  6
CONTINUOUS
370
    50
100
AcDbPolyline
 90
        3
 70
   128
 43
0.0
 10
112.0565784157
 20
137.5321934379
 10
112.4687508406
 20
138.2726316803
 10
113.0479162324
 20
139.3154027289
  0
LINE
  5
5B
330
A
100
AcDbEntity
  8
1
  6
CONTINUOUS
370
    50
100
AcDbLine
 10
105.3729162324
 20
137.1093165853
 30
0.0
 11
104.8729162324
 21
137.8164734857
 31
0.0
  0
LINE
  5
5C
330
A
100
AcDbEntity
  8
1
  6
CONTINUOUS
370
    50
100
AcDbLine
 10
104.8729162324
 20
137.8164734857
 30
0.0
 11
104.8729162324
 21
185.5092749879
 31
0.0
  0
LINE
  5
5D
330
A
100
AcDbEntity
  8
1
  6
CONTINUOUS
370
    50
100
AcDbLine
 10
104.8729162324
 20
185.5092749879
 30
0.0
 11
105.3729162324
 21
185.5092749879
 31
0.0
  0
ARC
  5
5E
330
A
100
AcDbEntity
  8
1
  6
CONTINUOUS
370
    50
100
AcDbCircle
 10
113.5593121712
 20
139.8300453168
 30
0.0
 40
0.5114987785
100
AcDbArc
 50
91.2766271413
 51
181.1489553383
  0
LINE
  5
5F
330
A
100
AcDbEntity
  8
1
  6
CONTINUOUS
370
    50
100
AcDbLine
 10
113.0479162324
 20
185.5092749879
 30
0.0
 11
113.5479162324
 21
185.5092749879
 31
0.0
  0
LINE
  5
60
330
A
100
AcDbEntity
  8
1
  6
CONTINUOUS
370
    50
100
AcDbLine
 10
113.5479162324
 20
185.5092749879
 30
0.0
 11
113.5479162324
 21
140.3414171316
 31
0.0
  0
ARC
  5
61
330
A
100
AcDbEntity
  8
1
  6
CONTINUOUS
370
    50
100
AcDbCircle
 10
116.388213742
 20
139.8316685498
 30
0.0
 40
0.5098409115
100
AcDbArc
 50
358.664846517
 51
88.9095710035
  0
LINE
  5
62
330
A
100
AcDbEntity
  8
1
  6
CONTINUOUS
370
    50
100
AcDbLine
 10
116.3979162324
 20
185.5092749879
 30
0.0
 11
116.3979162324
 21
140.3414171316
 31
0.0
  0
LINE
  5
63
330
A
100
AcDbEntity
  8
1
  6
CONTINUOUS
370
    50
100
AcDbLine
 10
116.3979162324
 20
185.5092749879
 30
0.0
 11
116.8979162324
 21
185.5092749879
 31
0.0
  0
LINE
  5
64
330
A
100
AcDbEntity
  8
1
  6
CONTINUOUS
370
    50
100
AcDbLine
 10
116.3979162324
 20
140.3414171316
 30
0.0
 11
113.5479162324
 21
140.3414171316
 31
0.0
  0
LINE
  5
65
330
A
100
AcDbEntity
  8
1
  6
CONTINUOUS
370
    50
100
AcDbLine
 10
113.5479162324
 20
185.5092749879
 30
0.0
 11
116.3979162324
 21
185.5092749879
 31
0.0
  0
LINE
  5
66
330
A
100
AcDbEntity
  8
1
  6
CONTINUOUS
370
    50
100
AcDbLine
 10
36.405437591
 20
179.5452676858
 30
0.0
 11
36.405437591
 21
154.77328229
 31
0.0
  0
LINE
  5
67
330
A
100
AcDbEntity
  8
1
  6
CONTINUOUS
370
    50
100
AcDbLine
 10
103.8729162324
 20
144.9342749879
 30
0.0
 11
103.8729162324
 21
189.3842749879
 31
0.0
  0
LINE
  5
68
330
A
100
AcDbEntity
  8
1
  6
CONTINUOUS
370
    50
100
AcDbLine
 10
128.6282530314
 20
153.6592749879
 30
0.0
 11
128.6282530314
 21
180.6592749879
 31
0.0
  0
LINE
  5
69
330
A
100
AcDbEntity
  8
1
  6
CONTINUOUS
370
    50
100
AcDbLine
 10
105.3729162324
 20
193.069504628
 30
0.0
 11
104.8729162324
 21
192.4543337939
 31
0.0
  0
LINE
  5
6A
330
A
100
AcDbEntity
  8
1
  6
CONTINUOUS
370
    50
100
AcDbLine
 10
105.3729162324
 20
193.069504628
 30
0.0
 11
111.4510795904
 21
193.069504628
 31
0.0
  0
LINE
  5
6B
330
A
100
AcDbEntity
  8
1
  6
CONTINUOUS
370
    50
100
AcDbLine
 10
111.4510795904
 20
193.069504628
 30
0.0
 11
113.0479162324
 21
189.5949880895
 31
0.0
  0
LINE
  5
6C
330
A
100
AcDbEntity
  8
1
  6
CONTINUOUS
370
    50
100
AcDbLine
 10
113.0479162324
 20
188.9658680276
 30
0.0
 11
113.0479162324
 21
189.5949880895
 31
0.0
  0
ARC
  5
6D
330
A
100
AcDbEntity
  8
1
  6
CONTINUOUS
370
    50
100
AcDbCircle
 10
113.6216365433
 20
188.8831559912
 30
0.0
 40
0.5796518576
100
AcDbArc
 50
171.7963139138
 51
262.6933157892
  0
LINE
  5
6E
330
A
100
AcDbEntity
  8
1
  6
CONTINUOUS
370
    50
100
AcDbLine
 10
116.3979162324
 20
188.3082111314
 30
0.0
 11
113.5479162324
 21
188.3082111314
 31
0.0
  0
LWPOLYLINE
  5
6F
330
A
100
AcDbEntity
  8
1
  6
CONTINUOUS
370
    50
100
AcDbPolyline
 90
        7
 70
   128
 43
0.0
 10
116.8979162324
 20
188.9658680276
 10
116.8534077041
 20
188.6956482364
 10
116.7485229487
 20
188.4978658403
 10
116.6266153295
 20
188.3814621967
 10
116.5556118163
 20
188.3419854365
 10
116.4291335575
 20
188.3095025856
 10
116.3979162324
 20
188.3082111314
  0
LINE
  5
78
330
A
100
AcDbEntity
  8
1
  6
CONTINUOUS
370
    50
100
AcDbLine
 10
116.8979162324
 20
189.5949880895
 30
0.0
 11
116.8979162324
 21
188.9658680276
 31
0.0
  0
LINE
  5
79
330
A
100
AcDbEntity
  8
1
  6
CONTINUOUS
370
    50
100
AcDbLine
 10
116.8979162324
 20
189.5949880895
 30
0.0
 11
118.4947528745
 21
193.069504628
 31
0.0
  0
LINE
  5
7A
330
A
100
AcDbEntity
  8
1
  6
CONTINUOUS
370
    50
100
AcDbLine
 10
118.4947528745
 20
193.069504628
 30
0.0
 11
122.4229162324
 21
193.069504628
 31
0.0
  0
LINE
  5
7B
330
A
100
AcDbEntity
  8
1
  6
CONTINUOUS
370
    50
100
AcDbLine
 10
122.9229162324
 20
192.4543337939
 30
0.0
 11
122.4229162324
 21
193.069504628
 31
0.0
  0
LINE
  5
7C
330
A
100
AcDbEntity
  8
1
  6
CONTINUOUS
370
    50
100
AcDbLine
 10
104.8729162324
 20
192.4543337939
 30
0.0
 11
104.8729162324
 21
185.5092749879
 31
0.0
  0
LINE
  5
7D
330
A
100
AcDbEntity
  8
1
  6
CONTINUOUS
370
    50
100
AcDbLine
 10
122.9229162324
 20
192.4543337939
 30
0.0
 11
122.9229162324
 21
185.5092749879
 31
0.0
  0
LINE
  5
7E
330
A
100
AcDbEntity
  8
1
  6
CONTINUOUS
370
    50
100
AcDbLine
 10
113.5479162324
 20
193.9771328442
 30
0.0
 11
113.5479162324
 21
188.3082111314
 31
0.0
  0
ARC
  5
7F
330
A
100
AcDbEntity
  8
1
  6
CONTINUOUS
370
    50
100
AcDbCircle
 10
113.5602098861
 20
194.489365152
 30
0.0
 40
0.5123798114
100
AcDbArc
 50
178.9492610512
 51
268.6251564692
  0
LINE
  5
80
330
A
100
AcDbEntity
  8
1
  6
CONTINUOUS
370
    50
100
AcDbLine
 10
116.3979162324
 20
193.9771328442
 30
0.0
 11
116.3979162324
 21
188.3082111314
 31
0.0
  0
LINE
  5
81
330
A
100
AcDbEntity
  8
1
  6
CONTINUOUS
370
    50
100
AcDbLine
 10
116.3979162324
 20
193.9771328442
 30
0.0
 11
113.5479162324
 21
193.9771328442
 31
0.0
  0
ARC
  5
82
330
A
100
AcDbEntity
  8
1
  6
CONTINUOUS
370
    50
100
AcDbCircle
 10
116.3872828242
 20
194.4877737453
 30
0.0
 40
0.5107516023
100
AcDbArc
 50
271.1929349473
 51
1.2326475323
  0
LINE
  5
83
330
A
100
AcDbEntity
  8
1
  6
CONTINUOUS
370
    50
100
AcDbLine
 10
111.4510795904
 20
197.6363565404
 30
0.0
 11
112.0565784157
 21
196.7863565379
 31
0.0
  0
LINE
  5
84
330
A
100
AcDbEntity
  8
1
  6
CONTINUOUS
370
    50
100
AcDbLine
 10
112.0565784157
 20
196.7863565379
 30
0.0
 11
113.0479162324
 21
195.0031472469
 31
0.0
  0
LINE
  5
85
330
A
100
AcDbEntity
  8
1
  6
CONTINUOUS
370
    50
100
AcDbLine
 10
111.4510795904
 20
193.069504628
 30
0.0
 11
111.4510795904
 21
197.6363565404
 31
0.0
  0
LINE
  5
86
330
A
100
AcDbEntity
  8
1
  6
CONTINUOUS
370
    50
100
AcDbLine
 10
113.0479162324
 20
189.5949880895
 30
0.0
 11
113.0479162324
 21
195.0031472469
 31
0.0
  0
LINE
  5
87
330
A
100
AcDbEntity
  8
1
  6
CONTINUOUS
370
    50
100
AcDbLine
 10
117.8892540492
 20
196.7863565379
 30
0.0
 11
118.4947528745
 21
197.6363565404
 31
0.0
  0
LINE
  5
88
330
A
100
AcDbEntity
  8
1
  6
CONTINUOUS
370
    50
100
AcDbLine
 10
118.4947528745
 20
193.069504628
 30
0.0
 11
118.4947528745
 21
197.6363565404
 31
0.0
  0
LINE
  5
89
330
A
100
AcDbEntity
  8
1
  6
CONTINUOUS
370
    50
100
AcDbLine
 10
116.8979162324
 20
195.0031472469
 30
0.0
 11
117.8892540492
 21
196.7863565379
 31
0.0
  0
LINE
  5
8A
330
A
100
AcDbEntity
  8
1
  6
CONTINUOUS
370
    50
100
AcDbLine
 10
116.8979162324
 20
195.0031472469
 30
0.0
 11
116.8979162324
 21
189.5949880895
 31
0.0
  0
LINE
  5
8B
330
A
100
AcDbEntity
  8
1
  6
CONTINUOUS
370
    50
100
AcDbLine
 10
105.3729162324
 20
197.2092333906
 30
0.0
 11
105.3729162324
 21
193.069504628
 31
0.0
  0
LINE
  5
8C
330
A
100
AcDbEntity
  8
1
  6
CONTINUOUS
370
    50
100
AcDbLine
 10
104.8729162324
 20
196.5020764902
 30
0.0
 11
105.3729162324
 21
197.2092333906
 31
0.0
  0
LINE
  5
8D
330
A
100
AcDbEntity
  8
1
  6
CONTINUOUS
370
    50
100
AcDbLine
 10
104.8729162324
 20
192.4543337939
 30
0.0
 11
104.8729162324
 21
196.5020764902
 31
0.0
  0
LINE
  5
8E
330
A
100
AcDbEntity
  8
1
  6
CONTINUOUS
370
    50
100
AcDbLine
 10
106.72291623
 20
197.6363565404
 30
0.0
 11
111.4510795904
 21
197.6363565404
 31
0.0
  0
LWPOLYLINE
  5
8F
330
A
100
AcDbEntity
  8
1
  6
CONTINUOUS
370
    50
100
AcDbPolyline
 90
        3
 70
   128
 43
0.0
 10
105.3729162324
 20
197.2092333906
 10
106.04553488
 20
197.4303216568
 10
106.72291623
 20
197.6363565404
  0
LINE
  5
94
330
A
100
AcDbEntity
  8
1
  6
CONTINUOUS
370
    50
100
AcDbLine
 10
122.4229162324
 20
193.069504628
 30
0.0
 11
122.4229162324
 21
197.6363565404
 31
0.0
  0
LINE
  5
95
330
A
100
AcDbEntity
  8
1
  6
CONTINUOUS
370
    50
100
AcDbLine
 10
122.4229162324
 20
197.6363565404
 30
0.0
 11
122.9229162324
 21
197.2322301421
 31
0.0
  0
LINE
  5
96
330
A
100
AcDbEntity
  8
1
  6
CONTINUOUS
370
    50
100
AcDbLine
 10
122.9229162324
 20
197.2322301421
 30
0.0
 11
122.9229162324
 21
192.4543337939
 31
0.0
  0
LINE
  5
97
330
A
100
AcDbEntity
  8
1
  6
CONTINUOUS
370
    50
100
AcDbLine
 10
118.4947528745
 20
197.6363565404
 30
0.0
 11
122.4229162324
 21
197.6363565404
 31
0.0
  0
LINE
  5
98
330
A
100
AcDbEntity
  8
1
  6
CONTINUOUS
370
    50
100
AcDbLine
 10
145.7543020239
 20
153.6592749879
 30
0.0
 11
145.7543020239
 21
180.6592749879
 31
0.0
  0
LINE
  5
99
330
A
100
AcDbEntity
  8
1
  6
CONTINUOUS
370
    50
100
AcDbLine
 10
182.8397881284
 20
177.7405839331
 30
0.0
 11
182.8397881284
 21
156.5779660428
 31
0.0
  0
LINE
  5
9A
330
A
100
AcDbEntity
  8
1
  6
CONTINUOUS
370
    50
100
AcDbLine
 10
35.6229162324
 20
155.708907171
 30
0.0
 11
35.6229162324
 21
178.6096428049
 31
0.0
  0
LINE
  5
9B
330
A
100
AcDbEntity
  8
1
  6
CONTINUOUS
370
    50
100
AcDbLine
 10
183.8729162324
 20
158.3287255278
 30
0.0
 11
183.8729162324
 21
175.9898244588
 31
0.0
  0
LINE
  5
9C
330
A
100
AcDbEntity
  8
1
  6
CONTINUOUS
370
    50
100
AcDbLine
 10
104.6729162324
 20
145.2342749879
 30
0.0
 11
104.6729162324
 21
189.0842749879
 31
0.0
  0
LINE
  5
9D
330
A
100
AcDbEntity
  8
1
  6
CONTINUOUS
370
    50
100
AcDbLine
 10
104.415806509
 20
145.1874288814
 30
0.0
 11
104.415806509
 21
189.1311210944
 31
0.0
  0
LINE
  5
9E
330
A
100
AcDbEntity
  8
1
  6
CONTINUOUS
370
    50
100
AcDbLine
 10
104.6271156399
 20
145.2342749879
 30
0.0
 11
104.6271156399
 21
189.0842749879
 31
0.0
  0
LINE
  5
9F
330
A
100
AcDbEntity
  8
1
  6
CONTINUOUS
370
    50
100
AcDbLine
 10
36.3754001262
 20
154.7796669502
 30
0.0
 11
36.3754001262
 21
179.5388830256
 31
0.0
  0
LWPOLYLINE
  5
A0
330
A
100
AcDbEntity
  8
1
  6
CONTINUOUS
370
    50
100
AcDbPolyline
 90
       27
 70
   128
 43
0.0
 10
119.5236951662
 20
158.5271100086
 10
119.4747180617
 20
158.036842556
 10
119.5041536723
 20
157.5750676658
 10
119.6102913073
 20
157.1686220159
 10
119.7869626331
 20
156.8411267503
 10
120.0239001546
 20
156.6116147034
 10
120.307333924
 20
156.493424281
 10
120.6207918011
 20
156.493424281
 10
120.9460567534
 20
156.6116147034
 10
121.2642255641
 20
156.8411267503
 10
121.5568074184
 20
157.1686220159
 10
121.8067985225
 20
157.5750676658
 10
121.9996703021
 20
158.036842556
 10
122.1242137504
 20
158.5271100086
 10
122.1731908549
 20
159.0173774612
 10
122.1437552443
 20
159.4791523515
 10
122.0376176093
 20
159.8855980013
 10
121.8609462834
 20
160.2130932669
 10
121.624008762
 20
160.4426053138
 10
121.3405749925
 20
160.5607957362
 10
121.0271171155
 20
160.5607957362
 10
120.7018521632
 20
160.4426053138
 10
120.3836833525
 20
160.2130932669
 10
120.0911014982
 20
159.8855980013
 10
119.8411103941
 20
159.4791523515
 10
119.6482386145
 20
159.0173774612
 10
119.5236951662
 20
158.5271100086
  0
LWPOLYLINE
  5
BD
330
A
100
AcDbEntity
  8
1
  6
CONTINUOUS
370
    50
100
AcDbPolyline
 90
       18
 70
   128
 43
0.0
 10
114.7122443691
 20
158.7306106051
 10
114.6955748505
 20
158.6264291978
 10
114.6794729923
 20
158.5785957369
 10
114.664487124
 20
158.5887391335
 10
114.6511275715
 20
158.6565139664
 10
114.6398492782
 20
158.779612245
 10
114.6310363129
 20
158.9538420051
 10
114.6249887905
 20
159.1732700611
 10
114.6219126522
 20
159.4304240537
 10
114.6219126522
 20
159.7165469123
 10
114.6249887905
 20
160.0218950659
 10
114.6310363129
 20
160.3360702494
 10
114.6398492782
 20
160.6483736038
 10
114.6511275715
 20
160.9481700129
 10
114.664487124
 20
161.2252502696
 10
114.6794729923
 20
161.470178738
 10
114.6955748505
 20
161.6746146729
 10
114.7122443691
 20
161.8315962537
  0
LWPOLYLINE
  5
D1
330
A
100
AcDbEntity
  8
1
  6
CONTINUOUS
370
    50
100
AcDbPolyline
 90
       18
 70
   128
 43
0.0
 10
114.7122443691
 20
161.8315962537
 10
114.2146797676
 20
161.8126262603
 10
113.7340591318
 20
161.7415020938
 10
113.2867494211
 20
161.6206458023
 10
112.8879832312
 20
161.4541730019
 10
112.5513400663
 20
161.2477527241
 10
112.2882839058
 20
161.008414364
 10
112.1077728116
 20
160.7443083023
 10
112.0159538726
 20
160.4644283542
 10
112.0159538726
 20
160.1783054957
 10
112.1077728116
 20
159.8956832975
 10
112.2882839058
 20
159.6261861197
 10
112.5513400663
 20
159.3789913654
 10
112.8879832312
 20
159.1625169554
 10
113.2867494211
 20
158.9841346662
 10
113.7340591318
 20
158.8499190927
 10
114.2146797676
 20
158.7644407853
 10
114.7122443691
 20
158.7306106051
  0
LWPOLYLINE
  5
E5
330
A
100
AcDbEntity
  8
1
  6
CONTINUOUS
370
    50
100
AcDbPolyline
 90
       27
 70
   128
 43
0.0
 10
119.5251206203
 20
158.5281328209
 10
119.6491861665
 20
159.0165190034
 10
119.8413178523
 20
159.4765219562
 10
120.0903496824
 20
159.8814079797
 10
120.3818088323
 20
160.2076465699
 10
120.6987567553
 20
160.4362779258
 10
121.0227735904
 20
160.5540148241
 10
121.3350286569
 20
160.5540148241
 10
121.6173748252
 20
160.4362779258
 10
121.8534031623
 20
160.2076465699
 10
122.0293965592
 20
159.8814079797
 10
122.1351269195
 20
159.4765219562
 10
122.1644495788
 20
159.0165190034
 10
122.1156604108
 20
158.5281328209
 10
121.9915948647
 20
158.0397466384
 10
121.7994631789
 20
157.5797436856
 10
121.5504313487
 20
157.1748576621
 10
121.2589721989
 20
156.8486190718
 10
120.9420242758
 20
156.6199877159
 10
120.6180074407
 20
156.5022508177
 10
120.3057523743
 20
156.5022508177
 10
120.023406206
 20
156.6199877159
 10
119.7873778689
 20
156.8486190718
 10
119.6113844719
 20
157.1748576621
 10
119.5056541116
 20
157.5797436856
 10
119.4763314523
 20
158.0397466384
 10
119.5251206203
 20
158.5281328209
  0
LWPOLYLINE
  5
102
330
A
100
AcDbEntity
  8
1
  6
CONTINUOUS
370
    50
100
AcDbPolyline
 90
       24
 70
   128
 43
0.0
 10
121.5579480953
 20
158.6096591342
 10
121.4432119018
 20
158.1753856292
 10
121.2612153728
 20
157.7733202034
 10
121.0254563583
 20
157.43328221
 10
120.7534200258
 20
157.1804907116
 10
120.4652820656
 20
157.0336940971
 10
120.1824123522
 20
157.0037795998
 10
119.925790038
 20
157.0929658412
 10
119.7144476263
 20
157.2946382857
 10
119.5640594167
 20
157.5938398107
 10
119.485779015
 20
157.9683800079
 10
119.4854121202
 20
158.3904809442
 10
119.5629859434
 20
158.8288373243
 10
119.712747189
 20
159.2509382606
 10
119.9235887504
 20
159.6254784578
 10
120.1798734737
 20
159.9246799828
 10
120.4625938933
 20
160.1263524273
 10
120.750781929
 20
160.2155386687
 10
121.0230639926
 20
160.1856241714
 10
121.2592461691
 20
160.0388275569
 10
121.4418119069
 20
159.7860360585
 10
121.5572211404
 20
159.4459980651
 10
121.5969144947
 20
159.0439326393
 10
121.5579480953
 20
158.6096591342
  0
ARC
  5
11C
330
A
100
AcDbEntity
  8
1
  6
CONTINUOUS
370
    50
100
AcDbCircle
 10
116.2842631228
 20
161.6365756992
 30
0.0
 40
1.5840694362
100
AcDbArc
 50
169.5837820583
 51
172.9281661026
  0
ARC
  5
11D
330
A
100
AcDbEntity
  8
1
  6
CONTINUOUS
370
    50
100
AcDbCircle
 10
110.4862270146
 20
151.8765583238
 30
0.0
 40
10.9045231995
100
AcDbArc
 50
65.7827110026
 51
67.1179062881
  0
ARC
  5
11E
330
A
100
AcDbEntity
  8
1
  6
CONTINUOUS
370
    50
100
AcDbCircle
 10
114.6418549608
 20
157.1093009386
 30
0.0
 40
4.7228198898
100
AcDbArc
 50
86.1466391328
 51
89.14602601069998
  0
ARC
  5
11F
330
A
100
AcDbEntity
  8
1
  6
CONTINUOUS
370
    50
100
AcDbCircle
 10
114.7827719262
 20
163.4462598926
 30
0.0
 40
4.7161766653
100
AcDbArc
 50
269.1431444837
 51
272.1444122428
  0
ARC
  5
120
330
A
100
AcDbEntity
  8
1
  6
CONTINUOUS
370
    50
100
AcDbCircle
 10
120.7326395184
 20
169.6820648743
 30
0.0
 40
12.3776279002
100
AcDbArc
 50
240.9706336715
 51
242.1966722693
  0
ARC
  5
121
330
A
100
AcDbEntity
  8
1
  6
CONTINUOUS
370
    50
100
AcDbCircle
 10
110.4569490904
 20
159.2600581838
 30
0.0
 40
4.2881059511
100
AcDbArc
 50
352.9076566904
 51
354.6390928974
  0
LWPOLYLINE
  5
122
330
A
100
AcDbEntity
  8
1
  6
CONTINUOUS
370
    50
100
AcDbPolyline
 90
       24
 70
   128
 43
0.0
 10
111.375833283
 20
160.9454194229
 10
111.3368668837
 20
160.5111459179
 10
111.376560238
 20
160.109080492
 10
111.4919694714
 20
159.7690424987
 10
111.6745352092
 20
159.5162510003
 10
111.9107173857
 20
159.3694543857
 10
112.1829994494
 20
159.3395398885
 10
112.4711874851
 20
159.4287261298
 10
112.7539079046
 20
159.6303985743
 10
113.0101926279
 20
159.9296000994
 10
113.2210341894
 20
160.3041402966
 10
113.3707954349
 20
160.7262412329
 10
113.4483692581
 20
161.1645976129
 10
113.4480023634
 20
161.5866985493
 10
113.3697219616
 20
161.9612387465
 10
113.2193337521
 20
162.2604402715
 10
113.0079913403
 20
162.462112716
 10
112.7513690262
 20
162.5512989574
 10
112.4684993127
 20
162.5213844601
 10
112.1803613526
 20
162.3745878456
 10
111.9083250201
 20
162.1217963471
 10
111.6725660055
 20
161.7817583538
 10
111.4905694765
 20
161.379692928
 10
111.375833283
 20
160.9454194229
  0
LINE
  5
13C
330
A
100
AcDbEntity
  8
1
  6
CONTINUOUS
370
    50
100
AcDbLine
 10
105.1260701259
 20
144.5592749879
 30
0.0
 11
105.1260701259
 21
190.1519340193
 31
0.0
  0
LINE
  5
13D
330
A
100
AcDbEntity
  8
1
  6
CONTINUOUS
370
    50
100
AcDbLine
 10
105.1729162324
 20
144.5592749879
 30
0.0
 11
105.1729162324
 21
189.9406248884
 31
0.0
  0
LWPOLYLINE
  5
13E
330
A
100
AcDbEntity
  8
1
  6
CONTINUOUS
370
    50
100
AcDbPolyline
 90
        9
 70
   128
 43
0.0
 10
114.9592433192
 20
161.8214440118
 10
114.9301213693
 20
161.8392975881
 10
114.9009449403
 20
161.8557038668
 10
114.8717418181
 20
161.8706472234
 10
114.8425398144
 20
161.8841134265
 10
114.8133667396
 20
161.8960896517
 10
114.7842503767
 20
161.9065644935
 10
114.7552184544
 20
161.9155279761
 10
114.7262986214
 20
161.9229715632
  0
LWPOLYLINE
  5
149
330
A
100
AcDbEntity
  8
1
  6
CONTINUOUS
370
    50
100
AcDbPolyline
 90
       26
 70
   128
 43
0.0
 10
111.1514629566
 20
160.947617886
 10
111.1045022685
 20
160.4624067466
 10
111.1383018868
 20
160.0076832075
 10
111.2507380571
 20
159.6120192212
 10
111.4347460015
 20
159.3002758109
 10
111.6787638239
 20
159.0920409617
 10
111.9674589873
 20
159.000398835
 10
112.2826917126
 20
159.0311076426
 10
112.6046547686
 20
159.1822378373
 10
112.9131180321
 20
159.4442933531
 10
113.188699622
 20
159.8008082781
 10
113.4140837335
 20
160.2293814684
 10
113.5751086539
 20
160.7030840943
 10
113.6616565952
 20
161.1921516777
 10
113.668289432
 20
161.6658543037
 10
113.5945903988
 20
162.094427494
 10
113.4451902768
 20
162.450942419
 10
113.2294764253
 20
162.7129979347
 10
112.9610029387
 20
162.8641281294
 10
112.6566389938
 20
162.8948369371
 10
112.3355088964
 20
162.8031948104
 10
112.0177904317
 20
162.5949599612
 10
111.7234470192
 20
162.2832165509
 10
111.4709733381
 20
161.8875525645
 10
111.2762332384
 20
161.4328290255
 10
111.1514629566
 20
160.947617886
  0
LWPOLYLINE
  5
165
330
A
100
AcDbEntity
  8
1
  6
CONTINUOUS
370
    50
100
AcDbPolyline
 90
       26
 70
   128
 43
0.0
 10
111.159123401
 20
160.9454194229
 10
111.1121627129
 20
160.4602082835
 10
111.1459623312
 20
160.0054847444
 10
111.2583985015
 20
159.6098207581
 10
111.4424064459
 20
159.2980773478
 10
111.6864242684
 20
159.0898424986
 10
111.9751194317
 20
158.9982003719
 10
112.2903521571
 20
159.0289091795
 10
112.612315213
 20
159.1800393742
 10
112.9207784766
 20
159.44209489
 10
113.1963600665
 20
159.7986098149
 10
113.4217441779
 20
160.2271830053
 10
113.5827690983
 20
160.7008856312
 10
113.6693170396
 20
161.1899532146
 10
113.6759498764
 20
161.6636558406
 10
113.6022508432
 20
162.0922290309
 10
113.4528507213
 20
162.4487439559
 10
113.2371368697
 20
162.7107994716
 10
112.9686633832
 20
162.8619296663
 10
112.6642994382
 20
162.8926384739
 10
112.3431693408
 20
162.8009963472
 10
112.0254508761
 20
162.5927614981
 10
111.7311074636
 20
162.2810180878
 10
111.4786337826
 20
161.8853541014
 10
111.2838936828
 20
161.4306305624
 10
111.159123401
 20
160.9454194229
  0
LWPOLYLINE
  5
181
330
A
100
AcDbEntity
  8
1
  6
CONTINUOUS
370
    50
100
AcDbPolyline
 90
       24
 70
   128
 43
0.0
 10
111.3681728386
 20
160.947617886
 10
111.3292064392
 20
160.513344381
 10
111.3688997935
 20
160.1112789551
 10
111.484309027
 20
159.7712409618
 10
111.6668747648
 20
159.5184494634
 10
111.9030569413
 20
159.3716528488
 10
112.1753390049
 20
159.3417383516
 10
112.4635270406
 20
159.4309245929
 10
112.7462474602
 20
159.6325970374
 10
113.0025321835
 20
159.9317985625
 10
113.2133737449
 20
160.3063387597
 10
113.3631349905
 20
160.728439696
 10
113.4407088137
 20
161.166796076
 10
113.440341919
 20
161.5888970124
 10
113.3620615172
 20
161.9634372096
 10
113.2116733077
 20
162.2626387346
 10
113.0003308959
 20
162.4643111791
 10
112.7437085817
 20
162.5534974205
 10
112.4608388683
 20
162.5235829232
 10
112.1727009081
 20
162.3767863087
 10
111.9006645756
 20
162.1239948102
 10
111.6649055611
 20
161.7839568169
 10
111.4829090321
 20
161.3818913911
 10
111.3681728386
 20
160.947617886
  0
LWPOLYLINE
  5
19B
330
A
100
AcDbEntity
  8
1
  6
CONTINUOUS
370
    50
100
AcDbPolyline
 90
       23
 70
   128
 43
0.0
 10
96.6283315599
 20
165.1777898428
 10
96.5507877039
 20
164.7712259937
 10
96.6182676952
 20
164.3716996763
 10
96.8163339849
 20
164.0226928269
 10
97.1461775565
 20
163.7204358612
 10
97.78236232
 20
163.4235424152
 10
98.797435408
 20
163.274103623
 10
99.4762568811
 20
163.3100103743
 10
100.1576857281
 20
163.4444756235
 10
100.9903670881
 20
163.7888603139
 10
101.3979845074
 20
164.1081158062
 10
101.6096797113
 20
164.4168398032
 10
101.6827664897
 20
164.7029774494
 10
101.6472836524
 20
165.0008954689
 10
101.5207837116
 20
165.2675383857
 10
101.1795574599
 20
165.6392201472
 10
100.4355510552
 20
166.0707458133
 10
99.8009433661
 20
166.270158785
 10
99.1231549169
 20
166.3670449045
 10
98.0009146779
 20
166.2644215809
 10
97.3117885361
 20
165.9716262439
 10
96.8731094597
 20
165.5938669813
 10
96.6283315599
 20
165.1777898428
  0
LWPOLYLINE
  5
1B4
330
A
100
AcDbEntity
  8
1
  6
CONTINUOUS
370
    50
100
AcDbPolyline
 90
        9
 70
   128
 43
0.0
 10
114.7262986214
 20
158.8594246481
 10
114.7552184544
 20
158.8386161388
 10
114.7842503767
 20
158.8192180239
 10
114.8133667396
 20
158.801248777
 10
114.8425398144
 20
158.7847255112
 10
114.8717418181
 20
158.7696639624
 10
114.9009449403
 20
158.7560784743
 10
114.9301213693
 20
158.7439819852
 10
114.9592433192
 20
158.733386015
  0
LINE
  5
1BF
330
A
100
AcDbEntity
  8
1
  6
CONTINUOUS
370
    50
100
AcDbLine
 10
104.8729162324
 20
143.8092749879
 30
0.0
 11
107.5729162324
 21
143.8092749879
 31
0.0
  0
LINE
  5
1C0
330
A
100
AcDbEntity
  8
1
  6
CONTINUOUS
370
    50
100
AcDbLine
 10
107.5729162324
 20
192.7092749879
 30
0.0
 11
104.8729162324
 21
192.7092749879
 31
0.0
  0
LINE
  5
1C1
330
A
100
AcDbEntity
  8
1
  6
CONTINUOUS
370
    50
100
AcDbLine
 10
107.2622560607
 20
144.5592749879
 30
0.0
 11
104.8729162324
 21
144.5592749879
 31
0.0
  0
LINE
  5
1C2
330
A
100
AcDbEntity
  8
1
  6
CONTINUOUS
370
    50
100
AcDbLine
 10
104.8729162324
 20
191.9592749879
 30
0.0
 11
107.2622560607
 21
191.9592749879
 31
0.0
  0
LINE
  5
1C3
330
A
100
AcDbEntity
  8
1
  6
CONTINUOUS
370
    50
100
AcDbLine
 10
35.8942026786
 20
158.3440936182
 30
0.0
 11
35.8942026786
 21
175.9744563576
 31
0.0
  0
LINE
  5
1C4
330
A
100
AcDbEntity
  8
1
  6
CONTINUOUS
370
    50
100
AcDbLine
 10
106.72291623
 20
136.6821934354
 30
0.0
 11
107.5729162324
 21
137.5321934379
 31
0.0
  0
LINE
  5
1C5
330
A
100
AcDbEntity
  8
1
  6
CONTINUOUS
370
    50
100
AcDbLine
 10
106.72291623
 20
197.6363565404
 30
0.0
 11
107.5729162324
 21
196.7863565379
 31
0.0
  0
LINE
  5
1C6
330
A
100
AcDbEntity
  8
1
  6
CONTINUOUS
370
    50
100
AcDbLine
 10
36.3942026786
 20
158.6327687528
 30
0.0
 11
36.3942026786
 21
175.685781223
 31
0.0
  0
LINE
  5
1C7
330
A
100
AcDbEntity
  8
1
  6
CONTINUOUS
370
    50
100
AcDbLine
 10
44.1229162324
 20
175.8092749879
 30
0.0
 11
44.1229162324
 21
158.5092749879
 31
0.0
  0
LINE
  5
1C8
330
A
100
AcDbEntity
  8
1
  6
CONTINUOUS
370
    50
100
AcDbLine
 10
41.8126276641
 20
175.8092749879
 30
0.0
 11
41.8126276641
 21
158.5092749879
 31
0.0
  0
LINE
  5
1C9
330
A
100
AcDbEntity
  8
1
  6
CONTINUOUS
370
    50
100
AcDbLine
 10
41.552820043
 20
175.6592749879
 30
0.0
 11
41.552820043
 21
158.6592749879
 31
0.0
  0
LINE
  5
1CA
330
A
100
AcDbEntity
  8
1
  6
CONTINUOUS
370
    50
100
AcDbLine
 10
45.0322429064
 20
174.2342749879
 30
0.0
 11
45.0322429064
 21
160.0842749879
 31
0.0
  0
LINE
  5
1CB
330
A
100
AcDbEntity
  8
1
  6
CONTINUOUS
370
    50
100
AcDbLine
 10
36.6229162324
 20
175.6592749879
 30
0.0
 11
36.6229162324
 21
158.6742032679
 31
0.0
  0
LINE
  5
1CC
330
A
100
AcDbEntity
  8
1
  6
CONTINUOUS
370
    50
100
AcDbLine
 10
117.8892540492
 20
137.5321934379
 30
0.0
 11
122.9229162324
 21
137.5321934379
 31
0.0
  0
LINE
  5
1CD
330
A
100
AcDbEntity
  8
1
  6
CONTINUOUS
370
    50
100
AcDbLine
 10
107.5729162324
 20
137.5321934379
 30
0.0
 11
112.0565784157
 21
137.5321934379
 31
0.0
  0
LINE
  5
1CE
330
A
100
AcDbEntity
  8
1
  6
CONTINUOUS
370
    50
100
AcDbLine
 10
107.5729162324
 20
137.5321934379
 30
0.0
 11
107.5729162324
 21
143.8092749879
 31
0.0
  0
LINE
  5
1CF
330
A
100
AcDbEntity
  8
1
  6
CONTINUOUS
370
    50
100
AcDbLine
 10
107.5729162324
 20
143.8092749879
 30
0.0
 11
122.9229162324
 21
143.8092749879
 31
0.0
  0
LINE
  5
1D0
330
A
100
AcDbEntity
  8
1
  6
CONTINUOUS
370
    50
100
AcDbLine
 10
122.9229162324
 20
144.5592749879
 30
0.0
 11
107.2622560607
 21
144.5592749879
 31
0.0
  0
LINE
  5
1D1
330
A
100
AcDbEntity
  8
1
  6
CONTINUOUS
370
    50
100
AcDbLine
 10
107.5729162324
 20
143.8092749879
 30
0.0
 11
107.2622560607
 21
144.5592749879
 31
0.0
  0
LINE
  5
1D2
330
A
100
AcDbEntity
  8
1
  6
CONTINUOUS
370
    50
100
AcDbLine
 10
107.2622560607
 20
191.9592749879
 30
0.0
 11
122.9229162324
 21
191.9592749879
 31
0.0
  0
LINE
  5
1D3
330
A
100
AcDbEntity
  8
1
  6
CONTINUOUS
370
    50
100
AcDbLine
 10
107.5729162324
 20
192.7092749879
 30
0.0
 11
107.2622560607
 21
191.9592749879
 31
0.0
  0
LINE
  5
1D4
330
A
100
AcDbEntity
  8
1
  6
CONTINUOUS
370
    50
100
AcDbLine
 10
122.9229162324
 20
192.7092749879
 30
0.0
 11
107.5729162324
 21
192.7092749879
 31
0.0
  0
LINE
  5
1D5
330
A
100
AcDbEntity
  8
1
  6
CONTINUOUS
370
    50
100
AcDbLine
 10
117.8892540492
 20
196.7863565379
 30
0.0
 11
122.9229162324
 21
196.7863565379
 31
0.0
  0
LINE
  5
1D6
330
A
100
AcDbEntity
  8
1
  6
CONTINUOUS
370
    50
100
AcDbLine
 10
107.5729162324
 20
196.7863565379
 30
0.0
 11
112.0565784157
 21
196.7863565379
 31
0.0
  0
LINE
  5
1D7
330
A
100
AcDbEntity
  8
1
  6
CONTINUOUS
370
    50
100
AcDbLine
 10
107.5729162324
 20
196.7863565379
 30
0.0
 11
107.5729162324
 21
192.7092749879
 31
0.0
  0
LINE
  5
1D8
330
A
100
AcDbEntity
  8
1
  6
CONTINUOUS
370
    50
100
AcDbLine
 10
69.6229162324
 20
175.1592749879
 30
0.0
 11
69.6229162324
 21
159.1592749879
 31
0.0
  0
LINE
  5
1D9
330
A
100
AcDbEntity
  8
1
  6
CONTINUOUS
370
    50
100
AcDbLine
 10
69.6129162324
 20
175.1592749879
 30
0.0
 11
69.6129162324
 21
159.1592749879
 31
0.0
  0
LINE
  5
1DA
330
A
100
AcDbEntity
  8
1
  6
CONTINUOUS
370
    50
100
AcDbLine
 10
80.6229162324
 20
174.2342749879
 30
0.0
 11
80.6229162324
 21
160.0842749879
 31
0.0
  0
LINE
  5
1DB
330
A
100
AcDbEntity
  8
1
  6
CONTINUOUS
370
    50
100
AcDbLine
 10
80.6411147441
 20
174.1842749879
 30
0.0
 11
80.6411147441
 21
160.1342749879
 31
0.0
  0
LINE
  5
1DC
330
A
100
AcDbEntity
  8
1
  6
CONTINUOUS
370
    50
100
AcDbLine
 10
115.7920505275
 20
162.1592749879
 30
0.0
 11
115.7920505275
 21
172.1592749879
 31
0.0
  0
LINE
  5
1DD
330
A
100
AcDbEntity
  8
1
  6
CONTINUOUS
370
    50
100
AcDbLine
 10
114.6229162324
 20
174.1842749879
 30
0.0
 11
114.6229162324
 21
160.1342749879
 31
0.0
  0
LWPOLYLINE
  5
1DE
330
A
100
AcDbEntity
  8
1
  6
CONTINUOUS
370
    50
100
AcDbPolyline
 90
       23
 70
   128
 43
0.0
 10
96.6283315599
 20
169.1407601331
 10
96.5507877039
 20
169.5473239822
 10
96.6182676952
 20
169.9468502995
 10
96.8163339849
 20
170.2958571489
 10
97.1461775565
 20
170.5981141146
 10
97.78236232
 20
170.8950075606
 10
98.797435408
 20
171.0444463528
 10
99.4860113924
 20
171.0077601515
 10
100.1576857281
 20
170.8740743524
 10
100.9903670881
 20
170.529689662
 10
101.3979845074
 20
170.2104341696
 10
101.6096797113
 20
169.9017101726
 10
101.6827664897
 20
169.6155725265
 10
101.6472836524
 20
169.3176545069
 10
101.5207837116
 20
169.0510115901
 10
101.1795574599
 20
168.6793298286
 10
100.4355510552
 20
168.2478041626
 10
99.7919362507
 20
168.0459354325
 10
99.1231549169
 20
167.9515050714
 10
98.0009146779
 20
168.054128395
 10
97.3117885361
 20
168.346923732
 10
96.8731094597
 20
168.7246829945
 10
96.6283315599
 20
169.1407601331
  0
LINE
  5
1F7
330
A
100
AcDbEntity
  8
1
  6
CONTINUOUS
370
    50
100
AcDbLine
 10
182.8096942081
 20
163.1592749879
 30
0.0
 11
182.8096942081
 21
171.1592749879
 31
0.0
  0
LINE
  5
1F8
330
A
100
AcDbEntity
  8
1
  6
CONTINUOUS
370
    50
100
AcDbLine
 10
109.9729162324
 20
191.7592749879
 30
0.0
 11
119.9729162324
 21
191.7592749879
 31
0.0
  0
LINE
  5
1F9
330
A
100
AcDbEntity
  8
1
  6
CONTINUOUS
370
    50
100
AcDbLine
 10
133.6229162324
 20
162.1592749879
 30
0.0
 11
133.6229162324
 21
172.1592749879
 31
0.0
  0
LINE
  5
1FA
330
A
100
AcDbEntity
  8
1
  6
CONTINUOUS
370
    50
100
AcDbLine
 10
135.0662919054
 20
164.6592749879
 30
0.0
 11
135.0662919054
 21
169.6592749879
 31
0.0
  0
LINE
  5
1FB
330
A
100
AcDbEntity
  8
1
  6
CONTINUOUS
370
    50
100
AcDbLine
 10
110.2729162992
 20
187.2592749879
 30
0.0
 11
119.6729162324
 21
187.2592749879
 31
0.0
  0
LINE
  5
1FC
330
A
100
AcDbEntity
  8
1
  6
CONTINUOUS
370
    50
100
AcDbLine
 10
119.9729162324
 20
187.5592749879
 30
0.0
 11
109.9729162324
 21
187.5592749879
 31
0.0
  0
LINE
  5
1FD
330
A
100
AcDbEntity
  8
1
  6
CONTINUOUS
370
    50
100
AcDbLine
 10
157.8729162363
 20
171.1592749879
 30
0.0
 11
157.8729162363
 21
163.1592749879
 31
0.0
  0
LINE
  5
1FE
330
A
100
AcDbEntity
  8
1
  6
CONTINUOUS
370
    50
100
AcDbLine
 10
157.7574461824
 20
162.9592749879
 30
0.0
 11
157.7574461824
 21
171.3592749879
 31
0.0
  0
LINE
  5
1FF
330
A
100
AcDbEntity
  8
1
  6
CONTINUOUS
370
    50
100
AcDbLine
 10
148.3729162324
 20
171.3592749879
 30
0.0
 11
148.3729162324
 21
162.974405536
 31
0.0
  0
LINE
  5
200
330
A
100
AcDbEntity
  8
1
  6
CONTINUOUS
370
    50
100
AcDbLine
 10
147.8729162324
 20
163.4592752358
 30
0.0
 11
147.8729162324
 21
170.8592749879
 31
0.0
  0
LINE
  5
201
330
A
100
AcDbEntity
  8
1
  6
CONTINUOUS
370
    50
100
AcDbLine
 10
113.8729162324
 20
186.8592749879
 30
0.0
 11
116.0729162324
 21
186.8592749879
 31
0.0
  0
LINE
  5
202
330
A
100
AcDbEntity
  8
1
  6
CONTINUOUS
370
    50
100
AcDbLine
 10
113.7229162324
 20
183.4592749879
 30
0.0
 11
116.2229162324
 21
183.4592749879
 31
0.0
  0
LINE
  5
203
330
A
100
AcDbEntity
  8
1
  6
CONTINUOUS
370
    50
100
AcDbLine
 10
113.7229162324
 20
183.4492749879
 30
0.0
 11
116.2229162324
 21
183.4492749879
 31
0.0
  0
LINE
  5
204
330
A
100
AcDbEntity
  8
1
  6
CONTINUOUS
370
    50
100
AcDbLine
 10
113.8729162324
 20
180.8592749879
 30
0.0
 11
116.0729162324
 21
180.8592749879
 31
0.0
  0
LWPOLYLINE
  5
205
330
A
100
AcDbEntity
  8
1
  6
CONTINUOUS
370
    50
100
AcDbPolyline
 90
       24
 70
   128
 43
0.0
 10
111.3681728386
 20
173.3709320898
 10
111.3292064392
 20
173.8052055948
 10
111.3688997935
 20
174.2072710207
 10
111.484309027
 20
174.547309014
 10
111.6668747648
 20
174.8001005125
 10
111.9030569413
 20
174.946897127
 10
112.1753390049
 20
174.9768116243
 10
112.4635270406
 20
174.8876253829
 10
112.7462474602
 20
174.6859529384
 10
113.0025321835
 20
174.3867514134
 10
113.2133737449
 20
174.0122112162
 10
113.3631349905
 20
173.5901102798
 10
113.4407088137
 20
173.1517538998
 10
113.440341919
 20
172.7296529635
 10
113.3620615172
 20
172.3551127663
 10
113.2116733077
 20
172.0559112412
 10
113.0003308959
 20
171.8542387967
 10
112.7437085817
 20
171.7650525553
 10
112.4608388683
 20
171.7949670526
 10
112.1727009081
 20
171.9417636672
 10
111.9006645756
 20
172.1945551656
 10
111.6649055611
 20
172.5345931589
 10
111.4829090321
 20
172.9366585848
 10
111.3681728386
 20
173.3709320898
  0
LINE
  5
21F
330
A
100
AcDbEntity
  8
1
  6
CONTINUOUS
370
    50
100
AcDbLine
 10
113.0479162324
 20
185.5092749879
 30
0.0
 11
113.0479162324
 21
188.9658680276
 31
0.0
  0
LINE
  5
220
330
A
100
AcDbEntity
  8
1
  6
CONTINUOUS
370
    50
100
AcDbLine
 10
113.5479162324
 20
140.3414171316
 30
0.0
 11
113.5479162324
 21
193.9771328442
 31
0.0
  0
LINE
  5
221
330
A
100
AcDbEntity
  8
1
  6
CONTINUOUS
370
    50
100
AcDbLine
 10
116.3979162324
 20
140.3414171316
 30
0.0
 11
116.3979162324
 21
193.9771328442
 31
0.0
  0
LINE
  5
222
330
A
100
AcDbEntity
  8
1
  6
CONTINUOUS
370
    50
100
AcDbLine
 10
116.8979162324
 20
185.5092749879
 30
0.0
 11
116.8979162324
 21
188.9658680276
 31
0.0
  0
LINE
  5
223
330
A
100
AcDbEntity
  8
1
  6
CONTINUOUS
370
    50
100
AcDbLine
 10
111.4510795904
 20
193.069504628
 30
0.0
 11
111.4510795904
 21
185.5092749879
 31
0.0
  0
LINE
  5
224
330
A
100
AcDbEntity
  8
1
  6
CONTINUOUS
370
    50
100
AcDbLine
 10
122.4229162324
 20
193.069504628
 30
0.0
 11
122.4229162324
 21
185.5092749879
 31
0.0
  0
LINE
  5
225
330
A
100
AcDbEntity
  8
1
  6
CONTINUOUS
370
    50
100
AcDbLine
 10
118.4947528745
 20
193.069504628
 30
0.0
 11
118.4947528745
 21
185.5092749879
 31
0.0
  0
LINE
  5
226
330
A
100
AcDbEntity
  8
1
  6
CONTINUOUS
370
    50
100
AcDbLine
 10
105.3729162324
 20
185.5092749879
 30
0.0
 11
105.3729162324
 21
193.069504628
 31
0.0
  0
LWPOLYLINE
  5
227
330
A
100
AcDbEntity
  8
1
  6
CONTINUOUS
370
    50
100
AcDbPolyline
 90
       26
 70
   128
 43
0.0
 10
111.1514629566
 20
173.3709320898
 10
111.1045022685
 20
173.8561432292
 10
111.1383018868
 20
174.3108667683
 10
111.2507380571
 20
174.7065307547
 10
111.4347460015
 20
175.0182741649
 10
111.6787638239
 20
175.2265090141
 10
111.9674589873
 20
175.3181511408
 10
112.2826917126
 20
175.2874423332
 10
112.6046547686
 20
175.1363121385
 10
112.9131180321
 20
174.8742566228
 10
113.188699622
 20
174.5177416978
 10
113.4140837335
 20
174.0891685074
 10
113.5751086539
 20
173.6154658815
 10
113.6616565952
 20
173.1263982981
 10
113.668289432
 20
172.6526956722
 10
113.5945903988
 20
172.2241224818
 10
113.4451902768
 20
171.8676075568
 10
113.2294764253
 20
171.6055520411
 10
112.9610029387
 20
171.4544218464
 10
112.6566389938
 20
171.4237130388
 10
112.3355088964
 20
171.5153551655
 10
112.0177904317
 20
171.7235900147
 10
111.7234470192
 20
172.0353334249
 10
111.4709733381
 20
172.4309974113
 10
111.2762332384
 20
172.8857209504
 10
111.1514629566
 20
173.3709320898
  0
LWPOLYLINE
  5
243
330
A
100
AcDbEntity
  8
1
  6
CONTINUOUS
370
    50
100
AcDbPolyline
 90
       26
 70
   128
 43
0.0
 10
111.159123401
 20
173.3731305529
 10
111.1121627129
 20
173.8583416923
 10
111.1459623312
 20
174.3130652314
 10
111.2583985015
 20
174.7087292178
 10
111.4424064459
 20
175.020472628
 10
111.6864242684
 20
175.2287074772
 10
111.9751194317
 20
175.3203496039
 10
112.2903521571
 20
175.2896407963
 10
112.612315213
 20
175.1385106016
 10
112.9207784766
 20
174.8764550859
 10
113.1963600665
 20
174.5199401609
 10
113.4217441779
 20
174.0913669706
 10
113.5827690983
 20
173.6176643446
 10
113.6693170396
 20
173.1285967612
 10
113.6759498764
 20
172.6548941353
 10
113.6022508432
 20
172.2263209449
 10
113.4528507213
 20
171.8698060199
 10
113.2371368697
 20
171.6077505042
 10
112.9686633832
 20
171.4566203095
 10
112.6642994382
 20
171.4259115019
 10
112.3431693408
 20
171.5175536286
 10
112.0254508761
 20
171.7257884778
 10
111.7311074636
 20
172.037531888
 10
111.4786337826
 20
172.4331958744
 10
111.2838936828
 20
172.8879194135
 10
111.159123401
 20
173.3731305529
  0
LWPOLYLINE
  5
25F
330
A
100
AcDbEntity
  8
1
  6
CONTINUOUS
370
    50
100
AcDbPolyline
 90
       24
 70
   128
 43
0.0
 10
111.375833283
 20
173.3731305529
 10
111.3368668837
 20
173.807404058
 10
111.376560238
 20
174.2094694838
 10
111.4919694714
 20
174.5495074771
 10
111.6745352092
 20
174.8022989756
 10
111.9107173857
 20
174.9490955901
 10
112.1829994494
 20
174.9790100874
 10
112.4711874851
 20
174.889823846
 10
112.7539079046
 20
174.6881514015
 10
113.0101926279
 20
174.3889498765
 10
113.2210341894
 20
174.0144096793
 10
113.3707954349
 20
173.5923087429
 10
113.4483692581
 20
173.1539523629
 10
113.4480023634
 20
172.7318514266
 10
113.3697219616
 20
172.3573112294
 10
113.2193337521
 20
172.0581097043
 10
113.0079913403
 20
171.8564372598
 10
112.7513690262
 20
171.7672510184
 10
112.4684993127
 20
171.7971655157
 10
112.1803613526
 20
171.9439621303
 10
111.9083250201
 20
172.1967536287
 10
111.6725660055
 20
172.536791622
 10
111.4905694765
 20
172.9388570479
 10
111.375833283
 20
173.3731305529
  0
LWPOLYLINE
  5
279
330
A
100
AcDbEntity
  8
1
  6
CONTINUOUS
370
    50
100
AcDbPolyline
 90
       24
 70
   128
 43
0.0
 10
121.5579480953
 20
175.7088908416
 10
121.4432119018
 20
176.1431643466
 10
121.2612153728
 20
176.5452297725
 10
121.0254563583
 20
176.8852677658
 10
120.7534200258
 20
177.1380592642
 10
120.4652820656
 20
177.2848558788
 10
120.1824123522
 20
177.3147703761
 10
119.925790038
 20
177.2255841347
 10
119.7144476263
 20
177.0239116902
 10
119.5640594167
 20
176.7247101651
 10
119.485779015
 20
176.3501699679
 10
119.4854121202
 20
175.9280690316
 10
119.5629859434
 20
175.4897126516
 10
119.712747189
 20
175.0676117152
 10
119.9235887504
 20
174.693071518
 10
120.1798734737
 20
174.393869993
 10
120.4625938933
 20
174.1921975485
 10
120.750781929
 20
174.1030113071
 10
121.0230639926
 20
174.1329258044
 10
121.2592461691
 20
174.2797224189
 10
121.4418119069
 20
174.5325139174
 10
121.5572211404
 20
174.8725519107
 10
121.5969144947
 20
175.2746173365
 10
121.5579480953
 20
175.7088908416
  0
ARC
  5
293
330
A
100
AcDbEntity
  8
1
  6
CONTINUOUS
370
    50
100
AcDbCircle
 10
116.2842631213
 20
172.6819742764
 30
0.0
 40
1.5840694347
100
AcDbArc
 50
187.0718338958
 51
190.4162179432
  0
ARC
  5
294
330
A
100
AcDbEntity
  8
1
  6
CONTINUOUS
370
    50
100
AcDbCircle
 10
110.4862270134
 20
182.4419916547
 30
0.0
 40
10.9045232024
100
AcDbArc
 50
292.8820937121
 51
294.2172889972
  0
ARC
  5
295
330
A
100
AcDbEntity
  8
1
  6
CONTINUOUS
370
    50
100
AcDbCircle
 10
114.6418549608
 20
177.2092490383
 30
0.0
 40
4.7228198909
100
AcDbArc
 50
270.8539739897
 51
273.8533608668
  0
LWPOLYLINE
  5
296
330
A
100
AcDbEntity
  8
1
  6
CONTINUOUS
370
    50
100
AcDbPolyline
 90
       18
 70
   128
 43
0.0
 10
114.7122443691
 20
175.5879393707
 10
114.6955748505
 20
175.692120778
 10
114.6794729923
 20
175.739954239
 10
114.664487124
 20
175.7298108424
 10
114.6511275715
 20
175.6620360094
 10
114.6398492782
 20
175.5389377308
 10
114.6310363129
 20
175.3647079707
 10
114.6249887905
 20
175.1452799147
 10
114.6219126522
 20
174.8881259221
 10
114.6219126522
 20
174.6020030636
 10
114.6249887905
 20
174.29665491
 10
114.6310363129
 20
173.9824797265
 10
114.6398492782
 20
173.670176372
 10
114.6511275715
 20
173.3703799629
 10
114.664487124
 20
173.0932997063
 10
114.6794729923
 20
172.8483712379
 10
114.6955748505
 20
172.643935303
 10
114.7122443691
 20
172.4869537221
  0
ARC
  5
2AA
330
A
100
AcDbEntity
  8
1
  6
CONTINUOUS
370
    50
100
AcDbCircle
 10
114.7827719262
 20
170.8722900827
 30
0.0
 40
4.7161766659
100
AcDbArc
 50
87.8555877573
 51
90.8568555161
  0
ARC
  5
2AB
330
A
100
AcDbEntity
  8
1
  6
CONTINUOUS
370
    50
100
AcDbCircle
 10
120.7326395171
 20
164.636485104
 30
0.0
 40
12.3776278975
100
AcDbArc
 50
117.8033277306
 51
119.0293663287
  0
ARC
  5
2AC
330
A
100
AcDbEntity
  8
1
  6
CONTINUOUS
370
    50
100
AcDbCircle
 10
110.4569490899
 20
175.058491792
 30
0.0
 40
4.2881059516
100
AcDbArc
 50
5.360907102700001
 51
7.0923433095
  0
LWPOLYLINE
  5
2AD
330
A
100
AcDbEntity
  8
1
  6
CONTINUOUS
370
    50
100
AcDbPolyline
 90
       18
 70
   128
 43
0.0
 10
114.7122443691
 20
172.4869537221
 10
114.2146797676
 20
172.5059237155
 10
113.7340591318
 20
172.5770478821
 10
113.2867494211
 20
172.6979041736
 10
112.8879832312
 20
172.864376974
 10
112.5513400663
 20
173.0707972517
 10
112.2882839058
 20
173.3101356118
 10
112.1077728116
 20
173.5742416735
 10
112.0159538726
 20
173.8541216216
 10
112.0159538726
 20
174.1402444801
 10
112.1077728116
 20
174.4228666783
 10
112.2882839058
 20
174.6923638561
 10
112.5513400663
 20
174.9395586105
 10
112.8879832312
 20
175.1560330205
 10
113.2867494211
 20
175.3344153096
 10
113.7340591318
 20
175.4686308831
 10
114.2146797676
 20
175.5541091906
 10
114.7122443691
 20
175.5879393707
  0
LWPOLYLINE
  5
2C1
330
A
100
AcDbEntity
  8
1
  6
CONTINUOUS
370
    50
100
AcDbPolyline
 90
        9
 70
   128
 43
0.0
 10
114.7262986214
 20
175.4591253277
 10
114.7552184544
 20
175.479933837
 10
114.7842503767
 20
175.499331952
 10
114.8133667396
 20
175.5173011988
 10
114.8425398144
 20
175.5338244646
 10
114.8717418181
 20
175.5488860134
 10
114.9009449403
 20
175.5624715015
 10
114.9301213693
 20
175.5745679906
 10
114.9592433192
 20
175.5851639608
  0
LWPOLYLINE
  5
2CC
330
A
100
AcDbEntity
  8
1
  6
CONTINUOUS
370
    50
100
AcDbPolyline
 90
        9
 70
   128
 43
0.0
 10
114.9592433192
 20
172.4971059641
 10
114.9301213693
 20
172.4792523877
 10
114.9009449403
 20
172.462846109
 10
114.8717418181
 20
172.4479027525
 10
114.8425398144
 20
172.4344365493
 10
114.8133667396
 20
172.4224603241
 10
114.7842503767
 20
172.4119854823
 10
114.7552184544
 20
172.4030219997
 10
114.7262986214
 20
172.3955784126
  0
LWPOLYLINE
  5
2D7
330
A
100
AcDbEntity
  8
1
  6
CONTINUOUS
370
    50
100
AcDbPolyline
 90
       27
 70
   128
 43
0.0
 10
119.5236951662
 20
175.7914399672
 10
119.4747180617
 20
176.2817074198
 10
119.5041536723
 20
176.7434823101
 10
119.6102913073
 20
177.1499279599
 10
119.7869626331
 20
177.4774232255
 10
120.0239001546
 20
177.7069352725
 10
120.307333924
 20
177.8251256948
 10
120.6207918011
 20
177.8251256948
 10
120.9460567534
 20
177.7069352725
 10
121.2642255641
 20
177.4774232255
 10
121.5568074184
 20
177.1499279599
 10
121.8067985225
 20
176.7434823101
 10
121.9996703021
 20
176.2817074198
 10
122.1242137504
 20
175.7914399672
 10
122.1731908549
 20
175.3011725147
 10
122.1437552443
 20
174.8393976244
 10
122.0376176093
 20
174.4329519745
 10
121.8609462834
 20
174.1054567089
 10
121.624008762
 20
173.875944662
 10
121.3405749925
 20
173.7577542396
 10
121.0271171155
 20
173.7577542396
 10
120.7018521632
 20
173.875944662
 10
120.3836833525
 20
174.1054567089
 10
120.0911014982
 20
174.4329519745
 10
119.8411103941
 20
174.8393976244
 10
119.6482386145
 20
175.3011725147
 10
119.5236951662
 20
175.7914399672
  0
LWPOLYLINE
  5
2F4
330
A
100
AcDbEntity
  8
1
  6
CONTINUOUS
370
    50
100
AcDbPolyline
 90
       27
 70
   128
 43
0.0
 10
122.1156604108
 20
175.790417155
 10
121.9915948647
 20
176.2788033375
 10
121.7994631789
 20
176.7388062903
 10
121.5504313487
 20
177.1436923138
 10
121.2589721989
 20
177.469930904
 10
120.9420242758
 20
177.6985622599
 10
120.6180074407
 20
177.8162991582
 10
120.3057523743
 20
177.8162991582
 10
120.023406206
 20
177.6985622599
 10
119.7873778689
 20
177.469930904
 10
119.6113844719
 20
177.1436923138
 10
119.5056541116
 20
176.7388062903
 10
119.4763314523
 20
176.2788033375
 10
119.5251206203
 20
175.790417155
 10
119.6491861665
 20
175.3020309724
 10
119.8413178523
 20
174.8420280197
 10
120.0903496824
 20
174.4371419961
 10
120.3818088323
 20
174.1109034059
 10
120.6987567553
 20
173.88227205
 10
121.0227735904
 20
173.7645351517
 10
121.3350286569
 20
173.7645351517
 10
121.6173748252
 20
173.88227205
 10
121.8534031623
 20
174.1109034059
 10
122.0293965592
 20
174.4371419961
 10
122.1351269195
 20
174.8420280197
 10
122.1644495788
 20
175.3020309724
 10
122.1156604108
 20
175.790417155
  0
LINE
  5
311
330
A
100
AcDbEntity
  8
1
  6
CONTINUOUS
370
    50
100
AcDbLine
 10
119.0229162324
 20
158.6028366104
 30
0.0
 11
119.0229162324
 21
165.6028366104
 31
0.0
  0
LINE
  5
312
330
A
100
AcDbEntity
  8
1
  6
CONTINUOUS
370
    50
100
AcDbLine
 10
119.0229162324
 20
173.2763459104
 30
0.0
 11
119.0229162324
 21
173.4292792645
 31
0.0
  0
LINE
  5
313
330
A
100
AcDbEntity
  8
1
  6
CONTINUOUS
370
    50
100
AcDbLine
 10
119.0229162324
 20
166.4292792645
 30
0.0
 11
119.0229162324
 21
173.2763459104
 31
0.0
  0
LINE
  5
314
330
A
100
AcDbEntity
  8
1
  6
CONTINUOUS
370
    50
100
AcDbLine
 10
106.6729162324
 20
147.1592749879
 30
0.0
 11
110.6729162324
 21
147.1592749879
 31
0.0
  0
LINE
  5
315
330
A
100
AcDbEntity
  8
1
  6
CONTINUOUS
370
    50
100
AcDbLine
 10
106.6729162324
 20
187.1592749879
 30
0.0
 11
106.6729162324
 21
147.1592749879
 31
0.0
  0
LINE
  5
316
330
A
100
AcDbEntity
  8
1
  6
CONTINUOUS
370
    50
100
AcDbLine
 10
110.6729162324
 20
147.1592749879
 30
0.0
 11
110.6729162324
 21
187.1592749879
 31
0.0
  0
LINE
  5
317
330
A
100
AcDbEntity
  8
1
  6
CONTINUOUS
370
    50
100
AcDbLine
 10
121.4729162324
 20
147.1592749879
 30
0.0
 11
121.4729162324
 21
187.1592749879
 31
0.0
  0
LINE
  5
318
330
A
100
AcDbEntity
  8
1
  6
CONTINUOUS
370
    50
100
AcDbLine
 10
119.4729162324
 20
147.1592749879
 30
0.0
 11
121.4729162324
 21
147.1592749879
 31
0.0
  0
LINE
  5
319
330
A
100
AcDbEntity
  8
1
  6
CONTINUOUS
370
    50
100
AcDbLine
 10
119.4729162324
 20
187.1592749879
 30
0.0
 11
119.4729162324
 21
147.1592749879
 31
0.0
  0
LINE
  5
31A
330
A
100
AcDbEntity
  8
1
  6
CONTINUOUS
370
    50
100
AcDbLine
 10
121.4729162324
 20
187.1592749879
 30
0.0
 11
119.4729162324
 21
187.1592749879
 31
0.0
  0
LINE
  5
31B
330
A
100
AcDbEntity
  8
1
  6
CONTINUOUS
370
    50
100
AcDbLine
 10
110.6729162324
 20
187.1592749879
 30
0.0
 11
106.6729162324
 21
187.1592749879
 31
0.0
  0
LINE
  5
31C
330
A
100
AcDbEntity
  8
1
  6
CONTINUOUS
370
    50
100
AcDbLine
 10
122.9229162324
 20
160.1095009882
 30
0.0
 11
121.4032472259
 21
160.5456292405
 31
0.0
  0
LINE
  5
31D
330
A
100
AcDbEntity
  8
1
  6
CONTINUOUS
370
    50
100
AcDbLine
 10
120.2446616907
 20
156.5085907767
 30
0.0
 11
122.9229162324
 21
155.739961248
 31
0.0
  0
LINE
  5
31E
330
A
100
AcDbEntity
  8
1
  6
CONTINUOUS
370
    50
100
AcDbLine
 10
104.8729162324
 20
156.2280744564
 30
0.0
 11
114.6754082394
 21
158.5756250641
 31
0.0
  0
LINE
  5
31F
330
A
100
AcDbEntity
  8
1
  6
CONTINUOUS
370
    50
100
AcDbLine
 10
113.6127312637
 20
161.7144431043
 30
0.0
 11
104.8729162324
 21
159.6213877798
 31
0.0
  0
LINE
  5
320
330
A
100
AcDbEntity
  8
1
  6
CONTINUOUS
370
    50
100
AcDbLine
 10
119.9710178291
 20
159.7058943697
 30
0.0
 11
119.8663808447
 21
159.5386078
 31
0.0
  0
LINE
  5
321
330
A
100
AcDbEntity
  8
1
  6
CONTINUOUS
370
    50
100
AcDbLine
 10
119.4757162384
 20
158.1773547944
 30
0.0
 11
119.4757162384
 21
157.9800385637
 31
0.0
  0
LINE
  5
322
330
A
100
AcDbEntity
  8
1
  6
CONTINUOUS
370
    50
100
AcDbLine
 10
120.9914743975
 20
160.1956385307
 30
0.0
 11
112.8526241871
 21
162.5313988194
 31
0.0
  0
LINE
  5
323
330
A
100
AcDbEntity
  8
1
  6
CONTINUOUS
370
    50
100
AcDbLine
 10
114.673312239
 20
158.5756716236
 30
0.0
 11
120.0811571912
 21
157.0236797378
 31
0.0
  0
LINE
  5
324
330
A
100
AcDbEntity
  8
1
  6
CONTINUOUS
370
    50
100
AcDbLine
 10
111.9423069808
 20
159.3594400265
 30
0.0
 11
113.5501682341
 21
158.8980015716
 31
0.0
  0
LINE
  5
325
330
A
100
AcDbEntity
  8
1
  6
CONTINUOUS
370
    50
100
AcDbLine
 10
105.1260701259
 20
190.1519340193
 30
0.0
 11
104.8729162324
 21
190.6948242959
 31
0.0
  0
ARC
  5
326
330
A
100
AcDbEntity
  8
1
  6
CONTINUOUS
370
    50
100
AcDbCircle
 10
104.6729162324
 20
189.9406248884
 30
0.0
 40
0.5
100
AcDbArc
 50
0.0
 51
25.0
  0
ARC
  5
327
330
A
100
AcDbEntity
  8
1
  6
CONTINUOUS
370
    50
100
AcDbCircle
 10
104.6729162324
 20
144.7342749879
 30
0.0
 40
0.5
100
AcDbArc
 50
0.0
 51
66.4218215218
  0
ARC
  5
328
330
A
100
AcDbEntity
  8
1
  6
CONTINUOUS
370
    50
100
AcDbCircle
 10
104.6729162324
 20
189.5842749879
 30
0.0
 40
0.5
100
AcDbArc
 50
293.5781784782001
 51
0.0
  0
LINE
  5
329
330
A
100
AcDbEntity
  8
1
  6
CONTINUOUS
370
    50
100
AcDbLine
 10
112.8449637427
 20
162.5335972825
 30
0.0
 11
100.0254482234
 21
166.2126569157
 31
0.0
  0
LINE
  5
32A
330
A
100
AcDbEntity
  8
1
  6
CONTINUOUS
370
    50
100
AcDbLine
 10
97.8285802488
 20
163.4099240105
 30
0.0
 11
111.9346465364
 21
159.3616384896
 31
0.0
  0
ARC
  5
32B
330
A
100
AcDbEntity
  8
1
  6
CONTINUOUS
370
    50
100
AcDbCircle
 10
36.6229162324
 20
157.6592749879
 30
0.0
 40
1.0
100
AcDbArc
 50
136.778654881
 51
180.0
  0
ARC
  5
32C
330
A
100
AcDbEntity
  8
1
  6
CONTINUOUS
370
    50
100
AcDbCircle
 10
36.6229162324
 20
176.6592749879
 30
0.0
 40
1.0
100
AcDbArc
 50
180.0
 51
223.221345119
  0
LINE
  5
32D
330
A
100
AcDbEntity
  8
1
  6
CONTINUOUS
370
    50
100
AcDbLine
 10
35.8942026786
 20
158.3440936182
 30
0.0
 11
36.3942026786
 21
158.6327687528
 31
0.0
  0
LINE
  5
32E
330
A
100
AcDbEntity
  8
1
  6
CONTINUOUS
370
    50
100
AcDbLine
 10
36.3942026786
 20
175.685781223
 30
0.0
 11
35.8942026786
 21
175.9744563576
 31
0.0
  0
LINE
  5
32F
330
A
100
AcDbEntity
  8
1
  6
CONTINUOUS
370
    50
100
AcDbLine
 10
44.1229162324
 20
175.8092749879
 30
0.0
 11
41.8126276641
 21
175.8092749879
 31
0.0
  0
LINE
  5
330
330
A
100
AcDbEntity
  8
1
  6
CONTINUOUS
370
    50
100
AcDbLine
 10
41.8126276641
 20
158.5092749879
 30
0.0
 11
44.1229162324
 21
158.5092749879
 31
0.0
  0
LINE
  5
331
330
A
100
AcDbEntity
  8
1
  6
CONTINUOUS
370
    50
100
AcDbLine
 10
41.8126276641
 20
175.8092749879
 30
0.0
 11
41.552820043
 21
175.6592749879
 31
0.0
  0
LINE
  5
332
330
A
100
AcDbEntity
  8
1
  6
CONTINUOUS
370
    50
100
AcDbLine
 10
41.552820043
 20
158.6592749879
 30
0.0
 11
41.8126276641
 21
158.5092749879
 31
0.0
  0
LINE
  5
333
330
A
100
AcDbEntity
  8
1
  6
CONTINUOUS
370
    50
100
AcDbLine
 10
44.1229162324
 20
158.5092749879
 30
0.0
 11
45.0322429064
 21
160.0842749879
 31
0.0
  0
LINE
  5
334
330
A
100
AcDbEntity
  8
1
  6
CONTINUOUS
370
    50
100
AcDbLine
 10
45.0322429064
 20
174.2342749879
 30
0.0
 11
44.1229162324
 21
175.8092749879
 31
0.0
  0
ARC
  5
335
330
A
100
AcDbEntity
  8
1
  6
CONTINUOUS
370
    50
100
AcDbCircle
 10
36.6229162324
 20
157.6592749879
 30
0.0
 40
1.0
100
AcDbArc
 50
90.0
 51
103.221345119
  0
ARC
  5
336
330
A
100
AcDbEntity
  8
1
  6
CONTINUOUS
370
    50
100
AcDbCircle
 10
36.6229162324
 20
176.6592749879
 30
0.0
 40
1.0
100
AcDbArc
 50
256.778654881
 51
270.0
  0
LINE
  5
337
330
A
100
AcDbEntity
  8
1
  6
CONTINUOUS
370
    50
100
AcDbLine
 10
36.6229162324
 20
158.6592749879
 30
0.0
 11
41.552820043
 21
158.6592749879
 31
0.0
  0
LINE
  5
338
330
A
100
AcDbEntity
  8
1
  6
CONTINUOUS
370
    50
100
AcDbLine
 10
41.552820043
 20
175.6592749879
 30
0.0
 11
36.6229162324
 21
175.6592749879
 31
0.0
  0
LINE
  5
339
330
A
100
AcDbEntity
  8
1
  6
CONTINUOUS
370
    50
100
AcDbLine
 10
80.6229162324
 20
174.2342749879
 30
0.0
 11
69.6229162324
 21
174.2342749879
 31
0.0
  0
LINE
  5
33A
330
A
100
AcDbEntity
  8
1
  6
CONTINUOUS
370
    50
100
AcDbLine
 10
69.6229162324
 20
160.0842749879
 30
0.0
 11
80.6229162324
 21
160.0842749879
 31
0.0
  0
LINE
  5
33B
330
A
100
AcDbEntity
  8
1
  6
CONTINUOUS
370
    50
100
AcDbLine
 10
69.6129162324
 20
174.2342749879
 30
0.0
 11
45.0322429064
 21
174.2342749879
 31
0.0
  0
LINE
  5
33C
330
A
100
AcDbEntity
  8
1
  6
CONTINUOUS
370
    50
100
AcDbLine
 10
45.0322429064
 20
160.0842749879
 30
0.0
 11
69.6129162324
 21
160.0842749879
 31
0.0
  0
LINE
  5
33D
330
A
100
AcDbEntity
  8
1
  6
CONTINUOUS
370
    50
100
AcDbLine
 10
114.6229162324
 20
160.1342749879
 30
0.0
 11
115.7920505275
 21
162.1592749879
 31
0.0
  0
LINE
  5
33E
330
A
100
AcDbEntity
  8
1
  6
CONTINUOUS
370
    50
100
AcDbLine
 10
115.7920505275
 20
172.1592749879
 30
0.0
 11
114.6229162324
 21
174.1842749879
 31
0.0
  0
LINE
  5
33F
330
A
100
AcDbEntity
  8
1
  6
CONTINUOUS
370
    50
100
AcDbLine
 10
114.6229162324
 20
174.1842749879
 30
0.0
 11
80.6411147441
 21
174.1842749879
 31
0.0
  0
LINE
  5
340
330
A
100
AcDbEntity
  8
1
  6
CONTINUOUS
370
    50
100
AcDbLine
 10
80.6411147441
 20
160.1342749879
 30
0.0
 11
114.6229162324
 21
160.1342749879
 31
0.0
  0
ARC
  5
341
330
A
100
AcDbEntity
  8
1
  6
CONTINUOUS
370
    50
100
AcDbCircle
 10
182.3729162324
 20
161.7242749879
 30
0.0
 40
1.5
100
AcDbArc
 50
0.0
 51
73.0710674448
  0
ARC
  5
342
330
A
100
AcDbEntity
  8
1
  6
CONTINUOUS
370
    50
100
AcDbCircle
 10
182.3729162324
 20
172.5942749879
 30
0.0
 40
1.5
100
AcDbArc
 50
286.9289325552
 51
0.0
  0
LINE
  5
343
330
A
100
AcDbEntity
  8
1
  6
CONTINUOUS
370
    50
100
AcDbLine
 10
109.7729162324
 20
191.9592749879
 30
0.0
 11
109.9729162324
 21
191.7592749879
 31
0.0
  0
LINE
  5
344
330
A
100
AcDbEntity
  8
1
  6
CONTINUOUS
370
    50
100
AcDbLine
 10
119.9729162324
 20
191.7592749879
 30
0.0
 11
120.1729162324
 21
191.9592749879
 31
0.0
  0
LINE
  5
345
330
A
100
AcDbEntity
  8
1
  6
CONTINUOUS
370
    50
100
AcDbLine
 10
133.6229162324
 20
162.1592749879
 30
0.0
 11
135.0662919054
 21
164.6592749879
 31
0.0
  0
LINE
  5
346
330
A
100
AcDbEntity
  8
1
  6
CONTINUOUS
370
    50
100
AcDbLine
 10
135.0662919054
 20
169.6592749879
 30
0.0
 11
133.6229162324
 21
172.1592749879
 31
0.0
  0
LINE
  5
347
330
A
100
AcDbEntity
  8
1
  6
CONTINUOUS
370
    50
100
AcDbLine
 10
115.7920505275
 20
162.1592749879
 30
0.0
 11
133.6229162324
 21
162.1592749879
 31
0.0
  0
LINE
  5
348
330
A
100
AcDbEntity
  8
1
  6
CONTINUOUS
370
    50
100
AcDbLine
 10
133.6229162324
 20
172.1592749879
 30
0.0
 11
115.7920505275
 21
172.1592749879
 31
0.0
  0
ARC
  5
349
330
A
100
AcDbEntity
  8
1
  6
CONTINUOUS
370
    50
100
AcDbCircle
 10
110.2729162324
 20
187.5592749879
 30
0.0
 40
0.3
100
AcDbArc
 50
180.0
 51
270.0
  0
ARC
  5
34A
330
A
100
AcDbEntity
  8
1
  6
CONTINUOUS
370
    50
100
AcDbCircle
 10
119.6729162324
 20
187.5592749879
 30
0.0
 40
0.3
100
AcDbArc
 50
270.0
 51
0.0
  0
LINE
  5
34B
330
A
100
AcDbEntity
  8
1
  6
CONTINUOUS
370
    50
100
AcDbLine
 10
109.9729162324
 20
191.7592749879
 30
0.0
 11
109.9729162324
 21
187.5592749879
 31
0.0
  0
LINE
  5
34C
330
A
100
AcDbEntity
  8
1
  6
CONTINUOUS
370
    50
100
AcDbLine
 10
119.9729162324
 20
187.5592749879
 30
0.0
 11
119.9729162324
 21
191.7592749879
 31
0.0
  0
LINE
  5
34D
330
A
100
AcDbEntity
  8
1
  6
CONTINUOUS
370
    50
100
AcDbLine
 10
157.7574461824
 20
162.9592749879
 30
0.0
 11
157.8729162363
 21
163.1592749879
 31
0.0
  0
LINE
  5
34E
330
A
100
AcDbEntity
  8
1
  6
CONTINUOUS
370
    50
100
AcDbLine
 10
157.8729162363
 20
171.1592749879
 30
0.0
 11
157.7574461824
 21
171.3592749879
 31
0.0
  0
LINE
  5
34F
330
A
100
AcDbEntity
  8
1
  6
CONTINUOUS
370
    50
100
AcDbLine
 10
148.3729162324
 20
162.9592749879
 30
0.0
 11
157.7574461824
 21
162.9592749879
 31
0.0
  0
LINE
  5
350
330
A
100
AcDbEntity
  8
1
  6
CONTINUOUS
370
    50
100
AcDbLine
 10
157.7574461824
 20
171.3592749879
 30
0.0
 11
148.3729162324
 21
171.3592749879
 31
0.0
  0
ARC
  5
351
330
A
100
AcDbEntity
  8
1
  6
CONTINUOUS
370
    50
100
AcDbCircle
 10
148.3729162324
 20
163.4592749879
 30
0.0
 40
0.5
100
AcDbArc
 50
180.0
 51
270.0
  0
ARC
  5
352
330
A
100
AcDbEntity
  8
1
  6
CONTINUOUS
370
    50
100
AcDbCircle
 10
148.3729162324
 20
170.8592749879
 30
0.0
 40
0.5
100
AcDbArc
 50
90.0
 51
180.0
  0
LINE
  5
353
330
A
100
AcDbEntity
  8
1
  6
CONTINUOUS
370
    50
100
AcDbLine
 10
157.8729162363
 20
163.1592749879
 30
0.0
 11
182.8096942081
 21
163.1592749879
 31
0.0
  0
LINE
  5
354
330
A
100
AcDbEntity
  8
1
  6
CONTINUOUS
370
    50
100
AcDbLine
 10
182.8096942081
 20
171.1592749879
 30
0.0
 11
157.8729162363
 21
171.1592749879
 31
0.0
  0
LINE
  5
355
330
A
100
AcDbEntity
  8
1
  6
CONTINUOUS
370
    50
100
AcDbLine
 10
135.0662919054
 20
164.6592749879
 30
0.0
 11
147.8729162324
 21
164.6592749879
 31
0.0
  0
LINE
  5
356
330
A
100
AcDbEntity
  8
1
  6
CONTINUOUS
370
    50
100
AcDbLine
 10
147.8729162324
 20
169.6592749879
 30
0.0
 11
135.0662919054
 21
169.6592749879
 31
0.0
  0
LINE
  5
357
330
A
100
AcDbEntity
  8
1
  6
CONTINUOUS
370
    50
100
AcDbLine
 10
113.4729162324
 20
187.2592749879
 30
0.0
 11
113.8729162324
 21
186.8592749879
 31
0.0
  0
LINE
  5
358
330
A
100
AcDbEntity
  8
1
  6
CONTINUOUS
370
    50
100
AcDbLine
 10
116.0729162324
 20
186.8592749879
 30
0.0
 11
116.4729162324
 21
187.2592749879
 31
0.0
  0
LINE
  5
359
330
A
100
AcDbEntity
  8
1
  6
CONTINUOUS
370
    50
100
AcDbLine
 10
113.8729162324
 20
180.8592749879
 30
0.0
 11
114.9729162324
 21
180.4589077302
 31
0.0
  0
LINE
  5
35A
330
A
100
AcDbEntity
  8
1
  6
CONTINUOUS
370
    50
100
AcDbLine
 10
114.9729162324
 20
180.4589077302
 30
0.0
 11
116.0729162324
 21
180.8592749879
 31
0.0
  0
LINE
  5
35B
330
A
100
AcDbEntity
  8
1
  6
CONTINUOUS
370
    50
100
AcDbLine
 10
113.8729162324
 20
183.4492749879
 30
0.0
 11
113.8729162324
 21
180.8592749879
 31
0.0
  0
LINE
  5
35C
330
A
100
AcDbEntity
  8
1
  6
CONTINUOUS
370
    50
100
AcDbLine
 10
116.0729162324
 20
180.8592749879
 30
0.0
 11
116.0729162324
 21
183.4492749879
 31
0.0
  0
LINE
  5
35D
330
A
100
AcDbEntity
  8
1
  6
CONTINUOUS
370
    50
100
AcDbLine
 10
113.8729162324
 20
186.8592749879
 30
0.0
 11
113.8729162324
 21
183.4592749879
 31
0.0
  0
LINE
  5
35E
330
A
100
AcDbEntity
  8
1
  6
CONTINUOUS
370
    50
100
AcDbLine
 10
116.0729162324
 20
183.4592749879
 30
0.0
 11
116.0729162324
 21
186.8592749879
 31
0.0
  0
LINE
  5
35F
330
A
100
AcDbEntity
  8
1
  6
CONTINUOUS
370
    50
100
AcDbLine
 10
111.9346465364
 20
174.9569114863
 30
0.0
 11
97.8285802488
 21
170.9086259653
 31
0.0
  0
LINE
  5
360
330
A
100
AcDbEntity
  8
1
  6
CONTINUOUS
370
    50
100
AcDbLine
 10
100.0255476497
 20
168.1059215944
 30
0.0
 11
112.8449637427
 21
171.7849526933
 31
0.0
  0
LINE
  5
361
330
A
100
AcDbEntity
  8
1
  6
CONTINUOUS
370
    50
100
AcDbLine
 10
113.5501682341
 20
175.4205484042
 30
0.0
 11
111.9423069808
 21
174.9591099494
 31
0.0
  0
LINE
  5
362
330
A
100
AcDbEntity
  8
1
  6
CONTINUOUS
370
    50
100
AcDbLine
 10
120.0811571912
 20
177.294870238
 30
0.0
 11
114.673312239
 21
175.7428783522
 31
0.0
  0
LINE
  5
363
330
A
100
AcDbEntity
  8
1
  6
CONTINUOUS
370
    50
100
AcDbLine
 10
112.8526241871
 20
171.7871511565
 30
0.0
 11
120.9914743975
 21
174.1229114451
 31
0.0
  0
LINE
  5
364
330
A
100
AcDbEntity
  8
1
  6
CONTINUOUS
370
    50
100
AcDbLine
 10
104.8729162324
 20
174.697162196
 30
0.0
 11
113.6127312637
 21
172.6041068715
 31
0.0
  0
LINE
  5
365
330
A
100
AcDbEntity
  8
1
  6
CONTINUOUS
370
    50
100
AcDbLine
 10
114.6754082394
 20
175.7429249117
 30
0.0
 11
104.8729162324
 21
178.0904755194
 31
0.0
  0
LINE
  5
366
330
A
100
AcDbEntity
  8
1
  6
CONTINUOUS
370
    50
100
AcDbLine
 10
122.9229162324
 20
178.5785887278
 30
0.0
 11
120.2446616907
 21
177.8099591991
 31
0.0
  0
LINE
  5
367
330
A
100
AcDbEntity
  8
1
  6
CONTINUOUS
370
    50
100
AcDbLine
 10
121.4032472259
 20
173.7729207354
 30
0.0
 11
122.9229162324
 21
174.2090489876
 31
0.0
  0
LINE
  5
368
330
A
100
AcDbEntity
  8
1
  6
CONTINUOUS
370
    50
100
AcDbLine
 10
119.4757162384
 20
176.3385114121
 30
0.0
 11
119.4757162384
 21
176.1411951815
 31
0.0
  0
LINE
  5
369
330
A
100
AcDbEntity
  8
1
  6
CONTINUOUS
370
    50
100
AcDbLine
 10
119.8663808447
 20
174.7799421758
 30
0.0
 11
119.9710178291
 21
174.6126556062
 31
0.0
  0
LINE
  5
36A
330
A
100
AcDbEntity
  8
1
  6
CONTINUOUS
370
    50
100
AcDbLine
 10
119.0229162324
 20
158.6028366104
 30
0.0
 11
122.9229162324
 21
158.6028366104
 31
0.0
  0
LINE
  5
36B
330
A
100
AcDbEntity
  8
1
  6
CONTINUOUS
370
    50
100
AcDbLine
 10
122.9229162324
 20
165.6028366104
 30
0.0
 11
119.0229162324
 21
165.6028366104
 31
0.0
  0
LINE
  5
36C
330
A
100
AcDbEntity
  8
1
  6
CONTINUOUS
370
    50
100
AcDbLine
 10
119.0229162324
 20
165.6028366104
 30
0.0
 11
117.7490204125
 21
162.1028366104
 31
0.0
  0
LINE
  5
36D
330
A
100
AcDbEntity
  8
1
  6
CONTINUOUS
370
    50
100
AcDbLine
 10
117.7490204125
 20
162.1028366104
 30
0.0
 11
119.0229162324
 21
158.6028366104
 31
0.0
  0
LINE
  5
36E
330
A
100
AcDbEntity
  8
1
  6
CONTINUOUS
370
    50
100
AcDbLine
 10
119.0229162324
 20
166.4292792645
 30
0.0
 11
122.9229162324
 21
166.4292792645
 31
0.0
  0
LINE
  5
36F
330
A
100
AcDbEntity
  8
1
  6
CONTINUOUS
370
    50
100
AcDbLine
 10
122.9229162324
 20
173.4292792645
 30
0.0
 11
119.0229162324
 21
173.4292792645
 31
0.0
  0
LINE
  5
370
330
A
100
AcDbEntity
  8
1
  6
CONTINUOUS
370
    50
100
AcDbLine
 10
119.0229162324
 20
173.4292792645
 30
0.0
 11
117.7490204125
 21
169.9292792645
 31
0.0
  0
LINE
  5
371
330
A
100
AcDbEntity
  8
1
  6
CONTINUOUS
370
    50
100
AcDbLine
 10
117.7490204125
 20
169.9292792645
 30
0.0
 11
119.0229162324
 21
166.4292792645
 31
0.0
  0
LINE
  5
372
330
A
100
AcDbEntity
  8
1
  6
CONTINUOUS
370
    50
100
AcDbLine
 10
104.6729162324
 20
189.0842749879
 30
0.0
 11
104.6729162324
 21
145.2342749879
 31
0.0
  0
LINE
  5
373
330
A
100
AcDbEntity
  8
1
  6
CONTINUOUS
370
    50
100
AcDbLine
 10
104.415806509
 20
189.1311210944
 30
0.0
 11
104.415806509
 21
145.1874288814
 31
0.0
  0
LINE
  5
374
330
A
100
AcDbEntity
  8
1
  6
CONTINUOUS
370
    50
100
AcDbLine
 10
104.6271156399
 20
189.0842749879
 30
0.0
 11
104.6271156399
 21
145.2342749879
 31
0.0
  0
LINE
  5
375
330
A
100
AcDbEntity
  8
1
  6
CONTINUOUS
370
    50
100
AcDbLine
 10
36.3754001262
 20
179.5388830256
 30
0.0
 11
36.3754001262
 21
154.7796669502
 31
0.0
  0
LINE
  5
376
330
A
100
AcDbEntity
  8
1
  6
CONTINUOUS
370
    50
100
AcDbLine
 10
111.1514629566
 20
173.3709320898
 30
0.0
 11
111.1047085179
 21
173.946019785
 31
0.0
  0
LINE
  5
377
330
A
100
AcDbEntity
  8
1
  6
CONTINUOUS
370
    50
100
AcDbLine
 10
111.1047085179
 20
173.946019785
 30
0.0
 11
111.1721405536
 21
174.4700084148
 31
0.0
  0
LINE
  5
378
330
A
100
AcDbEntity
  8
1
  6
CONTINUOUS
370
    50
100
AcDbLine
 10
111.1721405536
 20
174.4700084148
 30
0.0
 11
111.3477674314
 21
174.8963392898
 31
0.0
  0
LINE
  5
379
330
A
100
AcDbEntity
  8
1
  6
CONTINUOUS
370
    50
100
AcDbLine
 10
111.3477674314
 20
174.8963392898
 30
0.0
 11
111.6159839324
 21
175.187131041
 31
0.0
  0
LINE
  5
37A
330
A
100
AcDbEntity
  8
1
  6
CONTINUOUS
370
    50
100
AcDbLine
 10
111.6159839324
 20
175.187131041
 30
0.0
 11
111.9529578436
 21
175.3165455452
 31
0.0
  0
LINE
  5
37B
330
A
100
AcDbEntity
  8
1
  6
CONTINUOUS
370
    50
100
AcDbLine
 10
111.9529578436
 20
175.3165455452
 30
0.0
 11
112.3287475541
 21
175.2730837556
 31
0.0
  0
LINE
  5
37C
330
A
100
AcDbEntity
  8
1
  6
CONTINUOUS
370
    50
100
AcDbLine
 10
112.3287475541
 20
175.2730837556
 30
0.0
 11
112.709962499
 21
175.0606074431
 31
0.0
  0
LINE
  5
37D
330
A
100
AcDbEntity
  8
1
  6
CONTINUOUS
370
    50
100
AcDbLine
 10
112.709962499
 20
175.0606074431
 30
0.0
 11
113.0627300576
 21
174.6979960604
 31
0.0
  0
LINE
  5
37E
330
A
100
AcDbEntity
  8
1
  6
CONTINUOUS
370
    50
100
AcDbLine
 10
113.0627300576
 20
174.6979960604
 30
0.0
 11
113.355705284
 21
174.2174692202
 31
0.0
  0
LINE
  5
37F
330
A
100
AcDbEntity
  8
1
  6
CONTINUOUS
370
    50
100
AcDbLine
 10
113.355705284
 20
174.2174692202
 30
0.0
 11
113.5628560439
 21
173.661723841
 31
0.0
  0
LINE
  5
380
330
A
100
AcDbEntity
  8
1
  6
CONTINUOUS
370
    50
100
AcDbLine
 10
113.5628560439
 20
173.661723841
 30
0.0
 11
113.6657760831
 21
173.0801403386
 31
0.0
  0
LINE
  5
381
330
A
100
AcDbEntity
  8
1
  6
CONTINUOUS
370
    50
100
AcDbLine
 10
113.6657760831
 20
173.0801403386
 30
0.0
 11
113.6553205044
 21
172.5243949594
 31
0.0
  0
LINE
  5
382
330
A
100
AcDbEntity
  8
1
  6
CONTINUOUS
370
    50
100
AcDbLine
 10
113.6553205044
 20
172.5243949594
 30
0.0
 11
113.5324183319
 21
172.0438681192
 31
0.0
  0
LINE
  5
383
330
A
100
AcDbEntity
  8
1
  6
CONTINUOUS
370
    50
100
AcDbLine
 10
113.5324183319
 20
172.0438681192
 30
0.0
 11
113.307989963
 21
171.6812567365
 31
0.0
  0
LINE
  5
384
330
A
100
AcDbEntity
  8
1
  6
CONTINUOUS
370
    50
100
AcDbLine
 10
113.307989963
 20
171.6812567365
 30
0.0
 11
113.0019768432
 21
171.468780424
 31
0.0
  0
LINE
  5
385
330
A
100
AcDbEntity
  8
1
  6
CONTINUOUS
370
    50
100
AcDbLine
 10
113.0019768432
 20
171.468780424
 30
0.0
 11
112.641569581
 21
171.4253186345
 31
0.0
  0
LINE
  5
386
330
A
100
AcDbEntity
  8
1
  6
CONTINUOUS
370
    50
100
AcDbLine
 10
112.641569581
 20
171.4253186345
 30
0.0
 11
112.2587919434
 21
171.5547331386
 31
0.0
  0
LINE
  5
387
330
A
100
AcDbEntity
  8
1
  6
CONTINUOUS
370
    50
100
AcDbLine
 10
112.2587919434
 20
171.5547331386
 30
0.0
 11
111.8876554031
 21
171.8455248898
 31
0.0
  0
LINE
  5
388
330
A
100
AcDbEntity
  8
1
  6
CONTINUOUS
370
    50
100
AcDbLine
 10
111.8876554031
 20
171.8455248898
 30
0.0
 11
111.5611370706
 21
172.2718557649
 31
0.0
  0
LINE
  5
389
330
A
100
AcDbEntity
  8
1
  6
CONTINUOUS
370
    50
100
AcDbLine
 10
111.5611370706
 20
172.2718557649
 30
0.0
 11
111.3082495326
 21
172.7958443946
 31
0.0
  0
LINE
  5
38A
330
A
100
AcDbEntity
  8
1
  6
CONTINUOUS
370
    50
100
AcDbLine
 10
111.3082495326
 20
172.7958443946
 30
0.0
 11
111.1514629566
 21
173.3709320898
 31
0.0
  0
LINE
  5
38B
330
A
100
AcDbEntity
  8
1
  6
CONTINUOUS
370
    50
100
AcDbLine
 10
119.3256623956
 20
176.8345724902
 30
0.0
 11
119.2519783903
 21
176.3148443666
 31
0.0
  0
LINE
  5
38C
330
A
100
AcDbEntity
  8
1
  6
CONTINUOUS
370
    50
100
AcDbLine
 10
119.2519783903
 20
176.3148443666
 30
0.0
 11
119.2924133996
 21
175.7412746131
 31
0.0
  0
LINE
  5
38D
330
A
100
AcDbEntity
  8
1
  6
CONTINUOUS
370
    50
100
AcDbLine
 10
119.2924133996
 20
175.7412746131
 30
0.0
 11
119.4433745954
 21
175.1648274194
 31
0.0
  0
LINE
  5
38E
330
A
100
AcDbEntity
  8
1
  6
CONTINUOUS
370
    50
100
AcDbLine
 10
119.4433745954
 20
175.1648274194
 30
0.0
 11
119.691448413
 21
174.6367226483
 31
0.0
  0
LINE
  5
38F
330
A
100
AcDbEntity
  8
1
  6
CONTINUOUS
370
    50
100
AcDbLine
 10
119.691448413
 20
174.6367226483
 30
0.0
 11
120.0145924051
 21
174.2038847263
 31
0.0
  0
LINE
  5
390
330
A
100
AcDbEntity
  8
1
  6
CONTINUOUS
370
    50
100
AcDbLine
 10
120.0145924051
 20
174.2038847263
 30
0.0
 11
120.3840938099
 21
173.9047732023
 31
0.0
  0
LINE
  5
391
330
A
100
AcDbEntity
  8
1
  6
CONTINUOUS
370
    50
100
AcDbLine
 10
120.3840938099
 20
173.9047732023
 30
0.0
 11
120.7671208061
 21
173.7659654478
 31
0.0
  0
LINE
  5
392
330
A
100
AcDbEntity
  8
1
  6
CONTINUOUS
370
    50
100
AcDbLine
 10
120.7671208061
 20
173.7659654478
 30
0.0
 11
121.129639764
 21
173.7997951409
 31
0.0
  0
LINE
  5
393
330
A
100
AcDbEntity
  8
1
  6
CONTINUOUS
370
    50
100
AcDbLine
 10
121.129639764
 20
173.7997951409
 30
0.0
 11
121.4394392835
 21
174.0032563649
 31
0.0
  0
LINE
  5
394
330
A
100
AcDbEntity
  8
1
  6
CONTINUOUS
370
    50
100
AcDbLine
 10
121.4394392835
 20
174.0032563649
 30
0.0
 11
121.6689923177
 21
174.3582706973
 31
0.0
  0
LINE
  5
395
330
A
100
AcDbEntity
  8
1
  6
CONTINUOUS
370
    50
100
AcDbLine
 10
121.6689923177
 20
174.3582706973
 30
0.0
 11
121.7979020722
 21
174.8332935565
 31
0.0
  0
LINE
  5
396
330
A
100
AcDbEntity
  8
1
  6
CONTINUOUS
370
    50
100
AcDbLine
 10
121.7979020722
 20
174.8332935565
 30
0.0
 11
121.8147143494
 21
175.3861170771
 31
0.0
  0
LINE
  5
397
330
A
100
AcDbEntity
  8
1
  6
CONTINUOUS
370
    50
100
AcDbLine
 10
121.8147143494
 20
175.3861170771
 30
0.0
 11
121.7179353049
 21
175.9676204631
 31
0.0
  0
LINE
  5
398
330
A
100
AcDbEntity
  8
1
  6
CONTINUOUS
370
    50
100
AcDbLine
 10
121.7179353049
 20
175.9676204631
 30
0.0
 11
121.5161641815
 21
176.5261345867
 31
0.0
  0
LINE
  5
399
330
A
100
AcDbEntity
  8
1
  6
CONTINUOUS
370
    50
100
AcDbLine
 10
121.5161641815
 20
176.5261345867
 30
0.0
 11
121.2273292288
 21
177.0120330173
 31
0.0
  0
LINE
  5
39A
330
A
100
AcDbEntity
  8
1
  6
CONTINUOUS
370
    50
100
AcDbLine
 10
121.2273292288
 20
177.0120330173
 30
0.0
 11
120.8770947
 21
177.3821415467
 31
0.0
  0
LINE
  5
39B
330
A
100
AcDbEntity
  8
1
  6
CONTINUOUS
370
    50
100
AcDbLine
 10
120.8770947
 20
177.3821415467
 30
0.0
 11
120.49658047
 21
177.6035744081
 31
0.0
  0
LINE
  5
39C
330
A
100
AcDbEntity
  8
1
  6
CONTINUOUS
370
    50
100
AcDbLine
 10
120.49658047
 20
177.6035744081
 30
0.0
 11
120.1195968979
 21
177.6566563199
 31
0.0
  0
LINE
  5
39D
330
A
100
AcDbEntity
  8
1
  6
CONTINUOUS
370
    50
100
AcDbLine
 10
120.1195968979
 20
177.6566563199
 30
0.0
 11
119.7796406286
 21
177.5366707213
 31
0.0
  0
LINE
  5
39E
330
A
100
AcDbEntity
  8
1
  6
CONTINUOUS
370
    50
100
AcDbLine
 10
119.7796406286
 20
177.5366707213
 30
0.0
 11
119.5069182683
 21
177.2542788594
 31
0.0
  0
LINE
  5
39F
330
A
100
AcDbEntity
  8
1
  6
CONTINUOUS
370
    50
100
AcDbLine
 10
119.5069182683
 20
177.2542788594
 30
0.0
 11
119.3256623956
 21
176.8345724902
 31
0.0
  0
LINE
  5
3A0
330
A
100
AcDbEntity
  8
1
  6
CONTINUOUS
370
    50
100
AcDbLine
 10
113.6358077669
 20
173.3731305529
 30
0.0
 11
113.6825622056
 21
172.7980428577
 31
0.0
  0
LINE
  5
3A1
330
A
100
AcDbEntity
  8
1
  6
CONTINUOUS
370
    50
100
AcDbLine
 10
113.6825622056
 20
172.7980428577
 30
0.0
 11
113.6151301699
 21
172.274054228
 31
0.0
  0
LINE
  5
3A2
330
A
100
AcDbEntity
  8
1
  6
CONTINUOUS
370
    50
100
AcDbLine
 10
113.6151301699
 20
172.274054228
 30
0.0
 11
113.4395032921
 21
171.8477233529
 31
0.0
  0
LINE
  5
3A3
330
A
100
AcDbEntity
  8
1
  6
CONTINUOUS
370
    50
100
AcDbLine
 10
113.4395032921
 20
171.8477233529
 30
0.0
 11
113.1712867911
 21
171.5569316017
 31
0.0
  0
LINE
  5
3A4
330
A
100
AcDbEntity
  8
1
  6
CONTINUOUS
370
    50
100
AcDbLine
 10
113.1712867911
 20
171.5569316017
 30
0.0
 11
112.8343128799
 21
171.4275170976
 31
0.0
  0
LINE
  5
3A5
330
A
100
AcDbEntity
  8
1
  6
CONTINUOUS
370
    50
100
AcDbLine
 10
112.8343128799
 20
171.4275170976
 30
0.0
 11
112.4585231694
 21
171.4709788871
 31
0.0
  0
LINE
  5
3A6
330
A
100
AcDbEntity
  8
1
  6
CONTINUOUS
370
    50
100
AcDbLine
 10
112.4585231694
 20
171.4709788871
 30
0.0
 11
112.0773082245
 21
171.6834551996
 31
0.0
  0
LINE
  5
3A7
330
A
100
AcDbEntity
  8
1
  6
CONTINUOUS
370
    50
100
AcDbLine
 10
112.0773082245
 20
171.6834551996
 30
0.0
 11
111.724540666
 21
172.0460665823
 31
0.0
  0
LINE
  5
3A8
330
A
100
AcDbEntity
  8
1
  6
CONTINUOUS
370
    50
100
AcDbLine
 10
111.724540666
 20
172.0460665823
 30
0.0
 11
111.4315654395
 21
172.5265934225
 31
0.0
  0
LINE
  5
3A9
330
A
100
AcDbEntity
  8
1
  6
CONTINUOUS
370
    50
100
AcDbLine
 10
111.4315654395
 20
172.5265934225
 30
0.0
 11
111.2244146796
 21
173.0823388017
 31
0.0
  0
LINE
  5
3AA
330
A
100
AcDbEntity
  8
1
  6
CONTINUOUS
370
    50
100
AcDbLine
 10
111.2244146796
 20
173.0823388017
 30
0.0
 11
111.1214946405
 21
173.6639223041
 31
0.0
  0
LINE
  5
3AB
330
A
100
AcDbEntity
  8
1
  6
CONTINUOUS
370
    50
100
AcDbLine
 10
111.1214946405
 20
173.6639223041
 30
0.0
 11
111.1319502191
 21
174.2196676833
 31
0.0
  0
LINE
  5
3AC
330
A
100
AcDbEntity
  8
1
  6
CONTINUOUS
370
    50
100
AcDbLine
 10
111.1319502191
 20
174.2196676833
 30
0.0
 11
111.2548523916
 21
174.7001945235
 31
0.0
  0
LINE
  5
3AD
330
A
100
AcDbEntity
  8
1
  6
CONTINUOUS
370
    50
100
AcDbLine
 10
111.2548523916
 20
174.7001945235
 30
0.0
 11
111.4792807605
 21
175.0628059062
 31
0.0
  0
LINE
  5
3AE
330
A
100
AcDbEntity
  8
1
  6
CONTINUOUS
370
    50
100
AcDbLine
 10
111.4792807605
 20
175.0628059062
 30
0.0
 11
111.7852938803
 21
175.2752822187
 31
0.0
  0
LINE
  5
3AF
330
A
100
AcDbEntity
  8
1
  6
CONTINUOUS
370
    50
100
AcDbLine
 10
111.7852938803
 20
175.2752822187
 30
0.0
 11
112.1457011425
 21
175.3187440083
 31
0.0
  0
LINE
  5
3B0
330
A
100
AcDbEntity
  8
1
  6
CONTINUOUS
370
    50
100
AcDbLine
 10
112.1457011425
 20
175.3187440083
 30
0.0
 11
112.5284787802
 21
175.1893295041
 31
0.0
  0
LINE
  5
3B1
330
A
100
AcDbEntity
  8
1
  6
CONTINUOUS
370
    50
100
AcDbLine
 10
112.5284787802
 20
175.1893295041
 30
0.0
 11
112.8996153204
 21
174.8985377529
 31
0.0
  0
LINE
  5
3B2
330
A
100
AcDbEntity
  8
1
  6
CONTINUOUS
370
    50
100
AcDbLine
 10
112.8996153204
 20
174.8985377529
 30
0.0
 11
113.2261336529
 21
174.4722068779
 31
0.0
  0
LINE
  5
3B3
330
A
100
AcDbEntity
  8
1
  6
CONTINUOUS
370
    50
100
AcDbLine
 10
113.2261336529
 20
174.4722068779
 30
0.0
 11
113.4790211909
 21
173.9482182481
 31
0.0
  0
LINE
  5
3B4
330
A
100
AcDbEntity
  8
1
  6
CONTINUOUS
370
    50
100
AcDbLine
 10
113.4790211909
 20
173.9482182481
 30
0.0
 11
113.6358077669
 21
173.3731305529
 31
0.0
  0
LINE
  5
3B5
330
A
100
AcDbEntity
  8
1
  6
CONTINUOUS
370
    50
100
AcDbLine
 10
111.1514629566
 20
160.947617886
 30
0.0
 11
111.1047085179
 21
160.3725301908
 31
0.0
  0
LINE
  5
3B6
330
A
100
AcDbEntity
  8
1
  6
CONTINUOUS
370
    50
100
AcDbLine
 10
111.1047085179
 20
160.3725301908
 30
0.0
 11
111.1721405536
 21
159.8485415611
 31
0.0
  0
LINE
  5
3B7
330
A
100
AcDbEntity
  8
1
  6
CONTINUOUS
370
    50
100
AcDbLine
 10
111.1721405536
 20
159.8485415611
 30
0.0
 11
111.3477674314
 21
159.422210686
 31
0.0
  0
LINE
  5
3B8
330
A
100
AcDbEntity
  8
1
  6
CONTINUOUS
370
    50
100
AcDbLine
 10
111.3477674314
 20
159.422210686
 30
0.0
 11
111.6159839324
 21
159.1314189348
 31
0.0
  0
LINE
  5
3B9
330
A
100
AcDbEntity
  8
1
  6
CONTINUOUS
370
    50
100
AcDbLine
 10
111.6159839324
 20
159.1314189348
 30
0.0
 11
111.9529578436
 21
159.0020044307
 31
0.0
  0
LINE
  5
3BA
330
A
100
AcDbEntity
  8
1
  6
CONTINUOUS
370
    50
100
AcDbLine
 10
111.9529578436
 20
159.0020044307
 30
0.0
 11
112.3287475541
 21
159.0454662202
 31
0.0
  0
LINE
  5
3BB
330
A
100
AcDbEntity
  8
1
  6
CONTINUOUS
370
    50
100
AcDbLine
 10
112.3287475541
 20
159.0454662202
 30
0.0
 11
112.709962499
 21
159.2579425328
 31
0.0
  0
LINE
  5
3BC
330
A
100
AcDbEntity
  8
1
  6
CONTINUOUS
370
    50
100
AcDbLine
 10
112.709962499
 20
159.2579425328
 30
0.0
 11
113.0627300576
 21
159.6205539154
 31
0.0
  0
LINE
  5
3BD
330
A
100
AcDbEntity
  8
1
  6
CONTINUOUS
370
    50
100
AcDbLine
 10
113.0627300576
 20
159.6205539154
 30
0.0
 11
113.355705284
 21
160.1010807556
 31
0.0
  0
LINE
  5
3BE
330
A
100
AcDbEntity
  8
1
  6
CONTINUOUS
370
    50
100
AcDbLine
 10
113.355705284
 20
160.1010807556
 30
0.0
 11
113.5628560439
 21
160.6568261348
 31
0.0
  0
LINE
  5
3BF
330
A
100
AcDbEntity
  8
1
  6
CONTINUOUS
370
    50
100
AcDbLine
 10
113.5628560439
 20
160.6568261348
 30
0.0
 11
113.6657760831
 21
161.2384096372
 31
0.0
  0
LINE
  5
3C0
330
A
100
AcDbEntity
  8
1
  6
CONTINUOUS
370
    50
100
AcDbLine
 10
113.6657760831
 20
161.2384096372
 30
0.0
 11
113.6553205044
 21
161.7941550164
 31
0.0
  0
LINE
  5
3C1
330
A
100
AcDbEntity
  8
1
  6
CONTINUOUS
370
    50
100
AcDbLine
 10
113.6553205044
 20
161.7941550164
 30
0.0
 11
113.5324183319
 21
162.2746818566
 31
0.0
  0
LINE
  5
3C2
330
A
100
AcDbEntity
  8
1
  6
CONTINUOUS
370
    50
100
AcDbLine
 10
113.5324183319
 20
162.2746818566
 30
0.0
 11
113.307989963
 21
162.6372932393
 31
0.0
  0
LINE
  5
3C3
330
A
100
AcDbEntity
  8
1
  6
CONTINUOUS
370
    50
100
AcDbLine
 10
113.307989963
 20
162.6372932393
 30
0.0
 11
113.0019768432
 21
162.8497695518
 31
0.0
  0
LINE
  5
3C4
330
A
100
AcDbEntity
  8
1
  6
CONTINUOUS
370
    50
100
AcDbLine
 10
113.0019768432
 20
162.8497695518
 30
0.0
 11
112.641569581
 21
162.8932313414
 31
0.0
  0
LINE
  5
3C5
330
A
100
AcDbEntity
  8
1
  6
CONTINUOUS
370
    50
100
AcDbLine
 10
112.641569581
 20
162.8932313414
 30
0.0
 11
112.2587919434
 21
162.7638168372
 31
0.0
  0
LINE
  5
3C6
330
A
100
AcDbEntity
  8
1
  6
CONTINUOUS
370
    50
100
AcDbLine
 10
112.2587919434
 20
162.7638168372
 30
0.0
 11
111.8876554031
 21
162.473025086
 31
0.0
  0
LINE
  5
3C7
330
A
100
AcDbEntity
  8
1
  6
CONTINUOUS
370
    50
100
AcDbLine
 10
111.8876554031
 20
162.473025086
 30
0.0
 11
111.5611370706
 21
162.046694211
 31
0.0
  0
LINE
  5
3C8
330
A
100
AcDbEntity
  8
1
  6
CONTINUOUS
370
    50
100
AcDbLine
 10
111.5611370706
 20
162.046694211
 30
0.0
 11
111.3082495326
 21
161.5227055812
 31
0.0
  0
LINE
  5
3C9
330
A
100
AcDbEntity
  8
1
  6
CONTINUOUS
370
    50
100
AcDbLine
 10
111.3082495326
 20
161.5227055812
 30
0.0
 11
111.1514629566
 21
160.947617886
 31
0.0
  0
LINE
  5
3CA
330
A
100
AcDbEntity
  8
1
  6
CONTINUOUS
370
    50
100
AcDbLine
 10
119.3256623956
 20
157.4839774856
 30
0.0
 11
119.2519783903
 21
158.0037056093
 31
0.0
  0
LINE
  5
3CB
330
A
100
AcDbEntity
  8
1
  6
CONTINUOUS
370
    50
100
AcDbLine
 10
119.2519783903
 20
158.0037056093
 30
0.0
 11
119.2924133996
 21
158.5772753628
 31
0.0
  0
LINE
  5
3CC
330
A
100
AcDbEntity
  8
1
  6
CONTINUOUS
370
    50
100
AcDbLine
 10
119.2924133996
 20
158.5772753628
 30
0.0
 11
119.4433745954
 21
159.1537225565
 31
0.0
  0
LINE
  5
3CD
330
A
100
AcDbEntity
  8
1
  6
CONTINUOUS
370
    50
100
AcDbLine
 10
119.4433745954
 20
159.1537225565
 30
0.0
 11
119.691448413
 21
159.6818273275
 31
0.0
  0
LINE
  5
3CE
330
A
100
AcDbEntity
  8
1
  6
CONTINUOUS
370
    50
100
AcDbLine
 10
119.691448413
 20
159.6818273275
 30
0.0
 11
120.0145924051
 21
160.1146652495
 31
0.0
  0
LINE
  5
3CF
330
A
100
AcDbEntity
  8
1
  6
CONTINUOUS
370
    50
100
AcDbLine
 10
120.0145924051
 20
160.1146652495
 30
0.0
 11
120.3840938099
 21
160.4137767735
 31
0.0
  0
LINE
  5
3D0
330
A
100
AcDbEntity
  8
1
  6
CONTINUOUS
370
    50
100
AcDbLine
 10
120.3840938099
 20
160.4137767735
 30
0.0
 11
120.7671208061
 21
160.552584528
 31
0.0
  0
LINE
  5
3D1
330
A
100
AcDbEntity
  8
1
  6
CONTINUOUS
370
    50
100
AcDbLine
 10
120.7671208061
 20
160.552584528
 30
0.0
 11
121.129639764
 21
160.5187548349
 31
0.0
  0
LINE
  5
3D2
330
A
100
AcDbEntity
  8
1
  6
CONTINUOUS
370
    50
100
AcDbLine
 10
121.129639764
 20
160.5187548349
 30
0.0
 11
121.4394392835
 21
160.3152936109
 31
0.0
  0
LINE
  5
3D3
330
A
100
AcDbEntity
  8
1
  6
CONTINUOUS
370
    50
100
AcDbLine
 10
121.4394392835
 20
160.3152936109
 30
0.0
 11
121.6689923177
 21
159.9602792785
 31
0.0
  0
LINE
  5
3D4
330
A
100
AcDbEntity
  8
1
  6
CONTINUOUS
370
    50
100
AcDbLine
 10
121.6689923177
 20
159.9602792785
 30
0.0
 11
121.7979020722
 21
159.4852564193
 31
0.0
  0
LINE
  5
3D5
330
A
100
AcDbEntity
  8
1
  6
CONTINUOUS
370
    50
100
AcDbLine
 10
121.7979020722
 20
159.4852564193
 30
0.0
 11
121.8147143494
 21
158.9324328988
 31
0.0
  0
LINE
  5
3D6
330
A
100
AcDbEntity
  8
1
  6
CONTINUOUS
370
    50
100
AcDbLine
 10
121.8147143494
 20
158.9324328988
 30
0.0
 11
121.7179353049
 21
158.3509295128
 31
0.0
  0
LINE
  5
3D7
330
A
100
AcDbEntity
  8
1
  6
CONTINUOUS
370
    50
100
AcDbLine
 10
121.7179353049
 20
158.3509295128
 30
0.0
 11
121.5161641815
 21
157.7924153891
 31
0.0
  0
LINE
  5
3D8
330
A
100
AcDbEntity
  8
1
  6
CONTINUOUS
370
    50
100
AcDbLine
 10
121.5161641815
 20
157.7924153891
 30
0.0
 11
121.2273292288
 21
157.3065169586
 31
0.0
  0
LINE
  5
3D9
330
A
100
AcDbEntity
  8
1
  6
CONTINUOUS
370
    50
100
AcDbLine
 10
121.2273292288
 20
157.3065169586
 30
0.0
 11
120.8770947
 21
156.9364084291
 31
0.0
  0
LINE
  5
3DA
330
A
100
AcDbEntity
  8
1
  6
CONTINUOUS
370
    50
100
AcDbLine
 10
120.8770947
 20
156.9364084291
 30
0.0
 11
120.49658047
 21
156.7149755677
 31
0.0
  0
LINE
  5
3DB
330
A
100
AcDbEntity
  8
1
  6
CONTINUOUS
370
    50
100
AcDbLine
 10
120.49658047
 20
156.7149755677
 30
0.0
 11
120.1195968979
 21
156.6618936559
 31
0.0
  0
LINE
  5
3DC
330
A
100
AcDbEntity
  8
1
  6
CONTINUOUS
370
    50
100
AcDbLine
 10
120.1195968979
 20
156.6618936559
 30
0.0
 11
119.7796406286
 21
156.7818792545
 31
0.0
  0
LINE
  5
3DD
330
A
100
AcDbEntity
  8
1
  6
CONTINUOUS
370
    50
100
AcDbLine
 10
119.7796406286
 20
156.7818792545
 30
0.0
 11
119.5069182683
 21
157.0642711165
 31
0.0
  0
LINE
  5
3DE
330
A
100
AcDbEntity
  8
1
  6
CONTINUOUS
370
    50
100
AcDbLine
 10
119.5069182683
 20
157.0642711165
 30
0.0
 11
119.3256623956
 21
157.4839774856
 31
0.0
  0
LINE
  5
3DF
330
A
100
AcDbEntity
  8
1
  6
CONTINUOUS
370
    50
100
AcDbLine
 10
111.159123401
 20
160.9454194229
 30
0.0
 11
111.1123689623
 21
160.3703317277
 31
0.0
  0
LINE
  5
3E0
330
A
100
AcDbEntity
  8
1
  6
CONTINUOUS
370
    50
100
AcDbLine
 10
111.1123689623
 20
160.3703317277
 30
0.0
 11
111.179800998
 21
159.846343098
 31
0.0
  0
LINE
  5
3E1
330
A
100
AcDbEntity
  8
1
  6
CONTINUOUS
370
    50
100
AcDbLine
 10
111.179800998
 20
159.846343098
 30
0.0
 11
111.3554278758
 21
159.4200122229
 31
0.0
  0
LINE
  5
3E2
330
A
100
AcDbEntity
  8
1
  6
CONTINUOUS
370
    50
100
AcDbLine
 10
111.3554278758
 20
159.4200122229
 30
0.0
 11
111.6236443769
 21
159.1292204717
 31
0.0
  0
LINE
  5
3E3
330
A
100
AcDbEntity
  8
1
  6
CONTINUOUS
370
    50
100
AcDbLine
 10
111.6236443769
 20
159.1292204717
 30
0.0
 11
111.9606182881
 21
158.9998059676
 31
0.0
  0
LINE
  5
3E4
330
A
100
AcDbEntity
  8
1
  6
CONTINUOUS
370
    50
100
AcDbLine
 10
111.9606182881
 20
158.9998059676
 30
0.0
 11
112.3364079985
 21
159.0432677571
 31
0.0
  0
LINE
  5
3E5
330
A
100
AcDbEntity
  8
1
  6
CONTINUOUS
370
    50
100
AcDbLine
 10
112.3364079985
 20
159.0432677571
 30
0.0
 11
112.7176229435
 21
159.2557440697
 31
0.0
  0
LINE
  5
3E6
330
A
100
AcDbEntity
  8
1
  6
CONTINUOUS
370
    50
100
AcDbLine
 10
112.7176229435
 20
159.2557440697
 30
0.0
 11
113.070390502
 21
159.6183554523
 31
0.0
  0
LINE
  5
3E7
330
A
100
AcDbEntity
  8
1
  6
CONTINUOUS
370
    50
100
AcDbLine
 10
113.070390502
 20
159.6183554523
 30
0.0
 11
113.3633657285
 21
160.0988822925
 31
0.0
  0
LINE
  5
3E8
330
A
100
AcDbEntity
  8
1
  6
CONTINUOUS
370
    50
100
AcDbLine
 10
113.3633657285
 20
160.0988822925
 30
0.0
 11
113.5705164883
 21
160.6546276717
 31
0.0
  0
LINE
  5
3E9
330
A
100
AcDbEntity
  8
1
  6
CONTINUOUS
370
    50
100
AcDbLine
 10
113.5705164883
 20
160.6546276717
 30
0.0
 11
113.6734365275
 21
161.2362111741
 31
0.0
  0
LINE
  5
3EA
330
A
100
AcDbEntity
  8
1
  6
CONTINUOUS
370
    50
100
AcDbLine
 10
113.6734365275
 20
161.2362111741
 30
0.0
 11
113.6629809488
 21
161.7919565533
 31
0.0
  0
LINE
  5
3EB
330
A
100
AcDbEntity
  8
1
  6
CONTINUOUS
370
    50
100
AcDbLine
 10
113.6629809488
 20
161.7919565533
 30
0.0
 11
113.5400787763
 21
162.2724833935
 31
0.0
  0
LINE
  5
3EC
330
A
100
AcDbEntity
  8
1
  6
CONTINUOUS
370
    50
100
AcDbLine
 10
113.5400787763
 20
162.2724833935
 30
0.0
 11
113.3156504075
 21
162.6350947762
 31
0.0
  0
LINE
  5
3ED
330
A
100
AcDbEntity
  8
1
  6
CONTINUOUS
370
    50
100
AcDbLine
 10
113.3156504075
 20
162.6350947762
 30
0.0
 11
113.0096372876
 21
162.8475710887
 31
0.0
  0
LINE
  5
3EE
330
A
100
AcDbEntity
  8
1
  6
CONTINUOUS
370
    50
100
AcDbLine
 10
113.0096372876
 20
162.8475710887
 30
0.0
 11
112.6492300254
 21
162.8910328783
 31
0.0
  0
LINE
  5
3EF
330
A
100
AcDbEntity
  8
1
  6
CONTINUOUS
370
    50
100
AcDbLine
 10
112.6492300254
 20
162.8910328783
 30
0.0
 11
112.2664523878
 21
162.7616183741
 31
0.0
  0
LINE
  5
3F0
330
A
100
AcDbEntity
  8
1
  6
CONTINUOUS
370
    50
100
AcDbLine
 10
112.2664523878
 20
162.7616183741
 30
0.0
 11
111.8953158476
 21
162.4708266229
 31
0.0
  0
LINE
  5
3F1
330
A
100
AcDbEntity
  8
1
  6
CONTINUOUS
370
    50
100
AcDbLine
 10
111.8953158476
 20
162.4708266229
 30
0.0
 11
111.5687975151
 21
162.0444957479
 31
0.0
  0
LINE
  5
3F2
330
A
100
AcDbEntity
  8
1
  6
CONTINUOUS
370
    50
100
AcDbLine
 10
111.5687975151
 20
162.0444957479
 30
0.0
 11
111.315909977
 21
161.5205071181
 31
0.0
  0
LINE
  5
3F3
330
A
100
AcDbEntity
  8
1
  6
CONTINUOUS
370
    50
100
AcDbLine
 10
111.315909977
 20
161.5205071181
 30
0.0
 11
111.159123401
 21
160.9454194229
 31
0.0
  0
LINE
  5
3F4
330
A
100
AcDbEntity
  8
1
  6
CONTINUOUS
370
    50
100
AcDbLine
 10
69.5329162324
 20
175.1592749879
 30
0.0
 11
44.4981939074
 21
175.1592749879
 31
0.0
  0
LINE
  5
3F5
330
A
100
AcDbEntity
  8
1
  6
CONTINUOUS
370
    50
100
AcDbLine
 10
44.4981939074
 20
159.1592749879
 30
0.0
 11
69.5329162324
 21
159.1592749879
 31
0.0
  0
LINE
  5
3F6
330
A
100
AcDbEntity
  8
1
  6
CONTINUOUS
370
    50
100
AcDbLine
 10
69.5329162324
 20
175.1592749879
 30
0.0
 11
69.5329162324
 21
175.1369053654
 31
0.0
  0
LINE
  5
3F7
330
A
100
AcDbEntity
  8
1
  6
CONTINUOUS
370
    50
100
AcDbLine
 10
69.5329162324
 20
175.1369053654
 30
0.0
 11
69.5329162324
 21
159.1592749879
 31
0.0
  0
LINE
  5
3F8
330
A
100
AcDbEntity
  8
1
  6
CONTINUOUS
370
    50
100
AcDbLine
 10
147.8662919054
 20
170.1592749879
 30
0.0
 11
135.0662919054
 21
170.1592749879
 31
0.0
  0
LINE
  5
3F9
330
A
100
AcDbEntity
  8
1
  6
CONTINUOUS
370
    50
100
AcDbLine
 10
135.0662919054
 20
164.1592749879
 30
0.0
 11
147.8662919054
 21
164.1592749879
 31
0.0
  0
LINE
  5
3FA
330
A
100
AcDbEntity
  8
1
  6
CONTINUOUS
370
    50
100
AcDbLine
 10
147.8662919054
 20
170.1592749879
 30
0.0
 11
147.8662919054
 21
170.1374016102
 31
0.0
  0
LINE
  5
3FB
330
A
100
AcDbEntity
  8
1
  6
CONTINUOUS
370
    50
100
AcDbLine
 10
147.8662919054
 20
170.1374016102
 30
0.0
 11
147.8662919054
 21
164.1592749879
 31
0.0
  0
LINE
  5
3FC
330
A
100
AcDbEntity
  8
1
  6
CONTINUOUS
370
    50
100
AcDbLine
 10
147.8662919054
 20
169.6592749879
 30
0.0
 11
147.8662919054
 21
169.6534469109
 31
0.0
  0
LINE
  5
3FD
330
A
100
AcDbEntity
  8
1
  6
CONTINUOUS
370
    50
100
AcDbLine
 10
147.8662919054
 20
169.6534469109
 30
0.0
 11
147.8662919054
 21
167.1592749879
 31
0.0
  0
ENDSEC
  0
SECTION
  2
OBJECTS
  0
DICTIONARY
  5
19
330
0
100
AcDbDictionary
281
     1
  3
ACAD_GROUP
350
1A
  3
ACAD_LAYOUT
350
422
  3
ACAD_MATERIAL
350
436
  3
ACAD_MLEADERSTYLE
350
43E
  3
ACAD_MLINESTYLE
350
1B
  3
ACAD_SCALELIST
350
400
  3
ACAD_VISUALSTYLE
350
425
  3
ACDB_RECOMPOSE_DATA
350
46B
  3
AcDbVariableDictionary
350
43C
  0
DICTIONARY
  5
442
330
7
100
AcDbDictionary
280
     1
281
     1
  3
ACAD_XREC_ROUNDTRIP
360
443
  0
DICTIONARY
  5
1A
102
{ACAD_REACTORS
330
19
102
}
330
19
100
AcDbDictionary
281
     1
  0
DICTIONARY
  5
422
102
{ACAD_REACTORS
330
19
102
}
330
19
100
AcDbDictionary
281
     1
  3
Layout1
350
424
  3
Model
350
423
  0
DICTIONARY
  5
436
102
{ACAD_REACTORS
330
19
102
}
330
19
100
AcDbDictionary
281
     1
  3
ByBlock
350
438
  3
ByLayer
350
437
  3
Global
350
439
  0
DICTIONARY
  5
43E
102
{ACAD_REACTORS
330
19
102
}
330
19
100
AcDbDictionary
281
     1
  0
DICTIONARY
  5
1B
102
{ACAD_REACTORS
330
19
102
}
330
19
100
AcDbDictionary
281
     1
  3
STANDARD
350
1C
  0
DICTIONARY
  5
400
102
{ACAD_REACTORS
330
19
102
}
330
19
100
AcDbDictionary
281
     1
  3
A0
350
401
  3
A1
350
402
  3
A2
350
403
  3
A3
350
404
  3
A4
350
405
  3
A5
350
406
  3
A6
350
407
  3
A7
350
408
  3
A8
350
409
  3
A9
350
40A
  3
B0
350
40B
  3
B1
350
40C
  3
B2
350
40D
  3
B3
350
40E
  3
B4
350
40F
  3
B5
350
410
  3
B6
350
411
  3
B7
350
412
  3
B8
350
413
  3
B9
350
414
  3
C0
350
415
  3
C1
350
416
  3
C2
350
417
  3
C3
350
418
  3
C4
350
419
  3
C5
350
41A
  3
C6
350
41B
  3
C7
350
41C
  3
C8
350
41D
  3
C9
350
41E
  3
D0
350
41F
  3
D1
350
420
  3
D2
350
421
  0
DICTIONARY
  5
425
102
{ACAD_REACTORS
330
19
102
}
330
19
100
AcDbDictionary
281
     1
  3
2dWireframe
350
42A
  3
3D Hidden
350
42C
  3
3dWireframe
350
42B
  3
Basic
350
42D
  3
Brighten
350
431
  3
ColorChange
350
435
  3
Conceptual
350
42F
  3
Dim
350
430
  3
Facepattern
350
434
  3
Flat
350
426
  3
FlatWithEdges
350
427
  3
Gouraud
350
428
  3
GouraudWithEdges
350
429
  3
Linepattern
350
433
  3
Realistic
350
42E
  3
Thicken
350
432
  0
XRECORD
  5
46B
102
{ACAD_REACTORS
330
19
102
}
330
19
100
AcDbXrecord
280
     1
  0
DICTIONARY
  5
43C
102
{ACAD_REACTORS
330
19
102
}
330
19
100
AcDbDictionary
281
     1
  3
CANNOSCALE
350
444
  3
DIMASSOC
350
440
  3
HIDETEXT
350
441
  3
MSLTSCALE
350
43F
  0
XRECORD
  5
443
102
{ACAD_REACTORS
330
442
102
}
330
442
100
AcDbXrecord
280
     1
102
VTR_0.000_0.000_1.000_1.000_VISUALSTYLE
340
42A
102
VTR_0.000_0.000_1.000_1.000_GRIDDISPLAY
 70
     3
102
VTR_0.000_0.000_1.000_1.000_GRIDMAJOR
 70
     5
102
VTR_0.000_0.000_1.000_1.000_DEFAULTLIGHTING
280
     1
102
VTR_0.000_0.000_1.000_1.000_DEFAULTLIGHTINGTYPE
 70
     1
102
VTR_0.000_0.000_1.000_1.000_BRIGHTNESS
141
0.0
102
VTR_0.000_0.000_1.000_1.000_CONTRAST
142
0.0
  0
LAYOUT
  5
424
102
{ACAD_REACTORS
330
422
102
}
330
422
100
AcDbPlotSettings
  1

  2
none_device
  4

  6

 40
0.0
 41
0.0
 42
0.0
 43
0.0
 44
0.0
 45
0.0
 46
0.0
 47
0.0
 48
0.0
 49
0.0
140
0.0
141
0.0
142
1.0
143
1.0
 70
   688
 72
     0
 73
     0
 74
     5
  7

 75
    16
147
1.0
148
0.0
149
0.0
100
AcDbLayout
  1
Layout1
 70
     1
 71
     1
 10
0.0
 20
0.0
 11
12.0
 21
9.0
 12
0.0
 22
0.0
 32
0.0
 14
1.000000000000000E+20
 24
1.000000000000000E+20
 34
1.000000000000000E+20
 15
-1.000000000000000E+20
 25
-1.000000000000000E+20
 35
-1.000000000000000E+20
146
0.0
 13
0.0
 23
0.0
 33
0.0
 16
1.0
 26
0.0
 36
0.0
 17
0.0
 27
1.0
 37
0.0
 76
     0
330
B
  0
LAYOUT
  5
423
102
{ACAD_REACTORS
330
422
102
}
330
422
100
AcDbPlotSettings
  1

  2
none_device
  4

  6

 40
0.0
 41
0.0
 42
0.0
 43
0.0
 44
0.0
 45
0.0
 46
0.0
 47
0.0
 48
0.0
 49
0.0
140
0.0
141
0.0
142
1.0
143
1.0
 70
  1712
 72
     0
 73
     0
 74
     0
  7

 75
     0
147
1.0
148
2667.54428576817
149
0.0
100
AcDbLayout
  1
Model
 70
     1
 71
     0
 10
0.0
 20
0.0
 11
0.0
 21
0.0
 12
0.0
 22
0.0
 32
0.0
 14
0.0
 24
0.0
 34
0.0
 15
210.0
 25
297.0
 35
0.0
146
0.0
 13
0.0
 23
0.0
 33
0.0
 16
1.0
 26
0.0
 36
0.0
 17
0.0
 27
1.0
 37
0.0
 76
     0
330
A
331
15
  0
MATERIAL
  5
438
102
{ACAD_REACTORS
330
436
102
}
102
{ACAD_XDICTIONARY
360
467
102
}
330
436
100
AcDbMaterial
  1
ByBlock
  0
MATERIAL
  5
437
102
{ACAD_REACTORS
330
436
102
}
102
{ACAD_XDICTIONARY
360
465
102
}
330
436
100
AcDbMaterial
  1
ByLayer
  0
MATERIAL
  5
439
102
{ACAD_REACTORS
330
436
102
}
102
{ACAD_XDICTIONARY
360
469
102
}
330
436
100
AcDbMaterial
  1
Global
  0
MLINESTYLE
  5
1C
102
{ACAD_REACTORS
330
1B
102
}
330
1B
100
AcDbMlineStyle
  2
STANDARD
 70
     0
  3

 62
     0
 51
90.0
 52
90.0
 71
     2
 49
0.5
 62
   256
  6
BYLAYER
 49
-0.5
 62
   256
  6
BYLAYER
  0
SCALE
  5
401
102
{ACAD_REACTORS
330
400
102
}
330
400
100
AcDbScale
 70
     0
300
1:1
140
1.0
141
1.0
290
     1
  0
SCALE
  5
402
102
{ACAD_REACTORS
330
400
102
}
330
400
100
AcDbScale
 70
     0
300
1:2
140
1.0
141
2.0
290
     0
  0
SCALE
  5
403
102
{ACAD_REACTORS
330
400
102
}
330
400
100
AcDbScale
 70
     0
300
1:4
140
1.0
141
4.0
290
     0
  0
SCALE
  5
404
102
{ACAD_REACTORS
330
400
102
}
330
400
100
AcDbScale
 70
     0
300
1:5
140
1.0
141
5.0
290
     0
  0
SCALE
  5
405
102
{ACAD_REACTORS
330
400
102
}
330
400
100
AcDbScale
 70
     0
300
1:8
140
1.0
141
8.0
290
     0
  0
SCALE
  5
406
102
{ACAD_REACTORS
330
400
102
}
330
400
100
AcDbScale
 70
     0
300
1:10
140
1.0
141
10.0
290
     0
  0
SCALE
  5
407
102
{ACAD_REACTORS
330
400
102
}
330
400
100
AcDbScale
 70
     0
300
1:16
140
1.0
141
16.0
290
     0
  0
SCALE
  5
408
102
{ACAD_REACTORS
330
400
102
}
330
400
100
AcDbScale
 70
     0
300
1:20
140
1.0
141
20.0
290
     0
  0
SCALE
  5
409
102
{ACAD_REACTORS
330
400
102
}
330
400
100
AcDbScale
 70
     0
300
1:30
140
1.0
141
30.0
290
     0
  0
SCALE
  5
40A
102
{ACAD_REACTORS
330
400
102
}
330
400
100
AcDbScale
 70
     0
300
1:40
140
1.0
141
40.0
290
     0
  0
SCALE
  5
40B
102
{ACAD_REACTORS
330
400
102
}
330
400
100
AcDbScale
 70
     0
300
1:50
140
1.0
141
50.0
290
     0
  0
SCALE
  5
40C
102
{ACAD_REACTORS
330
400
102
}
330
400
100
AcDbScale
 70
     0
300
1:100
140
1.0
141
100.0
290
     0
  0
SCALE
  5
40D
102
{ACAD_REACTORS
330
400
102
}
330
400
100
AcDbScale
 70
     0
300
2:1
140
2.0
141
1.0
290
     0
  0
SCALE
  5
40E
102
{ACAD_REACTORS
330
400
102
}
330
400
100
AcDbScale
 70
     0
300
4:1
140
4.0
141
1.0
290
     0
  0
SCALE
  5
40F
102
{ACAD_REACTORS
330
400
102
}
330
400
100
AcDbScale
 70
     0
300
8:1
140
8.0
141
1.0
290
     0
  0
SCALE
  5
410
102
{ACAD_REACTORS
330
400
102
}
330
400
100
AcDbScale
 70
     0
300
10:1
140
10.0
141
1.0
290
     0
  0
SCALE
  5
411
102
{ACAD_REACTORS
330
400
102
}
330
400
100
AcDbScale
 70
     0
300
100:1
140
100.0
141
1.0
290
     0
  0
SCALE
  5
412
102
{ACAD_REACTORS
330
400
102
}
330
400
100
AcDbScale
 70
     0
300
1/128" = 1'-0"
140
0.0078125
141
12.0
290
     0
  0
SCALE
  5
413
102
{ACAD_REACTORS
330
400
102
}
330
400
100
AcDbScale
 70
     0
300
1/64" = 1'-0"
140
0.015625
141
12.0
290
     0
  0
SCALE
  5
414
102
{ACAD_REACTORS
330
400
102
}
330
400
100
AcDbScale
 70
     0
300
1/32" = 1'-0"
140
0.03125
141
12.0
290
     0
  0
SCALE
  5
415
102
{ACAD_REACTORS
330
400
102
}
330
400
100
AcDbScale
 70
     0
300
1/16" = 1'-0"
140
0.0625
141
12.0
290
     0
  0
SCALE
  5
416
102
{ACAD_REACTORS
330
400
102
}
330
400
100
AcDbScale
 70
     0
300
3/32" = 1'-0"
140
0.09375
141
12.0
290
     0
  0
SCALE
  5
417
102
{ACAD_REACTORS
330
400
102
}
330
400
100
AcDbScale
 70
     0
300
1/8" = 1'-0"
140
0.125
141
12.0
290
     0
  0
SCALE
  5
418
102
{ACAD_REACTORS
330
400
102
}
330
400
100
AcDbScale
 70
     0
300
3/16" = 1'-0"
140
0.1875
141
12.0
290
     0
  0
SCALE
  5
419
102
{ACAD_REACTORS
330
400
102
}
330
400
100
AcDbScale
 70
     0
300
1/4" = 1'-0"
140
0.25
141
12.0
290
     0
  0
SCALE
  5
41A
102
{ACAD_REACTORS
330
400
102
}
330
400
100
AcDbScale
 70
     0
300
3/8" = 1'-0"
140
0.375
141
12.0
290
     0
  0
SCALE
  5
41B
102
{ACAD_REACTORS
330
400
102
}
330
400
100
AcDbScale
 70
     0
300
1/2" = 1'-0"
140
0.5
141
12.0
290
     0
  0
SCALE
  5
41C
102
{ACAD_REACTORS
330
400
102
}
330
400
100
AcDbScale
 70
     0
300
3/4" = 1'-0"
140
0.75
141
12.0
290
     0
  0
SCALE
  5
41D
102
{ACAD_REACTORS
330
400
102
}
330
400
100
AcDbScale
 70
     0
300
1" = 1'-0"
140
1.0
141
12.0
290
     0
  0
SCALE
  5
41E
102
{ACAD_REACTORS
330
400
102
}
330
400
100
AcDbScale
 70
     0
300
1-1/2" = 1'-0"
140
1.5
141
12.0
290
     0
  0
SCALE
  5
41F
102
{ACAD_REACTORS
330
400
102
}
330
400
100
AcDbScale
 70
     0
300
3" = 1'-0"
140
3.0
141
12.0
290
     0
  0
SCALE
  5
420
102
{ACAD_REACTORS
330
400
102
}
330
400
100
AcDbScale
 70
     0
300
6" = 1'-0"
140
6.0
141
12.0
290
     0
  0
SCALE
  5
421
102
{ACAD_REACTORS
330
400
102
}
330
400
100
AcDbScale
 70
     0
300
1'-0" = 1'-0"
140
12.0
141
12.0
290
     0
  0
VISUALSTYLE
  5
42A
102
{ACAD_REACTORS
330
425
102
}
102
{ACAD_XDICTIONARY
360
44D
102
}
330
425
100
AcDbVisualStyle
  2
2dWireframe
 70
     4
 71
     0
 72
     2
 73
     0
 90
        0
 40
-0.6
 41
-30.0
 62
     5
 63
     7
 74
     1
 91
        4
 64
     7
 65
   257
 75
     1
175
     1
 42
1.0
 92
        0
 66
   257
 43
1.0
 76
     1
 77
     6
 78
     2
 67
     7
 79
     5
170
     0
171
     0
290
     0
174
     0
 93
        1
 44
0.0
173
     0
291
     0
 45
0.0
1001
ACAD
1000
AcDbSavedByObjectVersion
1070
     0
  0
VISUALSTYLE
  5
42C
102
{ACAD_REACTORS
330
425
102
}
102
{ACAD_XDICTIONARY
360
451
102
}
330
425
100
AcDbVisualStyle
  2
3D Hidden
 70
     6
 71
     1
 72
     2
 73
     2
 90
        0
 40
-0.6
 41
-30.0
 62
     5
 63
     7
 74
     2
 91
        2
 64
     7
 65
   257
 75
     2
175
     1
 42
40.0
 92
        0
 66
   257
 43
1.0
 76
     1
 77
     6
 78
     2
 67
     7
 79
     3
170
     0
171
     0
290
     0
174
     0
 93
        1
 44
0.0
173
     0
291
     0
 45
0.0
1001
ACAD
1000
AcDbSavedByObjectVersion
1070
     0
  0
VISUALSTYLE
  5
42B
102
{ACAD_REACTORS
330
425
102
}
102
{ACAD_XDICTIONARY
360
44F
102
}
330
425
100
AcDbVisualStyle
  2
3dWireframe
 70
     5
 71
     0
 72
     2
 73
     0
 90
        0
 40
-0.6
 41
-30.0
 62
     5
 63
     7
 74
     1
 91
        4
 64
     7
 65
   257
 75
     1
175
     1
 42
1.0
 92
        0
 66
   257
 43
1.0
 76
     1
 77
     6
 78
     2
 67
     7
 79
     5
170
     0
171
     0
290
     0
174
     0
 93
        1
 44
0.0
173
     0
291
     0
 45
0.0
1001
ACAD
1000
AcDbSavedByObjectVersion
1070
     0
  0
VISUALSTYLE
  5
42D
102
{ACAD_REACTORS
330
425
102
}
102
{ACAD_XDICTIONARY
360
453
102
}
330
425
100
AcDbVisualStyle
  2
Basic
 70
     7
 71
     1
 72
     0
 73
     1
 90
        0
 40
-0.6
 41
-30.0
 62
     5
 63
     7
 74
     0
 91
        4
 64
     7
 65
   257
 75
     1
175
     1
 42
1.0
 92
        8
 66
     7
 43
1.0
 76
     1
 77
     6
 78
     2
 67
     7
 79
     5
170
     0
171
     0
290
     0
174
     0
 93
        1
 44
0.0
173
     0
291
     1
 45
0.0
1001
ACAD
1000
AcDbSavedByObjectVersion
1070
     0
  0
VISUALSTYLE
  5
431
102
{ACAD_REACTORS
330
425
102
}
102
{ACAD_XDICTIONARY
360
45B
102
}
330
425
100
AcDbVisualStyle
  2
Brighten
 70
    12
 71
     2
 72
     2
 73
     0
 90
        0
 40
-0.6
 41
-30.0
 62
     5
 63
     7
 74
     1
 91
        4
 64
     7
 65
   257
 75
     1
175
     1
 42
1.0
 92
        8
 66
     7
 43
1.0
 76
     1
 77
     6
 78
     2
 67
     7
 79
     5
170
     0
171
     0
290
     0
174
     0
 93
        1
 44
50.0
173
     0
291
     1
 45
0.0
1001
ACAD
1000
AcDbSavedByObjectVersion
1070
     0
  0
VISUALSTYLE
  5
435
102
{ACAD_REACTORS
330
425
102
}
102
{ACAD_XDICTIONARY
360
463
102
}
330
425
100
AcDbVisualStyle
  2
ColorChange
 70
    16
 71
     2
 72
     2
 73
     3
 90
        0
 40
-0.6
 41
-30.0
 62
     5
 63
     8
 74
     1
 91
        4
 64
     7
 65
   257
 75
     1
175
     1
 42
1.0
 92
        8
 66
     8
 43
1.0
 76
     1
 77
     6
 78
     2
 67
     7
 79
     5
170
     0
171
     0
290
     0
174
     0
 93
        1
 44
0.0
173
     0
291
     1
 45
0.0
1001
ACAD
1000
AcDbSavedByObjectVersion
1070
     0
  0
VISUALSTYLE
  5
42F
102
{ACAD_REACTORS
330
425
102
}
102
{ACAD_XDICTIONARY
360
457
102
}
330
425
100
AcDbVisualStyle
  2
Conceptual
 70
     9
 71
     3
 72
     2
 73
     0
 90
        0
 40
-0.6
 41
-30.0
 62
     5
 63
     7
 74
     2
 91
        2
 64
     7
 65
   257
 75
     1
175
     1
 42
40.0
 92
        8
 66
     7
 43
1.0
 76
     1
 77
     6
 78
     2
 67
     7
 79
     3
170
     0
171
     0
290
     0
174
     0
 93
        1
 44
0.0
173
     0
291
     0
 45
0.0
1001
ACAD
1000
AcDbSavedByObjectVersion
1070
     0
  0
VISUALSTYLE
  5
430
102
{ACAD_REACTORS
330
425
102
}
102
{ACAD_XDICTIONARY
360
459
102
}
330
425
100
AcDbVisualStyle
  2
Dim
 70
    11
 71
     2
 72
     2
 73
     0
 90
        0
 40
-0.6
 41
-30.0
 62
     5
 63
     7
 74
     1
 91
        4
 64
     7
 65
   257
 75
     1
175
     1
 42
1.0
 92
        8
 66
     7
 43
1.0
 76
     1
 77
     6
 78
     2
 67
     7
 79
     5
170
     0
171
     0
290
     0
174
     0
 93
        1
 44
-50.0
173
     0
291
     1
 45
0.0
1001
ACAD
1000
AcDbSavedByObjectVersion
1070
     0
  0
VISUALSTYLE
  5
434
102
{ACAD_REACTORS
330
425
102
}
102
{ACAD_XDICTIONARY
360
461
102
}
330
425
100
AcDbVisualStyle
  2
Facepattern
 70
    15
 71
     2
 72
     2
 73
     0
 90
        0
 40
-0.6
 41
-30.0
 62
     5
 63
     7
 74
     1
 91
        4
 64
     7
 65
   257
 75
     1
175
     1
 42
1.0
 92
        8
 66
     7
 43
1.0
 76
     1
 77
     6
 78
     2
 67
     7
 79
     5
170
     0
171
     0
290
     0
174
     0
 93
        1
 44
0.0
173
     0
291
     1
 45
0.0
1001
ACAD
1000
AcDbSavedByObjectVersion
1070
     0
  0
VISUALSTYLE
  5
426
102
{ACAD_REACTORS
330
425
102
}
102
{ACAD_XDICTIONARY
360
445
102
}
330
425
100
AcDbVisualStyle
  2
Flat
 70
     0
 71
     2
 72
     1
 73
     1
 90
        2
 40
-0.6
 41
30.0
 62
     5
 63
     7
 74
     0
 91
        4
 64
     7
 65
   257
 75
     1
175
     1
 42
1.0
 92
        8
 66
     7
 43
1.0
 76
     1
 77
     6
 78
     2
 67
     7
 79
     5
170
     0
171
     0
290
     0
174
     0
 93
       13
 44
0.0
173
     0
291
     1
 45
0.0
1001
ACAD
1000
AcDbSavedByObjectVersion
1070
     0
  0
VISUALSTYLE
  5
427
102
{ACAD_REACTORS
330
425
102
}
102
{ACAD_XDICTIONARY
360
447
102
}
330
425
100
AcDbVisualStyle
  2
FlatWithEdges
 70
     1
 71
     2
 72
     1
 73
     1
 90
        2
 40
-0.6
 41
30.0
 62
     5
 63
     7
 74
     1
 91
        4
 64
     7
 65
   257
 75
     1
175
     1
 42
1.0
 92
        0
 66
   257
 43
1.0
 76
     1
 77
     6
 78
     2
 67
     7
 79
     5
170
     0
171
     0
290
     0
174
     0
 93
       13
 44
0.0
173
     0
291
     1
 45
0.0
1001
ACAD
1000
AcDbSavedByObjectVersion
1070
     0
  0
VISUALSTYLE
  5
428
102
{ACAD_REACTORS
330
425
102
}
102
{ACAD_XDICTIONARY
360
449
102
}
330
425
100
AcDbVisualStyle
  2
Gouraud
 70
     2
 71
     2
 72
     2
 73
     1
 90
        2
 40
-0.6
 41
30.0
 62
     5
 63
     7
 74
     0
 91
        4
 64
     7
 65
   257
 75
     1
175
     1
 42
1.0
 92
        0
 66
     7
 43
1.0
 76
     1
 77
     6
 78
     2
 67
     7
 79
     5
170
     0
171
     0
290
     0
174
     0
 93
       13
 44
0.0
173
     0
291
     1
 45
0.0
1001
ACAD
1000
AcDbSavedByObjectVersion
1070
     0
  0
VISUALSTYLE
  5
429
102
{ACAD_REACTORS
330
425
102
}
102
{ACAD_XDICTIONARY
360
44B
102
}
330
425
100
AcDbVisualStyle
  2
GouraudWithEdges
 70
     3
 71
     2
 72
     2
 73
     1
 90
        2
 40
-0.6
 41
30.0
 62
     5
 63
     7
 74
     1
 91
        4
 64
     7
 65
   257
 75
     1
175
     1
 42
1.0
 92
        0
 66
   257
 43
1.0
 76
     1
 77
     6
 78
     2
 67
     7
 79
     5
170
     0
171
     0
290
     0
174
     0
 93
       13
 44
0.0
173
     0
291
     1
 45
0.0
1001
ACAD
1000
AcDbSavedByObjectVersion
1070
     0
  0
VISUALSTYLE
  5
433
102
{ACAD_REACTORS
330
425
102
}
102
{ACAD_XDICTIONARY
360
45F
102
}
330
425
100
AcDbVisualStyle
  2
Linepattern
 70
    14
 71
     2
 72
     2
 73
     0
 90
        0
 40
-0.6
 41
-30.0
 62
     5
 63
     7
 74
     1
 91
        4
 64
     7
 65
   257
 75
     7
175
     7
 42
1.0
 92
        8
 66
     7
 43
1.0
 76
     1
 77
     6
 78
     2
 67
     7
 79
     5
170
     0
171
     0
290
     0
174
     0
 93
        1
 44
0.0
173
     0
291
     1
 45
0.0
1001
ACAD
1000
AcDbSavedByObjectVersion
1070
     0
  0
VISUALSTYLE
  5
42E
102
{ACAD_REACTORS
330
425
102
}
102
{ACAD_XDICTIONARY
360
455
102
}
330
425
100
AcDbVisualStyle
  2
Realistic
 70
     8
 71
     2
 72
     2
 73
     0
 90
        0
 40
-0.6
 41
-30.0
 62
     5
 63
     7
 74
     1
 91
        0
 64
     7
 65
   257
 75
     1
175
     1
 42
1.0
 92
        8
 66
     8
 43
1.0
 76
     1
 77
     6
 78
     2
 67
     7
 79
     5
170
     0
171
     0
290
     0
174
     0
 93
       13
 44
0.0
173
     0
291
     0
 45
0.0
1001
ACAD
1000
AcDbSavedByObjectVersion
1070
     0
  0
VISUALSTYLE
  5
432
102
{ACAD_REACTORS
330
425
102
}
102
{ACAD_XDICTIONARY
360
45D
102
}
330
425
100
AcDbVisualStyle
  2
Thicken
 70
    13
 71
     2
 72
     2
 73
     0
 90
        0
 40
-0.6
 41
-30.0
 62
     5
 63
     7
 74
     1
 91
        4
 64
     7
 65
   257
 75
     1
175
     1
 42
1.0
 92
       12
 66
     7
 43
1.0
 76
     1
 77
     6
 78
     2
 67
     7
 79
     5
170
     0
171
     0
290
     0
174
     0
 93
        1
 44
0.0
173
     0
291
     1
 45
0.0
1001
ACAD
1000
AcDbSavedByObjectVersion
1070
     0
  0
DICTIONARYVAR
  5
444
102
{ACAD_REACTORS
330
43C
102
}
330
43C
100
DictionaryVariables
280
     0
  1
1:1
  0
DICTIONARYVAR
  5
440
102
{ACAD_REACTORS
330
43C
102
}
330
43C
100
DictionaryVariables
280
     0
  1
2
  0
DICTIONARYVAR
  5
441
102
{ACAD_REACTORS
330
43C
102
}
330
43C
100
DictionaryVariables
280
     0
  1
1
  0
DICTIONARYVAR
  5
43F
102
{ACAD_REACTORS
330
43C
102
}
330
43C
100
DictionaryVariables
280
     0
  1
0
  0
DICTIONARY
  5
467
330
438
100
AcDbDictionary
280
     1
281
     1
  3
ACAD_XREC_ROUNDTRIP
360
468
  0
DICTIONARY
  5
465
330
437
100
AcDbDictionary
280
     1
281
     1
  3
ACAD_XREC_ROUNDTRIP
360
466
  0
DICTIONARY
  5
469
330
439
100
AcDbDictionary
280
     1
281
     1
  3
ACAD_XREC_ROUNDTRIP
360
46A
  0
DICTIONARY
  5
44D
330
42A
100
AcDbDictionary
280
     1
281
     1
  3
ACAD_XREC_ROUNDTRIP
360
44E
  0
DICTIONARY
  5
451
330
42C
100
AcDbDictionary
280
     1
281
     1
  3
ACAD_XREC_ROUNDTRIP
360
452
  0
DICTIONARY
  5
44F
330
42B
100
AcDbDictionary
280
     1
281
     1
  3
ACAD_XREC_ROUNDTRIP
360
450
  0
DICTIONARY
  5
453
330
42D
100
AcDbDictionary
280
     1
281
     1
  3
ACAD_XREC_ROUNDTRIP
360
454
  0
DICTIONARY
  5
45B
330
431
100
AcDbDictionary
280
     1
281
     1
  3
ACAD_XREC_ROUNDTRIP
360
45C
  0
DICTIONARY
  5
463
330
435
100
AcDbDictionary
280
     1
281
     1
  3
ACAD_XREC_ROUNDTRIP
360
464
  0
DICTIONARY
  5
457
330
42F
100
AcDbDictionary
280
     1
281
     1
  3
ACAD_XREC_ROUNDTRIP
360
458
  0
DICTIONARY
  5
459
330
430
100
AcDbDictionary
280
     1
281
     1
  3
ACAD_XREC_ROUNDTRIP
360
45A
  0
DICTIONARY
  5
461
330
434
100
AcDbDictionary
280
     1
281
     1
  3
ACAD_XREC_ROUNDTRIP
360
462
  0
DICTIONARY
  5
445
330
426
100
AcDbDictionary
280
     1
281
     1
  3
ACAD_XREC_ROUNDTRIP
360
446
  0
DICTIONARY
  5
447
330
427
100
AcDbDictionary
280
     1
281
     1
  3
ACAD_XREC_ROUNDTRIP
360
448
  0
DICTIONARY
  5
449
330
428
100
AcDbDictionary
280
     1
281
     1
  3
ACAD_XREC_ROUNDTRIP
360
44A
  0
DICTIONARY
  5
44B
330
429
100
AcDbDictionary
280
     1
281
     1
  3
ACAD_XREC_ROUNDTRIP
360
44C
  0
DICTIONARY
  5
45F
330
433
100
AcDbDictionary
280
     1
281
     1
  3
ACAD_XREC_ROUNDTRIP
360
460
  0
DICTIONARY
  5
455
330
42E
100
AcDbDictionary
280
     1
281
     1
  3
ACAD_XREC_ROUNDTRIP
360
456
  0
DICTIONARY
  5
45D
330
432
100
AcDbDictionary
280
     1
281
     1
  3
ACAD_XREC_ROUNDTRIP
360
45E
  0
XRECORD
  5
468
102
{ACAD_REACTORS
330
467
102
}
330
467
100
AcDbXrecord
280
     1
102
MATERIAL
148
0.0
149
0.0
149
0.0
 93
        0
 94
      127
282
     0
 72
     1
 77
     1
171
     1
175
     1
179
     1
273
     0
  0
XRECORD
  5
466
102
{ACAD_REACTORS
330
465
102
}
330
465
100
AcDbXrecord
280
     1
102
MATERIAL
148
0.0
149
0.0
149
0.0
 93
        0
 94
      127
282
     0
 72
     1
 77
     1
171
     1
175
     1
179
     1
273
     0
  0
XRECORD
  5
46A
102
{ACAD_REACTORS
330
469
102
}
330
469
100
AcDbXrecord
280
     1
102
MATERIAL
148
0.0
149
0.0
149
0.0
 93
        0
 94
      127
282
     0
 72
     1
 77
     1
171
     1
175
     1
179
     1
273
     0
  0
XRECORD
  5
44E
102
{ACAD_REACTORS
330
44D
102
}
330
44D
100
AcDbXrecord
280
     1
102
RTVSPropertyOp0
 70
     1
102
RTVSPropertyOp1
 70
     1
102
RTVSPropertyOp2
 70
     1
102
RTVSPropertyOp3
 70
     1
102
RTVSPropertyOp4
 70
     1
102
RTVSPropertyOp5
 70
     1
102
RTVSPropertyOp6
 70
     1
102
RTVSPropertyOp7
 70
     1
102
RTVSPropertyOp8
 70
     1
102
RTVSPropertyOp9
 70
     1
102
RTVSPropertyOp10
 70
     1
102
RTVSPropertyOp11
 70
     1
102
RTVSPropertyOp12
 70
     1
102
RTVSPropertyOp13
 70
     1
102
RTVSPropertyOp14
 70
     1
102
RTVSPropertyOp15
 70
     1
102
RTVSPropertyOp16
 70
     1
102
RTVSPropertyOp17
 70
     1
102
RTVSPropertyOp18
 70
     1
102
RTVSPropertyOp19
 70
     1
102
RTVSPropertyOp20
 70
     1
102
RTVSPropertyOp21
 70
     1
102
RTVSPropertyOp22
 70
     1
102
RTVSPropertyOp23
 70
     1
102
RTVSPropertyOp24
 70
     1
102
RTVSPropertyOp25
 70
     1
102
RTVSPropertyOp26
 70
     1
102
RTVSPropertyOp27
 70
     1
102
RTVSPropertyOp28
 70
     1
102
RTVSPropertyOp29
 70
     1
102
RTVSPropertyOp30
 70
     1
102
RTVSPropertyOp31
 70
     1
102
RTVSPropertyOp32
 70
     1
  0
XRECORD
  5
452
102
{ACAD_REACTORS
330
451
102
}
330
451
100
AcDbXrecord
280
     1
102
RTVSPropertyOp0
 70
     1
102
RTVSPropertyOp1
 70
     1
102
RTVSPropertyOp2
 70
     1
102
RTVSPropertyOp3
 70
     1
102
RTVSPropertyOp4
 70
     1
102
RTVSPropertyOp5
 70
     1
102
RTVSPropertyOp6
 70
     1
102
RTVSPropertyOp7
 70
     1
102
RTVSPropertyOp8
 70
     1
102
RTVSPropertyOp9
 70
     1
102
RTVSPropertyOp10
 70
     1
102
RTVSPropertyOp11
 70
     1
102
RTVSPropertyOp12
 70
     1
102
RTVSPropertyOp13
 70
     1
102
RTVSPropertyOp14
 70
     1
102
RTVSPropertyOp15
 70
     1
102
RTVSPropertyOp16
 70
     1
102
RTVSPropertyOp17
 70
     1
102
RTVSPropertyOp18
 70
     1
102
RTVSPropertyOp19
 70
     1
102
RTVSPropertyOp20
 70
     1
102
RTVSPropertyOp21
 70
     1
102
RTVSPropertyOp22
 70
     1
102
RTVSPropertyOp23
 70
     1
102
RTVSPropertyOp24
 70
     1
102
RTVSPropertyOp25
 70
     1
102
RTVSPropertyOp26
 70
     1
102
RTVSPropertyOp27
 70
     1
102
RTVSPropertyOp28
 70
     1
102
RTVSPropertyOp29
 70
     1
102
RTVSPropertyOp30
 70
     1
102
RTVSPropertyOp31
 70
     1
102
RTVSPropertyOp32
 70
     1
  0
XRECORD
  5
450
102
{ACAD_REACTORS
330
44F
102
}
330
44F
100
AcDbXrecord
280
     1
102
RTVSPropertyOp0
 70
     1
102
RTVSPropertyOp1
 70
     1
102
RTVSPropertyOp2
 70
     1
102
RTVSPropertyOp3
 70
     1
102
RTVSPropertyOp4
 70
     1
102
RTVSPropertyOp5
 70
     1
102
RTVSPropertyOp6
 70
     1
102
RTVSPropertyOp7
 70
     1
102
RTVSPropertyOp8
 70
     1
102
RTVSPropertyOp9
 70
     1
102
RTVSPropertyOp10
 70
     1
102
RTVSPropertyOp11
 70
     1
102
RTVSPropertyOp12
 70
     1
102
RTVSPropertyOp13
 70
     1
102
RTVSPropertyOp14
 70
     1
102
RTVSPropertyOp15
 70
     1
102
RTVSPropertyOp16
 70
     1
102
RTVSPropertyOp17
 70
     1
102
RTVSPropertyOp18
 70
     1
102
RTVSPropertyOp19
 70
     1
102
RTVSPropertyOp20
 70
     1
102
RTVSPropertyOp21
 70
     1
102
RTVSPropertyOp22
 70
     1
102
RTVSPropertyOp23
 70
     1
102
RTVSPropertyOp24
 70
     1
102
RTVSPropertyOp25
 70
     1
102
RTVSPropertyOp26
 70
     1
102
RTVSPropertyOp27
 70
     1
102
RTVSPropertyOp28
 70
     1
102
RTVSPropertyOp29
 70
     1
102
RTVSPropertyOp30
 70
     1
102
RTVSPropertyOp31
 70
     1
102
RTVSPropertyOp32
 70
     1
  0
XRECORD
  5
454
102
{ACAD_REACTORS
330
453
102
}
330
453
100
AcDbXrecord
280
     1
102
RTVSPropertyOp0
 70
     1
102
RTVSPropertyOp1
 70
     1
102
RTVSPropertyOp2
 70
     1
102
RTVSPropertyOp3
 70
     1
102
RTVSPropertyOp4
 70
     1
102
RTVSPropertyOp5
 70
     1
102
RTVSPropertyOp6
 70
     1
102
RTVSPropertyOp7
 70
     1
102
RTVSPropertyOp8
 70
     1
102
RTVSPropertyOp9
 70
     1
102
RTVSPropertyOp10
 70
     1
102
RTVSPropertyOp11
 70
     1
102
RTVSPropertyOp12
 70
     1
102
RTVSPropertyOp13
 70
     1
102
RTVSPropertyOp14
 70
     1
102
RTVSPropertyOp15
 70
     1
102
RTVSPropertyOp16
 70
     1
102
RTVSPropertyOp17
 70
     1
102
RTVSPropertyOp18
 70
     1
102
RTVSPropertyOp19
 70
     1
102
RTVSPropertyOp20
 70
     1
102
RTVSPropertyOp21
 70
     1
102
RTVSPropertyOp22
 70
     1
102
RTVSPropertyOp23
 70
     1
102
RTVSPropertyOp24
 70
     1
102
RTVSPropertyOp25
 70
     1
102
RTVSPropertyOp26
 70
     1
102
RTVSPropertyOp27
 70
     1
102
RTVSPropertyOp28
 70
     1
102
RTVSPropertyOp29
 70
     1
102
RTVSPropertyOp30
 70
     1
102
RTVSPropertyOp31
 70
     1
102
RTVSPropertyOp32
 70
     1
  0
XRECORD
  5
45C
102
{ACAD_REACTORS
330
45B
102
}
330
45B
100
AcDbXrecord
280
     1
102
RTVSPropertyOp0
 70
     1
102
RTVSPropertyOp1
 70
     1
102
RTVSPropertyOp2
 70
     1
102
RTVSPropertyOp3
 70
     1
102
RTVSPropertyOp4
 70
     1
102
RTVSPropertyOp5
 70
     1
102
RTVSPropertyOp6
 70
     1
102
RTVSPropertyOp7
 70
     1
102
RTVSPropertyOp8
 70
     1
102
RTVSPropertyOp9
 70
     1
102
RTVSPropertyOp10
 70
     1
102
RTVSPropertyOp11
 70
     1
102
RTVSPropertyOp12
 70
     1
102
RTVSPropertyOp13
 70
     1
102
RTVSPropertyOp14
 70
     1
102
RTVSPropertyOp15
 70
     1
102
RTVSPropertyOp16
 70
     1
102
RTVSPropertyOp17
 70
     1
102
RTVSPropertyOp18
 70
     1
102
RTVSPropertyOp19
 70
     1
102
RTVSPropertyOp20
 70
     1
102
RTVSPropertyOp21
 70
     1
102
RTVSPropertyOp22
 70
     1
102
RTVSPropertyOp23
 70
     1
102
RTVSPropertyOp24
 70
     1
102
RTVSPropertyOp25
 70
     1
102
RTVSPropertyOp26
 70
     1
102
RTVSPropertyOp27
 70
     1
102
RTVSPropertyOp28
 70
     1
102
RTVSPropertyOp29
 70
     1
102
RTVSPropertyOp30
 70
     1
102
RTVSPropertyOp31
 70
     1
102
RTVSPropertyOp32
 70
     1
  0
XRECORD
  5
464
102
{ACAD_REACTORS
330
463
102
}
330
463
100
AcDbXrecord
280
     1
102
RTVSPropertyOp0
 70
     1
102
RTVSPropertyOp1
 70
     1
102
RTVSPropertyOp2
 70
     1
102
RTVSPropertyOp3
 70
     1
102
RTVSPropertyOp4
 70
     1
102
RTVSPropertyOp5
 70
     1
102
RTVSPropertyOp6
 70
     1
102
RTVSPropertyOp7
 70
     1
102
RTVSPropertyOp8
 70
     1
102
RTVSPropertyOp9
 70
     1
102
RTVSPropertyOp10
 70
     1
102
RTVSPropertyOp11
 70
     1
102
RTVSPropertyOp12
 70
     1
102
RTVSPropertyOp13
 70
     1
102
RTVSPropertyOp14
 70
     1
102
RTVSPropertyOp15
 70
     1
102
RTVSPropertyOp16
 70
     1
102
RTVSPropertyOp17
 70
     1
102
RTVSPropertyOp18
 70
     1
102
RTVSPropertyOp19
 70
     1
102
RTVSPropertyOp20
 70
     1
102
RTVSPropertyOp21
 70
     1
102
RTVSPropertyOp22
 70
     1
102
RTVSPropertyOp23
 70
     1
102
RTVSPropertyOp24
 70
     1
102
RTVSPropertyOp25
 70
     1
102
RTVSPropertyOp26
 70
     1
102
RTVSPropertyOp27
 70
     1
102
RTVSPropertyOp28
 70
     1
102
RTVSPropertyOp29
 70
     1
102
RTVSPropertyOp30
 70
     1
102
RTVSPropertyOp31
 70
     1
102
RTVSPropertyOp32
 70
     1
  0
XRECORD
  5
458
102
{ACAD_REACTORS
330
457
102
}
330
457
100
AcDbXrecord
280
     1
102
RTVSPropertyOp0
 70
     1
102
RTVSPropertyOp1
 70
     1
102
RTVSPropertyOp2
 70
     1
102
RTVSPropertyOp3
 70
     1
102
RTVSPropertyOp4
 70
     1
102
RTVSPropertyOp5
 70
     1
102
RTVSPropertyOp6
 70
     1
102
RTVSPropertyOp7
 70
     1
102
RTVSPropertyOp8
 70
     1
102
RTVSPropertyOp9
 70
     1
102
RTVSPropertyOp10
 70
     1
102
RTVSPropertyOp11
 70
     1
102
RTVSPropertyOp12
 70
     1
102
RTVSPropertyOp13
 70
     1
102
RTVSPropertyOp14
 70
     1
102
RTVSPropertyOp15
 70
     1
102
RTVSPropertyOp16
 70
     1
102
RTVSPropertyOp17
 70
     1
102
RTVSPropertyOp18
 70
     1
102
RTVSPropertyOp19
 70
     1
102
RTVSPropertyOp20
 70
     1
102
RTVSPropertyOp21
 70
     1
102
RTVSPropertyOp22
 70
     1
102
RTVSPropertyOp23
 70
     1
102
RTVSPropertyOp24
 70
     1
102
RTVSPropertyOp25
 70
     1
102
RTVSPropertyOp26
 70
     1
102
RTVSPropertyOp27
 70
     1
102
RTVSPropertyOp28
 70
     1
102
RTVSPropertyOp29
 70
     1
102
RTVSPropertyOp30
 70
     1
102
RTVSPropertyOp31
 70
     1
102
RTVSPropertyOp32
 70
     1
  0
XRECORD
  5
45A
102
{ACAD_REACTORS
330
459
102
}
330
459
100
AcDbXrecord
280
     1
102
RTVSPropertyOp0
 70
     1
102
RTVSPropertyOp1
 70
     1
102
RTVSPropertyOp2
 70
     1
102
RTVSPropertyOp3
 70
     1
102
RTVSPropertyOp4
 70
     1
102
RTVSPropertyOp5
 70
     1
102
RTVSPropertyOp6
 70
     1
102
RTVSPropertyOp7
 70
     1
102
RTVSPropertyOp8
 70
     1
102
RTVSPropertyOp9
 70
     1
102
RTVSPropertyOp10
 70
     1
102
RTVSPropertyOp11
 70
     1
102
RTVSPropertyOp12
 70
     1
102
RTVSPropertyOp13
 70
     1
102
RTVSPropertyOp14
 70
     1
102
RTVSPropertyOp15
 70
     1
102
RTVSPropertyOp16
 70
     1
102
RTVSPropertyOp17
 70
     1
102
RTVSPropertyOp18
 70
     1
102
RTVSPropertyOp19
 70
     1
102
RTVSPropertyOp20
 70
     1
102
RTVSPropertyOp21
 70
     1
102
RTVSPropertyOp22
 70
     1
102
RTVSPropertyOp23
 70
     1
102
RTVSPropertyOp24
 70
     1
102
RTVSPropertyOp25
 70
     1
102
RTVSPropertyOp26
 70
     1
102
RTVSPropertyOp27
 70
     1
102
RTVSPropertyOp28
 70
     1
102
RTVSPropertyOp29
 70
     1
102
RTVSPropertyOp30
 70
     1
102
RTVSPropertyOp31
 70
     1
102
RTVSPropertyOp32
 70
     1
  0
XRECORD
  5
462
102
{ACAD_REACTORS
330
461
102
}
330
461
100
AcDbXrecord
280
     1
102
RTVSPropertyOp0
 70
     1
102
RTVSPropertyOp1
 70
     1
102
RTVSPropertyOp2
 70
     1
102
RTVSPropertyOp3
 70
     1
102
RTVSPropertyOp4
 70
     1
102
RTVSPropertyOp5
 70
     1
102
RTVSPropertyOp6
 70
     1
102
RTVSPropertyOp7
 70
     1
102
RTVSPropertyOp8
 70
     1
102
RTVSPropertyOp9
 70
     1
102
RTVSPropertyOp10
 70
     1
102
RTVSPropertyOp11
 70
     1
102
RTVSPropertyOp12
 70
     1
102
RTVSPropertyOp13
 70
     1
102
RTVSPropertyOp14
 70
     1
102
RTVSPropertyOp15
 70
     1
102
RTVSPropertyOp16
 70
     1
102
RTVSPropertyOp17
 70
     1
102
RTVSPropertyOp18
 70
     1
102
RTVSPropertyOp19
 70
     1
102
RTVSPropertyOp20
 70
     1
102
RTVSPropertyOp21
 70
     1
102
RTVSPropertyOp22
 70
     1
102
RTVSPropertyOp23
 70
     1
102
RTVSPropertyOp24
 70
     1
102
RTVSPropertyOp25
 70
     1
102
RTVSPropertyOp26
 70
     1
102
RTVSPropertyOp27
 70
     1
102
RTVSPropertyOp28
 70
     1
102
RTVSPropertyOp29
 70
     1
102
RTVSPropertyOp30
 70
     1
102
RTVSPropertyOp31
 70
     1
102
RTVSPropertyOp32
 70
     1
  0
XRECORD
  5
446
102
{ACAD_REACTORS
330
445
102
}
330
445
100
AcDbXrecord
280
     1
102
RTVSPropertyOp0
 70
     1
102
RTVSPropertyOp1
 70
     1
102
RTVSPropertyOp2
 70
     1
102
RTVSPropertyOp3
 70
     1
102
RTVSPropertyOp4
 70
     1
102
RTVSPropertyOp5
 70
     1
102
RTVSPropertyOp6
 70
     1
102
RTVSPropertyOp7
 70
     1
102
RTVSPropertyOp8
 70
     1
102
RTVSPropertyOp9
 70
     1
102
RTVSPropertyOp10
 70
     1
102
RTVSPropertyOp11
 70
     1
102
RTVSPropertyOp12
 70
     1
102
RTVSPropertyOp13
 70
     1
102
RTVSPropertyOp14
 70
     1
102
RTVSPropertyOp15
 70
     1
102
RTVSPropertyOp16
 70
     1
102
RTVSPropertyOp17
 70
     1
102
RTVSPropertyOp18
 70
     1
102
RTVSPropertyOp19
 70
     1
102
RTVSPropertyOp20
 70
     1
102
RTVSPropertyOp21
 70
     1
102
RTVSPropertyOp22
 70
     1
102
RTVSPropertyOp23
 70
     1
102
RTVSPropertyOp24
 70
     1
102
RTVSPropertyOp25
 70
     1
102
RTVSPropertyOp26
 70
     1
102
RTVSPropertyOp27
 70
     1
102
RTVSPropertyOp28
 70
     1
102
RTVSPropertyOp29
 70
     1
102
RTVSPropertyOp30
 70
     1
102
RTVSPropertyOp31
 70
     1
102
RTVSPropertyOp32
 70
     1
  0
XRECORD
  5
448
102
{ACAD_REACTORS
330
447
102
}
330
447
100
AcDbXrecord
280
     1
102
RTVSPropertyOp0
 70
     1
102
RTVSPropertyOp1
 70
     1
102
RTVSPropertyOp2
 70
     1
102
RTVSPropertyOp3
 70
     1
102
RTVSPropertyOp4
 70
     1
102
RTVSPropertyOp5
 70
     1
102
RTVSPropertyOp6
 70
     1
102
RTVSPropertyOp7
 70
     1
102
RTVSPropertyOp8
 70
     1
102
RTVSPropertyOp9
 70
     1
102
RTVSPropertyOp10
 70
     1
102
RTVSPropertyOp11
 70
     1
102
RTVSPropertyOp12
 70
     1
102
RTVSPropertyOp13
 70
     1
102
RTVSPropertyOp14
 70
     1
102
RTVSPropertyOp15
 70
     1
102
RTVSPropertyOp16
 70
     1
102
RTVSPropertyOp17
 70
     1
102
RTVSPropertyOp18
 70
     1
102
RTVSPropertyOp19
 70
     1
102
RTVSPropertyOp20
 70
     1
102
RTVSPropertyOp21
 70
     1
102
RTVSPropertyOp22
 70
     1
102
RTVSPropertyOp23
 70
     1
102
RTVSPropertyOp24
 70
     1
102
RTVSPropertyOp25
 70
     1
102
RTVSPropertyOp26
 70
     1
102
RTVSPropertyOp27
 70
     1
102
RTVSPropertyOp28
 70
     1
102
RTVSPropertyOp29
 70
     1
102
RTVSPropertyOp30
 70
     1
102
RTVSPropertyOp31
 70
     1
102
RTVSPropertyOp32
 70
     1
  0
XRECORD
  5
44A
102
{ACAD_REACTORS
330
449
102
}
330
449
100
AcDbXrecord
280
     1
102
RTVSPropertyOp0
 70
     1
102
RTVSPropertyOp1
 70
     1
102
RTVSPropertyOp2
 70
     1
102
RTVSPropertyOp3
 70
     1
102
RTVSPropertyOp4
 70
     1
102
RTVSPropertyOp5
 70
     1
102
RTVSPropertyOp6
 70
     1
102
RTVSPropertyOp7
 70
     1
102
RTVSPropertyOp8
 70
     1
102
RTVSPropertyOp9
 70
     1
102
RTVSPropertyOp10
 70
     1
102
RTVSPropertyOp11
 70
     1
102
RTVSPropertyOp12
 70
     1
102
RTVSPropertyOp13
 70
     1
102
RTVSPropertyOp14
 70
     1
102
RTVSPropertyOp15
 70
     1
102
RTVSPropertyOp16
 70
     1
102
RTVSPropertyOp17
 70
     1
102
RTVSPropertyOp18
 70
     1
102
RTVSPropertyOp19
 70
     1
102
RTVSPropertyOp20
 70
     1
102
RTVSPropertyOp21
 70
     1
102
RTVSPropertyOp22
 70
     1
102
RTVSPropertyOp23
 70
     1
102
RTVSPropertyOp24
 70
     1
102
RTVSPropertyOp25
 70
     1
102
RTVSPropertyOp26
 70
     1
102
RTVSPropertyOp27
 70
     1
102
RTVSPropertyOp28
 70
     1
102
RTVSPropertyOp29
 70
     1
102
RTVSPropertyOp30
 70
     1
102
RTVSPropertyOp31
 70
     1
102
RTVSPropertyOp32
 70
     1
  0
XRECORD
  5
44C
102
{ACAD_REACTORS
330
44B
102
}
330
44B
100
AcDbXrecord
280
     1
102
RTVSPropertyOp0
 70
     1
102
RTVSPropertyOp1
 70
     1
102
RTVSPropertyOp2
 70
     1
102
RTVSPropertyOp3
 70
     1
102
RTVSPropertyOp4
 70
     1
102
RTVSPropertyOp5
 70
     1
102
RTVSPropertyOp6
 70
     1
102
RTVSPropertyOp7
 70
     1
102
RTVSPropertyOp8
 70
     1
102
RTVSPropertyOp9
 70
     1
102
RTVSPropertyOp10
 70
     1
102
RTVSPropertyOp11
 70
     1
102
RTVSPropertyOp12
 70
     1
102
RTVSPropertyOp13
 70
     1
102
RTVSPropertyOp14
 70
     1
102
RTVSPropertyOp15
 70
     1
102
RTVSPropertyOp16
 70
     1
102
RTVSPropertyOp17
 70
     1
102
RTVSPropertyOp18
 70
     1
102
RTVSPropertyOp19
 70
     1
102
RTVSPropertyOp20
 70
     1
102
RTVSPropertyOp21
 70
     1
102
RTVSPropertyOp22
 70
     1
102
RTVSPropertyOp23
 70
     1
102
RTVSPropertyOp24
 70
     1
102
RTVSPropertyOp25
 70
     1
102
RTVSPropertyOp26
 70
     1
102
RTVSPropertyOp27
 70
     1
102
RTVSPropertyOp28
 70
     1
102
RTVSPropertyOp29
 70
     1
102
RTVSPropertyOp30
 70
     1
102
RTVSPropertyOp31
 70
     1
102
RTVSPropertyOp32
 70
     1
  0
XRECORD
  5
460
102
{ACAD_REACTORS
330
45F
102
}
330
45F
100
AcDbXrecord
280
     1
102
RTVSPropertyOp0
 70
     1
102
RTVSPropertyOp1
 70
     1
102
RTVSPropertyOp2
 70
     1
102
RTVSPropertyOp3
 70
     1
102
RTVSPropertyOp4
 70
     1
102
RTVSPropertyOp5
 70
     1
102
RTVSPropertyOp6
 70
     1
102
RTVSPropertyOp7
 70
     1
102
RTVSPropertyOp8
 70
     1
102
RTVSPropertyOp9
 70
     1
102
RTVSPropertyOp10
 70
     1
102
RTVSPropertyOp11
 70
     1
102
RTVSPropertyOp12
 70
     1
102
RTVSPropertyOp13
 70
     1
102
RTVSPropertyOp14
 70
     1
102
RTVSPropertyOp15
 70
     1
102
RTVSPropertyOp16
 70
     1
102
RTVSPropertyOp17
 70
     1
102
RTVSPropertyOp18
 70
     1
102
RTVSPropertyOp19
 70
     1
102
RTVSPropertyOp20
 70
     1
102
RTVSPropertyOp21
 70
     1
102
RTVSPropertyOp22
 70
     1
102
RTVSPropertyOp23
 70
     1
102
RTVSPropertyOp24
 70
     1
102
RTVSPropertyOp25
 70
     1
102
RTVSPropertyOp26
 70
     1
102
RTVSPropertyOp27
 70
     1
102
RTVSPropertyOp28
 70
     1
102
RTVSPropertyOp29
 70
     1
102
RTVSPropertyOp30
 70
     1
102
RTVSPropertyOp31
 70
     1
102
RTVSPropertyOp32
 70
     1
  0
XRECORD
  5
456
102
{ACAD_REACTORS
330
455
102
}
330
455
100
AcDbXrecord
280
     1
102
RTVSPropertyOp0
 70
     1
102
RTVSPropertyOp1
 70
     1
102
RTVSPropertyOp2
 70
     1
102
RTVSPropertyOp3
 70
     1
102
RTVSPropertyOp4
 70
     1
102
RTVSPropertyOp5
 70
     1
102
RTVSPropertyOp6
 70
     1
102
RTVSPropertyOp7
 70
     1
102
RTVSPropertyOp8
 70
     1
102
RTVSPropertyOp9
 70
     1
102
RTVSPropertyOp10
 70
     1
102
RTVSPropertyOp11
 70
     1
102
RTVSPropertyOp12
 70
     1
102
RTVSPropertyOp13
 70
     1
102
RTVSPropertyOp14
 70
     1
102
RTVSPropertyOp15
 70
     1
102
RTVSPropertyOp16
 70
     1
102
RTVSPropertyOp17
 70
     1
102
RTVSPropertyOp18
 70
     1
102
RTVSPropertyOp19
 70
     1
102
RTVSPropertyOp20
 70
     1
102
RTVSPropertyOp21
 70
     1
102
RTVSPropertyOp22
 70
     1
102
RTVSPropertyOp23
 70
     1
102
RTVSPropertyOp24
 70
     1
102
RTVSPropertyOp25
 70
     1
102
RTVSPropertyOp26
 70
     1
102
RTVSPropertyOp27
 70
     1
102
RTVSPropertyOp28
 70
     1
102
RTVSPropertyOp29
 70
     1
102
RTVSPropertyOp30
 70
     1
102
RTVSPropertyOp31
 70
     1
102
RTVSPropertyOp32
 70
     1
  0
XRECORD
  5
45E
102
{ACAD_REACTORS
330
45D
102
}
330
45D
100
AcDbXrecord
280
     1
102
RTVSPropertyOp0
 70
     1
102
RTVSPropertyOp1
 70
     1
102
RTVSPropertyOp2
 70
     1
102
RTVSPropertyOp3
 70
     1
102
RTVSPropertyOp4
 70
     1
102
RTVSPropertyOp5
 70
     1
102
RTVSPropertyOp6
 70
     1
102
RTVSPropertyOp7
 70
     1
102
RTVSPropertyOp8
 70
     1
102
RTVSPropertyOp9
 70
     1
102
RTVSPropertyOp10
 70
     1
102
RTVSPropertyOp11
 70
     1
102
RTVSPropertyOp12
 70
     1
102
RTVSPropertyOp13
 70
     1
102
RTVSPropertyOp14
 70
     1
102
RTVSPropertyOp15
 70
     1
102
RTVSPropertyOp16
 70
     1
102
RTVSPropertyOp17
 70
     1
102
RTVSPropertyOp18
 70
     1
102
RTVSPropertyOp19
 70
     1
102
RTVSPropertyOp20
 70
     1
102
RTVSPropertyOp21
 70
     1
102
RTVSPropertyOp22
 70
     1
102
RTVSPropertyOp23
 70
     1
102
RTVSPropertyOp24
 70
     1
102
RTVSPropertyOp25
 70
     1
102
RTVSPropertyOp26
 70
     1
102
RTVSPropertyOp27
 70
     1
102
RTVSPropertyOp28
 70
     1
102
RTVSPropertyOp29
 70
     1
102
RTVSPropertyOp30
 70
     1
102
RTVSPropertyOp31
 70
     1
102
RTVSPropertyOp32
 70
     1
  0
ENDSEC
  0
EOF
