  0
SECTION
  2
HEADER
  9
$ACADVER
  1
AC1015
  9
$ACADMAINTVER
 70
     6
  9
$DWGCODEPAGE
  3
ANSI_1252
  9
$INSBASE
 10
0.0
 20
0.0
 30
0.0
  9
$EXTMIN
 10
0.0
 20
0.0
 30
0.0
  9
$EXTMAX
 10
210.0
 20
297.0
 30
0.0
  9
$LIMMIN
 10
0.0
 20
0.0
  9
$LIMMAX
 10
0.0
 20
0.0
  9
$ORTHOMODE
 70
     0
  9
$REGENMODE
 70
     1
  9
$FILLMODE
 70
     1
  9
$QTEXTMODE
 70
     0
  9
$MIRRTEXT
 70
     1
  9
$LTSCALE
 40
1.0
  9
$ATTMODE
 70
     1
  9
$TEXTSIZE
 40
0.0
  9
$TRACEWID
 40
0.05
  9
$TEXTSTYLE
  7
STANDARD
  9
$CLAYER
  8
0
  9
$CELTYPE
  6
CONTINUOUS
  9
$CECOLOR
 62
   256
  9
$CELTSCALE
 40
1.0
  9
$DISPSILH
 70
     0
  9
$DIMSCALE
 40
1.0
  9
$DIMASZ
 40
0.0
  9
$DIMEXO
 40
0.0
  9
$DIMDLI
 40
0.38
  9
$DIMRND
 40
0.0
  9
$DIMDLE
 40
0.0
  9
$DIMEXE
 40
0.18
  9
$DIMTP
 40
0.0
  9
$DIMTM
 40
0.0
  9
$DIMTXT
 40
3.5
  9
$DIMCEN
 40
0.09
  9
$DIMTSZ
 40
0.0
  9
$DIMTOL
 70
     0
  9
$DIMLIM
 70
     0
  9
$DIMTIH
 70
     1
  9
$DIMTOH
 70
     1
  9
$DIMSE1
 70
     0
  9
$DIMSE2
 70
     0
  9
$DIMTAD
 70
     1
  9
$DIMZIN
 70
     0
  9
$DIMBLK
  1

  9
$DIMASO
 70
     1
  9
$DIMSHO
 70
     1
  9
$DIMPOST
  1

  9
$DIMAPOST
  1

  9
$DIMALT
 70
     0
  9
$DIMALTD
 70
     2
  9
$DIMALTF
 40
0.0394
  9
$DIMLFAC
 40
1.0
  9
$DIMTOFL
 70
     0
  9
$DIMTVP
 40
0.0
  9
$DIMTIX
 70
     0
  9
$DIMSOXD
 70
     0
  9
$DIMSAH
 70
     0
  9
$DIMBLK1
  1

  9
$DIMBLK2
  1

  9
$DIMSTYLE
  2
STANDARD
  9
$DIMCLRD
 70
     0
  9
$DIMCLRE
 70
     0
  9
$DIMCLRT
 70
     0
  9
$DIMTFAC
 40
1.0
  9
$DIMGAP
 40
0.0
  9
$DIMJUST
 70
     0
  9
$DIMSD1
 70
     0
  9
$DIMSD2
 70
     0
  9
$DIMTOLJ
 70
     1
  9
$DIMTZIN
 70
     0
  9
$DIMALTZ
 70
     0
  9
$DIMALTTZ
 70
     0
  9
$DIMUPT
 70
     0
  9
$DIMDEC
 70
     4
  9
$DIMTDEC
 70
     4
  9
$DIMALTU
 70
     2
  9
$DIMALTTD
 70
     2
  9
$DIMTXSTY
  7
STANDARD
  9
$DIMAUNIT
 70
     0
  9
$DIMADEC
 70
     0
  9
$DIMALTRND
 40
0.0
  9
$DIMAZIN
 70
     0
  9
$DIMDSEP
 70
    46
  9
$DIMATFIT
 70
     3
  9
$DIMFRAC
 70
     0
  9
$DIMLDRBLK
  1

  9
$DIMLUNIT
 70
     2
  9
$DIMLWD
 70
    -2
  9
$DIMLWE
 70
    -2
  9
$DIMTMOVE
 70
     2
  9
$LUNITS
 70
     2
  9
$LUPREC
 70
     2
  9
$SKETCHINC
 40
0.1
  9
$FILLETRAD
 40
0.0
  9
$AUNITS
 70
     0
  9
$AUPREC
 70
     2
  9
$MENU
  1
acad
  9
$ELEVATION
 40
0.0
  9
$PELEVATION
 40
0.0
  9
$THICKNESS
 40
0.0
  9
$LIMCHECK
 70
     0
  9
$CHAMFERA
 40
0.0
  9
$CHAMFERB
 40
0.0
  9
$CHAMFERC
 40
0.0
  9
$CHAMFERD
 40
0.0
  9
$SKPOLY
 70
     0
  9
$TDCREATE
 40
2447893.0
  9
$TDUCREATE
 40
2447892.916666667
  9
$TDUPDATE
 40
2458327.548771389
  9
$TDUUPDATE
 40
2458327.465438055
  9
$TDINDWG
 40
0.0
  9
$TDUSRTIMER
 40
0.0
  9
$USRTIMER
 70
     1
  9
$ANGBASE
 50
0.0
  9
$ANGDIR
 70
     0
  9
$PDMODE
 70
     0
  9
$PDSIZE
 40
-1.0
  9
$PLINEWID
 40
0.0
  9
$SPLFRAME
 70
     0
  9
$SPLINETYPE
 70
     6
  9
$SPLINESEGS
 70
     8
  9
$HANDSEED
  5
435
  9
$SURFTAB1
 70
     6
  9
$SURFTAB2
 70
     6
  9
$SURFTYPE
 70
     6
  9
$SURFU
 70
     6
  9
$SURFV
 70
     6
  9
$UCSBASE
  2

  9
$UCSNAME
  2

  9
$UCSORG
 10
0.0
 20
0.0
 30
0.0
  9
$UCSXDIR
 10
1.0
 20
0.0
 30
0.0
  9
$UCSYDIR
 10
0.0
 20
1.0
 30
0.0
  9
$UCSORTHOREF
  2

  9
$UCSORTHOVIEW
 70
     0
  9
$UCSORGTOP
 10
0.0
 20
0.0
 30
0.0
  9
$UCSORGBOTTOM
 10
0.0
 20
0.0
 30
0.0
  9
$UCSORGLEFT
 10
0.0
 20
0.0
 30
0.0
  9
$UCSORGRIGHT
 10
0.0
 20
0.0
 30
0.0
  9
$UCSORGFRONT
 10
0.0
 20
0.0
 30
0.0
  9
$UCSORGBACK
 10
0.0
 20
0.0
 30
0.0
  9
$PUCSBASE
  2

  9
$PUCSNAME
  2

  9
$PUCSORG
 10
0.0
 20
0.0
 30
0.0
  9
$PUCSXDIR
 10
1.0
 20
0.0
 30
0.0
  9
$PUCSYDIR
 10
0.0
 20
1.0
 30
0.0
  9
$PUCSORTHOREF
  2

  9
$PUCSORTHOVIEW
 70
     0
  9
$PUCSORGTOP
 10
0.0
 20
0.0
 30
0.0
  9
$PUCSORGBOTTOM
 10
0.0
 20
0.0
 30
0.0
  9
$PUCSORGLEFT
 10
0.0
 20
0.0
 30
0.0
  9
$PUCSORGRIGHT
 10
0.0
 20
0.0
 30
0.0
  9
$PUCSORGFRONT
 10
0.0
 20
0.0
 30
0.0
  9
$PUCSORGBACK
 10
0.0
 20
0.0
 30
0.0
  9
$USERI1
 70
     0
  9
$USERI2
 70
     0
  9
$USERI3
 70
     0
  9
$USERI4
 70
     0
  9
$USERI5
 70
     0
  9
$USERR1
 40
0.0
  9
$USERR2
 40
0.0
  9
$USERR3
 40
0.0
  9
$USERR4
 40
0.0
  9
$USERR5
 40
0.0
  9
$WORLDVIEW
 70
     1
  9
$SHADEDGE
 70
     3
  9
$SHADEDIF
 70
    70
  9
$TILEMODE
 70
     1
  9
$MAXACTVP
 70
    16
  9
$PINSBASE
 10
0.0
 20
0.0
 30
0.0
  9
$PLIMCHECK
 70
     0
  9
$PEXTMIN
 10
1.000000000000000E+20
 20
1.000000000000000E+20
 30
1.000000000000000E+20
  9
$PEXTMAX
 10
-1.000000000000000E+20
 20
-1.000000000000000E+20
 30
-1.000000000000000E+20
  9
$PLIMMIN
 10
0.0
 20
0.0
  9
$PLIMMAX
 10
12.0
 20
9.0
  9
$UNITMODE
 70
     0
  9
$VISRETAIN
 70
     0
  9
$PLINEGEN
 70
     1
  9
$PSLTSCALE
 70
     1
  9
$TREEDEPTH
 70
  3020
  9
$CMLSTYLE
  2
STANDARD
  9
$CMLJUST
 70
     0
  9
$CMLSCALE
 40
1.0
  9
$PROXYGRAPHICS
 70
     1
  9
$MEASUREMENT
 70
     0
  9
$CELWEIGHT
370
    -1
  9
$ENDCAPS
280
     0
  9
$JOINSTYLE
280
     0
  9
$LWDISPLAY
290
     0
  9
$INSUNITS
 70
     0
  9
$HYPERLINKBASE
  1

  9
$STYLESHEET
  1

  9
$XEDIT
290
     1
  9
$CEPSNTYPE
380
     0
  9
$PSTYLEMODE
290
     1
  9
$FINGERPRINTGUID
  2
{B0972DF7-3F42-4FF9-AF50-290CA6A78067}
  9
$VERSIONGUID
  2
{FAEB1C32-E019-11D5-929B-00C0DF256EC4}
  9
$EXTNAMES
290
     1
  9
$PSVPSCALE
 40
0.0
  9
$OLESTARTUP
290
     0
  0
ENDSEC
  0
SECTION
  2
CLASSES
  0
CLASS
  1
LWPOLYLINE
  2
AcDbPolyline
  3
ObjectDBX Classes
 90
        0
280
     0
281
     1
  0
CLASS
  1
IMAGE
  2
AcDbRasterImage
  3
ISM
 90
      127
280
     0
281
     1
  0
CLASS
  1
OLE2FRAME
  2
AcDbOle2Frame
  3
ObjectDBX Classes
 90
        0
280
     0
281
     1
  0
CLASS
  1
HATCH
  2
AcDbHatch
  3
ObjectDBX Classes
 90
        0
280
     0
281
     1
  0
CLASS
  1
DICTIONARYVAR
  2
AcDbDictionaryVar
  3
ObjectDBX Classes
 90
        0
280
     0
281
     0
  0
CLASS
  1
RASTERVARIABLES
  2
AcDbRasterVariables
  3
ISM
 90
        0
280
     0
281
     0
  0
CLASS
  1
IMAGEDEF
  2
AcDbRasterImageDef
  3
ISM
 90
        0
280
     0
281
     0
  0
CLASS
  1
IMAGEDEF_REACTOR
  2
AcDbRasterImageDefReactor
  3
ISM
 90
        1
280
     0
281
     0
  0
CLASS
  1
IDBUFFER
  2
AcDbIdBuffer
  3
ObjectDBX Classes
 90
        0
280
     0
281
     0
  0
CLASS
  1
SPATIAL_FILTER
  2
AcDbSpatialFilter
  3
ObjectDBX Classes
 90
        0
280
     0
281
     0
  0
CLASS
  1
XRECORD
  2
AcDbXrecord
  3
ObjectDBX Classes
 90
        0
280
     0
281
     0
  0
CLASS
  1
SORTENTSTABLE
  2
AcDbSortentsTable
  3
ObjectDBX Classes
 90
        0
280
     0
281
     0
  0
CLASS
  1
LAYER_INDEX
  2
AcDbLayerIndex
  3
ObjectDBX Classes
 90
        0
280
     0
281
     0
  0
CLASS
  1
SPATIAL_INDEX
  2
AcDbSpatialIndex
  3
AutoCAD 2000
 90
        0
280
     0
281
     0
  0
CLASS
  1
OBJECT_PTR
  2
CAseDLPNTableRecord
  3
ASE-LPNTableRecord
 90
        1
280
     0
281
     0
  0
CLASS
  1
LAYOUT
  2
AcDbLayout
  3
ObjectDBX Classes
 90
        0
280
     0
281
     0
  0
CLASS
  1
PLOTSETTINGS
  2
AcDbPlotSettings
  3
ObjectDBX Classes
 90
        0
280
     0
281
     0
  0
CLASS
  1
ACDBDICTIONARYWDFLT
  2
AcDbDictionaryWithDefault
  3
ObjectDBX Classes
 90
        0
280
     0
281
     0
  0
CLASS
  1
ACDBPLACEHOLDER
  2
AcDbPlaceHolder
  3
ObjectDBX Classes
 90
        0
280
     0
281
     0
  0
CLASS
  1
VBA_PROJECT
  2
AcDbVbaProject
  3
ObjectDBX Classes
 90
        0
280
     0
281
     0
  0
CLASS
  1
WIPEOUT
  2
AcDbWipeout
  3
WipeOut|AutoCAD Express Tool|expresstools@autodesk.com
 90
      127
280
     0
281
     1
  0
CLASS
  1
WIPEOUTVARIABLES
  2
AcDbWipeoutVariables
  3
WipeOut|AutoCAD Express Tool|expresstools@autodesk.com
 90
        0
280
     0
281
     0
  0
CLASS
  1
RTEXT
  2
RText
  3
RText|AutoCAD Express Tool|expresstools@autodesk.com
 90
        0
280
     0
281
     1
  0
CLASS
  1
ARCALIGNEDTEXT
  2
AcDbArcAlignedText
  3
ATEXT|AutoCAD Express Tool|expresstools@autodesk.com
 90
        0
280
     0
281
     1
  0
CLASS
  1
SCALE
  2
AcDbScale
  3
ObjectDBX Classes
 90
     1153
280
     0
281
     0
  0
CLASS
  1
VISUALSTYLE
  2
AcDbVisualStyle
  3
ObjectDBX Classes
 90
     4095
280
     0
281
     0
  0
CLASS
  1
MATERIAL
  2
AcDbMaterial
  3
ObjectDBX Classes
 90
     1153
280
     0
281
     0
  0
ENDSEC
  0
SECTION
  2
TABLES
  0
TABLE
  2
VPORT
  5
7
102
{ACAD_XDICTIONARY
360
3FA
102
}
330
0
100
AcDbSymbolTable
 70
     1
  0
VPORT
  5
15
330
7
100
AcDbSymbolTableRecord
100
AcDbViewportTableRecord
  2
*ACTIVE
 70
     0
 10
0.0
 20
0.0
 11
1.0
 21
1.0
 12
105.0
 22
148.5
 13
0.0
 23
0.0
 14
1.0
 24
1.0
 15
0.0
 25
0.0
 16
0.0
 26
0.0
 36
1.0
 17
0.0
 27
0.0
 37
0.0
 40
297.0
 41
1.4142857143
 42
50.0
 43
0.0
 44
0.0
 50
0.0
 51
0.0
 71
     0
 72
  2000
 73
     1
 74
     1
 75
     0
 76
     0
 77
     0
 78
     0
281
     0
 65
     1
110
0.0
120
0.0
130
0.0
111
1.0
121
0.0
131
0.0
112
0.0
122
1.0
132
0.0
 79
     0
146
0.0
  0
ENDTAB
  0
TABLE
  2
LTYPE
  5
4
330
0
100
AcDbSymbolTable
 70
     6
  0
LTYPE
  5
11
330
4
100
AcDbSymbolTableRecord
100
AcDbLinetypeTableRecord
  2
BYBLOCK
 70
     0
  3

 72
    65
 73
     0
 40
0.0
  0
LTYPE
  5
12
330
4
100
AcDbSymbolTableRecord
100
AcDbLinetypeTableRecord
  2
BYLAYER
 70
     0
  3

 72
    65
 73
     0
 40
0.0
  0
LTYPE
  5
13
330
4
100
AcDbSymbolTableRecord
100
AcDbLinetypeTableRecord
  2
CONTINUOUS
 70
     0
  3
Solid line
 72
    65
 73
     0
 40
0.0
  0
LTYPE
  5
1D
330
4
100
AcDbSymbolTableRecord
100
AcDbLinetypeTableRecord
  2
HIDDEN
 70
     0
  3
Hidden __ __ __ __ __ __ __ __ __ __ __ __ __ __
 72
    65
 73
     2
 40
1.905
 49
1.27
 74
     0
 49
-0.635
 74
     0
  0
LTYPE
  5
1E
330
4
100
AcDbSymbolTableRecord
100
AcDbLinetypeTableRecord
  2
PHANTOM
 70
     0
  3
Phantom ______  __  __  ______  __  __  ______
 72
    65
 73
     6
 40
12.7
 49
6.35
 74
     0
 49
-1.27
 74
     0
 49
1.27
 74
     0
 49
-1.27
 74
     0
 49
1.27
 74
     0
 49
-1.27
 74
     0
  0
LTYPE
  5
1F
330
4
100
AcDbSymbolTableRecord
100
AcDbLinetypeTableRecord
  2
CENTER
 70
     0
  3
Center ____ _ ____ _ ____ _ ____ _ ____ _ ____
 72
    65
 73
     4
 40
10.16
 49
6.35
 74
     0
 49
-1.27
 74
     0
 49
1.27
 74
     0
 49
-1.27
 74
     0
  0
LTYPE
  5
20
330
4
100
AcDbSymbolTableRecord
100
AcDbLinetypeTableRecord
  2
CENTERX2
 70
     0
  3
Center (2x) ________  __  ________  __  _____
 72
    65
 73
     4
 40
20.32
 49
12.7
 74
     0
 49
-2.54
 74
     0
 49
2.54
 74
     0
 49
-2.54
 74
     0
  0
LTYPE
  5
21
330
4
100
AcDbSymbolTableRecord
100
AcDbLinetypeTableRecord
  2
DOT2
 70
     0
  3
Dot (.5x) ........................................
 72
    65
 73
     2
 40
0.635
 49
0.0
 74
     0
 49
-0.635
 74
     0
  0
LTYPE
  5
424
330
5
100
AcDbSymbolTableRecord
100
AcDbLinetypeTableRecord
  2
DASH
 70
     0
  3
DASH _ _ _ _ _
 72
    65
 73
     2
 40
0.75
 49
0.40
 74
     0
 49
-0.35
 74
     0
  0
LTYPE
  5
425
330
5
100
AcDbSymbolTableRecord
100
AcDbLinetypeTableRecord
  2
LONGDASH_DASH
 70
     0
  3
LONGDASH_DASH __ . __ . __
 72
    65
 73
     4
 40
0.85
 49
0.40
 74
     0
 49
-0.20
 74
     0
 49
0.05
 74
     0
 49
-0.20
 74
     0
  0
LTYPE
  5
426
330
5
100
AcDbSymbolTableRecord
100
AcDbLinetypeTableRecord
  2
LONGDASH_DASH_DASH
 70
     0
  3
LONGDASH_DASH_DASH __ . . __ . . __
 72
    65
 73
     6
 40
1.10
 49
0.40
 74
     0
 49
-0.20
 74
     0
 49
0.05
 74
     0
 49
-0.20
 74
     0
 49
0.05
 74
     0
 49
-0.20
 74
     0
  0
ENDTAB
  0
TABLE
  2
LAYER
  5
2
330
0
100
AcDbSymbolTable
 70
     8
  0
LAYER
  5
23
330
2
100
AcDbSymbolTableRecord
100
AcDbLayerTableRecord
  2
DEFPOINTS
 70
     0
 62
     7
  6
CONTINUOUS
290
     0
370
    -3
390
0
  0
LAYER
  5
427
330
2
100
AcDbSymbolTableRecord
100
AcDbLayerTableRecord
  2
0
 70
     0
 62
     -1
  6
CONTINUOUS
370
    -3
390
F
  0
LAYER
  5
428
330
2
100
AcDbSymbolTableRecord
100
AcDbLayerTableRecord
  2
1
 70
     0
 62
     4
  6
CONTINUOUS
370
    50
390
F
  0
LAYER
  5
429
330
2
100
AcDbSymbolTableRecord
100
AcDbLayerTableRecord
  2
2
 70
     0
 62
     7
  6
CONTINUOUS
370
    25
390
F
  0
LAYER
  5
42A
330
2
100
AcDbSymbolTableRecord
100
AcDbLayerTableRecord
  2
3
 70
     0
 62
     1
  6
DASH
370
    35
390
F
  0
LAYER
  5
42B
330
2
100
AcDbSymbolTableRecord
100
AcDbLayerTableRecord
  2
4
 70
     0
 62
     2
  6
LONGDASH_DASH
370
    25
390
F
  0
LAYER
  5
42C
330
2
100
AcDbSymbolTableRecord
100
AcDbLayerTableRecord
  2
6
 70
     0
 62
     5
  6
CONTINUOUS
370
    -3
390
F
  0
LAYER
  5
42D
330
2
100
AcDbSymbolTableRecord
100
AcDbLayerTableRecord
  2
CUT
 70
     0
 62
     1
  6
CONTINUOUS
370
    25
390
F
  0
LAYER
  5
42E
330
2
100
AcDbSymbolTableRecord
100
AcDbLayerTableRecord
  2
NOCUT
 70
     0
 62
     7
  6
CONTINUOUS
370
    25
390
F
  0
LAYER
  5
42F
330
2
100
AcDbSymbolTableRecord
100
AcDbLayerTableRecord
  2
SK1
 70
     0
 62
     4
  6
CONTINUOUS
370
    50
390
F
  0
LAYER
  5
430
330
2
100
AcDbSymbolTableRecord
100
AcDbLayerTableRecord
  2
SK2
 70
     0
 62
     7
  6
CONTINUOUS
370
    25
390
F
  0
LAYER
  5
431
330
2
100
AcDbSymbolTableRecord
100
AcDbLayerTableRecord
  2
SK3
 70
     0
 62
     1
  6
DASH
370
    35
390
F
  0
LAYER
  5
432
330
2
100
AcDbSymbolTableRecord
100
AcDbLayerTableRecord
  2
SK4
 70
     0
 62
     2
  6
LONGDASH_DASH
370
    25
390
F
  0
LAYER
  5
433
330
2
100
AcDbSymbolTableRecord
100
AcDbLayerTableRecord
  2
SK6
 70
     0
 62
     5
  6
CONTINUOUS
370
    -3
390
F
  0
LAYER
  5
434
330
2
100
AcDbSymbolTableRecord
100
AcDbLayerTableRecord
  2
INFTOTAL
 70
     0
 62
     9
  6
CONTINUOUS
370
    18
390
F
  0
ENDTAB
  0
TABLE
  2
STYLE
  5
3
330
0
100
AcDbSymbolTable
 70
     2
  0
STYLE
  5
17
330
3
100
AcDbSymbolTableRecord
100
AcDbTextStyleTableRecord
  2
STANDARD
 70
     0
 40
0.0
 41
1.0
 50
0.0
 71
     0
 42
0.2
  3
txt
  4

  0
STYLE
  5
3F2
330
3
100
AcDbSymbolTableRecord
100
AcDbTextStyleTableRecord
  2
BMG_Text
 70
     0
 40
3.5
 41
1.0
 50
0.0
 71
     0
 42
0.0
  3
monos.ttf
  4

1001
ACAD
1000
Monospac821 BT
1071
       49
  0
ENDTAB
  0
TABLE
  2
VIEW
  5
5
330
0
100
AcDbSymbolTable
 70
     0
  0
ENDTAB
  0
TABLE
  2
UCS
  5
6
330
0
100
AcDbSymbolTable
 70
     0
  0
ENDTAB
  0
TABLE
  2
APPID
  5
8
330
0
100
AcDbSymbolTable
 70
     1
  0
APPID
  5
16
330
8
100
AcDbSymbolTableRecord
100
AcDbRegAppTableRecord
  2
ACAD
 70
     0
  0
ENDTAB
  0
TABLE
  2
DIMSTYLE
  5
9
330
0
100
AcDbSymbolTable
 70
     1
100
AcDbDimStyleTable
  0
DIMSTYLE
105
18
330
9
100
AcDbSymbolTableRecord
100
AcDbDimStyleTableRecord
  2
STANDARD
 70
     0
178
     0
340
17
  0
ENDTAB
  0
TABLE
  2
BLOCK_RECORD
  5
1
330
0
100
AcDbSymbolTable
 70
     0
  0
BLOCK_RECORD
  5
A
330
1
100
AcDbSymbolTableRecord
100
AcDbBlockTableRecord
  2
*MODEL_SPACE
340
3DB
  0
BLOCK_RECORD
  5
B
330
1
100
AcDbSymbolTableRecord
100
AcDbBlockTableRecord
  2
*PAPER_SPACE
340
3DC
  0
ENDTAB
  0
ENDSEC
  0
SECTION
  2
BLOCKS
  0
BLOCK
  5
D
330
A
100
AcDbEntity
  8
0
100
AcDbBlockBegin
  2
*MODEL_SPACE
 70
     0
 10
0.0
 20
0.0
 30
0.0
  3
*MODEL_SPACE
  1

  0
ENDBLK
  5
E
330
A
100
AcDbEntity
  8
0
100
AcDbBlockEnd
  0
BLOCK
  5
F
330
B
100
AcDbEntity
 67
     1
  8
0
100
AcDbBlockBegin
  2
*PAPER_SPACE
 70
     0
 10
0.0
 20
0.0
 30
0.0
  3
*PAPER_SPACE
  1

  0
ENDBLK
  5
10
330
B
100
AcDbEntity
 67
     1
  8
0
100
AcDbBlockEnd
  0
ENDSEC
  0
SECTION
  2
ENTITIES
  0
LINE
  5
29
330
A
100
AcDbEntity
  8
1
  6
CONTINUOUS
370
    50
100
AcDbLine
 10
138.3361746872
 20
122.5377111079
 30
0.0
 11
189.5323271099
 21
122.5377111079
 31
0.0
  0
LINE
  5
2A
330
A
100
AcDbEntity
  8
1
  6
CONTINUOUS
370
    50
100
AcDbLine
 10
189.5323271099
 20
212.5377111079
 30
0.0
 11
138.3361746872
 21
212.5377111079
 31
0.0
  0
ARC
  5
2B
330
A
100
AcDbEntity
  8
1
  6
CONTINUOUS
370
    50
100
AcDbCircle
 10
189.5323271099
 20
125.5377111079
 30
0.0
 40
3.0
100
AcDbArc
 50
270.0
 51
300.0
  0
ARC
  5
2C
330
A
100
AcDbEntity
  8
1
  6
CONTINUOUS
370
    50
100
AcDbCircle
 10
189.5323271099
 20
209.5377111079
 30
0.0
 40
3.0
100
AcDbArc
 50
60.0
 51
90.0
  0
LINE
  5
2D
330
A
100
AcDbEntity
  8
1
  6
CONTINUOUS
370
    50
100
AcDbLine
 10
191.0323271099
 20
122.9396348966
 30
0.0
 11
200.8361746872
 21
128.5998889344
 31
0.0
  0
LINE
  5
2E
330
A
100
AcDbEntity
  8
1
  6
CONTINUOUS
370
    50
100
AcDbLine
 10
200.8361746872
 20
206.4755332815
 30
0.0
 11
191.0323271099
 21
212.1357873193
 31
0.0
  0
LINE
  5
2F
330
A
100
AcDbEntity
  8
1
  6
CONTINUOUS
370
    50
100
AcDbLine
 10
138.3361746872
 20
212.5377111079
 30
0.0
 11
137.3361746872
 21
211.5377111079
 31
0.0
  0
LINE
  5
30
330
A
100
AcDbEntity
  8
1
  6
CONTINUOUS
370
    50
100
AcDbLine
 10
137.3361746872
 20
123.5377111079
 30
0.0
 11
138.3361746872
 21
122.5377111079
 31
0.0
  0
LINE
  5
31
330
A
100
AcDbEntity
  8
1
  6
CONTINUOUS
370
    50
100
AcDbLine
 10
134.5029837409
 20
127.7877111079
 30
0.0
 11
136.5861746872
 21
127.7877111079
 31
0.0
  0
LINE
  5
32
330
A
100
AcDbEntity
  8
1
  6
CONTINUOUS
370
    50
100
AcDbLine
 10
136.5861746872
 20
207.2877111079
 30
0.0
 11
134.5173234629
 21
207.2877111079
 31
0.0
  0
ARC
  5
33
330
A
100
AcDbEntity
  8
1
  6
CONTINUOUS
370
    50
100
AcDbCircle
 10
136.5861746872
 20
127.0377111079
 30
0.0
 40
0.75
100
AcDbArc
 50
0.0
 51
90.0
  0
ARC
  5
34
330
A
100
AcDbEntity
  8
1
  6
CONTINUOUS
370
    50
100
AcDbCircle
 10
136.5861746872
 20
208.0377111079
 30
0.0
 40
0.75
100
AcDbArc
 50
270.0
 51
0.0
  0
ARC
  5
35
330
A
100
AcDbEntity
  8
1
  6
CONTINUOUS
370
    50
100
AcDbCircle
 10
199.3361746872
 20
131.1979651458
 30
0.0
 40
3.0
100
AcDbArc
 50
300.0
 51
0.0
  0
ARC
  5
36
330
A
100
AcDbEntity
  8
1
  6
CONTINUOUS
370
    50
100
AcDbCircle
 10
199.3361746872
 20
203.8774570701
 30
0.0
 40
3.0
100
AcDbArc
 50
0.0
 51
60.0
  0
ARC
  5
37
330
A
100
AcDbEntity
  8
1
  6
CONTINUOUS
370
    50
100
AcDbCircle
 10
103.6361746872
 20
132.4127111079
 30
0.0
 40
0.5
100
AcDbArc
 50
66.4218215218
 51
90.0
  0
ARC
  5
38
330
A
100
AcDbEntity
  8
1
  6
CONTINUOUS
370
    50
100
AcDbCircle
 10
103.6361746872
 20
202.6627111079
 30
0.0
 40
0.5
100
AcDbArc
 50
270.0
 51
293.5781784782001
  0
LINE
  5
39
330
A
100
AcDbEntity
  8
1
  6
CONTINUOUS
370
    50
100
AcDbLine
 10
102.3361746872
 20
202.4627256914
 30
0.0
 11
2.6614811759
 21
187.9266956373
 31
0.0
  0
LINE
  5
3A
330
A
100
AcDbEntity
  8
1
  6
CONTINUOUS
370
    50
100
AcDbLine
 10
2.6614811759
 20
147.1487265786
 30
0.0
 11
102.3361746872
 21
132.6126965245
 31
0.0
  0
LINE
  5
3B
330
A
100
AcDbEntity
  8
1
  6
CONTINUOUS
370
    50
100
AcDbLine
 10
102.3361746872
 20
132.6126965245
 30
0.0
 11
102.4897280778
 21
132.7662644985
 31
0.0
  0
LINE
  5
3C
330
A
100
AcDbEntity
  8
1
  6
CONTINUOUS
370
    50
100
AcDbLine
 10
102.4897280778
 20
202.3091577174
 30
0.0
 11
102.3361746872
 21
202.4627256914
 31
0.0
  0
ARC
  5
3D
330
A
100
AcDbEntity
  8
1
  6
CONTINUOUS
370
    50
100
AcDbCircle
 10
102.8432814684
 20
132.4127111079
 30
0.0
 40
0.5
100
AcDbArc
 50
90.0
 51
135.0
  0
ARC
  5
3E
330
A
100
AcDbEntity
  8
1
  6
CONTINUOUS
370
    50
100
AcDbCircle
 10
102.8432814684
 20
202.6627111079
 30
0.0
 40
0.5
100
AcDbArc
 50
225.0
 51
270.0
  0
LINE
  5
3F
330
A
100
AcDbEntity
  8
1
  6
CONTINUOUS
370
    50
100
AcDbLine
 10
102.8432814684
 20
132.9127111079
 30
0.0
 11
103.6361746872
 21
132.9127111079
 31
0.0
  0
LINE
  5
40
330
A
100
AcDbEntity
  8
1
  6
CONTINUOUS
370
    50
100
AcDbLine
 10
103.6361746872
 20
202.1627111079
 30
0.0
 11
102.8432814684
 21
202.1627111079
 31
0.0
  0
ARC
  5
41
330
A
100
AcDbEntity
  8
1
  6
CONTINUOUS
370
    50
100
AcDbCircle
 10
2.9861746872
 20
185.7002468676
 30
0.0
 40
2.25
100
AcDbArc
 50
98.2972222222
 51
180.0
  0
ARC
  5
42
330
A
100
AcDbEntity
  8
1
  6
CONTINUOUS
370
    50
100
AcDbCircle
 10
2.9861746872
 20
149.3751753483
 30
0.0
 40
2.25
100
AcDbArc
 50
180.0
 51
261.7027777778
  0
LINE
  5
43
330
A
100
AcDbEntity
  8
1
  6
CONTINUOUS
370
    50
100
AcDbLine
 10
120.8861746872
 20
120.7241443137
 30
0.0
 11
120.8861746872
 21
197.3877111079
 31
0.0
  0
LINE
  5
44
330
A
100
AcDbEntity
  8
1
  6
CONTINUOUS
370
    50
100
AcDbLine
 10
120.8861746872
 20
197.3877111079
 30
0.0
 11
121.3861746872
 21
197.3877111079
 31
0.0
  0
LINE
  5
45
330
A
100
AcDbEntity
  8
1
  6
CONTINUOUS
370
    50
100
AcDbLine
 10
121.3861746872
 20
197.3877111079
 30
0.0
 11
121.3861746872
 21
121.1286242888
 31
0.0
  0
LINE
  5
46
330
A
100
AcDbEntity
  8
1
  6
CONTINUOUS
370
    50
100
AcDbLine
 10
121.3861746872
 20
121.1286242888
 30
0.0
 11
120.8861746872
 21
120.7241443137
 31
0.0
  0
LINE
  5
47
330
A
100
AcDbEntity
  8
1
  6
CONTINUOUS
370
    50
100
AcDbLine
 10
116.6693361947
 20
197.3877111079
 30
0.0
 11
116.6693361947
 21
120.7241443137
 31
0.0
  0
LINE
  5
48
330
A
100
AcDbEntity
  8
1
  6
CONTINUOUS
370
    50
100
AcDbLine
 10
120.8861746872
 20
197.3877111079
 30
0.0
 11
116.6693361947
 21
197.3877111079
 31
0.0
  0
LINE
  5
49
330
A
100
AcDbEntity
  8
1
  6
CONTINUOUS
370
    50
100
AcDbLine
 10
116.6693361947
 20
120.7241443137
 30
0.0
 11
120.8861746872
 21
120.7241443137
 31
0.0
  0
LINE
  5
4A
330
A
100
AcDbEntity
  8
1
  6
CONTINUOUS
370
    50
100
AcDbLine
 10
110.2030131797
 20
120.7241443137
 30
0.0
 11
110.2030131797
 21
197.3877111079
 31
0.0
  0
LINE
  5
4B
330
A
100
AcDbEntity
  8
1
  6
CONTINUOUS
370
    50
100
AcDbLine
 10
105.3726411376
 20
120.7241443137
 30
0.0
 11
110.2030131797
 21
120.7241443137
 31
0.0
  0
LINE
  5
4C
330
A
100
AcDbEntity
  8
1
  6
CONTINUOUS
370
    50
100
AcDbLine
 10
104.3361746872
 20
121.0358495861
 30
0.0
 11
105.3726411376
 21
120.7241443137
 31
0.0
  0
LINE
  5
4D
330
A
100
AcDbEntity
  8
1
  6
CONTINUOUS
370
    50
100
AcDbLine
 10
104.3361746872
 20
197.3877111079
 30
0.0
 11
104.3361746872
 21
121.0358495861
 31
0.0
  0
LINE
  5
4E
330
A
100
AcDbEntity
  8
1
  6
CONTINUOUS
370
    50
100
AcDbLine
 10
110.2030131797
 20
197.3877111079
 30
0.0
 11
104.3361746872
 21
197.3877111079
 31
0.0
  0
LINE
  5
4F
330
A
100
AcDbEntity
  8
1
  6
CONTINUOUS
370
    50
100
AcDbLine
 10
115.3611746872
 20
197.3877111079
 30
0.0
 11
115.3611746872
 21
122.8909356293
 31
0.0
  0
LINE
  5
50
330
A
100
AcDbEntity
  8
1
  6
CONTINUOUS
370
    50
100
AcDbLine
 10
116.6693361947
 20
197.3877111079
 30
0.0
 11
115.3611746872
 21
197.3877111079
 31
0.0
  0
LINE
  5
51
330
A
100
AcDbEntity
  8
1
  6
CONTINUOUS
370
    50
100
AcDbLine
 10
116.1962647672
 20
121.3876778633
 30
0.0
 11
116.6693361947
 21
120.7241443137
 31
0.0
  0
LWPOLYLINE
  5
52
330
A
100
AcDbEntity
  8
1
  6
CONTINUOUS
370
    50
100
AcDbPolyline
 90
        3
 70
   128
 43
0.0
 10
115.3611746872
 20
122.8909356293
 10
116.065256165
 20
121.6232668574
 10
116.1962647672
 20
121.3876778633
  0
LINE
  5
57
330
A
100
AcDbEntity
  8
1
  6
CONTINUOUS
370
    50
100
AcDbLine
 10
104.3361746872
 20
121.0358495861
 30
0.0
 11
103.8361746872
 21
121.7212498195
 31
0.0
  0
LINE
  5
58
330
A
100
AcDbEntity
  8
1
  6
CONTINUOUS
370
    50
100
AcDbLine
 10
103.8361746872
 20
121.7212498195
 30
0.0
 11
103.8361746872
 21
197.3877111079
 31
0.0
  0
LINE
  5
59
330
A
100
AcDbEntity
  8
1
  6
CONTINUOUS
370
    50
100
AcDbLine
 10
103.8361746872
 20
197.3877111079
 30
0.0
 11
104.3361746872
 21
197.3877111079
 31
0.0
  0
LINE
  5
5A
330
A
100
AcDbEntity
  8
1
  6
CONTINUOUS
370
    50
100
AcDbLine
 10
111.5111746872
 20
197.3877111079
 30
0.0
 11
110.2030131797
 21
197.3877111079
 31
0.0
  0
LINE
  5
5B
330
A
100
AcDbEntity
  8
1
  6
CONTINUOUS
370
    50
100
AcDbLine
 10
111.5111746872
 20
122.8909356293
 30
0.0
 11
111.5111746872
 21
197.3877111079
 31
0.0
  0
LWPOLYLINE
  5
5C
330
A
100
AcDbEntity
  8
1
  6
CONTINUOUS
370
    50
100
AcDbPolyline
 90
        3
 70
   128
 43
0.0
 10
110.6760846072
 20
121.3876778633
 10
110.8572447581
 20
121.7134761175
 10
111.5111746872
 20
122.8909356293
  0
LINE
  5
61
330
A
100
AcDbEntity
  8
1
  6
CONTINUOUS
370
    50
100
AcDbLine
 10
110.2030131797
 20
120.7241443137
 30
0.0
 11
110.6760846072
 21
121.3876778633
 31
0.0
  0
ARC
  5
62
330
A
100
AcDbEntity
  8
1
  6
CONTINUOUS
370
    50
100
AcDbCircle
 10
112.0226562045
 20
123.3785033874
 30
0.0
 40
0.5115703146
100
AcDbArc
 50
91.2860357732
 51
181.0675571366
  0
LINE
  5
63
330
A
100
AcDbEntity
  8
1
  6
CONTINUOUS
370
    50
100
AcDbLine
 10
111.5111746872
 20
197.3877111079
 30
0.0
 11
112.0111746872
 21
197.3877111079
 31
0.0
  0
LINE
  5
64
330
A
100
AcDbEntity
  8
1
  6
CONTINUOUS
370
    50
100
AcDbLine
 10
112.0111746872
 20
197.3877111079
 30
0.0
 11
112.0111746872
 21
123.8899448421
 31
0.0
  0
ARC
  5
65
330
A
100
AcDbEntity
  8
1
  6
CONTINUOUS
370
    50
100
AcDbCircle
 10
114.8512817613
 20
123.3800280272
 30
0.0
 40
0.5100127724
100
AcDbArc
 50
358.7578664182
 51
88.8885406698
  0
LINE
  5
66
330
A
100
AcDbEntity
  8
1
  6
CONTINUOUS
370
    50
100
AcDbLine
 10
114.8611746872
 20
197.3877111079
 30
0.0
 11
114.8611746872
 21
123.8899448421
 31
0.0
  0
LINE
  5
67
330
A
100
AcDbEntity
  8
1
  6
CONTINUOUS
370
    50
100
AcDbLine
 10
114.8611746872
 20
197.3877111079
 30
0.0
 11
115.3611746872
 21
197.3877111079
 31
0.0
  0
LINE
  5
68
330
A
100
AcDbEntity
  8
1
  6
CONTINUOUS
370
    50
100
AcDbLine
 10
114.8611746872
 20
123.8899448421
 30
0.0
 11
112.0111746872
 21
123.8899448421
 31
0.0
  0
LINE
  5
69
330
A
100
AcDbEntity
  8
1
  6
CONTINUOUS
370
    50
100
AcDbLine
 10
112.0111746872
 20
197.3877111079
 30
0.0
 11
114.8611746872
 21
197.3877111079
 31
0.0
  0
LINE
  5
6A
330
A
100
AcDbEntity
  8
1
  6
CONTINUOUS
370
    50
100
AcDbLine
 10
138.3361746872
 20
212.5377111079
 30
0.0
 11
138.3361746872
 21
178.889390245
 31
0.0
  0
LINE
  5
6B
330
A
100
AcDbEntity
  8
1
  6
CONTINUOUS
370
    50
100
AcDbLine
 10
138.3361746872
 20
156.1856539189
 30
0.0
 11
138.3361746872
 21
122.5377111079
 31
0.0
  0
ARC
  5
6C
330
A
100
AcDbEntity
  8
1
  6
CONTINUOUS
370
    50
100
AcDbCircle
 10
140.7338525583
 20
167.5375220595
 30
0.0
 40
11.6023221278
100
AcDbArc
 50
258.0751206819
 51
101.924890043
  0
LWPOLYLINE
  5
6D
330
A
100
AcDbEntity
  8
1
  6
CONTINUOUS
370
    50
100
AcDbPolyline
 90
       33
 70
   128
 43
0.0
 10
161.3361747103
 20
167.5377111079
 10
161.5565596804
 20
169.8105454031
 10
162.2177808107
 20
172.0031750749
 10
163.2752697707
 20
174.0048697221
 10
164.7071003508
 20
175.7634893688
 10
166.4361974176
 20
177.1972338925
 10
168.4258274756
 20
178.267929706
 10
170.5989708686
 20
178.9425215915
 10
172.8303986644
 20
179.1669230895
 10
175.0822264566
 20
178.9454344395
 10
177.2439570786
 20
178.2788009287
 10
179.2278785455
 20
177.2071179902
 10
180.968603674
 20
175.76009784
 10
182.3941267727
 20
174.0077380069
 10
183.4564550464
 20
171.9985850831
 10
184.1166494494
 20
169.8138468188
 10
184.3361746509
 20
167.5371537369
 10
184.1156099605
 20
165.2581119921
 10
183.4555375762
 20
163.0746041492
 10
182.3918368566
 20
161.0641201814
 10
180.9648102143
 20
159.3114894208
 10
179.2246144541
 20
157.8662372088
 10
177.2418610122
 20
156.7957419392
 10
175.0826664877
 20
156.1302188082
 10
172.8312688741
 20
155.9084987177
 10
170.599342017
 20
156.1323625765
 10
168.4249634654
 20
156.8071126206
 10
166.4345532746
 20
157.8786445462
 10
164.7043287254
 20
159.3147347407
 10
163.2738219057
 20
161.073249763
 10
162.2168646413
 20
163.0744755769
 10
161.5563637517
 20
165.2651825332
 10
161.3361747103
 20
167.5377111079
  0
CIRCLE
  5
90
330
A
100
AcDbEntity
  8
1
  6
CONTINUOUS
370
    50
100
AcDbCircle
 10
172.8361746872
 20
167.5377111079
 30
0.0
 40
11.0
  0
ARC
  5
91
330
A
100
AcDbEntity
  8
1
  6
CONTINUOUS
370
    50
100
AcDbCircle
 10
140.8361746872
 20
167.5377111079
 30
0.0
 40
11.0
100
AcDbArc
 50
254.878659203
 51
105.1213145509
  0
LINE
  5
92
330
A
100
AcDbEntity
  8
1
  6
CONTINUOUS
370
    50
100
AcDbLine
 10
137.843487622
 20
178.2510929232
 30
0.0
 11
137.9669176739
 21
178.1565897547
 31
0.0
  0
LWPOLYLINE
  5
93
330
A
100
AcDbEntity
  8
1
  6
CONTINUOUS
370
    50
100
AcDbPolyline
 90
        3
 70
   128
 43
0.0
 10
138.3369128952
 20
178.8881907986
 10
138.0892963845
 20
178.5739243728
 10
137.8454466495
 20
178.2546324516
  0
LWPOLYLINE
  5
98
330
A
100
AcDbEntity
  8
1
  6
CONTINUOUS
370
    50
100
AcDbPolyline
 90
        3
 70
   128
 43
0.0
 10
137.8431046512
 20
156.8235870583
 10
138.0880381907
 20
156.5027706948
 10
138.3369183281
 20
156.186862163
  0
LINE
  5
9D
330
A
100
AcDbEntity
  8
1
  6
CONTINUOUS
370
    50
100
AcDbLine
 10
137.9666878931
 20
156.9186565315
 30
0.0
 11
137.8433358289
 21
156.8242130735
 31
0.0
  0
LINE
  5
9E
330
A
100
AcDbEntity
  8
1
  6
CONTINUOUS
370
    50
100
AcDbLine
 10
137.843695931
 20
178.2509334332
 30
0.0
 11
137.3361746872
 21
178.6395127533
 31
0.0
  0
LINE
  5
9F
330
A
100
AcDbEntity
  8
1
  6
CONTINUOUS
370
    50
100
AcDbLine
 10
137.3361746872
 20
178.6395127533
 30
0.0
 11
137.3361746872
 21
211.5377111079
 31
0.0
  0
LINE
  5
A0
330
A
100
AcDbEntity
  8
1
  6
CONTINUOUS
370
    50
100
AcDbLine
 10
137.3361746872
 20
123.5377111079
 30
0.0
 11
137.3361746872
 21
156.4359094626
 31
0.0
  0
LINE
  5
A1
330
A
100
AcDbEntity
  8
1
  6
CONTINUOUS
370
    50
100
AcDbLine
 10
137.3361746872
 20
156.4359094626
 30
0.0
 11
137.8437268429
 21
156.8245124501
 31
0.0
  0
ARC
  5
A2
330
A
100
AcDbEntity
  8
1
  6
CONTINUOUS
370
    50
100
AcDbCircle
 10
117.7810018675
 20
151.017105893
 30
0.0
 40
6.050357666
100
AcDbArc
 50
43.9603191543
 51
53.425957127
  0
ARC
  5
A3
330
A
100
AcDbEntity
  8
1
  6
CONTINUOUS
370
    50
100
AcDbCircle
 10
121.1200580503
 20
153.9502311513
 30
0.0
 40
1.6239620579
100
AcDbArc
 50
308.7337458526
 51
51.2662541474
  0
LWPOLYLINE
  5
A4
330
A
100
AcDbEntity
  8
1
  6
CONTINUOUS
370
    50
100
AcDbPolyline
 90
        6
 70
   128
 43
0.0
 10
122.1361746872
 20
152.6834400297
 10
121.7793602318
 20
152.2937520778
 10
121.5520881102
 20
151.9794036472
 10
121.4276514424
 20
151.7373333373
 10
121.3862512118
 20
151.5482484102
 10
121.3861746872
 20
151.5406931492
  0
ARC
  5
AC
330
A
100
AcDbEntity
  8
1
  6
CONTINUOUS
370
    50
100
AcDbCircle
 10
121.9432492138
 20
205.9289744086
 30
0.0
 40
0.5601830802
100
AcDbArc
 50
194.6061631904
 51
242.6831011946
  0
LWPOLYLINE
  5
AD
330
A
100
AcDbEntity
  8
1
  6
CONTINUOUS
370
    50
100
AcDbPolyline
 90
        3
 70
   128
 43
0.0
 10
122.1361746872
 20
205.3144433512
 10
121.9034975341
 20
205.3422229089
 10
121.6861746872
 20
205.43126187
  0
LINE
  5
B2
330
A
100
AcDbEntity
  8
1
  6
CONTINUOUS
370
    50
100
AcDbLine
 10
122.1361746872
 20
155.2170222728
 30
0.0
 11
122.1361746872
 21
205.3144433512
 31
0.0
  0
LINE
  5
B3
330
A
100
AcDbEntity
  8
1
  6
CONTINUOUS
370
    50
100
AcDbLine
 10
122.1361746872
 20
129.9193312917
 30
0.0
 11
122.1361746872
 21
152.6834400297
 31
0.0
  0
ARC
  5
B4
330
A
100
AcDbEntity
  8
1
  6
CONTINUOUS
370
    50
100
AcDbCircle
 10
121.654519693
 20
256.6117016108
 30
0.0
 40
51.2995194567
100
AcDbArc
 50
270.5379622289
 51
277.8073835639
  0
ARC
  5
B5
330
A
100
AcDbEntity
  8
1
  6
CONTINUOUS
370
    50
100
AcDbCircle
 10
120.1550304033
 20
251.5719195943
 30
0.0
 40
46.5607545314
100
AcDbArc
 50
280.4789239167001
 51
287.9666579245999
  0
LWPOLYLINE
  5
B6
330
A
100
AcDbEntity
  8
1
  6
CONTINUOUS
370
    50
100
AcDbPolyline
 90
       11
 70
   128
 43
0.0
 10
122.1361746872
 20
129.9193312917
 10
124.2001297914
 20
129.8381093824
 10
126.2505230549
 20
129.6461120915
 10
128.1125300354
 20
129.3770239671
 10
129.8467046581
 20
129.0470076926
 10
131.3682551527
 20
128.6959464449
 10
132.6587460921
 20
128.354330406
 10
133.6261077466
 20
128.0725112293
 10
134.2702170849
 20
127.8728888713
 10
134.5258389443
 20
127.7910511447
 10
134.5029837409
 20
127.7984094723
  0
ARC
  5
C3
330
A
100
AcDbEntity
  8
1
  6
CONTINUOUS
370
    50
100
AcDbCircle
 10
141.0380895486
 20
167.5377111079
 30
0.0
 40
11.7019148661
100
AcDbArc
 50
112.3611430733
 51
247.6388569267
  0
LINE
  5
C4
330
A
100
AcDbEntity
  8
1
  6
CONTINUOUS
370
    50
100
AcDbLine
 10
136.7709572928
 20
157.3164583698
 30
0.0
 11
136.5861746872
 21
156.715730439
 31
0.0
  0
LINE
  5
C5
330
A
100
AcDbEntity
  8
1
  6
CONTINUOUS
370
    50
100
AcDbLine
 10
136.5861746872
 20
178.3596917769
 30
0.0
 11
136.7709572928
 21
177.7589638461
 31
0.0
  0
ARC
  5
C6
330
A
100
AcDbEntity
  8
1
  6
CONTINUOUS
370
    50
100
AcDbCircle
 10
140.8361746872
 20
167.5377111079
 30
0.0
 40
11.0
100
AcDbArc
 50
111.6888056355
 51
248.3111943645
  0
ARC
  5
C7
330
A
100
AcDbEntity
  8
1
  6
CONTINUOUS
370
    50
100
AcDbCircle
 10
137.3975373715
 20
177.4112085294
 30
0.0
 40
1.2481706118
100
AcDbArc
 50
93.4164026517
 51
130.5447301143
  0
ARC
  5
C8
330
A
100
AcDbEntity
  8
1
  6
CONTINUOUS
370
    50
100
AcDbCircle
 10
137.3972169988
 20
157.6634791148
 30
0.0
 40
1.2474041782
100
AcDbArc
 50
229.444519441
 51
266.5957999848
  0
ARC
  5
C9
330
A
100
AcDbEntity
  8
1
  6
CONTINUOUS
370
    50
100
AcDbCircle
 10
140.8361746873
 20
167.5377111082
 30
0.0
 40
11.0000000003
100
AcDbArc
 50
248.3111943645
 51
254.8015015905
  0
ARC
  5
CA
330
A
100
AcDbEntity
  8
1
  6
CONTINUOUS
370
    50
100
AcDbCircle
 10
140.8357621103
 20
167.5388841735
 30
0.0
 40
10.9987575079
100
AcDbArc
 50
105.1662796799
 51
111.6890669117
  0
LINE
  5
CB
330
A
100
AcDbEntity
  8
1
  6
CONTINUOUS
370
    50
100
AcDbLine
 10
202.3361746872
 20
131.1979651523
 30
0.0
 11
202.3361746872
 21
203.8774570701
 31
0.0
  0
CIRCLE
  5
CC
330
A
100
AcDbEntity
  8
1
  6
CONTINUOUS
370
    50
100
AcDbCircle
 10
140.8361746872
 20
167.5377111079
 30
0.0
 40
9.0
  0
CIRCLE
  5
CD
330
A
100
AcDbEntity
  8
1
  6
CONTINUOUS
370
    50
100
AcDbCircle
 10
172.8361746872
 20
167.5377111079
 30
0.0
 40
9.0
  0
ARC
  5
CE
330
A
100
AcDbEntity
  8
1
  6
CONTINUOUS
370
    50
100
AcDbCircle
 10
122.1280490204
 20
129.214975075
 30
0.0
 40
0.7044030852
100
AcDbArc
 50
89.3390478421
 51
128.851439077
  0
ARC
  5
CF
330
A
100
AcDbEntity
  8
1
  6
CONTINUOUS
370
    50
100
AcDbCircle
 10
122.192182077
 20
129.1361406597
 30
0.0
 40
0.8060283888
100
AcDbArc
 50
128.8864226615
 51
180.4135823638
  0
LINE
  5
D0
330
A
100
AcDbEntity
  8
1
  6
CONTINUOUS
370
    50
100
AcDbLine
 10
102.3361746872
 20
202.4627256914
 30
0.0
 11
102.3361746872
 21
132.6126965245
 31
0.0
  0
LINE
  5
D1
330
A
100
AcDbEntity
  8
1
  6
CONTINUOUS
370
    50
100
AcDbLine
 10
104.3361746872
 20
206.0487890596
 30
0.0
 11
103.8361746872
 21
205.4141962273
 31
0.0
  0
LINE
  5
D2
330
A
100
AcDbEntity
  8
1
  6
CONTINUOUS
370
    50
100
AcDbLine
 10
104.3361746872
 20
206.0487890596
 30
0.0
 11
110.2030131797
 21
206.0487890596
 31
0.0
  0
LINE
  5
D3
330
A
100
AcDbEntity
  8
1
  6
CONTINUOUS
370
    50
100
AcDbLine
 10
110.2030131797
 20
206.0487890596
 30
0.0
 11
111.5111746872
 21
203.1387582926
 31
0.0
  0
LINE
  5
D4
330
A
100
AcDbEntity
  8
1
  6
CONTINUOUS
370
    50
100
AcDbLine
 10
111.5111746872
 20
202.5373896779
 30
0.0
 11
111.5111746872
 21
203.1387582926
 31
0.0
  0
ARC
  5
D5
330
A
100
AcDbEntity
  8
1
  6
CONTINUOUS
370
    50
100
AcDbCircle
 10
112.1079202326
 20
202.4702584594
 30
0.0
 40
0.6005096556
100
AcDbArc
 50
173.5814650344
 51
260.7289175401
  0
LINE
  5
D6
330
A
100
AcDbEntity
  8
1
  6
CONTINUOUS
370
    50
100
AcDbLine
 10
114.8611746872
 20
201.8775931695
 30
0.0
 11
112.0111746872
 21
201.8775931695
 31
0.0
  0
ARC
  5
D7
330
A
100
AcDbEntity
  8
1
  6
CONTINUOUS
370
    50
100
AcDbCircle
 10
114.7961007646
 20
202.4462574058
 30
0.0
 40
0.5723754267
100
AcDbArc
 50
276.5281284872
 51
9.1614889387
  0
LINE
  5
D8
330
A
100
AcDbEntity
  8
1
  6
CONTINUOUS
370
    50
100
AcDbLine
 10
115.3611746872
 20
203.1387582926
 30
0.0
 11
115.3611746872
 21
202.5373896779
 31
0.0
  0
LINE
  5
D9
330
A
100
AcDbEntity
  8
1
  6
CONTINUOUS
370
    50
100
AcDbLine
 10
115.3611746872
 20
203.1387582926
 30
0.0
 11
116.6693361947
 21
206.0487890596
 31
0.0
  0
LINE
  5
DA
330
A
100
AcDbEntity
  8
1
  6
CONTINUOUS
370
    50
100
AcDbLine
 10
116.6693361947
 20
206.0487890596
 30
0.0
 11
120.8861746872
 21
206.0487890596
 31
0.0
  0
LINE
  5
DB
330
A
100
AcDbEntity
  8
1
  6
CONTINUOUS
370
    50
100
AcDbLine
 10
121.3861746872
 20
205.4141962273
 30
0.0
 11
120.8861746872
 21
206.0487890596
 31
0.0
  0
LINE
  5
DC
330
A
100
AcDbEntity
  8
1
  6
CONTINUOUS
370
    50
100
AcDbLine
 10
121.3861746872
 20
205.4141962273
 30
0.0
 11
121.3861746872
 21
197.3877111079
 31
0.0
  0
LINE
  5
DD
330
A
100
AcDbEntity
  8
1
  6
CONTINUOUS
370
    50
100
AcDbLine
 10
103.8361746872
 20
205.4141962273
 30
0.0
 11
103.8361746872
 21
197.3877111079
 31
0.0
  0
LINE
  5
DE
330
A
100
AcDbEntity
  8
1
  6
CONTINUOUS
370
    50
100
AcDbLine
 10
112.0111746872
 20
211.1854773738
 30
0.0
 11
112.0111746872
 21
201.8775931695
 31
0.0
  0
ARC
  5
DF
330
A
100
AcDbEntity
  8
1
  6
CONTINUOUS
370
    50
100
AcDbCircle
 10
112.0204118605
 20
211.6947648345
 30
0.0
 40
0.5093712232
100
AcDbArc
 50
178.6854922076
 51
268.9609148838
  0
LINE
  5
E0
330
A
100
AcDbEntity
  8
1
  6
CONTINUOUS
370
    50
100
AcDbLine
 10
114.8611746872
 20
211.1854773738
 30
0.0
 11
114.8611746872
 21
201.8775931695
 31
0.0
  0
ARC
  5
E1
330
A
100
AcDbEntity
  8
1
  6
CONTINUOUS
370
    50
100
AcDbCircle
 10
114.8536154755
 20
211.6931544223
 30
0.0
 40
0.5077333229
100
AcDbArc
 50
270.8530598837
 51
1.500533056
  0
LINE
  5
E2
330
A
100
AcDbEntity
  8
1
  6
CONTINUOUS
370
    50
100
AcDbLine
 10
114.8611746872
 20
211.1854773738
 30
0.0
 11
112.0111746872
 21
211.1854773738
 31
0.0
  0
LINE
  5
E3
330
A
100
AcDbEntity
  8
1
  6
CONTINUOUS
370
    50
100
AcDbLine
 10
115.3611746872
 20
212.1844865866
 30
0.0
 11
116.2841536864
 21
213.8457439016
 31
0.0
  0
LINE
  5
E4
330
A
100
AcDbEntity
  8
1
  6
CONTINUOUS
370
    50
100
AcDbLine
 10
116.6693361947
 20
214.3084701444
 30
0.0
 11
116.2841536864
 21
213.8457439016
 31
0.0
  0
LINE
  5
E5
330
A
100
AcDbEntity
  8
1
  6
CONTINUOUS
370
    50
100
AcDbLine
 10
116.6693361947
 20
214.3084701444
 30
0.0
 11
116.6693361947
 21
206.0487890596
 31
0.0
  0
LINE
  5
E6
330
A
100
AcDbEntity
  8
1
  6
CONTINUOUS
370
    50
100
AcDbLine
 10
115.3611746872
 20
212.1844865866
 30
0.0
 11
115.3611746872
 21
203.1387582926
 31
0.0
  0
LINE
  5
E7
330
A
100
AcDbEntity
  8
1
  6
CONTINUOUS
370
    50
100
AcDbLine
 10
110.2030131797
 20
206.0487890596
 30
0.0
 11
110.2030131797
 21
214.3084701444
 31
0.0
  0
LINE
  5
E8
330
A
100
AcDbEntity
  8
1
  6
CONTINUOUS
370
    50
100
AcDbLine
 10
110.588195688
 20
213.8457439016
 30
0.0
 11
110.2030131797
 21
214.3084701444
 31
0.0
  0
LINE
  5
E9
330
A
100
AcDbEntity
  8
1
  6
CONTINUOUS
370
    50
100
AcDbLine
 10
110.588195688
 20
213.8457439016
 30
0.0
 11
111.5111746872
 21
212.1844865866
 31
0.0
  0
LINE
  5
EA
330
A
100
AcDbEntity
  8
1
  6
CONTINUOUS
370
    50
100
AcDbLine
 10
111.5111746872
 20
203.1387582926
 30
0.0
 11
111.5111746872
 21
212.1844865866
 31
0.0
  0
LINE
  5
EB
330
A
100
AcDbEntity
  8
1
  6
CONTINUOUS
370
    50
100
AcDbLine
 10
104.3361746872
 20
214.0395726298
 30
0.0
 11
104.3361746872
 21
206.0487890596
 31
0.0
  0
LINE
  5
EC
330
A
100
AcDbEntity
  8
1
  6
CONTINUOUS
370
    50
100
AcDbLine
 10
103.8361746872
 20
213.3541723964
 30
0.0
 11
104.3361746872
 21
214.0395726298
 31
0.0
  0
LINE
  5
ED
330
A
100
AcDbEntity
  8
1
  6
CONTINUOUS
370
    50
100
AcDbLine
 10
103.8361746872
 20
205.4141962273
 30
0.0
 11
103.8361746872
 21
213.3541723964
 31
0.0
  0
LINE
  5
EE
330
A
100
AcDbEntity
  8
1
  6
CONTINUOUS
370
    50
100
AcDbLine
 10
120.8861746872
 20
206.0487890596
 30
0.0
 11
120.8861746872
 21
214.3084701444
 31
0.0
  0
LINE
  5
EF
330
A
100
AcDbEntity
  8
1
  6
CONTINUOUS
370
    50
100
AcDbLine
 10
120.8861746872
 20
214.3084701444
 30
0.0
 11
121.3861746872
 21
213.962257872
 31
0.0
  0
LINE
  5
F0
330
A
100
AcDbEntity
  8
1
  6
CONTINUOUS
370
    50
100
AcDbLine
 10
121.3861746872
 20
213.962257872
 30
0.0
 11
121.3861746872
 21
205.4141962273
 31
0.0
  0
LINE
  5
F1
330
A
100
AcDbEntity
  8
1
  6
CONTINUOUS
370
    50
100
AcDbLine
 10
120.8861746872
 20
214.3084701444
 30
0.0
 11
116.6693361947
 21
214.3084701444
 31
0.0
  0
LINE
  5
F2
330
A
100
AcDbEntity
  8
1
  6
CONTINUOUS
370
    50
100
AcDbLine
 10
110.2030131797
 20
214.3084701444
 30
0.0
 11
105.2252184924
 21
214.3084701444
 31
0.0
  0
LINE
  5
F3
330
A
100
AcDbEntity
  8
1
  6
CONTINUOUS
370
    50
100
AcDbLine
 10
104.3361746872
 20
214.0395726298
 30
0.0
 11
105.2252184924
 21
214.3084701444
 31
0.0
  0
LINE
  5
F4
330
A
100
AcDbEntity
  8
1
  6
CONTINUOUS
370
    50
100
AcDbLine
 10
0.7361746872
 20
185.7002468652
 30
0.0
 11
0.7361746872
 21
149.3751753483
 31
0.0
  0
LINE
  5
F5
330
A
100
AcDbEntity
  8
1
  6
CONTINUOUS
370
    50
100
AcDbLine
 10
133.9031619853
 20
161.7989538492
 30
0.0
 11
133.9031619853
 21
173.2764683667
 31
0.0
  0
LINE
  5
F6
330
A
100
AcDbEntity
  8
1
  6
CONTINUOUS
370
    50
100
AcDbLine
 10
134.3361746872
 20
161.312761309
 30
0.0
 11
134.3361746872
 21
173.7626609069
 31
0.0
  0
LINE
  5
F7
330
A
100
AcDbEntity
  8
1
  6
CONTINUOUS
370
    50
100
AcDbLine
 10
189.5323271099
 20
122.5377111079
 30
0.0
 11
189.5323271099
 21
212.5377111079
 31
0.0
  0
LINE
  5
F8
330
A
100
AcDbEntity
  8
1
  6
CONTINUOUS
370
    50
100
AcDbLine
 10
191.0323271099
 20
122.9396348966
 30
0.0
 11
191.0323271099
 21
212.1357873193
 31
0.0
  0
LINE
  5
F9
330
A
100
AcDbEntity
  8
1
  6
CONTINUOUS
370
    50
100
AcDbLine
 10
200.8361746872
 20
128.5998889344
 30
0.0
 11
200.8361746872
 21
206.4755332815
 31
0.0
  0
LINE
  5
FA
330
A
100
AcDbEntity
  8
1
  6
CONTINUOUS
370
    50
100
AcDbLine
 10
136.5861746872
 20
178.3596917769
 30
0.0
 11
136.5861746872
 21
207.2877111079
 31
0.0
  0
LINE
  5
FB
330
A
100
AcDbEntity
  8
1
  6
CONTINUOUS
370
    50
100
AcDbLine
 10
136.5861746872
 20
127.7877111079
 30
0.0
 11
136.5861746872
 21
156.715730439
 31
0.0
  0
LINE
  5
FC
330
A
100
AcDbEntity
  8
1
  6
CONTINUOUS
370
    50
100
AcDbLine
 10
103.6361746872
 20
132.9127111079
 30
0.0
 11
103.6361746872
 21
202.1627111079
 31
0.0
  0
LINE
  5
FD
330
A
100
AcDbEntity
  8
1
  6
CONTINUOUS
370
    50
100
AcDbLine
 10
2.6614811759
 20
187.9266956373
 30
0.0
 11
2.6614811759
 21
147.1487265786
 31
0.0
  0
LINE
  5
FE
330
A
100
AcDbEntity
  8
1
  6
CONTINUOUS
370
    50
100
AcDbLine
 10
102.4897280778
 20
132.7662644985
 30
0.0
 11
102.4897280778
 21
202.3091577174
 31
0.0
  0
LINE
  5
FF
330
A
100
AcDbEntity
  8
1
  6
CONTINUOUS
370
    50
100
AcDbLine
 10
102.8432814684
 20
132.9127111079
 30
0.0
 11
102.8432814684
 21
202.1627111079
 31
0.0
  0
LINE
  5
100
330
A
100
AcDbEntity
  8
1
  6
CONTINUOUS
370
    50
100
AcDbLine
 10
189.5323271099
 20
191.292654015
 30
0.0
 11
138.3361746872
 21
191.292654015
 31
0.0
  0
LINE
  5
101
330
A
100
AcDbEntity
  8
1
  6
CONTINUOUS
370
    50
100
AcDbLine
 10
189.5323271099
 20
151.2186004904
 30
0.0
 11
138.3361746872
 21
151.2186004904
 31
0.0
  0
ARC
  5
102
330
A
100
AcDbEntity
  8
1
  6
CONTINUOUS
370
    50
100
AcDbCircle
 10
189.459488074
 20
153.0282490365
 30
0.0
 40
1.8111138522
100
AcDbArc
 50
272.3049325178
 51
330.2775619188
  0
ARC
  5
103
330
A
100
AcDbEntity
  8
1
  6
CONTINUOUS
370
    50
100
AcDbCircle
 10
189.459488074
 20
189.4830054689
 30
0.0
 40
1.8111138522
100
AcDbArc
 50
29.7224380808
 51
87.69506748259998
  0
LWPOLYLINE
  5
104
330
A
100
AcDbEntity
  8
1
  6
CONTINUOUS
370
    50
100
AcDbPolyline
 90
       13
 70
   128
 43
0.0
 10
191.0323271099
 20
190.380953548
 10
193.4510616167
 20
186.8853313865
 10
195.5440114269
 20
183.1806906808
 10
197.1812461487
 20
179.2757238282
 10
197.9291645901
 20
176.6578604511
 10
198.3998568883
 20
173.9698694459
 10
198.5634160223
 20
171.2558272527
 10
198.3451134752
 20
168.1274541977
 10
197.7234322484
 20
165.0381376752
 10
196.7482933945
 20
162.0507393048
 10
195.1599669936
 20
158.5780374679
 10
193.2241415
 20
155.2705077078
 10
191.0323271099
 20
152.1303009574
  0
LINE
  5
113
330
A
100
AcDbEntity
  8
1
  6
CONTINUOUS
370
    50
100
AcDbLine
 10
137.3361746872
 20
188.9542661392
 30
0.0
 11
138.3361746872
 21
191.292654015
 31
0.0
  0
LINE
  5
114
330
A
100
AcDbEntity
  8
1
  6
CONTINUOUS
370
    50
100
AcDbLine
 10
138.3361746872
 20
151.2186004904
 30
0.0
 11
137.3361746872
 21
153.5569883661
 31
0.0
  0
LWPOLYLINE
  5
115
330
A
100
AcDbEntity
  8
1
  6
CONTINUOUS
370
    50
100
AcDbPolyline
 90
       25
 70
   128
 43
0.0
 10
120.5587272968
 20
153.8723410894
 10
120.3877015337
 20
153.2158751157
 10
120.1186226284
 20
152.6041462133
 10
119.7698278636
 20
152.0788426959
 10
119.3650870262
 20
151.6757631301
 10
118.9319825354
 20
151.4223767223
 10
118.5000297464
 20
151.3359513373
 10
118.098665528
 20
151.4223767223
 10
117.7552421884
 20
151.6757631301
 10
117.4931634606
 20
152.0788426959
 10
117.3302895769
 20
152.6041462133
 10
117.2777201233
 20
153.2158751157
 10
117.3390376211
 20
153.8723410894
 10
117.5100633842
 20
154.528807063
 10
117.7791422894
 20
155.1405359654
 10
118.1279370542
 20
155.6658394828
 10
118.5326778916
 20
156.0689190486
 10
118.9657823824
 20
156.3223054565
 10
119.3977351714
 20
156.4087308415
 10
119.7990993898
 20
156.3223054565
 10
120.1425227294
 20
156.0689190486
 10
120.4046014572
 20
155.6658394828
 10
120.5674753409
 20
155.1405359654
 10
120.6200447946
 20
154.528807063
 10
120.5587272968
 20
153.8723410894
  0
LWPOLYLINE
  5
130
330
A
100
AcDbEntity
  8
1
  6
CONTINUOUS
370
    50
100
AcDbPolyline
 90
        9
 70
   128
 43
0.0
 10
110.9125125684
 20
154.041434636
 10
110.0917524566
 20
154.5353220846
 10
109.7119662621
 20
154.9620361056
 10
109.5300880477
 20
155.3845337891
 10
109.5163413094
 20
155.8400198086
 10
109.6526699167
 20
156.2254158929
 10
110.006484977
 20
156.6640519627
 10
110.6997141978
 20
157.0965220901
 10
110.9125125684
 20
157.1773897708
  0
LWPOLYLINE
  5
13B
330
A
100
AcDbEntity
  8
1
  6
CONTINUOUS
370
    50
100
AcDbPolyline
 90
        9
 70
   128
 43
0.0
 10
110.9125125684
 20
154.041434636
 10
111.1001089199
 20
153.8442478751
 10
111.2988734281
 20
153.6900730527
 10
111.5032076666
 20
153.5832526765
 10
111.7073563313
 20
153.5267954628
 10
111.9055693447
 20
153.5222915926
 10
112.0922638141
 20
153.5698679226
 10
112.2621812792
 20
153.6681844117
 10
112.410535823
 20
153.8144718653
  0
ARC
  5
146
330
A
100
AcDbEntity
  8
1
  6
CONTINUOUS
370
    50
100
AcDbCircle
 10
99.1949639298
 20
154.9988123303
 30
0.0
 40
13.2685343125
100
AcDbArc
 50
354.8790017457
 51
5.120998254300001
  0
LWPOLYLINE
  5
147
330
A
100
AcDbEntity
  8
1
  6
CONTINUOUS
370
    50
100
AcDbPolyline
 90
        9
 70
   128
 43
0.0
 10
112.410535823
 20
156.1831527954
 10
112.2621812792
 20
156.4503799811
 10
112.0922638141
 20
156.687214457
 10
111.9055693447
 20
156.8869855128
 10
111.7073563313
 20
157.0440663717
 10
111.5032076666
 20
157.1540326742
 10
111.2988734281
 20
157.2137870954
 10
111.1001089199
 20
157.2216465847
 10
110.9125125684
 20
157.1773897708
  0
LINE
  5
152
330
A
100
AcDbEntity
  8
1
  6
CONTINUOUS
370
    50
100
AcDbLine
 10
122.1361746872
 20
205.3144433512
 30
0.0
 11
122.1361746872
 21
182.3919821862
 31
0.0
  0
ARC
  5
153
330
A
100
AcDbEntity
  8
1
  6
CONTINUOUS
370
    50
100
AcDbCircle
 10
121.1200580503
 20
181.1251910646
 30
0.0
 40
1.6239620579
100
AcDbArc
 50
308.7337458525
 51
51.2662541475
  0
LINE
  5
154
330
A
100
AcDbEntity
  8
1
  6
CONTINUOUS
370
    50
100
AcDbLine
 10
122.1361746872
 20
179.8583999431
 30
0.0
 11
122.1361746872
 21
129.9193312917
 31
0.0
  0
LWPOLYLINE
  5
155
330
A
100
AcDbEntity
  8
1
  6
CONTINUOUS
370
    50
100
AcDbPolyline
 90
       23
 70
   128
 43
0.0
 10
119.8661195295
 20
153.9822642446
 10
119.7113120124
 20
153.4051005919
 10
119.4637068048
 20
152.8746953058
 10
119.143363408
 20
152.4340186682
 10
118.7762341389
 20
152.1187716794
 10
118.3920616274
 20
151.9544937756
 10
118.0219692457
 20
151.9544937756
 10
117.6959396774
 20
152.1187716794
 10
117.4403858993
 20
152.4340186682
 10
117.2760113587
 20
152.8746953058
 10
117.2161327031
 20
153.4051005919
 10
117.2656009452
 20
153.9822642446
 10
117.4204084623
 20
154.5594278973
 10
117.6680136699
 20
155.0898331834
 10
117.9883570667
 20
155.530509821
 10
118.3554863358
 20
155.8457568098
 10
118.7396588473
 20
156.0100347136
 10
119.109751229
 20
156.0100347136
 10
119.4357807973
 20
155.8457568098
 10
119.6913345754
 20
155.530509821
 10
119.855709116
 20
155.0898331834
 10
119.9155877716
 20
154.5594278973
 10
119.8661195295
 20
153.9822642446
  0
ARC
  5
16E
330
A
100
AcDbEntity
  8
1
  6
CONTINUOUS
370
    50
100
AcDbCircle
 10
552.2362477918
 20
171.2556272527
 30
0.0
 40
414.9241929749
100
AcDbArc
 50
179.3822072046
 51
180.6177927954
  0
LINE
  5
16F
330
A
100
AcDbEntity
  8
1
  6
CONTINUOUS
370
    50
100
AcDbLine
 10
137.3361746872
 20
178.6395127533
 30
0.0
 11
137.3361746872
 21
175.729468296
 31
0.0
  0
LINE
  5
170
330
A
100
AcDbEntity
  8
1
  6
CONTINUOUS
370
    50
100
AcDbLine
 10
137.3361746872
 20
166.7817862094
 30
0.0
 11
137.3361746872
 21
156.4359094626
 31
0.0
  0
LINE
  5
171
330
A
100
AcDbEntity
  8
1
  6
CONTINUOUS
370
    50
100
AcDbLine
 10
137.9523719226
 20
156.9224540873
 30
0.0
 11
137.9581870035
 21
156.9208785144
 31
0.0
  0
ARC
  5
172
330
A
100
AcDbEntity
  8
1
  6
CONTINUOUS
370
    50
100
AcDbCircle
 10
101.8924060886
 20
141.9610781094
 30
0.0
 40
17.688936132
100
AcDbArc
 50
53.5147162494
 51
59.3408807134
  0
ARC
  5
173
330
A
100
AcDbEntity
  8
1
  6
CONTINUOUS
370
    50
100
AcDbCircle
 10
113.3810401106
 20
165.2772808079
 30
0.0
 40
11.5038196885
100
AcDbArc
 50
257.6089186629
 51
265.1605663873
  0
LWPOLYLINE
  5
174
330
A
100
AcDbEntity
  8
1
  6
CONTINUOUS
370
    50
100
AcDbPolyline
 90
       23
 70
   128
 43
0.0
 10
110.673586212
 20
156.6204199693
 10
110.518778695
 20
156.0432563166
 10
110.2711734874
 20
155.5128510305
 10
109.9508300906
 20
155.0721743929
 10
109.5837008215
 20
154.7569274041
 10
109.19952831
 20
154.5926495003
 10
108.8294359282
 20
154.5926495003
 10
108.50340636
 20
154.7569274041
 10
108.2478525819
 20
155.0721743929
 10
108.0834780412
 20
155.5128510305
 10
108.0235993857
 20
156.0432563166
 10
108.0730676278
 20
156.6204199693
 10
108.2278751449
 20
157.197583622
 10
108.4754803524
 20
157.7279889081
 10
108.7958237492
 20
158.1686655457
 10
109.1629530184
 20
158.4839125345
 10
109.5471255299
 20
158.6481904383
 10
109.9172179116
 20
158.6481904383
 10
110.2432474798
 20
158.4839125345
 10
110.4988012579
 20
158.1686655457
 10
110.6631757986
 20
157.7279889081
 10
110.7230544542
 20
157.197583622
 10
110.673586212
 20
156.6204199693
  0
LINE
  5
18D
330
A
100
AcDbEntity
  8
1
  6
CONTINUOUS
370
    50
100
AcDbLine
 10
104.1361746872
 20
132.2377111079
 30
0.0
 11
104.1361746872
 21
203.2377111079
 31
0.0
  0
LWPOLYLINE
  5
18E
330
A
100
AcDbEntity
  8
1
  6
CONTINUOUS
370
    50
100
AcDbPolyline
 90
       25
 70
   128
 43
0.0
 10
110.9135942042
 20
156.6226184324
 10
110.7491463551
 20
155.99140115
 10
110.4904166384
 20
155.4032002823
 10
110.155037057
 20
154.8981007464
 10
109.7658631748
 20
154.5105242408
 10
109.349416549
 20
154.266883464
 10
108.9340773288
 20
154.1837821323
 10
108.5481501958
 20
154.266883464
 10
108.2179354461
 20
154.5105242408
 10
107.9659366695
 20
154.8981007464
 10
107.8093271659
 20
155.4032002823
 10
107.7587796143
 20
155.99140115
 10
107.8177387468
 20
156.6226184324
 10
107.9821865959
 20
157.2538357148
 10
108.2409163125
 20
157.8420365825
 10
108.576295894
 20
158.3471361184
 10
108.9654697761
 20
158.734712624
 10
109.381916402
 20
158.9783534008
 10
109.7972556221
 20
159.0614547325
 10
110.1831827552
 20
158.9783534008
 10
110.5133975048
 20
158.734712624
 10
110.7653962815
 20
158.3471361184
 10
110.9220057851
 20
157.8420365825
 10
110.9725533367
 20
157.2538357148
 10
110.9135942042
 20
156.6226184324
  0
LWPOLYLINE
  5
1A9
330
A
100
AcDbEntity
  8
1
  6
CONTINUOUS
370
    50
100
AcDbPolyline
 90
       25
 70
   128
 43
0.0
 10
110.9212546486
 20
156.6204199693
 10
110.7568067995
 20
155.9892026869
 10
110.4980770829
 20
155.4010018192
 10
110.1626975014
 20
154.8959022833
 10
109.7735236193
 20
154.5083257777
 10
109.3570769934
 20
154.2646850009
 10
108.9417377733
 20
154.1815836692
 10
108.5558106402
 20
154.2646850009
 10
108.2255958906
 20
154.5083257777
 10
107.9735971139
 20
154.8959022833
 10
107.8169876103
 20
155.4010018192
 10
107.7664400587
 20
155.9892026869
 10
107.8253991912
 20
156.6204199693
 10
107.9898470404
 20
157.2516372516
 10
108.248576757
 20
157.8398381193
 10
108.5839563385
 20
158.3449376553
 10
108.9731302206
 20
158.7325141609
 10
109.3895768464
 20
158.9761549377
 10
109.8049160666
 20
159.0592562694
 10
110.1908431997
 20
158.9761549377
 10
110.5210579493
 20
158.7325141609
 10
110.773056726
 20
158.3449376553
 10
110.9296662295
 20
157.8398381193
 10
110.9802137811
 20
157.2516372516
 10
110.9212546486
 20
156.6204199693
  0
LWPOLYLINE
  5
1C4
330
A
100
AcDbEntity
  8
1
  6
CONTINUOUS
370
    50
100
AcDbPolyline
 90
       23
 70
   128
 43
0.0
 10
110.6659257676
 20
156.6226184324
 10
110.5111182506
 20
156.0454547797
 10
110.263513043
 20
155.5150494936
 10
109.9431696462
 20
155.074372856
 10
109.576040377
 20
154.7591258672
 10
109.1918678655
 20
154.5948479634
 10
108.8217754838
 20
154.5948479634
 10
108.4957459156
 20
154.7591258672
 10
108.2401921375
 20
155.074372856
 10
108.0758175968
 20
155.5150494936
 10
108.0159389412
 20
156.0454547797
 10
108.0654071834
 20
156.6226184324
 10
108.2202147004
 20
157.1997820851
 10
108.467819908
 20
157.7301873712
 10
108.7881633048
 20
158.1708640088
 10
109.1552925739
 20
158.4861109976
 10
109.5394650854
 20
158.6503889014
 10
109.9095574672
 20
158.6503889014
 10
110.2355870354
 20
158.4861109976
 10
110.4911408135
 20
158.1708640088
 10
110.6555153542
 20
157.7301873712
 10
110.7153940097
 20
157.1997820851
 10
110.6659257676
 20
156.6226184324
  0
LWPOLYLINE
  5
1DD
330
A
100
AcDbEntity
  8
1
  6
CONTINUOUS
370
    50
100
AcDbPolyline
 90
       22
 70
   128
 43
0.0
 10
87.0494500316
 20
163.4002866234
 10
86.6032627647
 20
162.885103744
 10
85.7224609609
 20
162.3932371926
 10
84.1393376336
 20
162.0425085688
 10
83.3114692048
 20
162.0350672303
 10
82.4693335813
 20
162.1601684789
 10
81.6071313377
 20
162.4920524931
 10
81.0484603641
 20
162.9338125136
 10
80.7518529916
 20
163.4093957678
 10
80.6539337749
 20
163.9638531309
 10
80.7580342019
 20
164.4668484352
 10
81.022052522
 20
164.9212799929
 10
81.5702082099
 20
165.4144316808
 10
82.503006215
 20
165.8227567864
 10
83.95884432
 20
165.9623626939
 10
85.440048331
 20
165.6618591208
 10
86.3640241979
 20
165.1928916423
 10
86.8719355866
 20
164.7295080316
 10
87.1121536679
 20
164.3208839357
 10
87.187294469
 20
163.9425491328
 10
87.1241024505
 20
163.5668543282
 10
87.0494500316
 20
163.4002866234
  0
LINE
  5
1F5
330
A
100
AcDbEntity
  8
1
  6
CONTINUOUS
370
    50
100
AcDbLine
 10
201.4701492834
 20
187.5377111079
 30
0.0
 11
201.4701492834
 21
147.5377111079
 31
0.0
  0
ARC
  5
1F6
330
A
100
AcDbEntity
  8
1
  6
CONTINUOUS
370
    50
100
AcDbCircle
 10
172.8361746872
 20
167.5377111079
 30
0.0
 40
11.0
100
AcDbArc
 50
168.7848738925
 51
181.5331281932
  0
ARC
  5
1F7
330
A
100
AcDbEntity
  8
1
  6
CONTINUOUS
370
    50
100
AcDbCircle
 10
140.8361746872
 20
167.5377111079
 30
0.0
 40
11.0
100
AcDbArc
 50
89.3586739017
 51
90.0
  0
ARC
  5
1F8
330
A
100
AcDbEntity
  8
1
  6
CONTINUOUS
370
    50
100
AcDbCircle
 10
140.8361746872
 20
167.5377111079
 30
0.0
 40
11.0
100
AcDbArc
 50
239.2481417025
 51
262.6033905522
  0
ARC
  5
1F9
330
A
100
AcDbEntity
  8
1
  6
CONTINUOUS
370
    50
100
AcDbCircle
 10
140.8361746872
 20
167.5377111079
 30
0.0
 40
11.0
100
AcDbArc
 50
98.2819628327
 51
112.1600069821
  0
ARC
  5
1FA
330
A
100
AcDbEntity
  8
1
  6
CONTINUOUS
370
    50
100
AcDbCircle
 10
140.8361746872
 20
167.5377111079
 30
0.0
 40
11.0
100
AcDbArc
 50
90.0
 51
90.7286229425
  0
LINE
  5
1FB
330
A
100
AcDbEntity
  8
1
  6
CONTINUOUS
370
    50
100
AcDbLine
 10
127.1361746872
 20
147.2877111079
 30
0.0
 11
127.1361746872
 21
187.7667254993
 31
0.0
  0
LINE
  5
1FC
330
A
100
AcDbEntity
  8
1
  6
CONTINUOUS
370
    50
100
AcDbLine
 10
126.3361746872
 20
148.0877111079
 30
0.0
 11
126.3361746872
 21
186.9877111079
 31
0.0
  0
LINE
  5
1FD
330
A
100
AcDbEntity
  8
1
  6
CONTINUOUS
370
    50
100
AcDbLine
 10
133.9031619853
 20
158.9976095351
 30
0.0
 11
133.9031619853
 21
147.2877111079
 31
0.0
  0
LINE
  5
1FE
330
A
100
AcDbEntity
  8
1
  6
CONTINUOUS
370
    50
100
AcDbLine
 10
133.9031619853
 20
158.9683536021
 30
0.0
 11
133.9031619853
 21
161.7989538492
 31
0.0
  0
LINE
  5
1FF
330
A
100
AcDbEntity
  8
1
  6
CONTINUOUS
370
    50
100
AcDbLine
 10
133.9031619853
 20
173.2764683667
 30
0.0
 11
133.9031619853
 21
176.0778126808
 31
0.0
  0
LINE
  5
200
330
A
100
AcDbEntity
  8
1
  6
CONTINUOUS
370
    50
100
AcDbLine
 10
133.9031619853
 20
187.7877111079
 30
0.0
 11
133.9031619853
 21
176.0778126808
 31
0.0
  0
LINE
  5
201
330
A
100
AcDbEntity
  8
1
  6
CONTINUOUS
370
    50
100
AcDbLine
 10
134.3361746872
 20
158.6635914333
 30
0.0
 11
134.3361746872
 21
147.5377111079
 31
0.0
  0
LINE
  5
202
330
A
100
AcDbEntity
  8
1
  6
CONTINUOUS
370
    50
100
AcDbLine
 10
134.3361746872
 20
158.6720033734
 30
0.0
 11
134.3361746872
 21
161.312761309
 31
0.0
  0
LINE
  5
203
330
A
100
AcDbEntity
  8
1
  6
CONTINUOUS
370
    50
100
AcDbLine
 10
134.3361746872
 20
173.7626609069
 30
0.0
 11
134.3361746872
 21
176.4118307826
 31
0.0
  0
LINE
  5
204
330
A
100
AcDbEntity
  8
1
  6
CONTINUOUS
370
    50
100
AcDbLine
 10
134.3361746872
 20
187.5377111079
 30
0.0
 11
134.3361746872
 21
176.4118307826
 31
0.0
  0
LINE
  5
205
330
A
100
AcDbEntity
  8
1
  6
CONTINUOUS
370
    50
100
AcDbLine
 10
123.2651758356
 20
156.9752111079
 30
0.0
 11
123.2651758356
 21
178.1002111079
 31
0.0
  0
LINE
  5
206
330
A
100
AcDbEntity
  8
1
  6
CONTINUOUS
370
    50
100
AcDbLine
 10
103.8361746872
 20
131.4877111079
 30
0.0
 11
106.0361746872
 21
131.4877111079
 31
0.0
  0
LINE
  5
207
330
A
100
AcDbEntity
  8
1
  6
CONTINUOUS
370
    50
100
AcDbLine
 10
106.0361746872
 20
205.7877111079
 30
0.0
 11
103.8361746872
 21
205.7877111079
 31
0.0
  0
LINE
  5
208
330
A
100
AcDbEntity
  8
1
  6
CONTINUOUS
370
    50
100
AcDbLine
 10
2.7361746872
 20
155.0377111079
 30
0.0
 11
2.7361746872
 21
180.0377111079
 31
0.0
  0
LINE
  5
209
330
A
100
AcDbEntity
  8
1
  6
CONTINUOUS
370
    50
100
AcDbLine
 10
105.7255145154
 20
132.2377111079
 30
0.0
 11
103.8361746872
 21
132.2377111079
 31
0.0
  0
LINE
  5
20A
330
A
100
AcDbEntity
  8
1
  6
CONTINUOUS
370
    50
100
AcDbLine
 10
103.8361746872
 20
205.0377111079
 30
0.0
 11
105.7255145154
 21
205.0377111079
 31
0.0
  0
LINE
  5
20B
330
A
100
AcDbEntity
  8
1
  6
CONTINUOUS
370
    50
100
AcDbLine
 10
105.2252184924
 20
214.3084701444
 30
0.0
 11
106.0361746872
 21
213.8457439016
 31
0.0
  0
LINE
  5
20C
330
A
100
AcDbEntity
  8
1
  6
CONTINUOUS
370
    50
100
AcDbLine
 10
106.0361746872
 20
121.3876778633
 30
0.0
 11
105.3726411376
 21
120.7241443137
 31
0.0
  0
LINE
  5
20D
330
A
100
AcDbEntity
  8
1
  6
CONTINUOUS
370
    50
100
AcDbLine
 10
121.6861746872
 20
205.43126187
 30
0.0
 11
121.6861746872
 21
205.0377111079
 31
0.0
  0
LINE
  5
20E
330
A
100
AcDbEntity
  8
1
  6
CONTINUOUS
370
    50
100
AcDbLine
 10
121.6861746872
 20
205.43126187
 30
0.0
 11
121.6861746872
 21
205.0377111079
 31
0.0
  0
LINE
  5
20F
330
A
100
AcDbEntity
  8
1
  6
CONTINUOUS
370
    50
100
AcDbLine
 10
134.5361746872
 20
205.7877111079
 30
0.0
 11
128.6232129601
 21
205.7877111079
 31
0.0
  0
LINE
  5
210
330
A
100
AcDbEntity
  8
1
  6
CONTINUOUS
370
    50
100
AcDbLine
 10
121.6861746872
 20
205.0377111079
 30
0.0
 11
133.7861746872
 21
205.0377111079
 31
0.0
  0
LINE
  5
211
330
A
100
AcDbEntity
  8
1
  6
CONTINUOUS
370
    50
100
AcDbLine
 10
110.6760846072
 20
121.3876778633
 30
0.0
 11
106.0361746872
 21
121.3876778633
 31
0.0
  0
LINE
  5
212
330
A
100
AcDbEntity
  8
1
  6
CONTINUOUS
370
    50
100
AcDbLine
 10
121.3861746872
 20
121.3876778633
 30
0.0
 11
116.1962647672
 21
121.3876778633
 31
0.0
  0
LINE
  5
213
330
A
100
AcDbEntity
  8
1
  6
CONTINUOUS
370
    50
100
AcDbLine
 10
106.0361746872
 20
121.3876778633
 30
0.0
 11
106.0361746872
 21
131.4877111079
 31
0.0
  0
LINE
  5
214
330
A
100
AcDbEntity
  8
1
  6
CONTINUOUS
370
    50
100
AcDbLine
 10
121.6861746872
 20
129.7635466566
 30
0.0
 11
121.6861746872
 21
131.4877111079
 31
0.0
  0
LINE
  5
215
330
A
100
AcDbEntity
  8
1
  6
CONTINUOUS
370
    50
100
AcDbLine
 10
121.6861746872
 20
131.4877111079
 30
0.0
 11
134.5361746872
 21
131.4877111079
 31
0.0
  0
LINE
  5
216
330
A
100
AcDbEntity
  8
1
  6
CONTINUOUS
370
    50
100
AcDbLine
 10
121.6861746872
 20
129.7635466566
 30
0.0
 11
121.6861746872
 21
131.4877111079
 31
0.0
  0
LINE
  5
217
330
A
100
AcDbEntity
  8
1
  6
CONTINUOUS
370
    50
100
AcDbLine
 10
106.0361746872
 20
131.4877111079
 30
0.0
 11
121.6861746872
 21
131.4877111079
 31
0.0
  0
LINE
  5
218
330
A
100
AcDbEntity
  8
1
  6
CONTINUOUS
370
    50
100
AcDbLine
 10
121.6861746872
 20
132.2377111079
 30
0.0
 11
105.7255145154
 21
132.2377111079
 31
0.0
  0
LINE
  5
219
330
A
100
AcDbEntity
  8
1
  6
CONTINUOUS
370
    50
100
AcDbLine
 10
106.0361746872
 20
131.4877111079
 30
0.0
 11
105.7255145154
 21
132.2377111079
 31
0.0
  0
LINE
  5
21A
330
A
100
AcDbEntity
  8
1
  6
CONTINUOUS
370
    50
100
AcDbLine
 10
121.6861746872
 20
131.4877111079
 30
0.0
 11
121.6861746872
 21
132.2377111079
 31
0.0
  0
LINE
  5
21B
330
A
100
AcDbEntity
  8
1
  6
CONTINUOUS
370
    50
100
AcDbLine
 10
121.6861746872
 20
131.4877111079
 30
0.0
 11
121.6861746872
 21
132.2377111079
 31
0.0
  0
LINE
  5
21C
330
A
100
AcDbEntity
  8
1
  6
CONTINUOUS
370
    50
100
AcDbLine
 10
133.7861746872
 20
132.2377111079
 30
0.0
 11
121.6861746872
 21
132.2377111079
 31
0.0
  0
LINE
  5
21D
330
A
100
AcDbEntity
  8
1
  6
CONTINUOUS
370
    50
100
AcDbLine
 10
105.7255145154
 20
205.0377111079
 30
0.0
 11
121.6861746872
 21
205.0377111079
 31
0.0
  0
LINE
  5
21E
330
A
100
AcDbEntity
  8
1
  6
CONTINUOUS
370
    50
100
AcDbLine
 10
106.0361746872
 20
205.7877111079
 30
0.0
 11
105.7255145154
 21
205.0377111079
 31
0.0
  0
LINE
  5
21F
330
A
100
AcDbEntity
  8
1
  6
CONTINUOUS
370
    50
100
AcDbLine
 10
121.4011701022
 20
205.7877111079
 30
0.0
 11
106.0361746872
 21
205.7877111079
 31
0.0
  0
LINE
  5
220
330
A
100
AcDbEntity
  8
1
  6
CONTINUOUS
370
    50
100
AcDbLine
 10
106.0361746872
 20
213.8457439016
 30
0.0
 11
110.588195688
 21
213.8457439016
 31
0.0
  0
LINE
  5
221
330
A
100
AcDbEntity
  8
1
  6
CONTINUOUS
370
    50
100
AcDbLine
 10
116.2841536864
 20
213.8457439016
 30
0.0
 11
121.3861746872
 21
213.8457439016
 31
0.0
  0
LINE
  5
222
330
A
100
AcDbEntity
  8
1
  6
CONTINUOUS
370
    50
100
AcDbLine
 10
106.0361746872
 20
213.8457439016
 30
0.0
 11
106.0361746872
 21
205.7877111079
 31
0.0
  0
LINE
  5
223
330
A
100
AcDbEntity
  8
1
  6
CONTINUOUS
370
    50
100
AcDbLine
 10
12.4861746872
 20
180.0377111079
 30
0.0
 11
12.4861746872
 21
155.0377111079
 31
0.0
  0
LINE
  5
224
330
A
100
AcDbEntity
  8
1
  6
CONTINUOUS
370
    50
100
AcDbLine
 10
13.6047908338
 20
178.1002111079
 30
0.0
 11
13.6047908338
 21
156.9752111079
 31
0.0
  0
LINE
  5
225
330
A
100
AcDbEntity
  8
1
  6
CONTINUOUS
370
    50
100
AcDbLine
 10
49.7362246872
 20
155.5377111079
 30
0.0
 11
49.7362246872
 21
179.5377111079
 31
0.0
  0
LINE
  5
226
330
A
100
AcDbEntity
  8
1
  6
CONTINUOUS
370
    50
100
AcDbLine
 10
49.7361246872
 20
155.5377111079
 30
0.0
 11
49.7361246872
 21
179.5377111079
 31
0.0
  0
LWPOLYLINE
  5
227
330
A
100
AcDbEntity
  8
1
  6
CONTINUOUS
370
    50
100
AcDbPolyline
 90
       22
 70
   128
 43
0.0
 10
87.0494500316
 20
171.6751355925
 10
86.6032627647
 20
172.1903184719
 10
85.7224609609
 20
172.6821850233
 10
84.1393376336
 20
173.0329136471
 10
83.2972562916
 20
173.0397563025
 10
82.4693335813
 20
172.915253737
 10
81.6071313377
 20
172.5833697228
 10
81.0484603641
 20
172.1416097023
 10
80.7518529916
 20
171.6660264481
 10
80.6539337749
 20
171.111569085
 10
80.7580342019
 20
170.6085737807
 10
81.022052522
 20
170.154142223
 10
81.5702082099
 20
169.6609905351
 10
82.503006215
 20
169.2526654295
 10
83.95884432
 20
169.113059522
 10
85.440048331
 20
169.4135630951
 10
86.3640241979
 20
169.8825305736
 10
86.8719355866
 20
170.3459141843
 10
87.1121536679
 20
170.7545382802
 10
87.187294469
 20
171.132873083
 10
87.1241024505
 20
171.5085678877
 10
87.0494500316
 20
171.6751355925
  0
LINE
  5
23F
330
A
100
AcDbEntity
  8
1
  6
CONTINUOUS
370
    50
100
AcDbLine
 10
118.1361746872
 20
200.3377111079
 30
0.0
 11
108.7361746872
 21
200.3377111079
 31
0.0
  0
LINE
  5
240
330
A
100
AcDbEntity
  8
1
  6
CONTINUOUS
370
    50
100
AcDbLine
 10
108.4575038057
 20
200.6377111079
 30
0.0
 11
118.4148455687
 21
200.6377111079
 31
0.0
  0
LWPOLYLINE
  5
241
330
A
100
AcDbEntity
  8
1
  6
CONTINUOUS
370
    50
100
AcDbPolyline
 90
       23
 70
   128
 43
0.0
 10
110.6659257676
 20
178.4528037835
 10
110.5111182506
 20
179.0299674362
 10
110.263513043
 20
179.5603727223
 10
109.9431696462
 20
180.0010493599
 10
109.576040377
 20
180.3162963487
 10
109.1918678655
 20
180.4805742525
 10
108.8217754838
 20
180.4805742525
 10
108.4957459156
 20
180.3162963487
 10
108.2401921375
 20
180.0010493599
 10
108.0758175968
 20
179.5603727223
 10
108.0159389412
 20
179.0299674362
 10
108.0654071834
 20
178.4528037835
 10
108.2202147004
 20
177.8756401308
 10
108.467819908
 20
177.3452348447
 10
108.7881633048
 20
176.9045582071
 10
109.1552925739
 20
176.5893112183
 10
109.5394650854
 20
176.4250333145
 10
109.9095574672
 20
176.4250333145
 10
110.2355870354
 20
176.5893112183
 10
110.4911408135
 20
176.9045582071
 10
110.6555153542
 20
177.3452348447
 10
110.7153940097
 20
177.8756401308
 10
110.6659257676
 20
178.4528037835
  0
LWPOLYLINE
  5
25A
330
A
100
AcDbEntity
  8
1
  6
CONTINUOUS
370
    50
100
AcDbPolyline
 90
        6
 70
   128
 43
0.0
 10
122.1361746872
 20
182.3919821862
 10
121.7793602318
 20
182.7816701381
 10
121.5520881102
 20
183.0960185687
 10
121.4276514424
 20
183.3380888786
 10
121.3862512118
 20
183.5271738057
 10
121.3861746872
 20
183.5347290667
  0
ARC
  5
262
330
A
100
AcDbEntity
  8
1
  6
CONTINUOUS
370
    50
100
AcDbCircle
 10
117.7810018675
 20
184.0583163229
 30
0.0
 40
6.050357666
100
AcDbArc
 50
306.574042873
 51
316.0396808458
  0
LINE
  5
263
330
A
100
AcDbEntity
  8
1
  6
CONTINUOUS
370
    50
100
AcDbLine
 10
114.8611746872
 20
123.8899448421
 30
0.0
 11
114.8611746872
 21
211.1854773738
 31
0.0
  0
LINE
  5
264
330
A
100
AcDbEntity
  8
1
  6
CONTINUOUS
370
    50
100
AcDbLine
 10
115.3611746872
 20
197.3877111079
 30
0.0
 11
115.3611746872
 21
202.5373896779
 31
0.0
  0
LINE
  5
265
330
A
100
AcDbEntity
  8
1
  6
CONTINUOUS
370
    50
100
AcDbLine
 10
112.0111746872
 20
123.8899448421
 30
0.0
 11
112.0111746872
 21
211.1854773738
 31
0.0
  0
LINE
  5
266
330
A
100
AcDbEntity
  8
1
  6
CONTINUOUS
370
    50
100
AcDbLine
 10
111.5111746872
 20
197.3877111079
 30
0.0
 11
111.5111746872
 21
202.5373896779
 31
0.0
  0
LINE
  5
267
330
A
100
AcDbEntity
  8
1
  6
CONTINUOUS
370
    50
100
AcDbLine
 10
110.2030131797
 20
206.0487890596
 30
0.0
 11
110.2030131797
 21
197.3877111079
 31
0.0
  0
LINE
  5
268
330
A
100
AcDbEntity
  8
1
  6
CONTINUOUS
370
    50
100
AcDbLine
 10
120.8861746872
 20
206.0487890596
 30
0.0
 11
120.8861746872
 21
197.3877111079
 31
0.0
  0
LINE
  5
269
330
A
100
AcDbEntity
  8
1
  6
CONTINUOUS
370
    50
100
AcDbLine
 10
116.6693361947
 20
197.3877111079
 30
0.0
 11
116.6693361947
 21
206.0487890596
 31
0.0
  0
LINE
  5
26A
330
A
100
AcDbEntity
  8
1
  6
CONTINUOUS
370
    50
100
AcDbLine
 10
104.3361746872
 20
197.3877111079
 30
0.0
 11
104.3361746872
 21
206.0487890596
 31
0.0
  0
LWPOLYLINE
  5
26B
330
A
100
AcDbEntity
  8
1
  6
CONTINUOUS
370
    50
100
AcDbPolyline
 90
       25
 70
   128
 43
0.0
 10
110.9212546486
 20
178.4550022466
 10
110.7568067995
 20
179.086219529
 10
110.4980770829
 20
179.6744203967
 10
110.1626975014
 20
180.1795199326
 10
109.7735236193
 20
180.5670964382
 10
109.3570769934
 20
180.810737215
 10
108.9417377733
 20
180.8938385467
 10
108.5558106402
 20
180.810737215
 10
108.2255958906
 20
180.5670964382
 10
107.9735971139
 20
180.1795199326
 10
107.8169876103
 20
179.6744203967
 10
107.7664400587
 20
179.086219529
 10
107.8253991912
 20
178.4550022466
 10
107.9898470404
 20
177.8237849643
 10
108.248576757
 20
177.2355840965
 10
108.5839563385
 20
176.7304845606
 10
108.9731302206
 20
176.342908055
 10
109.3895768464
 20
176.0992672782
 10
109.8049160666
 20
176.0161659465
 10
110.1908431997
 20
176.0992672782
 10
110.5210579493
 20
176.342908055
 10
110.773056726
 20
176.7304845606
 10
110.9296662295
 20
177.2355840965
 10
110.9802137811
 20
177.8237849643
 10
110.9212546486
 20
178.4550022466
  0
LWPOLYLINE
  5
286
330
A
100
AcDbEntity
  8
1
  6
CONTINUOUS
370
    50
100
AcDbPolyline
 90
       25
 70
   128
 43
0.0
 10
110.9135942042
 20
178.4528037835
 10
110.7491463551
 20
179.0840210659
 10
110.4904166384
 20
179.6722219336
 10
110.155037057
 20
180.1773214695
 10
109.7658631748
 20
180.5648979751
 10
109.349416549
 20
180.8085387519
 10
108.9340773288
 20
180.8916400836
 10
108.5481501958
 20
180.8085387519
 10
108.2179354461
 20
180.5648979751
 10
107.9659366695
 20
180.1773214695
 10
107.8093271659
 20
179.6722219336
 10
107.7587796143
 20
179.0840210659
 10
107.8177387468
 20
178.4528037835
 10
107.9821865959
 20
177.8215865011
 10
108.2409163125
 20
177.2333856334
 10
108.576295894
 20
176.7282860975
 10
108.9654697761
 20
176.3407095919
 10
109.381916402
 20
176.0970688151
 10
109.7972556221
 20
176.0139674834
 10
110.1831827552
 20
176.0970688151
 10
110.5133975048
 20
176.3407095919
 10
110.7653962815
 20
176.7282860975
 10
110.9220057851
 20
177.2333856334
 10
110.9725533367
 20
177.8215865011
 10
110.9135942042
 20
178.4528037835
  0
LWPOLYLINE
  5
2A1
330
A
100
AcDbEntity
  8
1
  6
CONTINUOUS
370
    50
100
AcDbPolyline
 90
       23
 70
   128
 43
0.0
 10
110.673586212
 20
178.4550022466
 10
110.518778695
 20
179.0321658993
 10
110.2711734874
 20
179.5625711854
 10
109.9508300906
 20
180.003247823
 10
109.5837008215
 20
180.3184948118
 10
109.19952831
 20
180.4827727156
 10
108.8294359282
 20
180.4827727156
 10
108.50340636
 20
180.3184948118
 10
108.2478525819
 20
180.003247823
 10
108.0834780412
 20
179.5625711854
 10
108.0235993857
 20
179.0321658993
 10
108.0730676278
 20
178.4550022466
 10
108.2278751449
 20
177.8778385939
 10
108.4754803524
 20
177.3474333078
 10
108.7958237492
 20
176.9067566702
 10
109.1629530184
 20
176.5915096814
 10
109.5471255299
 20
176.4272317776
 10
109.9172179116
 20
176.4272317776
 10
110.2432474798
 20
176.5915096814
 10
110.4988012579
 20
176.9067566702
 10
110.6631757986
 20
177.3474333078
 10
110.7230544542
 20
177.8778385939
 10
110.673586212
 20
178.4550022466
  0
LWPOLYLINE
  5
2BA
330
A
100
AcDbEntity
  8
1
  6
CONTINUOUS
370
    50
100
AcDbPolyline
 90
       23
 70
   128
 43
0.0
 10
119.8661195295
 20
181.0931579713
 10
119.7113120124
 20
181.670321624
 10
119.4637068048
 20
182.2007269101
 10
119.143363408
 20
182.6414035477
 10
118.7762341389
 20
182.9566505365
 10
118.3920616274
 20
183.1209284403
 10
118.0219692457
 20
183.1209284403
 10
117.6959396774
 20
182.9566505365
 10
117.4403858993
 20
182.6414035477
 10
117.2760113587
 20
182.2007269101
 10
117.2161327031
 20
181.670321624
 10
117.2656009452
 20
181.0931579713
 10
117.4204084623
 20
180.5159943186
 10
117.6680136699
 20
179.9855890325
 10
117.9883570667
 20
179.5449123949
 10
118.3554863358
 20
179.2296654061
 10
118.7396588473
 20
179.0653875023
 10
119.109751229
 20
179.0653875023
 10
119.4357807973
 20
179.2296654061
 10
119.6913345754
 20
179.5449123949
 10
119.855709116
 20
179.9855890325
 10
119.9155877716
 20
180.5159943186
 10
119.8661195295
 20
181.0931579713
  0
ARC
  5
2D3
330
A
100
AcDbEntity
  8
1
  6
CONTINUOUS
370
    50
100
AcDbCircle
 10
96.1810251465
 20
180.0766098856
 30
0.0
 40
16.2726666264
100
AcDbArc
 50
355.8262672738001
 51
4.1737327262
  0
ARC
  5
2D4
330
A
100
AcDbEntity
  8
1
  6
CONTINUOUS
370
    50
100
AcDbCircle
 10
113.2166948177
 20
170.8828702812
 30
0.0
 40
10.4093437954
100
AcDbArc
 50
94.4417599086
 51
102.7887550412
  0
LWPOLYLINE
  5
2D5
330
A
100
AcDbEntity
  8
1
  6
CONTINUOUS
370
    50
100
AcDbPolyline
 90
        9
 70
   128
 43
0.0
 10
110.9125125684
 20
177.8980324451
 10
110.0917524566
 20
178.3386356881
 10
109.7119662621
 20
178.7509036632
 10
109.5300880477
 20
179.1677443289
 10
109.5163413094
 20
179.6228298058
 10
109.6526699167
 20
180.01236272
 10
110.006484977
 20
180.4637554874
 10
110.6997141978
 20
180.9349108956
 10
110.9125125684
 20
181.0339875799
  0
ARC
  5
2E0
330
A
100
AcDbEntity
  8
1
  6
CONTINUOUS
370
    50
100
AcDbCircle
 10
101.1700933894
 20
194.2026573028
 30
0.0
 40
18.9935653106
100
AcDbArc
 50
300.8593681438
 51
306.2850348933
  0
LWPOLYLINE
  5
2E1
330
A
100
AcDbEntity
  8
1
  6
CONTINUOUS
370
    50
100
AcDbPolyline
 90
        9
 70
   128
 43
0.0
 10
110.9125125684
 20
181.0339875799
 10
111.1001089199
 20
181.2311743408
 10
111.2988734281
 20
181.3853491632
 10
111.5032076666
 20
181.4921695394
 10
111.7073563313
 20
181.5486267531
 10
111.9055693447
 20
181.5531306233
 10
112.0922638141
 20
181.5055542933
 10
112.2621812792
 20
181.4072378041
 10
112.410535823
 20
181.2609503506
  0
LWPOLYLINE
  5
2EC
330
A
100
AcDbEntity
  8
1
  6
CONTINUOUS
370
    50
100
AcDbPolyline
 90
        9
 70
   128
 43
0.0
 10
112.410535823
 20
178.8922694205
 10
112.2621812792
 20
178.6250422348
 10
112.0922638141
 20
178.3882077589
 10
111.9055693447
 20
178.1884367031
 10
111.7073563313
 20
178.0313558442
 10
111.5032076666
 20
177.9213895417
 10
111.2988734281
 20
177.8616351205
 10
111.1001089199
 20
177.8537756312
 10
110.9125125684
 20
177.8980324451
  0
LWPOLYLINE
  5
2F7
330
A
100
AcDbEntity
  8
1
  6
CONTINUOUS
370
    50
100
AcDbPolyline
 90
       25
 70
   128
 43
0.0
 10
120.5587272968
 20
181.2030811265
 10
120.3877015337
 20
181.8595471002
 10
120.1186226284
 20
182.4712760026
 10
119.7698278636
 20
182.99657952
 10
119.3650870262
 20
183.3996590858
 10
118.9319825354
 20
183.6530454936
 10
118.5000297464
 20
183.7394708786
 10
118.098665528
 20
183.6530454936
 10
117.7552421884
 20
183.3996590858
 10
117.4931634606
 20
182.99657952
 10
117.3302895769
 20
182.4712760026
 10
117.2777201233
 20
181.8595471002
 10
117.3390376211
 20
181.2030811265
 10
117.5100633842
 20
180.5466151529
 10
117.7791422894
 20
179.9348862505
 10
118.1279370542
 20
179.4095827331
 10
118.5326778916
 20
179.0065031673
 10
118.9657823824
 20
178.7531167594
 10
119.3977351714
 20
178.6666913744
 10
119.7990993898
 20
178.7531167594
 10
120.1425227294
 20
179.0065031673
 10
120.4046014572
 20
179.4095827331
 10
120.5674753409
 20
179.9348862505
 10
120.6200447946
 20
180.5466151529
 10
120.5587272968
 20
181.2030811265
  0
LINE
  5
312
330
A
100
AcDbEntity
  8
1
  6
CONTINUOUS
370
    50
100
AcDbLine
 10
176.3361746872
 20
163.2889059613
 30
0.0
 11
176.3361746872
 21
179.3399880961
 31
0.0
  0
LINE
  5
313
330
A
100
AcDbEntity
  8
1
  6
CONTINUOUS
370
    50
100
AcDbLine
 10
190.3361746872
 20
179.3399880961
 30
0.0
 11
190.3361746872
 21
163.2889059613
 31
0.0
  0
LINE
  5
314
330
A
100
AcDbEntity
  8
1
  6
CONTINUOUS
370
    50
100
AcDbLine
 10
190.3361746872
 20
179.3399880961
 30
0.0
 11
190.3361746872
 21
179.3409118019
 31
0.0
  0
LINE
  5
315
330
A
100
AcDbEntity
  8
1
  6
CONTINUOUS
370
    50
100
AcDbLine
 10
176.3361746872
 20
179.3399880961
 30
0.0
 11
176.3361746872
 21
179.3409118019
 31
0.0
  0
LINE
  5
316
330
A
100
AcDbEntity
  8
1
  6
CONTINUOUS
370
    50
100
AcDbLine
 10
176.3361746872
 20
179.3399880961
 30
0.0
 11
190.3361746872
 21
179.3399880961
 31
0.0
  0
LINE
  5
317
330
A
100
AcDbEntity
  8
1
  6
CONTINUOUS
370
    50
100
AcDbLine
 10
176.3361746872
 20
179.3409118019
 30
0.0
 11
190.3361746872
 21
179.3409118019
 31
0.0
  0
LINE
  5
318
330
A
100
AcDbEntity
  8
1
  6
CONTINUOUS
370
    50
100
AcDbLine
 10
190.3361746872
 20
163.2889059613
 30
0.0
 11
176.3361746872
 21
163.2889059613
 31
0.0
  0
LINE
  5
319
330
A
100
AcDbEntity
  8
1
  6
CONTINUOUS
370
    50
100
AcDbLine
 10
190.3361746872
 20
163.2898296672
 30
0.0
 11
176.3361746872
 21
163.2898296672
 31
0.0
  0
LINE
  5
31A
330
A
100
AcDbEntity
  8
1
  6
CONTINUOUS
370
    50
100
AcDbLine
 10
118.2316628418
 20
151.3732220404
 30
0.0
 11
121.3861746872
 21
150.4679119158
 31
0.0
  0
LINE
  5
31B
330
A
100
AcDbEntity
  8
1
  6
CONTINUOUS
370
    50
100
AcDbLine
 10
121.3239488785
 20
155.8956763819
 30
0.0
 11
119.666102076
 21
156.3714601383
 31
0.0
  0
LINE
  5
31C
330
A
100
AcDbEntity
  8
1
  6
CONTINUOUS
370
    50
100
AcDbLine
 10
103.8361746872
 20
151.1961685391
 30
0.0
 11
112.0207411463
 21
153.5450488872
 31
0.0
  0
LINE
  5
31D
330
A
100
AcDbEntity
  8
1
  6
CONTINUOUS
370
    50
100
AcDbLine
 10
110.9645224679
 20
157.1953188684
 30
0.0
 11
103.8361746872
 21
155.1495616374
 31
0.0
  0
LINE
  5
31E
330
A
100
AcDbEntity
  8
1
  6
CONTINUOUS
370
    50
100
AcDbLine
 10
118.2727024574
 20
155.8310239303
 30
0.0
 11
118.0197148515
 21
155.5642773084
 31
0.0
  0
LINE
  5
31F
330
A
100
AcDbEntity
  8
1
  6
CONTINUOUS
370
    50
100
AcDbLine
 10
117.2638899763
 20
152.930639998
 30
0.0
 11
117.3369192786
 21
152.5703301174
 31
0.0
  0
LINE
  5
320
330
A
100
AcDbEntity
  8
1
  6
CONTINUOUS
370
    50
100
AcDbLine
 10
137.328351319
 20
156.415555003
 30
0.0
 11
137.9631263587
 21
156.919380214
 31
0.0
  0
LINE
  5
321
330
A
100
AcDbEntity
  8
1
  6
CONTINUOUS
370
    50
100
AcDbLine
 10
137.9631846364
 20
178.15605548
 30
0.0
 11
137.3284007838
 21
178.65988244
 31
0.0
  0
LINE
  5
322
330
A
100
AcDbEntity
  8
1
  6
CONTINUOUS
370
    50
100
AcDbLine
 10
108.7940341523
 20
154.6019007374
 30
0.0
 11
117.9865674697
 21
151.9637450127
 31
0.0
  0
LINE
  5
323
330
A
100
AcDbEntity
  8
1
  6
CONTINUOUS
370
    50
100
AcDbLine
 10
119.145153005
 20
156.0007834764
 30
0.0
 11
109.9526196875
 21
158.6389392011
 31
0.0
  0
LINE
  5
324
330
A
100
AcDbEntity
  8
1
  6
CONTINUOUS
370
    50
100
AcDbLine
 10
104.1361746872
 20
203.2377111079
 30
0.0
 11
103.8361746872
 21
203.5377111079
 31
0.0
  0
ARC
  5
325
330
A
100
AcDbEntity
  8
1
  6
CONTINUOUS
370
    50
100
AcDbCircle
 10
103.6361746872
 20
132.4127111079
 30
0.0
 40
0.5
100
AcDbArc
 50
0.0
 51
66.4218215218
  0
ARC
  5
326
330
A
100
AcDbEntity
  8
1
  6
CONTINUOUS
370
    50
100
AcDbCircle
 10
103.6361746872
 20
202.6627111079
 30
0.0
 40
0.5
100
AcDbArc
 50
293.5781784782001
 51
0.0
  0
LINE
  5
327
330
A
100
AcDbEntity
  8
1
  6
CONTINUOUS
370
    50
100
AcDbLine
 10
82.3236364886
 20
162.1986130604
 30
0.0
 11
108.7863737079
 21
154.6040992005
 31
0.0
  0
LINE
  5
328
330
A
100
AcDbEntity
  8
1
  6
CONTINUOUS
370
    50
100
AcDbLine
 10
109.9449592431
 20
158.6411376642
 30
0.0
 11
85.1137701304
 21
165.7674152035
 31
0.0
  0
LINE
  5
329
330
A
100
AcDbEntity
  8
1
  6
CONTINUOUS
370
    50
100
AcDbLine
 10
202.3361746872
 20
188.0377111079
 30
0.0
 11
201.4701492834
 21
187.5377111079
 31
0.0
  0
LINE
  5
32A
330
A
100
AcDbEntity
  8
1
  6
CONTINUOUS
370
    50
100
AcDbLine
 10
201.4701492834
 20
147.5377111079
 30
0.0
 11
202.3361746872
 21
147.0377111079
 31
0.0
  0
ARC
  5
32B
330
A
100
AcDbEntity
  8
1
  6
CONTINUOUS
370
    50
100
AcDbCircle
 10
127.1361746872
 20
186.9877111079
 30
0.0
 40
0.8
100
AcDbArc
 50
90.0
 51
180.0
  0
ARC
  5
32C
330
A
100
AcDbEntity
  8
1
  6
CONTINUOUS
370
    50
100
AcDbCircle
 10
127.1361746872
 20
148.0877111079
 30
0.0
 40
0.8
100
AcDbArc
 50
180.0
 51
270.0
  0
LINE
  5
32D
330
A
100
AcDbEntity
  8
1
  6
CONTINUOUS
370
    50
100
AcDbLine
 10
133.9031619853
 20
187.7877111079
 30
0.0
 11
127.1361746872
 21
187.7877111079
 31
0.0
  0
LINE
  5
32E
330
A
100
AcDbEntity
  8
1
  6
CONTINUOUS
370
    50
100
AcDbLine
 10
127.1361746872
 20
147.2877111079
 30
0.0
 11
133.9031619853
 21
147.2877111079
 31
0.0
  0
LINE
  5
32F
330
A
100
AcDbEntity
  8
1
  6
CONTINUOUS
370
    50
100
AcDbLine
 10
201.4701492834
 20
187.5377111079
 30
0.0
 11
134.3361746872
 21
187.5377111079
 31
0.0
  0
LINE
  5
330
330
A
100
AcDbEntity
  8
1
  6
CONTINUOUS
370
    50
100
AcDbLine
 10
134.3361746872
 20
147.5377111079
 30
0.0
 11
201.4701492834
 21
147.5377111079
 31
0.0
  0
LINE
  5
331
330
A
100
AcDbEntity
  8
1
  6
CONTINUOUS
370
    50
100
AcDbLine
 10
126.3361746872
 20
186.5377111079
 30
0.0
 11
123.2651758356
 21
178.1002111079
 31
0.0
  0
LINE
  5
332
330
A
100
AcDbEntity
  8
1
  6
CONTINUOUS
370
    50
100
AcDbLine
 10
123.2651758356
 20
156.9752111079
 30
0.0
 11
126.3361746872
 21
148.5377111079
 31
0.0
  0
LINE
  5
333
330
A
100
AcDbEntity
  8
1
  6
CONTINUOUS
370
    50
100
AcDbLine
 10
133.9031619853
 20
147.2877111079
 30
0.0
 11
134.3361746872
 21
147.5377111079
 31
0.0
  0
LINE
  5
334
330
A
100
AcDbEntity
  8
1
  6
CONTINUOUS
370
    50
100
AcDbLine
 10
134.3361746872
 20
187.5377111079
 30
0.0
 11
133.9031619853
 21
187.7877111079
 31
0.0
  0
ARC
  5
335
330
A
100
AcDbEntity
  8
1
  6
CONTINUOUS
370
    50
100
AcDbCircle
 10
2.7361746872
 20
182.0377111079
 30
0.0
 40
2.0
100
AcDbArc
 50
180.0
 51
270.0
  0
ARC
  5
336
330
A
100
AcDbEntity
  8
1
  6
CONTINUOUS
370
    50
100
AcDbCircle
 10
2.7361746872
 20
153.0377111079
 30
0.0
 40
2.0
100
AcDbArc
 50
90.0
 51
180.0
  0
LINE
  5
337
330
A
100
AcDbEntity
  8
1
  6
CONTINUOUS
370
    50
100
AcDbLine
 10
133.7861746872
 20
205.0377111079
 30
0.0
 11
134.5361746872
 21
205.7877111079
 31
0.0
  0
LINE
  5
338
330
A
100
AcDbEntity
  8
1
  6
CONTINUOUS
370
    50
100
AcDbLine
 10
134.5361746872
 20
127.7877111079
 30
0.0
 11
134.5361746872
 21
131.4877111079
 31
0.0
  0
LINE
  5
339
330
A
100
AcDbEntity
  8
1
  6
CONTINUOUS
370
    50
100
AcDbLine
 10
134.5361746872
 20
131.4877111079
 30
0.0
 11
133.7861746872
 21
132.2377111079
 31
0.0
  0
LINE
  5
33A
330
A
100
AcDbEntity
  8
1
  6
CONTINUOUS
370
    50
100
AcDbLine
 10
12.4861746872
 20
180.0377111079
 30
0.0
 11
2.7361746872
 21
180.0377111079
 31
0.0
  0
LINE
  5
33B
330
A
100
AcDbEntity
  8
1
  6
CONTINUOUS
370
    50
100
AcDbLine
 10
2.7361746872
 20
155.0377111079
 30
0.0
 11
12.4861746872
 21
155.0377111079
 31
0.0
  0
LINE
  5
33C
330
A
100
AcDbEntity
  8
1
  6
CONTINUOUS
370
    50
100
AcDbLine
 10
12.4861746872
 20
155.0377111079
 30
0.0
 11
13.6047908338
 21
156.9752111079
 31
0.0
  0
LINE
  5
33D
330
A
100
AcDbEntity
  8
1
  6
CONTINUOUS
370
    50
100
AcDbLine
 10
13.6047908338
 20
178.1002111079
 30
0.0
 11
12.4861746872
 21
180.0377111079
 31
0.0
  0
LINE
  5
33E
330
A
100
AcDbEntity
  8
1
  6
CONTINUOUS
370
    50
100
AcDbLine
 10
134.5361746872
 20
205.7877111079
 30
0.0
 11
134.5361746872
 21
207.2877111079
 31
0.0
  0
LINE
  5
33F
330
A
100
AcDbEntity
  8
1
  6
CONTINUOUS
370
    50
100
AcDbLine
 10
123.2651758356
 20
178.1002111079
 30
0.0
 11
49.7362246872
 21
178.1002111079
 31
0.0
  0
LINE
  5
340
330
A
100
AcDbEntity
  8
1
  6
CONTINUOUS
370
    50
100
AcDbLine
 10
49.7362246872
 20
156.9752111079
 30
0.0
 11
123.2651758356
 21
156.9752111079
 31
0.0
  0
LINE
  5
341
330
A
100
AcDbEntity
  8
1
  6
CONTINUOUS
370
    50
100
AcDbLine
 10
49.7361246872
 20
178.1002111079
 30
0.0
 11
13.6047908338
 21
178.1002111079
 31
0.0
  0
LINE
  5
342
330
A
100
AcDbEntity
  8
1
  6
CONTINUOUS
370
    50
100
AcDbLine
 10
13.6047908338
 20
156.9752111079
 30
0.0
 11
49.7361246872
 21
156.9752111079
 31
0.0
  0
ARC
  5
343
330
A
100
AcDbEntity
  8
1
  6
CONTINUOUS
370
    50
100
AcDbCircle
 10
118.1361746872
 20
200.6377111079
 30
0.0
 40
0.3
100
AcDbArc
 50
270.0
 51
0.0
  0
ARC
  5
344
330
A
100
AcDbEntity
  8
1
  6
CONTINUOUS
370
    50
100
AcDbCircle
 10
108.7361746872
 20
200.6377111079
 30
0.0
 40
0.3
100
AcDbArc
 50
180.0
 51
270.0
  0
LINE
  5
345
330
A
100
AcDbEntity
  8
1
  6
CONTINUOUS
370
    50
100
AcDbLine
 10
118.4361746872
 20
200.6377111079
 30
0.0
 11
118.4361746872
 21
205.0377111079
 31
0.0
  0
LINE
  5
346
330
A
100
AcDbEntity
  8
1
  6
CONTINUOUS
370
    50
100
AcDbLine
 10
108.4361746872
 20
205.0377111079
 30
0.0
 11
108.4361746872
 21
200.6377111079
 31
0.0
  0
LINE
  5
347
330
A
100
AcDbEntity
  8
1
  6
CONTINUOUS
370
    50
100
AcDbLine
 10
111.7041238796
 20
200.3377111079
 30
0.0
 11
113.4361746872
 21
199.3377111079
 31
0.0
  0
LINE
  5
348
330
A
100
AcDbEntity
  8
1
  6
CONTINUOUS
370
    50
100
AcDbLine
 10
113.4361746872
 20
199.3377111079
 30
0.0
 11
115.1682254948
 21
200.3377111079
 31
0.0
  0
LINE
  5
349
330
A
100
AcDbEntity
  8
1
  6
CONTINUOUS
370
    50
100
AcDbLine
 10
85.1137701304
 20
169.3080070124
 30
0.0
 11
109.9449592431
 21
176.4342845516
 31
0.0
  0
LINE
  5
34A
330
A
100
AcDbEntity
  8
1
  6
CONTINUOUS
370
    50
100
AcDbLine
 10
108.7863737079
 20
180.4713230154
 30
0.0
 11
82.3236364886
 21
172.8768091555
 31
0.0
  0
LINE
  5
34B
330
A
100
AcDbEntity
  8
1
  6
CONTINUOUS
370
    50
100
AcDbLine
 10
109.9526196875
 20
176.4364830148
 30
0.0
 11
119.145153005
 21
179.0746387395
 31
0.0
  0
LINE
  5
34C
330
A
100
AcDbEntity
  8
1
  6
CONTINUOUS
370
    50
100
AcDbLine
 10
117.9865674697
 20
183.1116772032
 30
0.0
 11
108.7940341523
 21
180.4735214785
 31
0.0
  0
LINE
  5
34D
330
A
100
AcDbEntity
  8
1
  6
CONTINUOUS
370
    50
100
AcDbLine
 10
103.8361746872
 20
179.9258605785
 30
0.0
 11
110.9647365255
 21
177.8800419153
 31
0.0
  0
LINE
  5
34E
330
A
100
AcDbEntity
  8
1
  6
CONTINUOUS
370
    50
100
AcDbLine
 10
112.0207411463
 20
181.5303733287
 30
0.0
 11
103.8361746872
 21
183.8792536768
 31
0.0
  0
LINE
  5
34F
330
A
100
AcDbEntity
  8
1
  6
CONTINUOUS
370
    50
100
AcDbLine
 10
119.666102076
 20
178.7039620776
 30
0.0
 11
121.3239488785
 21
179.179745834
 31
0.0
  0
LINE
  5
350
330
A
100
AcDbEntity
  8
1
  6
CONTINUOUS
370
    50
100
AcDbLine
 10
121.3861746872
 20
184.6075103001
 30
0.0
 11
118.2316628418
 21
183.7022001755
 31
0.0
  0
LINE
  5
351
330
A
100
AcDbEntity
  8
1
  6
CONTINUOUS
370
    50
100
AcDbLine
 10
117.3369192786
 20
182.5050920985
 30
0.0
 11
117.2638899763
 21
182.1447822179
 31
0.0
  0
LINE
  5
352
330
A
100
AcDbEntity
  8
1
  6
CONTINUOUS
370
    50
100
AcDbLine
 10
118.0197148515
 20
179.5111449075
 30
0.0
 11
118.2727024574
 21
179.2443982856
 31
0.0
  0
LINE
  5
353
330
A
100
AcDbEntity
  8
1
  6
CONTINUOUS
370
    50
100
AcDbLine
 10
189.5323271099
 20
151.2186004904
 30
0.0
 11
189.5323271099
 21
122.5377111079
 31
0.0
  0
LINE
  5
354
330
A
100
AcDbEntity
  8
1
  6
CONTINUOUS
370
    50
100
AcDbLine
 10
189.5323271099
 20
212.5377111079
 30
0.0
 11
189.5323271099
 21
191.292654015
 31
0.0
  0
LINE
  5
355
330
A
100
AcDbEntity
  8
1
  6
CONTINUOUS
370
    50
100
AcDbLine
 10
191.0323271099
 20
152.1303009574
 30
0.0
 11
191.0323271099
 21
122.9396348966
 31
0.0
  0
LINE
  5
356
330
A
100
AcDbEntity
  8
1
  6
CONTINUOUS
370
    50
100
AcDbLine
 10
191.0323271099
 20
212.1357873193
 30
0.0
 11
191.0323271099
 21
190.380953548
 31
0.0
  0
LINE
  5
357
330
A
100
AcDbEntity
  8
1
  6
CONTINUOUS
370
    50
100
AcDbLine
 10
200.8361746872
 20
206.4755332815
 30
0.0
 11
200.8361746872
 21
128.5998889344
 31
0.0
  0
LINE
  5
358
330
A
100
AcDbEntity
  8
1
  6
CONTINUOUS
370
    50
100
AcDbLine
 10
136.5861746872
 20
207.2877111079
 30
0.0
 11
136.5861746872
 21
127.7877111079
 31
0.0
  0
LINE
  5
359
330
A
100
AcDbEntity
  8
1
  6
CONTINUOUS
370
    50
100
AcDbLine
 10
103.6361746872
 20
202.1627111079
 30
0.0
 11
103.6361746872
 21
132.9127111079
 31
0.0
  0
LINE
  5
35A
330
A
100
AcDbEntity
  8
1
  6
CONTINUOUS
370
    50
100
AcDbLine
 10
2.6614811759
 20
147.1487265786
 30
0.0
 11
2.6614811759
 21
187.9266956373
 31
0.0
  0
LINE
  5
35B
330
A
100
AcDbEntity
  8
1
  6
CONTINUOUS
370
    50
100
AcDbLine
 10
102.4897280778
 20
202.3091577174
 30
0.0
 11
102.4897280778
 21
132.7662644985
 31
0.0
  0
LINE
  5
35C
330
A
100
AcDbEntity
  8
1
  6
CONTINUOUS
370
    50
100
AcDbLine
 10
102.8432814684
 20
202.1627111079
 30
0.0
 11
102.8432814684
 21
132.9127111079
 31
0.0
  0
LINE
  5
35D
330
A
100
AcDbEntity
  8
1
  6
CONTINUOUS
370
    50
100
AcDbLine
 10
107.8253991912
 20
178.4550022466
 30
0.0
 11
108.0345285477
 21
177.7013603834
 31
0.0
  0
LINE
  5
35E
330
A
100
AcDbEntity
  8
1
  6
CONTINUOUS
370
    50
100
AcDbLine
 10
108.0345285477
 20
177.7013603834
 30
0.0
 11
108.3747088168
 21
177.0214902366
 31
0.0
  0
LINE
  5
35F
330
A
100
AcDbEntity
  8
1
  6
CONTINUOUS
370
    50
100
AcDbLine
 10
108.3747088168
 20
177.0214902366
 30
0.0
 11
108.8126407836
 21
176.4819422333
 31
0.0
  0
LINE
  5
360
330
A
100
AcDbEntity
  8
1
  6
CONTINUOUS
370
    50
100
AcDbLine
 10
108.8126407836
 20
176.4819422333
 30
0.0
 11
109.305456616
 21
176.1355310912
 31
0.0
  0
LINE
  5
361
330
A
100
AcDbEntity
  8
1
  6
CONTINUOUS
370
    50
100
AcDbLine
 10
109.305456616
 20
176.1355310912
 30
0.0
 11
109.8049160666
 21
176.0161659465
 31
0.0
  0
LINE
  5
362
330
A
100
AcDbEntity
  8
1
  6
CONTINUOUS
370
    50
100
AcDbLine
 10
109.8049160666
 20
176.0161659465
 30
0.0
 11
110.2621285644
 21
176.1355310912
 31
0.0
  0
LINE
  5
363
330
A
100
AcDbEntity
  8
1
  6
CONTINUOUS
370
    50
100
AcDbLine
 10
110.2621285644
 20
176.1355310912
 30
0.0
 11
110.6323389647
 21
176.4819422333
 31
0.0
  0
LINE
  5
364
330
A
100
AcDbEntity
  8
1
  6
CONTINUOUS
370
    50
100
AcDbLine
 10
110.6323389647
 20
176.4819422333
 30
0.0
 11
110.879308494
 21
177.0214902366
 31
0.0
  0
LINE
  5
365
330
A
100
AcDbEntity
  8
1
  6
CONTINUOUS
370
    50
100
AcDbLine
 10
110.879308494
 20
177.0214902366
 30
0.0
 11
110.978862054
 21
177.7013603834
 31
0.0
  0
LINE
  5
366
330
A
100
AcDbEntity
  8
1
  6
CONTINUOUS
370
    50
100
AcDbLine
 10
110.978862054
 20
177.7013603834
 30
0.0
 11
110.9212546486
 21
178.4550022466
 31
0.0
  0
LINE
  5
367
330
A
100
AcDbEntity
  8
1
  6
CONTINUOUS
370
    50
100
AcDbLine
 10
110.9212546486
 20
178.4550022466
 30
0.0
 11
110.7121252922
 21
179.2086441098
 31
0.0
  0
LINE
  5
368
330
A
100
AcDbEntity
  8
1
  6
CONTINUOUS
370
    50
100
AcDbLine
 10
110.7121252922
 20
179.2086441098
 30
0.0
 11
110.371945023
 21
179.8885142566
 31
0.0
  0
LINE
  5
369
330
A
100
AcDbEntity
  8
1
  6
CONTINUOUS
370
    50
100
AcDbLine
 10
110.371945023
 20
179.8885142566
 30
0.0
 11
109.9340130562
 21
180.4280622599
 31
0.0
  0
LINE
  5
36A
330
A
100
AcDbEntity
  8
1
  6
CONTINUOUS
370
    50
100
AcDbLine
 10
109.9340130562
 20
180.4280622599
 30
0.0
 11
109.4411972239
 21
180.774473402
 31
0.0
  0
LINE
  5
36B
330
A
100
AcDbEntity
  8
1
  6
CONTINUOUS
370
    50
100
AcDbLine
 10
109.4411972239
 20
180.774473402
 30
0.0
 11
108.9417377733
 21
180.8938385467
 31
0.0
  0
LINE
  5
36C
330
A
100
AcDbEntity
  8
1
  6
CONTINUOUS
370
    50
100
AcDbLine
 10
108.9417377733
 20
180.8938385467
 30
0.0
 11
108.4845252754
 21
180.774473402
 31
0.0
  0
LINE
  5
36D
330
A
100
AcDbEntity
  8
1
  6
CONTINUOUS
370
    50
100
AcDbLine
 10
108.4845252754
 20
180.774473402
 30
0.0
 11
108.1143148751
 21
180.4280622599
 31
0.0
  0
LINE
  5
36E
330
A
100
AcDbEntity
  8
1
  6
CONTINUOUS
370
    50
100
AcDbLine
 10
108.1143148751
 20
180.4280622599
 30
0.0
 11
107.8673453459
 21
179.8885142566
 31
0.0
  0
LINE
  5
36F
330
A
100
AcDbEntity
  8
1
  6
CONTINUOUS
370
    50
100
AcDbLine
 10
107.8673453459
 20
179.8885142566
 30
0.0
 11
107.7677917859
 21
179.2086441098
 31
0.0
  0
LINE
  5
370
330
A
100
AcDbEntity
  8
1
  6
CONTINUOUS
370
    50
100
AcDbLine
 10
107.7677917859
 20
179.2086441098
 30
0.0
 11
107.8253991912
 21
178.4550022466
 31
0.0
  0
LINE
  5
371
330
A
100
AcDbEntity
  8
1
  6
CONTINUOUS
370
    50
100
AcDbLine
 10
117.3243502859
 20
181.1810964955
 30
0.0
 11
117.2667428806
 21
181.9347383587
 31
0.0
  0
LINE
  5
372
330
A
100
AcDbEntity
  8
1
  6
CONTINUOUS
370
    50
100
AcDbLine
 10
117.2667428806
 20
181.9347383587
 30
0.0
 11
117.3662964406
 21
182.6146085054
 31
0.0
  0
LINE
  5
373
330
A
100
AcDbEntity
  8
1
  6
CONTINUOUS
370
    50
100
AcDbLine
 10
117.3662964406
 20
182.6146085054
 30
0.0
 11
117.6132659698
 21
183.1541565088
 31
0.0
  0
LINE
  5
374
330
A
100
AcDbEntity
  8
1
  6
CONTINUOUS
370
    50
100
AcDbLine
 10
117.6132659698
 20
183.1541565088
 30
0.0
 11
117.9834763701
 21
183.5005676509
 31
0.0
  0
LINE
  5
375
330
A
100
AcDbEntity
  8
1
  6
CONTINUOUS
370
    50
100
AcDbLine
 10
117.9834763701
 20
183.5005676509
 30
0.0
 11
118.4406888679
 21
183.6199327956
 31
0.0
  0
LINE
  5
376
330
A
100
AcDbEntity
  8
1
  6
CONTINUOUS
370
    50
100
AcDbLine
 10
118.4406888679
 20
183.6199327956
 30
0.0
 11
118.9401483185
 21
183.5005676509
 31
0.0
  0
LINE
  5
377
330
A
100
AcDbEntity
  8
1
  6
CONTINUOUS
370
    50
100
AcDbLine
 10
118.9401483185
 20
183.5005676509
 30
0.0
 11
119.4329641509
 21
183.1541565088
 31
0.0
  0
LINE
  5
378
330
A
100
AcDbEntity
  8
1
  6
CONTINUOUS
370
    50
100
AcDbLine
 10
119.4329641509
 20
183.1541565088
 30
0.0
 11
119.8708961177
 21
182.6146085054
 31
0.0
  0
LINE
  5
379
330
A
100
AcDbEntity
  8
1
  6
CONTINUOUS
370
    50
100
AcDbLine
 10
119.8708961177
 20
182.6146085054
 30
0.0
 11
120.2110763868
 21
181.9347383587
 31
0.0
  0
LINE
  5
37A
330
A
100
AcDbEntity
  8
1
  6
CONTINUOUS
370
    50
100
AcDbLine
 10
120.2110763868
 20
181.9347383587
 30
0.0
 11
120.4202057433
 21
181.1810964955
 31
0.0
  0
LINE
  5
37B
330
A
100
AcDbEntity
  8
1
  6
CONTINUOUS
370
    50
100
AcDbLine
 10
120.4202057433
 20
181.1810964955
 30
0.0
 11
120.4778131486
 21
180.4274546322
 31
0.0
  0
LINE
  5
37C
330
A
100
AcDbEntity
  8
1
  6
CONTINUOUS
370
    50
100
AcDbLine
 10
120.4778131486
 20
180.4274546322
 30
0.0
 11
120.3782595886
 21
179.7475844855
 31
0.0
  0
LINE
  5
37D
330
A
100
AcDbEntity
  8
1
  6
CONTINUOUS
370
    50
100
AcDbLine
 10
120.3782595886
 20
179.7475844855
 30
0.0
 11
120.1312900594
 21
179.2080364822
 31
0.0
  0
LINE
  5
37E
330
A
100
AcDbEntity
  8
1
  6
CONTINUOUS
370
    50
100
AcDbLine
 10
120.1312900594
 20
179.2080364822
 30
0.0
 11
119.7610796591
 21
178.8616253401
 31
0.0
  0
LINE
  5
37F
330
A
100
AcDbEntity
  8
1
  6
CONTINUOUS
370
    50
100
AcDbLine
 10
119.7610796591
 20
178.8616253401
 30
0.0
 11
119.3038671613
 21
178.7422601954
 31
0.0
  0
LINE
  5
380
330
A
100
AcDbEntity
  8
1
  6
CONTINUOUS
370
    50
100
AcDbLine
 10
119.3038671613
 20
178.7422601954
 30
0.0
 11
118.8044077107
 21
178.8616253401
 31
0.0
  0
LINE
  5
381
330
A
100
AcDbEntity
  8
1
  6
CONTINUOUS
370
    50
100
AcDbLine
 10
118.8044077107
 20
178.8616253401
 30
0.0
 11
118.3115918783
 21
179.2080364822
 31
0.0
  0
LINE
  5
382
330
A
100
AcDbEntity
  8
1
  6
CONTINUOUS
370
    50
100
AcDbLine
 10
118.3115918783
 20
179.2080364822
 30
0.0
 11
117.8736599115
 21
179.7475844855
 31
0.0
  0
LINE
  5
383
330
A
100
AcDbEntity
  8
1
  6
CONTINUOUS
370
    50
100
AcDbLine
 10
117.8736599115
 20
179.7475844855
 30
0.0
 11
117.5334796424
 21
180.4274546322
 31
0.0
  0
LINE
  5
384
330
A
100
AcDbEntity
  8
1
  6
CONTINUOUS
370
    50
100
AcDbLine
 10
117.5334796424
 20
180.4274546322
 30
0.0
 11
117.3243502859
 21
181.1810964955
 31
0.0
  0
LINE
  5
385
330
A
100
AcDbEntity
  8
1
  6
CONTINUOUS
370
    50
100
AcDbLine
 10
120.4202057433
 20
153.8943257204
 30
0.0
 11
120.4778131486
 21
154.6479675837
 31
0.0
  0
LINE
  5
386
330
A
100
AcDbEntity
  8
1
  6
CONTINUOUS
370
    50
100
AcDbLine
 10
120.4778131486
 20
154.6479675837
 30
0.0
 11
120.3782595886
 21
155.3278377304
 31
0.0
  0
LINE
  5
387
330
A
100
AcDbEntity
  8
1
  6
CONTINUOUS
370
    50
100
AcDbLine
 10
120.3782595886
 20
155.3278377304
 30
0.0
 11
120.1312900594
 21
155.8673857337
 31
0.0
  0
LINE
  5
388
330
A
100
AcDbEntity
  8
1
  6
CONTINUOUS
370
    50
100
AcDbLine
 10
120.1312900594
 20
155.8673857337
 30
0.0
 11
119.7610796591
 21
156.2137968758
 31
0.0
  0
LINE
  5
389
330
A
100
AcDbEntity
  8
1
  6
CONTINUOUS
370
    50
100
AcDbLine
 10
119.7610796591
 20
156.2137968758
 30
0.0
 11
119.3038671613
 21
156.3331620205
 31
0.0
  0
LINE
  5
38A
330
A
100
AcDbEntity
  8
1
  6
CONTINUOUS
370
    50
100
AcDbLine
 10
119.3038671613
 20
156.3331620205
 30
0.0
 11
118.8044077107
 21
156.2137968758
 31
0.0
  0
LINE
  5
38B
330
A
100
AcDbEntity
  8
1
  6
CONTINUOUS
370
    50
100
AcDbLine
 10
118.8044077107
 20
156.2137968758
 30
0.0
 11
118.3115918783
 21
155.8673857337
 31
0.0
  0
LINE
  5
38C
330
A
100
AcDbEntity
  8
1
  6
CONTINUOUS
370
    50
100
AcDbLine
 10
118.3115918783
 20
155.8673857337
 30
0.0
 11
117.8736599115
 21
155.3278377304
 31
0.0
  0
LINE
  5
38D
330
A
100
AcDbEntity
  8
1
  6
CONTINUOUS
370
    50
100
AcDbLine
 10
117.8736599115
 20
155.3278377304
 30
0.0
 11
117.5334796424
 21
154.6479675837
 31
0.0
  0
LINE
  5
38E
330
A
100
AcDbEntity
  8
1
  6
CONTINUOUS
370
    50
100
AcDbLine
 10
117.5334796424
 20
154.6479675837
 30
0.0
 11
117.3243502859
 21
153.8943257204
 31
0.0
  0
LINE
  5
38F
330
A
100
AcDbEntity
  8
1
  6
CONTINUOUS
370
    50
100
AcDbLine
 10
117.3243502859
 20
153.8943257204
 30
0.0
 11
117.2667428806
 21
153.1406838572
 31
0.0
  0
LINE
  5
390
330
A
100
AcDbEntity
  8
1
  6
CONTINUOUS
370
    50
100
AcDbLine
 10
117.2667428806
 20
153.1406838572
 30
0.0
 11
117.3662964406
 21
152.4608137104
 31
0.0
  0
LINE
  5
391
330
A
100
AcDbEntity
  8
1
  6
CONTINUOUS
370
    50
100
AcDbLine
 10
117.3662964406
 20
152.4608137104
 30
0.0
 11
117.6132659698
 21
151.9212657071
 31
0.0
  0
LINE
  5
392
330
A
100
AcDbEntity
  8
1
  6
CONTINUOUS
370
    50
100
AcDbLine
 10
117.6132659698
 20
151.9212657071
 30
0.0
 11
117.9834763701
 21
151.574854565
 31
0.0
  0
LINE
  5
393
330
A
100
AcDbEntity
  8
1
  6
CONTINUOUS
370
    50
100
AcDbLine
 10
117.9834763701
 20
151.574854565
 30
0.0
 11
118.4406888679
 21
151.4554894203
 31
0.0
  0
LINE
  5
394
330
A
100
AcDbEntity
  8
1
  6
CONTINUOUS
370
    50
100
AcDbLine
 10
118.4406888679
 20
151.4554894203
 30
0.0
 11
118.9401483185
 21
151.574854565
 31
0.0
  0
LINE
  5
395
330
A
100
AcDbEntity
  8
1
  6
CONTINUOUS
370
    50
100
AcDbLine
 10
118.9401483185
 20
151.574854565
 30
0.0
 11
119.4329641509
 21
151.9212657071
 31
0.0
  0
LINE
  5
396
330
A
100
AcDbEntity
  8
1
  6
CONTINUOUS
370
    50
100
AcDbLine
 10
119.4329641509
 20
151.9212657071
 30
0.0
 11
119.8708961177
 21
152.4608137104
 31
0.0
  0
LINE
  5
397
330
A
100
AcDbEntity
  8
1
  6
CONTINUOUS
370
    50
100
AcDbLine
 10
119.8708961177
 20
152.4608137104
 30
0.0
 11
120.2110763868
 21
153.1406838572
 31
0.0
  0
LINE
  5
398
330
A
100
AcDbEntity
  8
1
  6
CONTINUOUS
370
    50
100
AcDbLine
 10
120.2110763868
 20
153.1406838572
 30
0.0
 11
120.4202057433
 21
153.8943257204
 31
0.0
  0
LINE
  5
399
330
A
100
AcDbEntity
  8
1
  6
CONTINUOUS
370
    50
100
AcDbLine
 10
110.9212546486
 20
156.6204199693
 30
0.0
 11
110.7121252922
 21
155.8667781061
 31
0.0
  0
LINE
  5
39A
330
A
100
AcDbEntity
  8
1
  6
CONTINUOUS
370
    50
100
AcDbLine
 10
110.7121252922
 20
155.8667781061
 30
0.0
 11
110.371945023
 21
155.1869079593
 31
0.0
  0
LINE
  5
39B
330
A
100
AcDbEntity
  8
1
  6
CONTINUOUS
370
    50
100
AcDbLine
 10
110.371945023
 20
155.1869079593
 30
0.0
 11
109.9340130562
 21
154.647359956
 31
0.0
  0
LINE
  5
39C
330
A
100
AcDbEntity
  8
1
  6
CONTINUOUS
370
    50
100
AcDbLine
 10
109.9340130562
 20
154.647359956
 30
0.0
 11
109.4411972239
 21
154.3009488139
 31
0.0
  0
LINE
  5
39D
330
A
100
AcDbEntity
  8
1
  6
CONTINUOUS
370
    50
100
AcDbLine
 10
109.4411972239
 20
154.3009488139
 30
0.0
 11
108.9417377733
 21
154.1815836692
 31
0.0
  0
LINE
  5
39E
330
A
100
AcDbEntity
  8
1
  6
CONTINUOUS
370
    50
100
AcDbLine
 10
108.9417377733
 20
154.1815836692
 30
0.0
 11
108.4845252754
 21
154.3009488139
 31
0.0
  0
LINE
  5
39F
330
A
100
AcDbEntity
  8
1
  6
CONTINUOUS
370
    50
100
AcDbLine
 10
108.4845252754
 20
154.3009488139
 30
0.0
 11
108.1143148751
 21
154.647359956
 31
0.0
  0
LINE
  5
3A0
330
A
100
AcDbEntity
  8
1
  6
CONTINUOUS
370
    50
100
AcDbLine
 10
108.1143148751
 20
154.647359956
 30
0.0
 11
107.8673453459
 21
155.1869079593
 31
0.0
  0
LINE
  5
3A1
330
A
100
AcDbEntity
  8
1
  6
CONTINUOUS
370
    50
100
AcDbLine
 10
107.8673453459
 20
155.1869079593
 30
0.0
 11
107.7677917859
 21
155.8667781061
 31
0.0
  0
LINE
  5
3A2
330
A
100
AcDbEntity
  8
1
  6
CONTINUOUS
370
    50
100
AcDbLine
 10
107.7677917859
 20
155.8667781061
 30
0.0
 11
107.8253991912
 21
156.6204199693
 31
0.0
  0
LINE
  5
3A3
330
A
100
AcDbEntity
  8
1
  6
CONTINUOUS
370
    50
100
AcDbLine
 10
107.8253991912
 20
156.6204199693
 30
0.0
 11
108.0345285477
 21
157.3740618325
 31
0.0
  0
LINE
  5
3A4
330
A
100
AcDbEntity
  8
1
  6
CONTINUOUS
370
    50
100
AcDbLine
 10
108.0345285477
 20
157.3740618325
 30
0.0
 11
108.3747088168
 21
158.0539319793
 31
0.0
  0
LINE
  5
3A5
330
A
100
AcDbEntity
  8
1
  6
CONTINUOUS
370
    50
100
AcDbLine
 10
108.3747088168
 20
158.0539319793
 30
0.0
 11
108.8126407836
 21
158.5934799826
 31
0.0
  0
LINE
  5
3A6
330
A
100
AcDbEntity
  8
1
  6
CONTINUOUS
370
    50
100
AcDbLine
 10
108.8126407836
 20
158.5934799826
 30
0.0
 11
109.305456616
 21
158.9398911247
 31
0.0
  0
LINE
  5
3A7
330
A
100
AcDbEntity
  8
1
  6
CONTINUOUS
370
    50
100
AcDbLine
 10
109.305456616
 20
158.9398911247
 30
0.0
 11
109.8049160666
 21
159.0592562694
 31
0.0
  0
LINE
  5
3A8
330
A
100
AcDbEntity
  8
1
  6
CONTINUOUS
370
    50
100
AcDbLine
 10
109.8049160666
 20
159.0592562694
 30
0.0
 11
110.2621285644
 21
158.9398911247
 31
0.0
  0
LINE
  5
3A9
330
A
100
AcDbEntity
  8
1
  6
CONTINUOUS
370
    50
100
AcDbLine
 10
110.2621285644
 20
158.9398911247
 30
0.0
 11
110.6323389647
 21
158.5934799826
 31
0.0
  0
LINE
  5
3AA
330
A
100
AcDbEntity
  8
1
  6
CONTINUOUS
370
    50
100
AcDbLine
 10
110.6323389647
 20
158.5934799826
 30
0.0
 11
110.879308494
 21
158.0539319793
 31
0.0
  0
LINE
  5
3AB
330
A
100
AcDbEntity
  8
1
  6
CONTINUOUS
370
    50
100
AcDbLine
 10
110.879308494
 20
158.0539319793
 30
0.0
 11
110.978862054
 21
157.3740618325
 31
0.0
  0
LINE
  5
3AC
330
A
100
AcDbEntity
  8
1
  6
CONTINUOUS
370
    50
100
AcDbLine
 10
110.978862054
 20
157.3740618325
 30
0.0
 11
110.9212546486
 21
156.6204199693
 31
0.0
  0
LINE
  5
3AD
330
A
100
AcDbEntity
  8
1
  6
CONTINUOUS
370
    50
100
AcDbLine
 10
49.7361246872
 20
179.5377111079
 30
0.0
 11
12.7748498218
 21
179.5377111079
 31
0.0
  0
LINE
  5
3AE
330
A
100
AcDbEntity
  8
1
  6
CONTINUOUS
370
    50
100
AcDbLine
 10
12.7748498218
 20
155.5377111079
 30
0.0
 11
49.7361246872
 21
155.5377111079
 31
0.0
  0
LINE
  5
3AF
330
A
100
AcDbEntity
  8
1
  6
CONTINUOUS
370
    50
100
AcDbLine
 10
49.7361246872
 20
179.5377111079
 30
0.0
 11
49.7361246872
 21
179.4155684105
 31
0.0
  0
LINE
  5
3B0
330
A
100
AcDbEntity
  8
1
  6
CONTINUOUS
370
    50
100
AcDbLine
 10
49.7361246872
 20
179.4155684105
 30
0.0
 11
49.7361246872
 21
155.5377111079
 31
0.0
  0
LINE
  5
3B1
330
A
100
AcDbEntity
  8
1
  6
CONTINUOUS
370
    50
100
AcDbLine
 10
49.7361746872
 20
179.5377111079
 30
0.0
 11
49.7361746872
 21
179.4155684105
 31
0.0
  0
LINE
  5
3B2
330
A
100
AcDbEntity
  8
1
  6
CONTINUOUS
370
    50
100
AcDbLine
 10
49.7361746872
 20
179.4155684105
 30
0.0
 11
49.7361746872
 21
155.5377111079
 31
0.0
  0
ARC
  5
3B3
330
A
100
AcDbEntity
  8
1
  6
CONTINUOUS
370
    50
100
AcDbCircle
 10
172.8361746872
 20
167.5377111079
 30
0.0
 40
10.0
100
AcDbArc
 50
75.0
 51
345.0
  0
ARC
  5
3B4
330
A
100
AcDbEntity
  8
1
  6
CONTINUOUS
370
    50
100
AcDbCircle
 10
140.8361746872
 20
167.5377111079
 30
0.0
 40
10.0
100
AcDbArc
 50
75.0
 51
345.0
  0
ARC
  5
3B5
330
A
100
AcDbEntity
  8
1
  6
CONTINUOUS
370
    50
100
AcDbCircle
 10
140.8361746872
 20
167.5377111079
 30
0.0
 40
10.0
100
AcDbArc
 50
75.0
 51
345.0
  0
ENDSEC
  0
SECTION
  2
OBJECTS
  0
DICTIONARY
  5
19
330
0
100
AcDbDictionary
281
     1
  3
ACAD_GROUP
350
1A
  3
ACAD_LAYOUT
350
3DA
  3
ACAD_MATERIAL
350
3EE
  3
ACAD_MLEADERSTYLE
350
3F6
  3
ACAD_MLINESTYLE
350
1B
  3
ACAD_SCALELIST
350
3B8
  3
ACAD_VISUALSTYLE
350
3DD
  3
ACDB_RECOMPOSE_DATA
350
423
  3
AcDbVariableDictionary
350
3F4
  0
DICTIONARY
  5
3FA
330
7
100
AcDbDictionary
280
     1
281
     1
  3
ACAD_XREC_ROUNDTRIP
360
3FB
  0
DICTIONARY
  5
1A
102
{ACAD_REACTORS
330
19
102
}
330
19
100
AcDbDictionary
281
     1
  0
DICTIONARY
  5
3DA
102
{ACAD_REACTORS
330
19
102
}
330
19
100
AcDbDictionary
281
     1
  3
Layout1
350
3DC
  3
Model
350
3DB
  0
DICTIONARY
  5
3EE
102
{ACAD_REACTORS
330
19
102
}
330
19
100
AcDbDictionary
281
     1
  3
ByBlock
350
3F0
  3
ByLayer
350
3EF
  3
Global
350
3F1
  0
DICTIONARY
  5
3F6
102
{ACAD_REACTORS
330
19
102
}
330
19
100
AcDbDictionary
281
     1
  0
DICTIONARY
  5
1B
102
{ACAD_REACTORS
330
19
102
}
330
19
100
AcDbDictionary
281
     1
  3
STANDARD
350
1C
  0
DICTIONARY
  5
3B8
102
{ACAD_REACTORS
330
19
102
}
330
19
100
AcDbDictionary
281
     1
  3
A0
350
3B9
  3
A1
350
3BA
  3
A2
350
3BB
  3
A3
350
3BC
  3
A4
350
3BD
  3
A5
350
3BE
  3
A6
350
3BF
  3
A7
350
3C0
  3
A8
350
3C1
  3
A9
350
3C2
  3
B0
350
3C3
  3
B1
350
3C4
  3
B2
350
3C5
  3
B3
350
3C6
  3
B4
350
3C7
  3
B5
350
3C8
  3
B6
350
3C9
  3
B7
350
3CA
  3
B8
350
3CB
  3
B9
350
3CC
  3
C0
350
3CD
  3
C1
350
3CE
  3
C2
350
3CF
  3
C3
350
3D0
  3
C4
350
3D1
  3
C5
350
3D2
  3
C6
350
3D3
  3
C7
350
3D4
  3
C8
350
3D5
  3
C9
350
3D6
  3
D0
350
3D7
  3
D1
350
3D8
  3
D2
350
3D9
  0
DICTIONARY
  5
3DD
102
{ACAD_REACTORS
330
19
102
}
330
19
100
AcDbDictionary
281
     1
  3
2dWireframe
350
3E2
  3
3D Hidden
350
3E4
  3
3dWireframe
350
3E3
  3
Basic
350
3E5
  3
Brighten
350
3E9
  3
ColorChange
350
3ED
  3
Conceptual
350
3E7
  3
Dim
350
3E8
  3
Facepattern
350
3EC
  3
Flat
350
3DE
  3
FlatWithEdges
350
3DF
  3
Gouraud
350
3E0
  3
GouraudWithEdges
350
3E1
  3
Linepattern
350
3EB
  3
Realistic
350
3E6
  3
Thicken
350
3EA
  0
XRECORD
  5
423
102
{ACAD_REACTORS
330
19
102
}
330
19
100
AcDbXrecord
280
     1
  0
DICTIONARY
  5
3F4
102
{ACAD_REACTORS
330
19
102
}
330
19
100
AcDbDictionary
281
     1
  3
CANNOSCALE
350
3FC
  3
DIMASSOC
350
3F8
  3
HIDETEXT
350
3F9
  3
MSLTSCALE
350
3F7
  0
XRECORD
  5
3FB
102
{ACAD_REACTORS
330
3FA
102
}
330
3FA
100
AcDbXrecord
280
     1
102
VTR_0.000_0.000_1.000_1.000_VISUALSTYLE
340
3E2
102
VTR_0.000_0.000_1.000_1.000_GRIDDISPLAY
 70
     3
102
VTR_0.000_0.000_1.000_1.000_GRIDMAJOR
 70
     5
102
VTR_0.000_0.000_1.000_1.000_DEFAULTLIGHTING
280
     1
102
VTR_0.000_0.000_1.000_1.000_DEFAULTLIGHTINGTYPE
 70
     1
102
VTR_0.000_0.000_1.000_1.000_BRIGHTNESS
141
0.0
102
VTR_0.000_0.000_1.000_1.000_CONTRAST
142
0.0
  0
LAYOUT
  5
3DC
102
{ACAD_REACTORS
330
3DA
102
}
330
3DA
100
AcDbPlotSettings
  1

  2
none_device
  4

  6

 40
0.0
 41
0.0
 42
0.0
 43
0.0
 44
0.0
 45
0.0
 46
0.0
 47
0.0
 48
0.0
 49
0.0
140
0.0
141
0.0
142
1.0
143
1.0
 70
   688
 72
     0
 73
     0
 74
     5
  7

 75
    16
147
1.0
148
0.0
149
0.0
100
AcDbLayout
  1
Layout1
 70
     1
 71
     1
 10
0.0
 20
0.0
 11
12.0
 21
9.0
 12
0.0
 22
0.0
 32
0.0
 14
1.000000000000000E+20
 24
1.000000000000000E+20
 34
1.000000000000000E+20
 15
-1.000000000000000E+20
 25
-1.000000000000000E+20
 35
-1.000000000000000E+20
146
0.0
 13
0.0
 23
0.0
 33
0.0
 16
1.0
 26
0.0
 36
0.0
 17
0.0
 27
1.0
 37
0.0
 76
     0
330
B
  0
LAYOUT
  5
3DB
102
{ACAD_REACTORS
330
3DA
102
}
330
3DA
100
AcDbPlotSettings
  1

  2
none_device
  4

  6

 40
0.0
 41
0.0
 42
0.0
 43
0.0
 44
0.0
 45
0.0
 46
0.0
 47
0.0
 48
0.0
 49
0.0
140
0.0
141
0.0
142
1.0
143
1.0
 70
  1712
 72
     0
 73
     0
 74
     0
  7

 75
     0
147
1.0
148
2667.54428576817
149
0.0
100
AcDbLayout
  1
Model
 70
     1
 71
     0
 10
0.0
 20
0.0
 11
0.0
 21
0.0
 12
0.0
 22
0.0
 32
0.0
 14
0.0
 24
0.0
 34
0.0
 15
210.0
 25
297.0
 35
0.0
146
0.0
 13
0.0
 23
0.0
 33
0.0
 16
1.0
 26
0.0
 36
0.0
 17
0.0
 27
1.0
 37
0.0
 76
     0
330
A
331
15
  0
MATERIAL
  5
3F0
102
{ACAD_REACTORS
330
3EE
102
}
102
{ACAD_XDICTIONARY
360
41F
102
}
330
3EE
100
AcDbMaterial
  1
ByBlock
  0
MATERIAL
  5
3EF
102
{ACAD_REACTORS
330
3EE
102
}
102
{ACAD_XDICTIONARY
360
41D
102
}
330
3EE
100
AcDbMaterial
  1
ByLayer
  0
MATERIAL
  5
3F1
102
{ACAD_REACTORS
330
3EE
102
}
102
{ACAD_XDICTIONARY
360
421
102
}
330
3EE
100
AcDbMaterial
  1
Global
  0
MLINESTYLE
  5
1C
102
{ACAD_REACTORS
330
1B
102
}
330
1B
100
AcDbMlineStyle
  2
STANDARD
 70
     0
  3

 62
     0
 51
90.0
 52
90.0
 71
     2
 49
0.5
 62
   256
  6
BYLAYER
 49
-0.5
 62
   256
  6
BYLAYER
  0
SCALE
  5
3B9
102
{ACAD_REACTORS
330
3B8
102
}
330
3B8
100
AcDbScale
 70
     0
300
1:1
140
1.0
141
1.0
290
     1
  0
SCALE
  5
3BA
102
{ACAD_REACTORS
330
3B8
102
}
330
3B8
100
AcDbScale
 70
     0
300
1:2
140
1.0
141
2.0
290
     0
  0
SCALE
  5
3BB
102
{ACAD_REACTORS
330
3B8
102
}
330
3B8
100
AcDbScale
 70
     0
300
1:4
140
1.0
141
4.0
290
     0
  0
SCALE
  5
3BC
102
{ACAD_REACTORS
330
3B8
102
}
330
3B8
100
AcDbScale
 70
     0
300
1:5
140
1.0
141
5.0
290
     0
  0
SCALE
  5
3BD
102
{ACAD_REACTORS
330
3B8
102
}
330
3B8
100
AcDbScale
 70
     0
300
1:8
140
1.0
141
8.0
290
     0
  0
SCALE
  5
3BE
102
{ACAD_REACTORS
330
3B8
102
}
330
3B8
100
AcDbScale
 70
     0
300
1:10
140
1.0
141
10.0
290
     0
  0
SCALE
  5
3BF
102
{ACAD_REACTORS
330
3B8
102
}
330
3B8
100
AcDbScale
 70
     0
300
1:16
140
1.0
141
16.0
290
     0
  0
SCALE
  5
3C0
102
{ACAD_REACTORS
330
3B8
102
}
330
3B8
100
AcDbScale
 70
     0
300
1:20
140
1.0
141
20.0
290
     0
  0
SCALE
  5
3C1
102
{ACAD_REACTORS
330
3B8
102
}
330
3B8
100
AcDbScale
 70
     0
300
1:30
140
1.0
141
30.0
290
     0
  0
SCALE
  5
3C2
102
{ACAD_REACTORS
330
3B8
102
}
330
3B8
100
AcDbScale
 70
     0
300
1:40
140
1.0
141
40.0
290
     0
  0
SCALE
  5
3C3
102
{ACAD_REACTORS
330
3B8
102
}
330
3B8
100
AcDbScale
 70
     0
300
1:50
140
1.0
141
50.0
290
     0
  0
SCALE
  5
3C4
102
{ACAD_REACTORS
330
3B8
102
}
330
3B8
100
AcDbScale
 70
     0
300
1:100
140
1.0
141
100.0
290
     0
  0
SCALE
  5
3C5
102
{ACAD_REACTORS
330
3B8
102
}
330
3B8
100
AcDbScale
 70
     0
300
2:1
140
2.0
141
1.0
290
     0
  0
SCALE
  5
3C6
102
{ACAD_REACTORS
330
3B8
102
}
330
3B8
100
AcDbScale
 70
     0
300
4:1
140
4.0
141
1.0
290
     0
  0
SCALE
  5
3C7
102
{ACAD_REACTORS
330
3B8
102
}
330
3B8
100
AcDbScale
 70
     0
300
8:1
140
8.0
141
1.0
290
     0
  0
SCALE
  5
3C8
102
{ACAD_REACTORS
330
3B8
102
}
330
3B8
100
AcDbScale
 70
     0
300
10:1
140
10.0
141
1.0
290
     0
  0
SCALE
  5
3C9
102
{ACAD_REACTORS
330
3B8
102
}
330
3B8
100
AcDbScale
 70
     0
300
100:1
140
100.0
141
1.0
290
     0
  0
SCALE
  5
3CA
102
{ACAD_REACTORS
330
3B8
102
}
330
3B8
100
AcDbScale
 70
     0
300
1/128" = 1'-0"
140
0.0078125
141
12.0
290
     0
  0
SCALE
  5
3CB
102
{ACAD_REACTORS
330
3B8
102
}
330
3B8
100
AcDbScale
 70
     0
300
1/64" = 1'-0"
140
0.015625
141
12.0
290
     0
  0
SCALE
  5
3CC
102
{ACAD_REACTORS
330
3B8
102
}
330
3B8
100
AcDbScale
 70
     0
300
1/32" = 1'-0"
140
0.03125
141
12.0
290
     0
  0
SCALE
  5
3CD
102
{ACAD_REACTORS
330
3B8
102
}
330
3B8
100
AcDbScale
 70
     0
300
1/16" = 1'-0"
140
0.0625
141
12.0
290
     0
  0
SCALE
  5
3CE
102
{ACAD_REACTORS
330
3B8
102
}
330
3B8
100
AcDbScale
 70
     0
300
3/32" = 1'-0"
140
0.09375
141
12.0
290
     0
  0
SCALE
  5
3CF
102
{ACAD_REACTORS
330
3B8
102
}
330
3B8
100
AcDbScale
 70
     0
300
1/8" = 1'-0"
140
0.125
141
12.0
290
     0
  0
SCALE
  5
3D0
102
{ACAD_REACTORS
330
3B8
102
}
330
3B8
100
AcDbScale
 70
     0
300
3/16" = 1'-0"
140
0.1875
141
12.0
290
     0
  0
SCALE
  5
3D1
102
{ACAD_REACTORS
330
3B8
102
}
330
3B8
100
AcDbScale
 70
     0
300
1/4" = 1'-0"
140
0.25
141
12.0
290
     0
  0
SCALE
  5
3D2
102
{ACAD_REACTORS
330
3B8
102
}
330
3B8
100
AcDbScale
 70
     0
300
3/8" = 1'-0"
140
0.375
141
12.0
290
     0
  0
SCALE
  5
3D3
102
{ACAD_REACTORS
330
3B8
102
}
330
3B8
100
AcDbScale
 70
     0
300
1/2" = 1'-0"
140
0.5
141
12.0
290
     0
  0
SCALE
  5
3D4
102
{ACAD_REACTORS
330
3B8
102
}
330
3B8
100
AcDbScale
 70
     0
300
3/4" = 1'-0"
140
0.75
141
12.0
290
     0
  0
SCALE
  5
3D5
102
{ACAD_REACTORS
330
3B8
102
}
330
3B8
100
AcDbScale
 70
     0
300
1" = 1'-0"
140
1.0
141
12.0
290
     0
  0
SCALE
  5
3D6
102
{ACAD_REACTORS
330
3B8
102
}
330
3B8
100
AcDbScale
 70
     0
300
1-1/2" = 1'-0"
140
1.5
141
12.0
290
     0
  0
SCALE
  5
3D7
102
{ACAD_REACTORS
330
3B8
102
}
330
3B8
100
AcDbScale
 70
     0
300
3" = 1'-0"
140
3.0
141
12.0
290
     0
  0
SCALE
  5
3D8
102
{ACAD_REACTORS
330
3B8
102
}
330
3B8
100
AcDbScale
 70
     0
300
6" = 1'-0"
140
6.0
141
12.0
290
     0
  0
SCALE
  5
3D9
102
{ACAD_REACTORS
330
3B8
102
}
330
3B8
100
AcDbScale
 70
     0
300
1'-0" = 1'-0"
140
12.0
141
12.0
290
     0
  0
VISUALSTYLE
  5
3E2
102
{ACAD_REACTORS
330
3DD
102
}
102
{ACAD_XDICTIONARY
360
405
102
}
330
3DD
100
AcDbVisualStyle
  2
2dWireframe
 70
     4
 71
     0
 72
     2
 73
     0
 90
        0
 40
-0.6
 41
-30.0
 62
     5
 63
     7
 74
     1
 91
        4
 64
     7
 65
   257
 75
     1
175
     1
 42
1.0
 92
        0
 66
   257
 43
1.0
 76
     1
 77
     6
 78
     2
 67
     7
 79
     5
170
     0
171
     0
290
     0
174
     0
 93
        1
 44
0.0
173
     0
291
     0
 45
0.0
1001
ACAD
1000
AcDbSavedByObjectVersion
1070
     0
  0
VISUALSTYLE
  5
3E4
102
{ACAD_REACTORS
330
3DD
102
}
102
{ACAD_XDICTIONARY
360
409
102
}
330
3DD
100
AcDbVisualStyle
  2
3D Hidden
 70
     6
 71
     1
 72
     2
 73
     2
 90
        0
 40
-0.6
 41
-30.0
 62
     5
 63
     7
 74
     2
 91
        2
 64
     7
 65
   257
 75
     2
175
     1
 42
40.0
 92
        0
 66
   257
 43
1.0
 76
     1
 77
     6
 78
     2
 67
     7
 79
     3
170
     0
171
     0
290
     0
174
     0
 93
        1
 44
0.0
173
     0
291
     0
 45
0.0
1001
ACAD
1000
AcDbSavedByObjectVersion
1070
     0
  0
VISUALSTYLE
  5
3E3
102
{ACAD_REACTORS
330
3DD
102
}
102
{ACAD_XDICTIONARY
360
407
102
}
330
3DD
100
AcDbVisualStyle
  2
3dWireframe
 70
     5
 71
     0
 72
     2
 73
     0
 90
        0
 40
-0.6
 41
-30.0
 62
     5
 63
     7
 74
     1
 91
        4
 64
     7
 65
   257
 75
     1
175
     1
 42
1.0
 92
        0
 66
   257
 43
1.0
 76
     1
 77
     6
 78
     2
 67
     7
 79
     5
170
     0
171
     0
290
     0
174
     0
 93
        1
 44
0.0
173
     0
291
     0
 45
0.0
1001
ACAD
1000
AcDbSavedByObjectVersion
1070
     0
  0
VISUALSTYLE
  5
3E5
102
{ACAD_REACTORS
330
3DD
102
}
102
{ACAD_XDICTIONARY
360
40B
102
}
330
3DD
100
AcDbVisualStyle
  2
Basic
 70
     7
 71
     1
 72
     0
 73
     1
 90
        0
 40
-0.6
 41
-30.0
 62
     5
 63
     7
 74
     0
 91
        4
 64
     7
 65
   257
 75
     1
175
     1
 42
1.0
 92
        8
 66
     7
 43
1.0
 76
     1
 77
     6
 78
     2
 67
     7
 79
     5
170
     0
171
     0
290
     0
174
     0
 93
        1
 44
0.0
173
     0
291
     1
 45
0.0
1001
ACAD
1000
AcDbSavedByObjectVersion
1070
     0
  0
VISUALSTYLE
  5
3E9
102
{ACAD_REACTORS
330
3DD
102
}
102
{ACAD_XDICTIONARY
360
413
102
}
330
3DD
100
AcDbVisualStyle
  2
Brighten
 70
    12
 71
     2
 72
     2
 73
     0
 90
        0
 40
-0.6
 41
-30.0
 62
     5
 63
     7
 74
     1
 91
        4
 64
     7
 65
   257
 75
     1
175
     1
 42
1.0
 92
        8
 66
     7
 43
1.0
 76
     1
 77
     6
 78
     2
 67
     7
 79
     5
170
     0
171
     0
290
     0
174
     0
 93
        1
 44
50.0
173
     0
291
     1
 45
0.0
1001
ACAD
1000
AcDbSavedByObjectVersion
1070
     0
  0
VISUALSTYLE
  5
3ED
102
{ACAD_REACTORS
330
3DD
102
}
102
{ACAD_XDICTIONARY
360
41B
102
}
330
3DD
100
AcDbVisualStyle
  2
ColorChange
 70
    16
 71
     2
 72
     2
 73
     3
 90
        0
 40
-0.6
 41
-30.0
 62
     5
 63
     8
 74
     1
 91
        4
 64
     7
 65
   257
 75
     1
175
     1
 42
1.0
 92
        8
 66
     8
 43
1.0
 76
     1
 77
     6
 78
     2
 67
     7
 79
     5
170
     0
171
     0
290
     0
174
     0
 93
        1
 44
0.0
173
     0
291
     1
 45
0.0
1001
ACAD
1000
AcDbSavedByObjectVersion
1070
     0
  0
VISUALSTYLE
  5
3E7
102
{ACAD_REACTORS
330
3DD
102
}
102
{ACAD_XDICTIONARY
360
40F
102
}
330
3DD
100
AcDbVisualStyle
  2
Conceptual
 70
     9
 71
     3
 72
     2
 73
     0
 90
        0
 40
-0.6
 41
-30.0
 62
     5
 63
     7
 74
     2
 91
        2
 64
     7
 65
   257
 75
     1
175
     1
 42
40.0
 92
        8
 66
     7
 43
1.0
 76
     1
 77
     6
 78
     2
 67
     7
 79
     3
170
     0
171
     0
290
     0
174
     0
 93
        1
 44
0.0
173
     0
291
     0
 45
0.0
1001
ACAD
1000
AcDbSavedByObjectVersion
1070
     0
  0
VISUALSTYLE
  5
3E8
102
{ACAD_REACTORS
330
3DD
102
}
102
{ACAD_XDICTIONARY
360
411
102
}
330
3DD
100
AcDbVisualStyle
  2
Dim
 70
    11
 71
     2
 72
     2
 73
     0
 90
        0
 40
-0.6
 41
-30.0
 62
     5
 63
     7
 74
     1
 91
        4
 64
     7
 65
   257
 75
     1
175
     1
 42
1.0
 92
        8
 66
     7
 43
1.0
 76
     1
 77
     6
 78
     2
 67
     7
 79
     5
170
     0
171
     0
290
     0
174
     0
 93
        1
 44
-50.0
173
     0
291
     1
 45
0.0
1001
ACAD
1000
AcDbSavedByObjectVersion
1070
     0
  0
VISUALSTYLE
  5
3EC
102
{ACAD_REACTORS
330
3DD
102
}
102
{ACAD_XDICTIONARY
360
419
102
}
330
3DD
100
AcDbVisualStyle
  2
Facepattern
 70
    15
 71
     2
 72
     2
 73
     0
 90
        0
 40
-0.6
 41
-30.0
 62
     5
 63
     7
 74
     1
 91
        4
 64
     7
 65
   257
 75
     1
175
     1
 42
1.0
 92
        8
 66
     7
 43
1.0
 76
     1
 77
     6
 78
     2
 67
     7
 79
     5
170
     0
171
     0
290
     0
174
     0
 93
        1
 44
0.0
173
     0
291
     1
 45
0.0
1001
ACAD
1000
AcDbSavedByObjectVersion
1070
     0
  0
VISUALSTYLE
  5
3DE
102
{ACAD_REACTORS
330
3DD
102
}
102
{ACAD_XDICTIONARY
360
3FD
102
}
330
3DD
100
AcDbVisualStyle
  2
Flat
 70
     0
 71
     2
 72
     1
 73
     1
 90
        2
 40
-0.6
 41
30.0
 62
     5
 63
     7
 74
     0
 91
        4
 64
     7
 65
   257
 75
     1
175
     1
 42
1.0
 92
        8
 66
     7
 43
1.0
 76
     1
 77
     6
 78
     2
 67
     7
 79
     5
170
     0
171
     0
290
     0
174
     0
 93
       13
 44
0.0
173
     0
291
     1
 45
0.0
1001
ACAD
1000
AcDbSavedByObjectVersion
1070
     0
  0
VISUALSTYLE
  5
3DF
102
{ACAD_REACTORS
330
3DD
102
}
102
{ACAD_XDICTIONARY
360
3FF
102
}
330
3DD
100
AcDbVisualStyle
  2
FlatWithEdges
 70
     1
 71
     2
 72
     1
 73
     1
 90
        2
 40
-0.6
 41
30.0
 62
     5
 63
     7
 74
     1
 91
        4
 64
     7
 65
   257
 75
     1
175
     1
 42
1.0
 92
        0
 66
   257
 43
1.0
 76
     1
 77
     6
 78
     2
 67
     7
 79
     5
170
     0
171
     0
290
     0
174
     0
 93
       13
 44
0.0
173
     0
291
     1
 45
0.0
1001
ACAD
1000
AcDbSavedByObjectVersion
1070
     0
  0
VISUALSTYLE
  5
3E0
102
{ACAD_REACTORS
330
3DD
102
}
102
{ACAD_XDICTIONARY
360
401
102
}
330
3DD
100
AcDbVisualStyle
  2
Gouraud
 70
     2
 71
     2
 72
     2
 73
     1
 90
        2
 40
-0.6
 41
30.0
 62
     5
 63
     7
 74
     0
 91
        4
 64
     7
 65
   257
 75
     1
175
     1
 42
1.0
 92
        0
 66
     7
 43
1.0
 76
     1
 77
     6
 78
     2
 67
     7
 79
     5
170
     0
171
     0
290
     0
174
     0
 93
       13
 44
0.0
173
     0
291
     1
 45
0.0
1001
ACAD
1000
AcDbSavedByObjectVersion
1070
     0
  0
VISUALSTYLE
  5
3E1
102
{ACAD_REACTORS
330
3DD
102
}
102
{ACAD_XDICTIONARY
360
403
102
}
330
3DD
100
AcDbVisualStyle
  2
GouraudWithEdges
 70
     3
 71
     2
 72
     2
 73
     1
 90
        2
 40
-0.6
 41
30.0
 62
     5
 63
     7
 74
     1
 91
        4
 64
     7
 65
   257
 75
     1
175
     1
 42
1.0
 92
        0
 66
   257
 43
1.0
 76
     1
 77
     6
 78
     2
 67
     7
 79
     5
170
     0
171
     0
290
     0
174
     0
 93
       13
 44
0.0
173
     0
291
     1
 45
0.0
1001
ACAD
1000
AcDbSavedByObjectVersion
1070
     0
  0
VISUALSTYLE
  5
3EB
102
{ACAD_REACTORS
330
3DD
102
}
102
{ACAD_XDICTIONARY
360
417
102
}
330
3DD
100
AcDbVisualStyle
  2
Linepattern
 70
    14
 71
     2
 72
     2
 73
     0
 90
        0
 40
-0.6
 41
-30.0
 62
     5
 63
     7
 74
     1
 91
        4
 64
     7
 65
   257
 75
     7
175
     7
 42
1.0
 92
        8
 66
     7
 43
1.0
 76
     1
 77
     6
 78
     2
 67
     7
 79
     5
170
     0
171
     0
290
     0
174
     0
 93
        1
 44
0.0
173
     0
291
     1
 45
0.0
1001
ACAD
1000
AcDbSavedByObjectVersion
1070
     0
  0
VISUALSTYLE
  5
3E6
102
{ACAD_REACTORS
330
3DD
102
}
102
{ACAD_XDICTIONARY
360
40D
102
}
330
3DD
100
AcDbVisualStyle
  2
Realistic
 70
     8
 71
     2
 72
     2
 73
     0
 90
        0
 40
-0.6
 41
-30.0
 62
     5
 63
     7
 74
     1
 91
        0
 64
     7
 65
   257
 75
     1
175
     1
 42
1.0
 92
        8
 66
     8
 43
1.0
 76
     1
 77
     6
 78
     2
 67
     7
 79
     5
170
     0
171
     0
290
     0
174
     0
 93
       13
 44
0.0
173
     0
291
     0
 45
0.0
1001
ACAD
1000
AcDbSavedByObjectVersion
1070
     0
  0
VISUALSTYLE
  5
3EA
102
{ACAD_REACTORS
330
3DD
102
}
102
{ACAD_XDICTIONARY
360
415
102
}
330
3DD
100
AcDbVisualStyle
  2
Thicken
 70
    13
 71
     2
 72
     2
 73
     0
 90
        0
 40
-0.6
 41
-30.0
 62
     5
 63
     7
 74
     1
 91
        4
 64
     7
 65
   257
 75
     1
175
     1
 42
1.0
 92
       12
 66
     7
 43
1.0
 76
     1
 77
     6
 78
     2
 67
     7
 79
     5
170
     0
171
     0
290
     0
174
     0
 93
        1
 44
0.0
173
     0
291
     1
 45
0.0
1001
ACAD
1000
AcDbSavedByObjectVersion
1070
     0
  0
DICTIONARYVAR
  5
3FC
102
{ACAD_REACTORS
330
3F4
102
}
330
3F4
100
DictionaryVariables
280
     0
  1
1:1
  0
DICTIONARYVAR
  5
3F8
102
{ACAD_REACTORS
330
3F4
102
}
330
3F4
100
DictionaryVariables
280
     0
  1
2
  0
DICTIONARYVAR
  5
3F9
102
{ACAD_REACTORS
330
3F4
102
}
330
3F4
100
DictionaryVariables
280
     0
  1
1
  0
DICTIONARYVAR
  5
3F7
102
{ACAD_REACTORS
330
3F4
102
}
330
3F4
100
DictionaryVariables
280
     0
  1
0
  0
DICTIONARY
  5
41F
330
3F0
100
AcDbDictionary
280
     1
281
     1
  3
ACAD_XREC_ROUNDTRIP
360
420
  0
DICTIONARY
  5
41D
330
3EF
100
AcDbDictionary
280
     1
281
     1
  3
ACAD_XREC_ROUNDTRIP
360
41E
  0
DICTIONARY
  5
421
330
3F1
100
AcDbDictionary
280
     1
281
     1
  3
ACAD_XREC_ROUNDTRIP
360
422
  0
DICTIONARY
  5
405
330
3E2
100
AcDbDictionary
280
     1
281
     1
  3
ACAD_XREC_ROUNDTRIP
360
406
  0
DICTIONARY
  5
409
330
3E4
100
AcDbDictionary
280
     1
281
     1
  3
ACAD_XREC_ROUNDTRIP
360
40A
  0
DICTIONARY
  5
407
330
3E3
100
AcDbDictionary
280
     1
281
     1
  3
ACAD_XREC_ROUNDTRIP
360
408
  0
DICTIONARY
  5
40B
330
3E5
100
AcDbDictionary
280
     1
281
     1
  3
ACAD_XREC_ROUNDTRIP
360
40C
  0
DICTIONARY
  5
413
330
3E9
100
AcDbDictionary
280
     1
281
     1
  3
ACAD_XREC_ROUNDTRIP
360
414
  0
DICTIONARY
  5
41B
330
3ED
100
AcDbDictionary
280
     1
281
     1
  3
ACAD_XREC_ROUNDTRIP
360
41C
  0
DICTIONARY
  5
40F
330
3E7
100
AcDbDictionary
280
     1
281
     1
  3
ACAD_XREC_ROUNDTRIP
360
410
  0
DICTIONARY
  5
411
330
3E8
100
AcDbDictionary
280
     1
281
     1
  3
ACAD_XREC_ROUNDTRIP
360
412
  0
DICTIONARY
  5
419
330
3EC
100
AcDbDictionary
280
     1
281
     1
  3
ACAD_XREC_ROUNDTRIP
360
41A
  0
DICTIONARY
  5
3FD
330
3DE
100
AcDbDictionary
280
     1
281
     1
  3
ACAD_XREC_ROUNDTRIP
360
3FE
  0
DICTIONARY
  5
3FF
330
3DF
100
AcDbDictionary
280
     1
281
     1
  3
ACAD_XREC_ROUNDTRIP
360
400
  0
DICTIONARY
  5
401
330
3E0
100
AcDbDictionary
280
     1
281
     1
  3
ACAD_XREC_ROUNDTRIP
360
402
  0
DICTIONARY
  5
403
330
3E1
100
AcDbDictionary
280
     1
281
     1
  3
ACAD_XREC_ROUNDTRIP
360
404
  0
DICTIONARY
  5
417
330
3EB
100
AcDbDictionary
280
     1
281
     1
  3
ACAD_XREC_ROUNDTRIP
360
418
  0
DICTIONARY
  5
40D
330
3E6
100
AcDbDictionary
280
     1
281
     1
  3
ACAD_XREC_ROUNDTRIP
360
40E
  0
DICTIONARY
  5
415
330
3EA
100
AcDbDictionary
280
     1
281
     1
  3
ACAD_XREC_ROUNDTRIP
360
416
  0
XRECORD
  5
420
102
{ACAD_REACTORS
330
41F
102
}
330
41F
100
AcDbXrecord
280
     1
102
MATERIAL
148
0.0
149
0.0
149
0.0
 93
        0
 94
      127
282
     0
 72
     1
 77
     1
171
     1
175
     1
179
     1
273
     0
  0
XRECORD
  5
41E
102
{ACAD_REACTORS
330
41D
102
}
330
41D
100
AcDbXrecord
280
     1
102
MATERIAL
148
0.0
149
0.0
149
0.0
 93
        0
 94
      127
282
     0
 72
     1
 77
     1
171
     1
175
     1
179
     1
273
     0
  0
XRECORD
  5
422
102
{ACAD_REACTORS
330
421
102
}
330
421
100
AcDbXrecord
280
     1
102
MATERIAL
148
0.0
149
0.0
149
0.0
 93
        0
 94
      127
282
     0
 72
     1
 77
     1
171
     1
175
     1
179
     1
273
     0
  0
XRECORD
  5
406
102
{ACAD_REACTORS
330
405
102
}
330
405
100
AcDbXrecord
280
     1
102
RTVSPropertyOp0
 70
     1
102
RTVSPropertyOp1
 70
     1
102
RTVSPropertyOp2
 70
     1
102
RTVSPropertyOp3
 70
     1
102
RTVSPropertyOp4
 70
     1
102
RTVSPropertyOp5
 70
     1
102
RTVSPropertyOp6
 70
     1
102
RTVSPropertyOp7
 70
     1
102
RTVSPropertyOp8
 70
     1
102
RTVSPropertyOp9
 70
     1
102
RTVSPropertyOp10
 70
     1
102
RTVSPropertyOp11
 70
     1
102
RTVSPropertyOp12
 70
     1
102
RTVSPropertyOp13
 70
     1
102
RTVSPropertyOp14
 70
     1
102
RTVSPropertyOp15
 70
     1
102
RTVSPropertyOp16
 70
     1
102
RTVSPropertyOp17
 70
     1
102
RTVSPropertyOp18
 70
     1
102
RTVSPropertyOp19
 70
     1
102
RTVSPropertyOp20
 70
     1
102
RTVSPropertyOp21
 70
     1
102
RTVSPropertyOp22
 70
     1
102
RTVSPropertyOp23
 70
     1
102
RTVSPropertyOp24
 70
     1
102
RTVSPropertyOp25
 70
     1
102
RTVSPropertyOp26
 70
     1
102
RTVSPropertyOp27
 70
     1
102
RTVSPropertyOp28
 70
     1
102
RTVSPropertyOp29
 70
     1
102
RTVSPropertyOp30
 70
     1
102
RTVSPropertyOp31
 70
     1
102
RTVSPropertyOp32
 70
     1
  0
XRECORD
  5
40A
102
{ACAD_REACTORS
330
409
102
}
330
409
100
AcDbXrecord
280
     1
102
RTVSPropertyOp0
 70
     1
102
RTVSPropertyOp1
 70
     1
102
RTVSPropertyOp2
 70
     1
102
RTVSPropertyOp3
 70
     1
102
RTVSPropertyOp4
 70
     1
102
RTVSPropertyOp5
 70
     1
102
RTVSPropertyOp6
 70
     1
102
RTVSPropertyOp7
 70
     1
102
RTVSPropertyOp8
 70
     1
102
RTVSPropertyOp9
 70
     1
102
RTVSPropertyOp10
 70
     1
102
RTVSPropertyOp11
 70
     1
102
RTVSPropertyOp12
 70
     1
102
RTVSPropertyOp13
 70
     1
102
RTVSPropertyOp14
 70
     1
102
RTVSPropertyOp15
 70
     1
102
RTVSPropertyOp16
 70
     1
102
RTVSPropertyOp17
 70
     1
102
RTVSPropertyOp18
 70
     1
102
RTVSPropertyOp19
 70
     1
102
RTVSPropertyOp20
 70
     1
102
RTVSPropertyOp21
 70
     1
102
RTVSPropertyOp22
 70
     1
102
RTVSPropertyOp23
 70
     1
102
RTVSPropertyOp24
 70
     1
102
RTVSPropertyOp25
 70
     1
102
RTVSPropertyOp26
 70
     1
102
RTVSPropertyOp27
 70
     1
102
RTVSPropertyOp28
 70
     1
102
RTVSPropertyOp29
 70
     1
102
RTVSPropertyOp30
 70
     1
102
RTVSPropertyOp31
 70
     1
102
RTVSPropertyOp32
 70
     1
  0
XRECORD
  5
408
102
{ACAD_REACTORS
330
407
102
}
330
407
100
AcDbXrecord
280
     1
102
RTVSPropertyOp0
 70
     1
102
RTVSPropertyOp1
 70
     1
102
RTVSPropertyOp2
 70
     1
102
RTVSPropertyOp3
 70
     1
102
RTVSPropertyOp4
 70
     1
102
RTVSPropertyOp5
 70
     1
102
RTVSPropertyOp6
 70
     1
102
RTVSPropertyOp7
 70
     1
102
RTVSPropertyOp8
 70
     1
102
RTVSPropertyOp9
 70
     1
102
RTVSPropertyOp10
 70
     1
102
RTVSPropertyOp11
 70
     1
102
RTVSPropertyOp12
 70
     1
102
RTVSPropertyOp13
 70
     1
102
RTVSPropertyOp14
 70
     1
102
RTVSPropertyOp15
 70
     1
102
RTVSPropertyOp16
 70
     1
102
RTVSPropertyOp17
 70
     1
102
RTVSPropertyOp18
 70
     1
102
RTVSPropertyOp19
 70
     1
102
RTVSPropertyOp20
 70
     1
102
RTVSPropertyOp21
 70
     1
102
RTVSPropertyOp22
 70
     1
102
RTVSPropertyOp23
 70
     1
102
RTVSPropertyOp24
 70
     1
102
RTVSPropertyOp25
 70
     1
102
RTVSPropertyOp26
 70
     1
102
RTVSPropertyOp27
 70
     1
102
RTVSPropertyOp28
 70
     1
102
RTVSPropertyOp29
 70
     1
102
RTVSPropertyOp30
 70
     1
102
RTVSPropertyOp31
 70
     1
102
RTVSPropertyOp32
 70
     1
  0
XRECORD
  5
40C
102
{ACAD_REACTORS
330
40B
102
}
330
40B
100
AcDbXrecord
280
     1
102
RTVSPropertyOp0
 70
     1
102
RTVSPropertyOp1
 70
     1
102
RTVSPropertyOp2
 70
     1
102
RTVSPropertyOp3
 70
     1
102
RTVSPropertyOp4
 70
     1
102
RTVSPropertyOp5
 70
     1
102
RTVSPropertyOp6
 70
     1
102
RTVSPropertyOp7
 70
     1
102
RTVSPropertyOp8
 70
     1
102
RTVSPropertyOp9
 70
     1
102
RTVSPropertyOp10
 70
     1
102
RTVSPropertyOp11
 70
     1
102
RTVSPropertyOp12
 70
     1
102
RTVSPropertyOp13
 70
     1
102
RTVSPropertyOp14
 70
     1
102
RTVSPropertyOp15
 70
     1
102
RTVSPropertyOp16
 70
     1
102
RTVSPropertyOp17
 70
     1
102
RTVSPropertyOp18
 70
     1
102
RTVSPropertyOp19
 70
     1
102
RTVSPropertyOp20
 70
     1
102
RTVSPropertyOp21
 70
     1
102
RTVSPropertyOp22
 70
     1
102
RTVSPropertyOp23
 70
     1
102
RTVSPropertyOp24
 70
     1
102
RTVSPropertyOp25
 70
     1
102
RTVSPropertyOp26
 70
     1
102
RTVSPropertyOp27
 70
     1
102
RTVSPropertyOp28
 70
     1
102
RTVSPropertyOp29
 70
     1
102
RTVSPropertyOp30
 70
     1
102
RTVSPropertyOp31
 70
     1
102
RTVSPropertyOp32
 70
     1
  0
XRECORD
  5
414
102
{ACAD_REACTORS
330
413
102
}
330
413
100
AcDbXrecord
280
     1
102
RTVSPropertyOp0
 70
     1
102
RTVSPropertyOp1
 70
     1
102
RTVSPropertyOp2
 70
     1
102
RTVSPropertyOp3
 70
     1
102
RTVSPropertyOp4
 70
     1
102
RTVSPropertyOp5
 70
     1
102
RTVSPropertyOp6
 70
     1
102
RTVSPropertyOp7
 70
     1
102
RTVSPropertyOp8
 70
     1
102
RTVSPropertyOp9
 70
     1
102
RTVSPropertyOp10
 70
     1
102
RTVSPropertyOp11
 70
     1
102
RTVSPropertyOp12
 70
     1
102
RTVSPropertyOp13
 70
     1
102
RTVSPropertyOp14
 70
     1
102
RTVSPropertyOp15
 70
     1
102
RTVSPropertyOp16
 70
     1
102
RTVSPropertyOp17
 70
     1
102
RTVSPropertyOp18
 70
     1
102
RTVSPropertyOp19
 70
     1
102
RTVSPropertyOp20
 70
     1
102
RTVSPropertyOp21
 70
     1
102
RTVSPropertyOp22
 70
     1
102
RTVSPropertyOp23
 70
     1
102
RTVSPropertyOp24
 70
     1
102
RTVSPropertyOp25
 70
     1
102
RTVSPropertyOp26
 70
     1
102
RTVSPropertyOp27
 70
     1
102
RTVSPropertyOp28
 70
     1
102
RTVSPropertyOp29
 70
     1
102
RTVSPropertyOp30
 70
     1
102
RTVSPropertyOp31
 70
     1
102
RTVSPropertyOp32
 70
     1
  0
XRECORD
  5
41C
102
{ACAD_REACTORS
330
41B
102
}
330
41B
100
AcDbXrecord
280
     1
102
RTVSPropertyOp0
 70
     1
102
RTVSPropertyOp1
 70
     1
102
RTVSPropertyOp2
 70
     1
102
RTVSPropertyOp3
 70
     1
102
RTVSPropertyOp4
 70
     1
102
RTVSPropertyOp5
 70
     1
102
RTVSPropertyOp6
 70
     1
102
RTVSPropertyOp7
 70
     1
102
RTVSPropertyOp8
 70
     1
102
RTVSPropertyOp9
 70
     1
102
RTVSPropertyOp10
 70
     1
102
RTVSPropertyOp11
 70
     1
102
RTVSPropertyOp12
 70
     1
102
RTVSPropertyOp13
 70
     1
102
RTVSPropertyOp14
 70
     1
102
RTVSPropertyOp15
 70
     1
102
RTVSPropertyOp16
 70
     1
102
RTVSPropertyOp17
 70
     1
102
RTVSPropertyOp18
 70
     1
102
RTVSPropertyOp19
 70
     1
102
RTVSPropertyOp20
 70
     1
102
RTVSPropertyOp21
 70
     1
102
RTVSPropertyOp22
 70
     1
102
RTVSPropertyOp23
 70
     1
102
RTVSPropertyOp24
 70
     1
102
RTVSPropertyOp25
 70
     1
102
RTVSPropertyOp26
 70
     1
102
RTVSPropertyOp27
 70
     1
102
RTVSPropertyOp28
 70
     1
102
RTVSPropertyOp29
 70
     1
102
RTVSPropertyOp30
 70
     1
102
RTVSPropertyOp31
 70
     1
102
RTVSPropertyOp32
 70
     1
  0
XRECORD
  5
410
102
{ACAD_REACTORS
330
40F
102
}
330
40F
100
AcDbXrecord
280
     1
102
RTVSPropertyOp0
 70
     1
102
RTVSPropertyOp1
 70
     1
102
RTVSPropertyOp2
 70
     1
102
RTVSPropertyOp3
 70
     1
102
RTVSPropertyOp4
 70
     1
102
RTVSPropertyOp5
 70
     1
102
RTVSPropertyOp6
 70
     1
102
RTVSPropertyOp7
 70
     1
102
RTVSPropertyOp8
 70
     1
102
RTVSPropertyOp9
 70
     1
102
RTVSPropertyOp10
 70
     1
102
RTVSPropertyOp11
 70
     1
102
RTVSPropertyOp12
 70
     1
102
RTVSPropertyOp13
 70
     1
102
RTVSPropertyOp14
 70
     1
102
RTVSPropertyOp15
 70
     1
102
RTVSPropertyOp16
 70
     1
102
RTVSPropertyOp17
 70
     1
102
RTVSPropertyOp18
 70
     1
102
RTVSPropertyOp19
 70
     1
102
RTVSPropertyOp20
 70
     1
102
RTVSPropertyOp21
 70
     1
102
RTVSPropertyOp22
 70
     1
102
RTVSPropertyOp23
 70
     1
102
RTVSPropertyOp24
 70
     1
102
RTVSPropertyOp25
 70
     1
102
RTVSPropertyOp26
 70
     1
102
RTVSPropertyOp27
 70
     1
102
RTVSPropertyOp28
 70
     1
102
RTVSPropertyOp29
 70
     1
102
RTVSPropertyOp30
 70
     1
102
RTVSPropertyOp31
 70
     1
102
RTVSPropertyOp32
 70
     1
  0
XRECORD
  5
412
102
{ACAD_REACTORS
330
411
102
}
330
411
100
AcDbXrecord
280
     1
102
RTVSPropertyOp0
 70
     1
102
RTVSPropertyOp1
 70
     1
102
RTVSPropertyOp2
 70
     1
102
RTVSPropertyOp3
 70
     1
102
RTVSPropertyOp4
 70
     1
102
RTVSPropertyOp5
 70
     1
102
RTVSPropertyOp6
 70
     1
102
RTVSPropertyOp7
 70
     1
102
RTVSPropertyOp8
 70
     1
102
RTVSPropertyOp9
 70
     1
102
RTVSPropertyOp10
 70
     1
102
RTVSPropertyOp11
 70
     1
102
RTVSPropertyOp12
 70
     1
102
RTVSPropertyOp13
 70
     1
102
RTVSPropertyOp14
 70
     1
102
RTVSPropertyOp15
 70
     1
102
RTVSPropertyOp16
 70
     1
102
RTVSPropertyOp17
 70
     1
102
RTVSPropertyOp18
 70
     1
102
RTVSPropertyOp19
 70
     1
102
RTVSPropertyOp20
 70
     1
102
RTVSPropertyOp21
 70
     1
102
RTVSPropertyOp22
 70
     1
102
RTVSPropertyOp23
 70
     1
102
RTVSPropertyOp24
 70
     1
102
RTVSPropertyOp25
 70
     1
102
RTVSPropertyOp26
 70
     1
102
RTVSPropertyOp27
 70
     1
102
RTVSPropertyOp28
 70
     1
102
RTVSPropertyOp29
 70
     1
102
RTVSPropertyOp30
 70
     1
102
RTVSPropertyOp31
 70
     1
102
RTVSPropertyOp32
 70
     1
  0
XRECORD
  5
41A
102
{ACAD_REACTORS
330
419
102
}
330
419
100
AcDbXrecord
280
     1
102
RTVSPropertyOp0
 70
     1
102
RTVSPropertyOp1
 70
     1
102
RTVSPropertyOp2
 70
     1
102
RTVSPropertyOp3
 70
     1
102
RTVSPropertyOp4
 70
     1
102
RTVSPropertyOp5
 70
     1
102
RTVSPropertyOp6
 70
     1
102
RTVSPropertyOp7
 70
     1
102
RTVSPropertyOp8
 70
     1
102
RTVSPropertyOp9
 70
     1
102
RTVSPropertyOp10
 70
     1
102
RTVSPropertyOp11
 70
     1
102
RTVSPropertyOp12
 70
     1
102
RTVSPropertyOp13
 70
     1
102
RTVSPropertyOp14
 70
     1
102
RTVSPropertyOp15
 70
     1
102
RTVSPropertyOp16
 70
     1
102
RTVSPropertyOp17
 70
     1
102
RTVSPropertyOp18
 70
     1
102
RTVSPropertyOp19
 70
     1
102
RTVSPropertyOp20
 70
     1
102
RTVSPropertyOp21
 70
     1
102
RTVSPropertyOp22
 70
     1
102
RTVSPropertyOp23
 70
     1
102
RTVSPropertyOp24
 70
     1
102
RTVSPropertyOp25
 70
     1
102
RTVSPropertyOp26
 70
     1
102
RTVSPropertyOp27
 70
     1
102
RTVSPropertyOp28
 70
     1
102
RTVSPropertyOp29
 70
     1
102
RTVSPropertyOp30
 70
     1
102
RTVSPropertyOp31
 70
     1
102
RTVSPropertyOp32
 70
     1
  0
XRECORD
  5
3FE
102
{ACAD_REACTORS
330
3FD
102
}
330
3FD
100
AcDbXrecord
280
     1
102
RTVSPropertyOp0
 70
     1
102
RTVSPropertyOp1
 70
     1
102
RTVSPropertyOp2
 70
     1
102
RTVSPropertyOp3
 70
     1
102
RTVSPropertyOp4
 70
     1
102
RTVSPropertyOp5
 70
     1
102
RTVSPropertyOp6
 70
     1
102
RTVSPropertyOp7
 70
     1
102
RTVSPropertyOp8
 70
     1
102
RTVSPropertyOp9
 70
     1
102
RTVSPropertyOp10
 70
     1
102
RTVSPropertyOp11
 70
     1
102
RTVSPropertyOp12
 70
     1
102
RTVSPropertyOp13
 70
     1
102
RTVSPropertyOp14
 70
     1
102
RTVSPropertyOp15
 70
     1
102
RTVSPropertyOp16
 70
     1
102
RTVSPropertyOp17
 70
     1
102
RTVSPropertyOp18
 70
     1
102
RTVSPropertyOp19
 70
     1
102
RTVSPropertyOp20
 70
     1
102
RTVSPropertyOp21
 70
     1
102
RTVSPropertyOp22
 70
     1
102
RTVSPropertyOp23
 70
     1
102
RTVSPropertyOp24
 70
     1
102
RTVSPropertyOp25
 70
     1
102
RTVSPropertyOp26
 70
     1
102
RTVSPropertyOp27
 70
     1
102
RTVSPropertyOp28
 70
     1
102
RTVSPropertyOp29
 70
     1
102
RTVSPropertyOp30
 70
     1
102
RTVSPropertyOp31
 70
     1
102
RTVSPropertyOp32
 70
     1
  0
XRECORD
  5
400
102
{ACAD_REACTORS
330
3FF
102
}
330
3FF
100
AcDbXrecord
280
     1
102
RTVSPropertyOp0
 70
     1
102
RTVSPropertyOp1
 70
     1
102
RTVSPropertyOp2
 70
     1
102
RTVSPropertyOp3
 70
     1
102
RTVSPropertyOp4
 70
     1
102
RTVSPropertyOp5
 70
     1
102
RTVSPropertyOp6
 70
     1
102
RTVSPropertyOp7
 70
     1
102
RTVSPropertyOp8
 70
     1
102
RTVSPropertyOp9
 70
     1
102
RTVSPropertyOp10
 70
     1
102
RTVSPropertyOp11
 70
     1
102
RTVSPropertyOp12
 70
     1
102
RTVSPropertyOp13
 70
     1
102
RTVSPropertyOp14
 70
     1
102
RTVSPropertyOp15
 70
     1
102
RTVSPropertyOp16
 70
     1
102
RTVSPropertyOp17
 70
     1
102
RTVSPropertyOp18
 70
     1
102
RTVSPropertyOp19
 70
     1
102
RTVSPropertyOp20
 70
     1
102
RTVSPropertyOp21
 70
     1
102
RTVSPropertyOp22
 70
     1
102
RTVSPropertyOp23
 70
     1
102
RTVSPropertyOp24
 70
     1
102
RTVSPropertyOp25
 70
     1
102
RTVSPropertyOp26
 70
     1
102
RTVSPropertyOp27
 70
     1
102
RTVSPropertyOp28
 70
     1
102
RTVSPropertyOp29
 70
     1
102
RTVSPropertyOp30
 70
     1
102
RTVSPropertyOp31
 70
     1
102
RTVSPropertyOp32
 70
     1
  0
XRECORD
  5
402
102
{ACAD_REACTORS
330
401
102
}
330
401
100
AcDbXrecord
280
     1
102
RTVSPropertyOp0
 70
     1
102
RTVSPropertyOp1
 70
     1
102
RTVSPropertyOp2
 70
     1
102
RTVSPropertyOp3
 70
     1
102
RTVSPropertyOp4
 70
     1
102
RTVSPropertyOp5
 70
     1
102
RTVSPropertyOp6
 70
     1
102
RTVSPropertyOp7
 70
     1
102
RTVSPropertyOp8
 70
     1
102
RTVSPropertyOp9
 70
     1
102
RTVSPropertyOp10
 70
     1
102
RTVSPropertyOp11
 70
     1
102
RTVSPropertyOp12
 70
     1
102
RTVSPropertyOp13
 70
     1
102
RTVSPropertyOp14
 70
     1
102
RTVSPropertyOp15
 70
     1
102
RTVSPropertyOp16
 70
     1
102
RTVSPropertyOp17
 70
     1
102
RTVSPropertyOp18
 70
     1
102
RTVSPropertyOp19
 70
     1
102
RTVSPropertyOp20
 70
     1
102
RTVSPropertyOp21
 70
     1
102
RTVSPropertyOp22
 70
     1
102
RTVSPropertyOp23
 70
     1
102
RTVSPropertyOp24
 70
     1
102
RTVSPropertyOp25
 70
     1
102
RTVSPropertyOp26
 70
     1
102
RTVSPropertyOp27
 70
     1
102
RTVSPropertyOp28
 70
     1
102
RTVSPropertyOp29
 70
     1
102
RTVSPropertyOp30
 70
     1
102
RTVSPropertyOp31
 70
     1
102
RTVSPropertyOp32
 70
     1
  0
XRECORD
  5
404
102
{ACAD_REACTORS
330
403
102
}
330
403
100
AcDbXrecord
280
     1
102
RTVSPropertyOp0
 70
     1
102
RTVSPropertyOp1
 70
     1
102
RTVSPropertyOp2
 70
     1
102
RTVSPropertyOp3
 70
     1
102
RTVSPropertyOp4
 70
     1
102
RTVSPropertyOp5
 70
     1
102
RTVSPropertyOp6
 70
     1
102
RTVSPropertyOp7
 70
     1
102
RTVSPropertyOp8
 70
     1
102
RTVSPropertyOp9
 70
     1
102
RTVSPropertyOp10
 70
     1
102
RTVSPropertyOp11
 70
     1
102
RTVSPropertyOp12
 70
     1
102
RTVSPropertyOp13
 70
     1
102
RTVSPropertyOp14
 70
     1
102
RTVSPropertyOp15
 70
     1
102
RTVSPropertyOp16
 70
     1
102
RTVSPropertyOp17
 70
     1
102
RTVSPropertyOp18
 70
     1
102
RTVSPropertyOp19
 70
     1
102
RTVSPropertyOp20
 70
     1
102
RTVSPropertyOp21
 70
     1
102
RTVSPropertyOp22
 70
     1
102
RTVSPropertyOp23
 70
     1
102
RTVSPropertyOp24
 70
     1
102
RTVSPropertyOp25
 70
     1
102
RTVSPropertyOp26
 70
     1
102
RTVSPropertyOp27
 70
     1
102
RTVSPropertyOp28
 70
     1
102
RTVSPropertyOp29
 70
     1
102
RTVSPropertyOp30
 70
     1
102
RTVSPropertyOp31
 70
     1
102
RTVSPropertyOp32
 70
     1
  0
XRECORD
  5
418
102
{ACAD_REACTORS
330
417
102
}
330
417
100
AcDbXrecord
280
     1
102
RTVSPropertyOp0
 70
     1
102
RTVSPropertyOp1
 70
     1
102
RTVSPropertyOp2
 70
     1
102
RTVSPropertyOp3
 70
     1
102
RTVSPropertyOp4
 70
     1
102
RTVSPropertyOp5
 70
     1
102
RTVSPropertyOp6
 70
     1
102
RTVSPropertyOp7
 70
     1
102
RTVSPropertyOp8
 70
     1
102
RTVSPropertyOp9
 70
     1
102
RTVSPropertyOp10
 70
     1
102
RTVSPropertyOp11
 70
     1
102
RTVSPropertyOp12
 70
     1
102
RTVSPropertyOp13
 70
     1
102
RTVSPropertyOp14
 70
     1
102
RTVSPropertyOp15
 70
     1
102
RTVSPropertyOp16
 70
     1
102
RTVSPropertyOp17
 70
     1
102
RTVSPropertyOp18
 70
     1
102
RTVSPropertyOp19
 70
     1
102
RTVSPropertyOp20
 70
     1
102
RTVSPropertyOp21
 70
     1
102
RTVSPropertyOp22
 70
     1
102
RTVSPropertyOp23
 70
     1
102
RTVSPropertyOp24
 70
     1
102
RTVSPropertyOp25
 70
     1
102
RTVSPropertyOp26
 70
     1
102
RTVSPropertyOp27
 70
     1
102
RTVSPropertyOp28
 70
     1
102
RTVSPropertyOp29
 70
     1
102
RTVSPropertyOp30
 70
     1
102
RTVSPropertyOp31
 70
     1
102
RTVSPropertyOp32
 70
     1
  0
XRECORD
  5
40E
102
{ACAD_REACTORS
330
40D
102
}
330
40D
100
AcDbXrecord
280
     1
102
RTVSPropertyOp0
 70
     1
102
RTVSPropertyOp1
 70
     1
102
RTVSPropertyOp2
 70
     1
102
RTVSPropertyOp3
 70
     1
102
RTVSPropertyOp4
 70
     1
102
RTVSPropertyOp5
 70
     1
102
RTVSPropertyOp6
 70
     1
102
RTVSPropertyOp7
 70
     1
102
RTVSPropertyOp8
 70
     1
102
RTVSPropertyOp9
 70
     1
102
RTVSPropertyOp10
 70
     1
102
RTVSPropertyOp11
 70
     1
102
RTVSPropertyOp12
 70
     1
102
RTVSPropertyOp13
 70
     1
102
RTVSPropertyOp14
 70
     1
102
RTVSPropertyOp15
 70
     1
102
RTVSPropertyOp16
 70
     1
102
RTVSPropertyOp17
 70
     1
102
RTVSPropertyOp18
 70
     1
102
RTVSPropertyOp19
 70
     1
102
RTVSPropertyOp20
 70
     1
102
RTVSPropertyOp21
 70
     1
102
RTVSPropertyOp22
 70
     1
102
RTVSPropertyOp23
 70
     1
102
RTVSPropertyOp24
 70
     1
102
RTVSPropertyOp25
 70
     1
102
RTVSPropertyOp26
 70
     1
102
RTVSPropertyOp27
 70
     1
102
RTVSPropertyOp28
 70
     1
102
RTVSPropertyOp29
 70
     1
102
RTVSPropertyOp30
 70
     1
102
RTVSPropertyOp31
 70
     1
102
RTVSPropertyOp32
 70
     1
  0
XRECORD
  5
416
102
{ACAD_REACTORS
330
415
102
}
330
415
100
AcDbXrecord
280
     1
102
RTVSPropertyOp0
 70
     1
102
RTVSPropertyOp1
 70
     1
102
RTVSPropertyOp2
 70
     1
102
RTVSPropertyOp3
 70
     1
102
RTVSPropertyOp4
 70
     1
102
RTVSPropertyOp5
 70
     1
102
RTVSPropertyOp6
 70
     1
102
RTVSPropertyOp7
 70
     1
102
RTVSPropertyOp8
 70
     1
102
RTVSPropertyOp9
 70
     1
102
RTVSPropertyOp10
 70
     1
102
RTVSPropertyOp11
 70
     1
102
RTVSPropertyOp12
 70
     1
102
RTVSPropertyOp13
 70
     1
102
RTVSPropertyOp14
 70
     1
102
RTVSPropertyOp15
 70
     1
102
RTVSPropertyOp16
 70
     1
102
RTVSPropertyOp17
 70
     1
102
RTVSPropertyOp18
 70
     1
102
RTVSPropertyOp19
 70
     1
102
RTVSPropertyOp20
 70
     1
102
RTVSPropertyOp21
 70
     1
102
RTVSPropertyOp22
 70
     1
102
RTVSPropertyOp23
 70
     1
102
RTVSPropertyOp24
 70
     1
102
RTVSPropertyOp25
 70
     1
102
RTVSPropertyOp26
 70
     1
102
RTVSPropertyOp27
 70
     1
102
RTVSPropertyOp28
 70
     1
102
RTVSPropertyOp29
 70
     1
102
RTVSPropertyOp30
 70
     1
102
RTVSPropertyOp31
 70
     1
102
RTVSPropertyOp32
 70
     1
  0
ENDSEC
  0
EOF
