  0
SECTION
  2
HEADER
  9
$ACADVER
  1
AC1015
  9
$ACADMAINTVER
 70
     6
  9
$DWGCODEPAGE
  3
ANSI_1252
  9
$INSBASE
 10
0.0
 20
0.0
 30
0.0
  9
$EXTMIN
 10
0.0
 20
0.0
 30
0.0
  9
$EXTMAX
 10
210.0
 20
297.0
 30
0.0
  9
$LIMMIN
 10
0.0
 20
0.0
  9
$LIMMAX
 10
0.0
 20
0.0
  9
$ORTHOMODE
 70
     0
  9
$REGENMODE
 70
     1
  9
$FILLMODE
 70
     1
  9
$QTEXTMODE
 70
     0
  9
$MIRRTEXT
 70
     1
  9
$LTSCALE
 40
1.0
  9
$ATTMODE
 70
     1
  9
$TEXTSIZE
 40
0.0
  9
$TRACEWID
 40
0.05
  9
$TEXTSTYLE
  7
STANDARD
  9
$CLAYER
  8
0
  9
$CELTYPE
  6
CONTINUOUS
  9
$CECOLOR
 62
   256
  9
$CELTSCALE
 40
1.0
  9
$DISPSILH
 70
     0
  9
$DIMSCALE
 40
1.0
  9
$DIMASZ
 40
0.0
  9
$DIMEXO
 40
0.0
  9
$DIMDLI
 40
0.38
  9
$DIMRND
 40
0.0
  9
$DIMDLE
 40
0.0
  9
$DIMEXE
 40
0.18
  9
$DIMTP
 40
0.0
  9
$DIMTM
 40
0.0
  9
$DIMTXT
 40
3.5
  9
$DIMCEN
 40
0.09
  9
$DIMTSZ
 40
0.0
  9
$DIMTOL
 70
     0
  9
$DIMLIM
 70
     0
  9
$DIMTIH
 70
     1
  9
$DIMTOH
 70
     1
  9
$DIMSE1
 70
     0
  9
$DIMSE2
 70
     0
  9
$DIMTAD
 70
     1
  9
$DIMZIN
 70
     0
  9
$DIMBLK
  1

  9
$DIMASO
 70
     1
  9
$DIMSHO
 70
     1
  9
$DIMPOST
  1

  9
$DIMAPOST
  1

  9
$DIMALT
 70
     0
  9
$DIMALTD
 70
     2
  9
$DIMALTF
 40
0.0394
  9
$DIMLFAC
 40
2.0
  9
$DIMTOFL
 70
     0
  9
$DIMTVP
 40
0.0
  9
$DIMTIX
 70
     0
  9
$DIMSOXD
 70
     0
  9
$DIMSAH
 70
     0
  9
$DIMBLK1
  1

  9
$DIMBLK2
  1

  9
$DIMSTYLE
  2
STANDARD
  9
$DIMCLRD
 70
     0
  9
$DIMCLRE
 70
     0
  9
$DIMCLRT
 70
     0
  9
$DIMTFAC
 40
1.0
  9
$DIMGAP
 40
0.0
  9
$DIMJUST
 70
     0
  9
$DIMSD1
 70
     0
  9
$DIMSD2
 70
     0
  9
$DIMTOLJ
 70
     1
  9
$DIMTZIN
 70
     0
  9
$DIMALTZ
 70
     0
  9
$DIMALTTZ
 70
     0
  9
$DIMUPT
 70
     0
  9
$DIMDEC
 70
     4
  9
$DIMTDEC
 70
     4
  9
$DIMALTU
 70
     2
  9
$DIMALTTD
 70
     2
  9
$DIMTXSTY
  7
STANDARD
  9
$DIMAUNIT
 70
     0
  9
$DIMADEC
 70
     0
  9
$DIMALTRND
 40
0.0
  9
$DIMAZIN
 70
     0
  9
$DIMDSEP
 70
    46
  9
$DIMATFIT
 70
     3
  9
$DIMFRAC
 70
     0
  9
$DIMLDRBLK
  1

  9
$DIMLUNIT
 70
     2
  9
$DIMLWD
 70
    -2
  9
$DIMLWE
 70
    -2
  9
$DIMTMOVE
 70
     2
  9
$LUNITS
 70
     2
  9
$LUPREC
 70
     2
  9
$SKETCHINC
 40
0.1
  9
$FILLETRAD
 40
0.0
  9
$AUNITS
 70
     0
  9
$AUPREC
 70
     2
  9
$MENU
  1
acad
  9
$ELEVATION
 40
0.0
  9
$PELEVATION
 40
0.0
  9
$THICKNESS
 40
0.0
  9
$LIMCHECK
 70
     0
  9
$CHAMFERA
 40
0.0
  9
$CHAMFERB
 40
0.0
  9
$CHAMFERC
 40
0.0
  9
$CHAMFERD
 40
0.0
  9
$SKPOLY
 70
     0
  9
$TDCREATE
 40
2447893.0
  9
$TDUCREATE
 40
2447892.916666667
  9
$TDUPDATE
 40
2458327.548764572
  9
$TDUUPDATE
 40
2458327.465431239
  9
$TDINDWG
 40
0.0
  9
$TDUSRTIMER
 40
0.0
  9
$USRTIMER
 70
     1
  9
$ANGBASE
 50
0.0
  9
$ANGDIR
 70
     0
  9
$PDMODE
 70
     0
  9
$PDSIZE
 40
-1.0
  9
$PLINEWID
 40
0.0
  9
$SPLFRAME
 70
     0
  9
$SPLINETYPE
 70
     6
  9
$SPLINESEGS
 70
     8
  9
$HANDSEED
  5
3D2
  9
$SURFTAB1
 70
     6
  9
$SURFTAB2
 70
     6
  9
$SURFTYPE
 70
     6
  9
$SURFU
 70
     6
  9
$SURFV
 70
     6
  9
$UCSBASE
  2

  9
$UCSNAME
  2

  9
$UCSORG
 10
0.0
 20
0.0
 30
0.0
  9
$UCSXDIR
 10
1.0
 20
0.0
 30
0.0
  9
$UCSYDIR
 10
0.0
 20
1.0
 30
0.0
  9
$UCSORTHOREF
  2

  9
$UCSORTHOVIEW
 70
     0
  9
$UCSORGTOP
 10
0.0
 20
0.0
 30
0.0
  9
$UCSORGBOTTOM
 10
0.0
 20
0.0
 30
0.0
  9
$UCSORGLEFT
 10
0.0
 20
0.0
 30
0.0
  9
$UCSORGRIGHT
 10
0.0
 20
0.0
 30
0.0
  9
$UCSORGFRONT
 10
0.0
 20
0.0
 30
0.0
  9
$UCSORGBACK
 10
0.0
 20
0.0
 30
0.0
  9
$PUCSBASE
  2

  9
$PUCSNAME
  2

  9
$PUCSORG
 10
0.0
 20
0.0
 30
0.0
  9
$PUCSXDIR
 10
1.0
 20
0.0
 30
0.0
  9
$PUCSYDIR
 10
0.0
 20
1.0
 30
0.0
  9
$PUCSORTHOREF
  2

  9
$PUCSORTHOVIEW
 70
     0
  9
$PUCSORGTOP
 10
0.0
 20
0.0
 30
0.0
  9
$PUCSORGBOTTOM
 10
0.0
 20
0.0
 30
0.0
  9
$PUCSORGLEFT
 10
0.0
 20
0.0
 30
0.0
  9
$PUCSORGRIGHT
 10
0.0
 20
0.0
 30
0.0
  9
$PUCSORGFRONT
 10
0.0
 20
0.0
 30
0.0
  9
$PUCSORGBACK
 10
0.0
 20
0.0
 30
0.0
  9
$USERI1
 70
     0
  9
$USERI2
 70
     0
  9
$USERI3
 70
     0
  9
$USERI4
 70
     0
  9
$USERI5
 70
     0
  9
$USERR1
 40
0.0
  9
$USERR2
 40
0.0
  9
$USERR3
 40
0.0
  9
$USERR4
 40
0.0
  9
$USERR5
 40
0.0
  9
$WORLDVIEW
 70
     1
  9
$SHADEDGE
 70
     3
  9
$SHADEDIF
 70
    70
  9
$TILEMODE
 70
     1
  9
$MAXACTVP
 70
    16
  9
$PINSBASE
 10
0.0
 20
0.0
 30
0.0
  9
$PLIMCHECK
 70
     0
  9
$PEXTMIN
 10
1.000000000000000E+20
 20
1.000000000000000E+20
 30
1.000000000000000E+20
  9
$PEXTMAX
 10
-1.000000000000000E+20
 20
-1.000000000000000E+20
 30
-1.000000000000000E+20
  9
$PLIMMIN
 10
0.0
 20
0.0
  9
$PLIMMAX
 10
12.0
 20
9.0
  9
$UNITMODE
 70
     0
  9
$VISRETAIN
 70
     0
  9
$PLINEGEN
 70
     1
  9
$PSLTSCALE
 70
     1
  9
$TREEDEPTH
 70
  3020
  9
$CMLSTYLE
  2
STANDARD
  9
$CMLJUST
 70
     0
  9
$CMLSCALE
 40
1.0
  9
$PROXYGRAPHICS
 70
     1
  9
$MEASUREMENT
 70
     0
  9
$CELWEIGHT
370
    -1
  9
$ENDCAPS
280
     0
  9
$JOINSTYLE
280
     0
  9
$LWDISPLAY
290
     0
  9
$INSUNITS
 70
     0
  9
$HYPERLINKBASE
  1

  9
$STYLESHEET
  1

  9
$XEDIT
290
     1
  9
$CEPSNTYPE
380
     0
  9
$PSTYLEMODE
290
     1
  9
$FINGERPRINTGUID
  2
{23F4B847-8B90-4C58-A887-3DC2F86DCD00}
  9
$VERSIONGUID
  2
{FAEB1C32-E019-11D5-929B-00C0DF256EC4}
  9
$EXTNAMES
290
     1
  9
$PSVPSCALE
 40
0.0
  9
$OLESTARTUP
290
     0
  0
ENDSEC
  0
SECTION
  2
CLASSES
  0
CLASS
  1
LWPOLYLINE
  2
AcDbPolyline
  3
ObjectDBX Classes
 90
        0
280
     0
281
     1
  0
CLASS
  1
IMAGE
  2
AcDbRasterImage
  3
ISM
 90
      127
280
     0
281
     1
  0
CLASS
  1
OLE2FRAME
  2
AcDbOle2Frame
  3
ObjectDBX Classes
 90
        0
280
     0
281
     1
  0
CLASS
  1
HATCH
  2
AcDbHatch
  3
ObjectDBX Classes
 90
        0
280
     0
281
     1
  0
CLASS
  1
DICTIONARYVAR
  2
AcDbDictionaryVar
  3
ObjectDBX Classes
 90
        0
280
     0
281
     0
  0
CLASS
  1
RASTERVARIABLES
  2
AcDbRasterVariables
  3
ISM
 90
        0
280
     0
281
     0
  0
CLASS
  1
IMAGEDEF
  2
AcDbRasterImageDef
  3
ISM
 90
        0
280
     0
281
     0
  0
CLASS
  1
IMAGEDEF_REACTOR
  2
AcDbRasterImageDefReactor
  3
ISM
 90
        1
280
     0
281
     0
  0
CLASS
  1
IDBUFFER
  2
AcDbIdBuffer
  3
ObjectDBX Classes
 90
        0
280
     0
281
     0
  0
CLASS
  1
SPATIAL_FILTER
  2
AcDbSpatialFilter
  3
ObjectDBX Classes
 90
        0
280
     0
281
     0
  0
CLASS
  1
XRECORD
  2
AcDbXrecord
  3
ObjectDBX Classes
 90
        0
280
     0
281
     0
  0
CLASS
  1
SORTENTSTABLE
  2
AcDbSortentsTable
  3
ObjectDBX Classes
 90
        0
280
     0
281
     0
  0
CLASS
  1
LAYER_INDEX
  2
AcDbLayerIndex
  3
ObjectDBX Classes
 90
        0
280
     0
281
     0
  0
CLASS
  1
SPATIAL_INDEX
  2
AcDbSpatialIndex
  3
AutoCAD 2000
 90
        0
280
     0
281
     0
  0
CLASS
  1
OBJECT_PTR
  2
CAseDLPNTableRecord
  3
ASE-LPNTableRecord
 90
        1
280
     0
281
     0
  0
CLASS
  1
LAYOUT
  2
AcDbLayout
  3
ObjectDBX Classes
 90
        0
280
     0
281
     0
  0
CLASS
  1
PLOTSETTINGS
  2
AcDbPlotSettings
  3
ObjectDBX Classes
 90
        0
280
     0
281
     0
  0
CLASS
  1
ACDBDICTIONARYWDFLT
  2
AcDbDictionaryWithDefault
  3
ObjectDBX Classes
 90
        0
280
     0
281
     0
  0
CLASS
  1
ACDBPLACEHOLDER
  2
AcDbPlaceHolder
  3
ObjectDBX Classes
 90
        0
280
     0
281
     0
  0
CLASS
  1
VBA_PROJECT
  2
AcDbVbaProject
  3
ObjectDBX Classes
 90
        0
280
     0
281
     0
  0
CLASS
  1
WIPEOUT
  2
AcDbWipeout
  3
WipeOut|AutoCAD Express Tool|expresstools@autodesk.com
 90
      127
280
     0
281
     1
  0
CLASS
  1
WIPEOUTVARIABLES
  2
AcDbWipeoutVariables
  3
WipeOut|AutoCAD Express Tool|expresstools@autodesk.com
 90
        0
280
     0
281
     0
  0
CLASS
  1
RTEXT
  2
RText
  3
RText|AutoCAD Express Tool|expresstools@autodesk.com
 90
        0
280
     0
281
     1
  0
CLASS
  1
ARCALIGNEDTEXT
  2
AcDbArcAlignedText
  3
ATEXT|AutoCAD Express Tool|expresstools@autodesk.com
 90
        0
280
     0
281
     1
  0
CLASS
  1
SCALE
  2
AcDbScale
  3
ObjectDBX Classes
 90
     1153
280
     0
281
     0
  0
CLASS
  1
VISUALSTYLE
  2
AcDbVisualStyle
  3
ObjectDBX Classes
 90
     4095
280
     0
281
     0
  0
CLASS
  1
MATERIAL
  2
AcDbMaterial
  3
ObjectDBX Classes
 90
     1153
280
     0
281
     0
  0
ENDSEC
  0
SECTION
  2
TABLES
  0
TABLE
  2
VPORT
  5
7
102
{ACAD_XDICTIONARY
360
397
102
}
330
0
100
AcDbSymbolTable
 70
     1
  0
VPORT
  5
15
330
7
100
AcDbSymbolTableRecord
100
AcDbViewportTableRecord
  2
*ACTIVE
 70
     0
 10
0.0
 20
0.0
 11
1.0
 21
1.0
 12
105.0
 22
148.5
 13
0.0
 23
0.0
 14
1.0
 24
1.0
 15
0.0
 25
0.0
 16
0.0
 26
0.0
 36
1.0
 17
0.0
 27
0.0
 37
0.0
 40
297.0
 41
1.4142857143
 42
50.0
 43
0.0
 44
0.0
 50
0.0
 51
0.0
 71
     0
 72
  2000
 73
     1
 74
     1
 75
     0
 76
     0
 77
     0
 78
     0
281
     0
 65
     1
110
0.0
120
0.0
130
0.0
111
1.0
121
0.0
131
0.0
112
0.0
122
1.0
132
0.0
 79
     0
146
0.0
  0
ENDTAB
  0
TABLE
  2
LTYPE
  5
4
330
0
100
AcDbSymbolTable
 70
     6
  0
LTYPE
  5
11
330
4
100
AcDbSymbolTableRecord
100
AcDbLinetypeTableRecord
  2
BYBLOCK
 70
     0
  3

 72
    65
 73
     0
 40
0.0
  0
LTYPE
  5
12
330
4
100
AcDbSymbolTableRecord
100
AcDbLinetypeTableRecord
  2
BYLAYER
 70
     0
  3

 72
    65
 73
     0
 40
0.0
  0
LTYPE
  5
13
330
4
100
AcDbSymbolTableRecord
100
AcDbLinetypeTableRecord
  2
CONTINUOUS
 70
     0
  3
Solid line
 72
    65
 73
     0
 40
0.0
  0
LTYPE
  5
1D
330
4
100
AcDbSymbolTableRecord
100
AcDbLinetypeTableRecord
  2
HIDDEN
 70
     0
  3
Hidden __ __ __ __ __ __ __ __ __ __ __ __ __ __
 72
    65
 73
     2
 40
1.905
 49
1.27
 74
     0
 49
-0.635
 74
     0
  0
LTYPE
  5
1E
330
4
100
AcDbSymbolTableRecord
100
AcDbLinetypeTableRecord
  2
PHANTOM
 70
     0
  3
Phantom ______  __  __  ______  __  __  ______
 72
    65
 73
     6
 40
12.7
 49
6.35
 74
     0
 49
-1.27
 74
     0
 49
1.27
 74
     0
 49
-1.27
 74
     0
 49
1.27
 74
     0
 49
-1.27
 74
     0
  0
LTYPE
  5
1F
330
4
100
AcDbSymbolTableRecord
100
AcDbLinetypeTableRecord
  2
CENTER
 70
     0
  3
Center ____ _ ____ _ ____ _ ____ _ ____ _ ____
 72
    65
 73
     4
 40
10.16
 49
6.35
 74
     0
 49
-1.27
 74
     0
 49
1.27
 74
     0
 49
-1.27
 74
     0
  0
LTYPE
  5
20
330
4
100
AcDbSymbolTableRecord
100
AcDbLinetypeTableRecord
  2
CENTERX2
 70
     0
  3
Center (2x) ________  __  ________  __  _____
 72
    65
 73
     4
 40
20.32
 49
12.7
 74
     0
 49
-2.54
 74
     0
 49
2.54
 74
     0
 49
-2.54
 74
     0
  0
LTYPE
  5
21
330
4
100
AcDbSymbolTableRecord
100
AcDbLinetypeTableRecord
  2
DOT2
 70
     0
  3
Dot (.5x) ........................................
 72
    65
 73
     2
 40
0.635
 49
0.0
 74
     0
 49
-0.635
 74
     0
  0
LTYPE
  5
3C1
330
5
100
AcDbSymbolTableRecord
100
AcDbLinetypeTableRecord
  2
DASH
 70
     0
  3
DASH _ _ _ _ _
 72
    65
 73
     2
 40
0.75
 49
0.40
 74
     0
 49
-0.35
 74
     0
  0
LTYPE
  5
3C2
330
5
100
AcDbSymbolTableRecord
100
AcDbLinetypeTableRecord
  2
LONGDASH_DASH
 70
     0
  3
LONGDASH_DASH __ . __ . __
 72
    65
 73
     4
 40
0.85
 49
0.40
 74
     0
 49
-0.20
 74
     0
 49
0.05
 74
     0
 49
-0.20
 74
     0
  0
LTYPE
  5
3C3
330
5
100
AcDbSymbolTableRecord
100
AcDbLinetypeTableRecord
  2
LONGDASH_DASH_DASH
 70
     0
  3
LONGDASH_DASH_DASH __ . . __ . . __
 72
    65
 73
     6
 40
1.10
 49
0.40
 74
     0
 49
-0.20
 74
     0
 49
0.05
 74
     0
 49
-0.20
 74
     0
 49
0.05
 74
     0
 49
-0.20
 74
     0
  0
ENDTAB
  0
TABLE
  2
LAYER
  5
2
330
0
100
AcDbSymbolTable
 70
     8
  0
LAYER
  5
23
330
2
100
AcDbSymbolTableRecord
100
AcDbLayerTableRecord
  2
DEFPOINTS
 70
     0
 62
     7
  6
CONTINUOUS
290
     0
370
    -3
390
0
  0
LAYER
  5
3C4
330
2
100
AcDbSymbolTableRecord
100
AcDbLayerTableRecord
  2
0
 70
     0
 62
     -1
  6
CONTINUOUS
370
    -3
390
F
  0
LAYER
  5
3C5
330
2
100
AcDbSymbolTableRecord
100
AcDbLayerTableRecord
  2
1
 70
     0
 62
     4
  6
CONTINUOUS
370
    50
390
F
  0
LAYER
  5
3C6
330
2
100
AcDbSymbolTableRecord
100
AcDbLayerTableRecord
  2
2
 70
     0
 62
     7
  6
CONTINUOUS
370
    25
390
F
  0
LAYER
  5
3C7
330
2
100
AcDbSymbolTableRecord
100
AcDbLayerTableRecord
  2
3
 70
     0
 62
     1
  6
DASH
370
    35
390
F
  0
LAYER
  5
3C8
330
2
100
AcDbSymbolTableRecord
100
AcDbLayerTableRecord
  2
4
 70
     0
 62
     2
  6
LONGDASH_DASH
370
    25
390
F
  0
LAYER
  5
3C9
330
2
100
AcDbSymbolTableRecord
100
AcDbLayerTableRecord
  2
6
 70
     0
 62
     5
  6
CONTINUOUS
370
    -3
390
F
  0
LAYER
  5
3CA
330
2
100
AcDbSymbolTableRecord
100
AcDbLayerTableRecord
  2
CUT
 70
     0
 62
     1
  6
CONTINUOUS
370
    25
390
F
  0
LAYER
  5
3CB
330
2
100
AcDbSymbolTableRecord
100
AcDbLayerTableRecord
  2
NOCUT
 70
     0
 62
     7
  6
CONTINUOUS
370
    25
390
F
  0
LAYER
  5
3CC
330
2
100
AcDbSymbolTableRecord
100
AcDbLayerTableRecord
  2
SK1
 70
     0
 62
     4
  6
CONTINUOUS
370
    50
390
F
  0
LAYER
  5
3CD
330
2
100
AcDbSymbolTableRecord
100
AcDbLayerTableRecord
  2
SK2
 70
     0
 62
     7
  6
CONTINUOUS
370
    25
390
F
  0
LAYER
  5
3CE
330
2
100
AcDbSymbolTableRecord
100
AcDbLayerTableRecord
  2
SK3
 70
     0
 62
     1
  6
DASH
370
    35
390
F
  0
LAYER
  5
3CF
330
2
100
AcDbSymbolTableRecord
100
AcDbLayerTableRecord
  2
SK4
 70
     0
 62
     2
  6
LONGDASH_DASH
370
    25
390
F
  0
LAYER
  5
3D0
330
2
100
AcDbSymbolTableRecord
100
AcDbLayerTableRecord
  2
SK6
 70
     0
 62
     5
  6
CONTINUOUS
370
    -3
390
F
  0
LAYER
  5
3D1
330
2
100
AcDbSymbolTableRecord
100
AcDbLayerTableRecord
  2
INFTOTAL
 70
     0
 62
     9
  6
CONTINUOUS
370
    18
390
F
  0
ENDTAB
  0
TABLE
  2
STYLE
  5
3
330
0
100
AcDbSymbolTable
 70
     2
  0
STYLE
  5
17
330
3
100
AcDbSymbolTableRecord
100
AcDbTextStyleTableRecord
  2
STANDARD
 70
     0
 40
0.0
 41
1.0
 50
0.0
 71
     0
 42
0.2
  3
txt
  4

  0
STYLE
  5
38F
330
3
100
AcDbSymbolTableRecord
100
AcDbTextStyleTableRecord
  2
BMG_Text
 70
     0
 40
3.5
 41
1.0
 50
0.0
 71
     0
 42
0.0
  3
monos.ttf
  4

1001
ACAD
1000
Monospac821 BT
1071
       49
  0
ENDTAB
  0
TABLE
  2
VIEW
  5
5
330
0
100
AcDbSymbolTable
 70
     0
  0
ENDTAB
  0
TABLE
  2
UCS
  5
6
330
0
100
AcDbSymbolTable
 70
     0
  0
ENDTAB
  0
TABLE
  2
APPID
  5
8
330
0
100
AcDbSymbolTable
 70
     1
  0
APPID
  5
16
330
8
100
AcDbSymbolTableRecord
100
AcDbRegAppTableRecord
  2
ACAD
 70
     0
  0
ENDTAB
  0
TABLE
  2
DIMSTYLE
  5
9
330
0
100
AcDbSymbolTable
 70
     1
100
AcDbDimStyleTable
  0
DIMSTYLE
105
18
330
9
100
AcDbSymbolTableRecord
100
AcDbDimStyleTableRecord
  2
STANDARD
 70
     0
178
     0
340
17
  0
ENDTAB
  0
TABLE
  2
BLOCK_RECORD
  5
1
330
0
100
AcDbSymbolTable
 70
     0
  0
BLOCK_RECORD
  5
A
330
1
100
AcDbSymbolTableRecord
100
AcDbBlockTableRecord
  2
*MODEL_SPACE
340
378
  0
BLOCK_RECORD
  5
B
330
1
100
AcDbSymbolTableRecord
100
AcDbBlockTableRecord
  2
*PAPER_SPACE
340
379
  0
ENDTAB
  0
ENDSEC
  0
SECTION
  2
BLOCKS
  0
BLOCK
  5
D
330
A
100
AcDbEntity
  8
0
100
AcDbBlockBegin
  2
*MODEL_SPACE
 70
     0
 10
0.0
 20
0.0
 30
0.0
  3
*MODEL_SPACE
  1

  0
ENDBLK
  5
E
330
A
100
AcDbEntity
  8
0
100
AcDbBlockEnd
  0
BLOCK
  5
F
330
B
100
AcDbEntity
 67
     1
  8
0
100
AcDbBlockBegin
  2
*PAPER_SPACE
 70
     0
 10
0.0
 20
0.0
 30
0.0
  3
*PAPER_SPACE
  1

  0
ENDBLK
  5
10
330
B
100
AcDbEntity
 67
     1
  8
0
100
AcDbBlockEnd
  0
ENDSEC
  0
SECTION
  2
ENTITIES
  0
ARC
  5
29
330
A
100
AcDbEntity
  8
1
  6
CONTINUOUS
370
    50
100
AcDbCircle
 10
135.4221419201
 20
186.7171222236
 30
0.0
 40
1.5
100
AcDbArc
 50
197.3661728695
 51
270.0
  0
ARC
  5
2A
330
A
100
AcDbEntity
  8
1
  6
CONTINUOUS
370
    50
100
AcDbCircle
 10
162.0682943428
 20
140.7171222236
 30
0.0
 40
3.0
100
AcDbArc
 50
270.0
 51
300.0
  0
ARC
  5
2B
330
A
100
AcDbEntity
  8
1
  6
CONTINUOUS
370
    50
100
AcDbCircle
 10
162.0682943428
 20
182.2171222236
 30
0.0
 40
3.0
100
AcDbArc
 50
60.0
 51
90.0
  0
LINE
  5
2C
330
A
100
AcDbEntity
  8
1
  6
CONTINUOUS
370
    50
100
AcDbLine
 10
142.5499271891
 20
137.7171222236
 30
0.0
 11
162.0682943428
 21
137.7171222236
 31
0.0
  0
LINE
  5
2D
330
A
100
AcDbEntity
  8
1
  6
CONTINUOUS
370
    50
100
AcDbLine
 10
162.0682943428
 20
185.2171222236
 30
0.0
 11
135.4221419201
 21
185.2171222236
 31
0.0
  0
LINE
  5
2E
330
A
100
AcDbEntity
  8
1
  6
CONTINUOUS
370
    50
100
AcDbLine
 10
163.5682943428
 20
138.1190460122
 30
0.0
 11
176.3721419201
 21
145.5113508576
 31
0.0
  0
LINE
  5
2F
330
A
100
AcDbEntity
  8
1
  6
CONTINUOUS
370
    50
100
AcDbLine
 10
176.3721419201
 20
177.4228935895
 30
0.0
 11
163.5682943428
 21
184.8151984349
 31
0.0
  0
ARC
  5
30
330
A
100
AcDbEntity
  8
1
  6
CONTINUOUS
370
    50
100
AcDbCircle
 10
115.6721419201
 20
139.0421222236
 30
0.0
 40
0.5
100
AcDbArc
 50
66.4218215218
 51
90.0
  0
ARC
  5
31
330
A
100
AcDbEntity
  8
1
  6
CONTINUOUS
370
    50
100
AcDbCircle
 10
115.6721419201
 20
183.8921222236
 30
0.0
 40
0.5
100
AcDbArc
 50
270.0
 51
293.5781784782001
  0
LINE
  5
32
330
A
100
AcDbEntity
  8
1
  6
CONTINUOUS
370
    50
100
AcDbLine
 10
114.8721419201
 20
183.6921222236
 30
0.0
 11
47.4350491042
 21
173.8574533281
 31
0.0
  0
LINE
  5
33
330
A
100
AcDbEntity
  8
1
  6
CONTINUOUS
370
    50
100
AcDbLine
 10
47.4350491042
 20
149.076791119
 30
0.0
 11
114.8721419201
 21
139.2421222236
 31
0.0
  0
LINE
  5
34
330
A
100
AcDbEntity
  8
1
  6
CONTINUOUS
370
    50
100
AcDbLine
 10
114.8721419201
 20
139.2421222236
 30
0.0
 11
115.0256953107
 21
139.3956756142
 31
0.0
  0
LINE
  5
35
330
A
100
AcDbEntity
  8
1
  6
CONTINUOUS
370
    50
100
AcDbLine
 10
115.0256953107
 20
183.538568833
 30
0.0
 11
114.8721419201
 21
183.6921222236
 31
0.0
  0
ARC
  5
36
330
A
100
AcDbEntity
  8
1
  6
CONTINUOUS
370
    50
100
AcDbCircle
 10
115.3792487013
 20
139.0421222236
 30
0.0
 40
0.5
100
AcDbArc
 50
90.0
 51
135.0
  0
ARC
  5
37
330
A
100
AcDbEntity
  8
1
  6
CONTINUOUS
370
    50
100
AcDbCircle
 10
115.3792487013
 20
183.8921222236
 30
0.0
 40
0.5
100
AcDbArc
 50
225.0
 51
270.0
  0
LINE
  5
38
330
A
100
AcDbEntity
  8
1
  6
CONTINUOUS
370
    50
100
AcDbLine
 10
115.3792487013
 20
139.5421222236
 30
0.0
 11
115.6721419201
 21
139.5421222236
 31
0.0
  0
LINE
  5
39
330
A
100
AcDbEntity
  8
1
  6
CONTINUOUS
370
    50
100
AcDbLine
 10
115.6721419201
 20
183.3921222236
 30
0.0
 11
115.3792487013
 21
183.3921222236
 31
0.0
  0
ARC
  5
3A
330
A
100
AcDbEntity
  8
1
  6
CONTINUOUS
370
    50
100
AcDbCircle
 10
174.8721419201
 20
148.109427069
 30
0.0
 40
3.0
100
AcDbArc
 50
300.0
 51
0.0
  0
ARC
  5
3B
330
A
100
AcDbEntity
  8
1
  6
CONTINUOUS
370
    50
100
AcDbCircle
 10
174.8721419201
 20
174.8248173781
 30
0.0
 40
3.0
100
AcDbArc
 50
0.0
 51
60.0
  0
ARC
  5
3C
330
A
100
AcDbEntity
  8
1
  6
CONTINUOUS
370
    50
100
AcDbCircle
 10
47.5721419201
 20
172.917397181
 30
0.0
 40
0.95
100
AcDbArc
 50
98.2972222222
 51
180.0
  0
ARC
  5
3D
330
A
100
AcDbEntity
  8
1
  6
CONTINUOUS
370
    50
100
AcDbCircle
 10
47.5721419201
 20
150.0168472662
 30
0.0
 40
0.95
100
AcDbArc
 50
180.0
 51
261.7027777778
  0
LINE
  5
3E
330
A
100
AcDbEntity
  8
1
  6
CONTINUOUS
370
    50
100
AcDbLine
 10
129.4939785622
 20
179.8171222236
 30
0.0
 11
129.4939785622
 21
130.9372819925
 31
0.0
  0
LINE
  5
3F
330
A
100
AcDbEntity
  8
1
  6
CONTINUOUS
370
    50
100
AcDbLine
 10
133.4221419201
 20
179.8171222236
 30
0.0
 11
129.4939785622
 21
179.8171222236
 31
0.0
  0
LINE
  5
40
330
A
100
AcDbEntity
  8
1
  6
CONTINUOUS
370
    50
100
AcDbLine
 10
133.4221419201
 20
130.9372819925
 30
0.0
 11
133.4221419201
 21
179.8171222236
 31
0.0
  0
LINE
  5
41
330
A
100
AcDbEntity
  8
1
  6
CONTINUOUS
370
    50
100
AcDbLine
 10
129.4939785622
 20
130.9372819925
 30
0.0
 11
133.4221419201
 21
130.9372819925
 31
0.0
  0
LINE
  5
42
330
A
100
AcDbEntity
  8
1
  6
CONTINUOUS
370
    50
100
AcDbLine
 10
127.8971419201
 20
179.8171222236
 30
0.0
 11
127.8971419201
 21
133.6232499646
 31
0.0
  0
LINE
  5
43
330
A
100
AcDbEntity
  8
1
  6
CONTINUOUS
370
    50
100
AcDbLine
 10
129.4939785622
 20
179.8171222236
 30
0.0
 11
127.8971419201
 21
179.8171222236
 31
0.0
  0
LINE
  5
44
330
A
100
AcDbEntity
  8
1
  6
CONTINUOUS
370
    50
100
AcDbLine
 10
129.0196999967
 20
131.6045840673
 30
0.0
 11
129.4939785622
 21
130.9372819925
 31
0.0
  0
LWPOLYLINE
  5
45
330
A
100
AcDbEntity
  8
1
  6
CONTINUOUS
370
    50
100
AcDbPolyline
 90
        3
 70
   128
 43
0.0
 10
127.8971419201
 20
133.6232499646
 10
128.8143732123
 20
131.9730712623
 10
129.0196999967
 20
131.6045840673
  0
LINE
  5
4A
330
A
100
AcDbEntity
  8
1
  6
CONTINUOUS
370
    50
100
AcDbLine
 10
124.0471419201
 20
179.8171222236
 30
0.0
 11
122.450305278
 21
179.8171222236
 31
0.0
  0
LINE
  5
4B
330
A
100
AcDbEntity
  8
1
  6
CONTINUOUS
370
    50
100
AcDbLine
 10
124.0471419201
 20
133.6232499646
 30
0.0
 11
124.0471419201
 21
179.8171222236
 31
0.0
  0
LWPOLYLINE
  5
4C
330
A
100
AcDbEntity
  8
1
  6
CONTINUOUS
370
    50
100
AcDbPolyline
 90
        3
 70
   128
 43
0.0
 10
122.9245838435
 20
131.6045840673
 10
122.9857030156
 20
131.7142381467
 10
124.0471419201
 20
133.6232499646
  0
LINE
  5
51
330
A
100
AcDbEntity
  8
1
  6
CONTINUOUS
370
    50
100
AcDbLine
 10
122.450305278
 20
130.9372819925
 30
0.0
 11
122.9245838435
 21
131.6045840673
 31
0.0
  0
LINE
  5
52
330
A
100
AcDbEntity
  8
1
  6
CONTINUOUS
370
    50
100
AcDbLine
 10
122.450305278
 20
130.9372819925
 30
0.0
 11
122.450305278
 21
179.8171222236
 31
0.0
  0
LINE
  5
53
330
A
100
AcDbEntity
  8
1
  6
CONTINUOUS
370
    50
100
AcDbLine
 10
116.3721419201
 20
179.8171222236
 30
0.0
 11
116.3721419201
 21
131.4171638209
 31
0.0
  0
LINE
  5
54
330
A
100
AcDbEntity
  8
1
  6
CONTINUOUS
370
    50
100
AcDbLine
 10
116.3721419201
 20
131.4171638209
 30
0.0
 11
115.8721419201
 21
132.1243207213
 31
0.0
  0
LINE
  5
55
330
A
100
AcDbEntity
  8
1
  6
CONTINUOUS
370
    50
100
AcDbLine
 10
115.8721419201
 20
132.1243207213
 30
0.0
 11
115.8721419201
 21
179.8171222236
 31
0.0
  0
LINE
  5
56
330
A
100
AcDbEntity
  8
1
  6
CONTINUOUS
370
    50
100
AcDbLine
 10
115.8721419201
 20
179.8171222236
 30
0.0
 11
116.3721419201
 21
179.8171222236
 31
0.0
  0
LINE
  5
57
330
A
100
AcDbEntity
  8
1
  6
CONTINUOUS
370
    50
100
AcDbLine
 10
133.4221419201
 20
179.8171222236
 30
0.0
 11
133.9221419201
 21
179.8171222236
 31
0.0
  0
LINE
  5
58
330
A
100
AcDbEntity
  8
1
  6
CONTINUOUS
370
    50
100
AcDbLine
 10
133.9221419201
 20
179.8171222236
 30
0.0
 11
133.9221419201
 21
131.3427745527
 31
0.0
  0
LINE
  5
59
330
A
100
AcDbEntity
  8
1
  6
CONTINUOUS
370
    50
100
AcDbLine
 10
133.9221419201
 20
131.3427745527
 30
0.0
 11
133.4221419201
 21
130.9372819925
 31
0.0
  0
LINE
  5
5A
330
A
100
AcDbEntity
  8
1
  6
CONTINUOUS
370
    50
100
AcDbLine
 10
117.9048398453
 20
130.9372819925
 30
0.0
 11
122.450305278
 21
130.9372819925
 31
0.0
  0
LWPOLYLINE
  5
5B
330
A
100
AcDbEntity
  8
1
  6
CONTINUOUS
370
    50
100
AcDbPolyline
 90
        3
 70
   128
 43
0.0
 10
116.3721419201
 20
131.4171638209
 10
117.1354560582
 20
131.1675299597
 10
117.9048398453
 20
130.9372819925
  0
LINE
  5
60
330
A
100
AcDbEntity
  8
1
  6
CONTINUOUS
370
    50
100
AcDbLine
 10
122.450305278
 20
179.8171222236
 30
0.0
 11
116.3721419201
 21
179.8171222236
 31
0.0
  0
ARC
  5
61
330
A
100
AcDbEntity
  8
1
  6
CONTINUOUS
370
    50
100
AcDbCircle
 10
127.3874394296
 20
134.1395157854
 30
0.0
 40
0.5098409115
100
AcDbArc
 50
358.6648465182001
 51
88.9095710022
  0
LINE
  5
62
330
A
100
AcDbEntity
  8
1
  6
CONTINUOUS
370
    50
100
AcDbLine
 10
127.3971419201
 20
179.8171222236
 30
0.0
 11
127.3971419201
 21
134.6492643673
 31
0.0
  0
LINE
  5
63
330
A
100
AcDbEntity
  8
1
  6
CONTINUOUS
370
    50
100
AcDbLine
 10
127.3971419201
 20
179.8171222236
 30
0.0
 11
127.8971419201
 21
179.8171222236
 31
0.0
  0
ARC
  5
64
330
A
100
AcDbEntity
  8
1
  6
CONTINUOUS
370
    50
100
AcDbCircle
 10
124.5585378589
 20
134.1378925524
 30
0.0
 40
0.5114987785
100
AcDbArc
 50
91.27662714179999
 51
181.1489553377
  0
LINE
  5
65
330
A
100
AcDbEntity
  8
1
  6
CONTINUOUS
370
    50
100
AcDbLine
 10
124.0471419201
 20
179.8171222236
 30
0.0
 11
124.5471419201
 21
179.8171222236
 31
0.0
  0
LINE
  5
66
330
A
100
AcDbEntity
  8
1
  6
CONTINUOUS
370
    50
100
AcDbLine
 10
124.5471419201
 20
179.8171222236
 30
0.0
 11
124.5471419201
 21
134.6492643673
 31
0.0
  0
ARC
  5
67
330
A
100
AcDbEntity
  8
1
  6
CONTINUOUS
370
    50
100
AcDbCircle
 10
129.3509875622
 20
152.8481246656
 30
0.0
 40
4.8074080008
100
AcDbArc
 50
341.9629209091
 51
18.0370790909
  0
LINE
  5
68
330
A
100
AcDbEntity
  8
1
  6
CONTINUOUS
370
    50
100
AcDbLine
 10
127.3971419201
 20
134.6492643673
 30
0.0
 11
124.5471419201
 21
134.6492643673
 31
0.0
  0
LINE
  5
69
330
A
100
AcDbEntity
  8
1
  6
CONTINUOUS
370
    50
100
AcDbLine
 10
124.5471419201
 20
179.8171222236
 30
0.0
 11
127.3971419201
 21
179.8171222236
 31
0.0
  0
LINE
  5
6A
330
A
100
AcDbEntity
  8
1
  6
CONTINUOUS
370
    50
100
AcDbLine
 10
133.926585705
 20
186.2671222236
 30
0.0
 11
133.991233118
 21
186.2671222236
 31
0.0
  0
ARC
  5
6B
330
A
100
AcDbEntity
  8
1
  6
CONTINUOUS
370
    50
100
AcDbCircle
 10
135.3681396208
 20
137.2947617313
 30
0.0
 40
1.5730786607
100
AcDbArc
 50
88.03270366460002
 51
148.4816659704
  0
ARC
  5
6C
330
A
100
AcDbEntity
  8
1
  6
CONTINUOUS
370
    50
100
AcDbCircle
 10
154.3721419201
 20
161.4671222236
 30
0.0
 40
8.0
100
AcDbArc
 50
344.1581909255
 51
15.8418090745
  0
LINE
  5
6D
330
A
100
AcDbEntity
  8
1
  6
CONTINUOUS
370
    50
100
AcDbLine
 10
135.4221419201
 20
138.8669131949
 30
0.0
 11
137.9151494356
 21
138.8671222236
 31
0.0
  0
ARC
  5
6E
330
A
100
AcDbEntity
  8
1
  6
CONTINUOUS
370
    50
100
AcDbCircle
 10
133.6035722934
 20
111.3971155305
 30
0.0
 40
27.8060353709
100
AcDbArc
 50
71.2317252145
 51
81.0807177183
  0
ARC
  5
6F
330
A
100
AcDbEntity
  8
1
  6
CONTINUOUS
370
    50
100
AcDbCircle
 10
154.3721419201
 20
161.4671222236
 30
0.0
 40
8.0
100
AcDbArc
 50
15.8418090745
 51
344.1581909255
  0
LINE
  5
70
330
A
100
AcDbEntity
  8
1
  6
CONTINUOUS
370
    50
100
AcDbLine
 10
114.8721419201
 20
139.2421222236
 30
0.0
 11
114.8721419201
 21
183.6921222236
 31
0.0
  0
CIRCLE
  5
71
330
A
100
AcDbEntity
  8
1
  6
CONTINUOUS
370
    50
100
AcDbCircle
 10
154.3721419201
 20
161.4671222236
 30
0.0
 40
6.0
  0
LINE
  5
72
330
A
100
AcDbEntity
  8
1
  6
CONTINUOUS
370
    50
100
AcDbLine
 10
116.3721419201
 20
187.3773518636
 30
0.0
 11
115.8721419201
 21
186.7621810296
 31
0.0
  0
LINE
  5
73
330
A
100
AcDbEntity
  8
1
  6
CONTINUOUS
370
    50
100
AcDbLine
 10
116.3721419201
 20
187.3773518636
 30
0.0
 11
122.450305278
 21
187.3773518636
 31
0.0
  0
LINE
  5
74
330
A
100
AcDbEntity
  8
1
  6
CONTINUOUS
370
    50
100
AcDbLine
 10
122.450305278
 20
187.3773518636
 30
0.0
 11
124.0471419201
 21
183.9028353251
 31
0.0
  0
LINE
  5
75
330
A
100
AcDbEntity
  8
1
  6
CONTINUOUS
370
    50
100
AcDbLine
 10
124.0471419201
 20
183.2737152633
 30
0.0
 11
124.0471419201
 21
183.9028353251
 31
0.0
  0
LWPOLYLINE
  5
76
330
A
100
AcDbEntity
  8
1
  6
CONTINUOUS
370
    50
100
AcDbPolyline
 90
        7
 70
   128
 43
0.0
 10
124.5471419201
 20
182.616058367
 10
124.5304386376
 20
182.6164278486
 10
124.4092875013
 20
182.6417089051
 10
124.2690745033
 20
182.7277443736
 10
124.1637214343
 20
182.8525876153
 10
124.0701695962
 20
183.0773163686
 10
124.0471419201
 20
183.2737152633
  0
LINE
  5
7F
330
A
100
AcDbEntity
  8
1
  6
CONTINUOUS
370
    50
100
AcDbLine
 10
127.3971419201
 20
182.616058367
 30
0.0
 11
124.5471419201
 21
182.616058367
 31
0.0
  0
LWPOLYLINE
  5
80
330
A
100
AcDbEntity
  8
1
  6
CONTINUOUS
370
    50
100
AcDbPolyline
 90
        8
 70
   128
 43
0.0
 10
127.8971419201
 20
183.2737152633
 10
127.8921692431
 20
183.181701961
 10
127.8127369645
 20
182.909116371
 10
127.6972296013
 20
182.7483627093
 10
127.569622728
 20
182.6566755878
 10
127.5349963389
 20
182.6417089051
 10
127.4073473855
 20
182.6161962719
 10
127.3971419201
 20
182.616058367
  0
LINE
  5
8A
330
A
100
AcDbEntity
  8
1
  6
CONTINUOUS
370
    50
100
AcDbLine
 10
127.8971419201
 20
183.9028353251
 30
0.0
 11
127.8971419201
 21
183.2737152633
 31
0.0
  0
LINE
  5
8B
330
A
100
AcDbEntity
  8
1
  6
CONTINUOUS
370
    50
100
AcDbLine
 10
127.8971419201
 20
183.9028353251
 30
0.0
 11
129.4939785622
 21
187.3773518636
 31
0.0
  0
LINE
  5
8C
330
A
100
AcDbEntity
  8
1
  6
CONTINUOUS
370
    50
100
AcDbLine
 10
129.4939785622
 20
187.3773518636
 30
0.0
 11
133.4221419201
 21
187.3773518636
 31
0.0
  0
LINE
  5
8D
330
A
100
AcDbEntity
  8
1
  6
CONTINUOUS
370
    50
100
AcDbLine
 10
133.9221419201
 20
186.7621810296
 30
0.0
 11
133.4221419201
 21
187.3773518636
 31
0.0
  0
LINE
  5
8E
330
A
100
AcDbEntity
  8
1
  6
CONTINUOUS
370
    50
100
AcDbLine
 10
115.8721419201
 20
186.7621810296
 30
0.0
 11
115.8721419201
 21
179.8171222236
 31
0.0
  0
LINE
  5
8F
330
A
100
AcDbEntity
  8
1
  6
CONTINUOUS
370
    50
100
AcDbLine
 10
133.9221419201
 20
186.7621810296
 30
0.0
 11
133.9221419201
 21
179.8171222236
 31
0.0
  0
LINE
  5
90
330
A
100
AcDbEntity
  8
1
  6
CONTINUOUS
370
    50
100
AcDbLine
 10
127.3971419201
 20
188.2849800798
 30
0.0
 11
127.3971419201
 21
182.616058367
 31
0.0
  0
ARC
  5
91
330
A
100
AcDbEntity
  8
1
  6
CONTINUOUS
370
    50
100
AcDbCircle
 10
127.3865085118
 20
188.7956209809
 30
0.0
 40
0.5107516023
100
AcDbArc
 50
271.1929349474
 51
1.2326475322
  0
LINE
  5
92
330
A
100
AcDbEntity
  8
1
  6
CONTINUOUS
370
    50
100
AcDbLine
 10
124.5471419201
 20
188.2849800798
 30
0.0
 11
124.5471419201
 21
182.616058367
 31
0.0
  0
ARC
  5
93
330
A
100
AcDbEntity
  8
1
  6
CONTINUOUS
370
    50
100
AcDbCircle
 10
124.5594355738
 20
188.7972123877
 30
0.0
 40
0.5123798114
100
AcDbArc
 50
178.949261052
 51
268.6251564685
  0
LINE
  5
94
330
A
100
AcDbEntity
  8
1
  6
CONTINUOUS
370
    50
100
AcDbLine
 10
127.3971419201
 20
188.2849800798
 30
0.0
 11
124.5471419201
 21
188.2849800798
 31
0.0
  0
LINE
  5
95
330
A
100
AcDbEntity
  8
1
  6
CONTINUOUS
370
    50
100
AcDbLine
 10
122.450305278
 20
187.3773518636
 30
0.0
 11
122.450305278
 21
191.9562362683
 31
0.0
  0
LINE
  5
96
330
A
100
AcDbEntity
  8
1
  6
CONTINUOUS
370
    50
100
AcDbLine
 10
122.8388476469
 20
191.4834340416
 30
0.0
 11
122.450305278
 21
191.9562362683
 31
0.0
  0
LINE
  5
97
330
A
100
AcDbEntity
  8
1
  6
CONTINUOUS
370
    50
100
AcDbLine
 10
122.8388476469
 20
191.4834340416
 30
0.0
 11
124.0471419201
 21
189.3109944825
 31
0.0
  0
LINE
  5
98
330
A
100
AcDbEntity
  8
1
  6
CONTINUOUS
370
    50
100
AcDbLine
 10
124.0471419201
 20
183.9028353251
 30
0.0
 11
124.0471419201
 21
189.3109944825
 31
0.0
  0
LINE
  5
99
330
A
100
AcDbEntity
  8
1
  6
CONTINUOUS
370
    50
100
AcDbLine
 10
127.8971419201
 20
189.3109944825
 30
0.0
 11
129.1054361933
 21
191.4834340416
 31
0.0
  0
LINE
  5
9A
330
A
100
AcDbEntity
  8
1
  6
CONTINUOUS
370
    50
100
AcDbLine
 10
129.4939785622
 20
191.9562362683
 30
0.0
 11
129.1054361933
 21
191.4834340416
 31
0.0
  0
LINE
  5
9B
330
A
100
AcDbEntity
  8
1
  6
CONTINUOUS
370
    50
100
AcDbLine
 10
129.4939785622
 20
191.9562362683
 30
0.0
 11
129.4939785622
 21
187.3773518636
 31
0.0
  0
LINE
  5
9C
330
A
100
AcDbEntity
  8
1
  6
CONTINUOUS
370
    50
100
AcDbLine
 10
127.8971419201
 20
189.3109944825
 30
0.0
 11
127.8971419201
 21
183.9028353251
 31
0.0
  0
LINE
  5
9D
330
A
100
AcDbEntity
  8
1
  6
CONTINUOUS
370
    50
100
AcDbLine
 10
116.3721419201
 20
191.5170806262
 30
0.0
 11
116.3721419201
 21
187.3773518636
 31
0.0
  0
LINE
  5
9E
330
A
100
AcDbEntity
  8
1
  6
CONTINUOUS
370
    50
100
AcDbLine
 10
115.8721419201
 20
190.8099237258
 30
0.0
 11
116.3721419201
 21
191.5170806262
 31
0.0
  0
LINE
  5
9F
330
A
100
AcDbEntity
  8
1
  6
CONTINUOUS
370
    50
100
AcDbLine
 10
115.8721419201
 20
186.7621810296
 30
0.0
 11
115.8721419201
 21
190.8099237258
 31
0.0
  0
LINE
  5
A0
330
A
100
AcDbEntity
  8
1
  6
CONTINUOUS
370
    50
100
AcDbLine
 10
122.450305278
 20
191.9562362683
 30
0.0
 11
117.763449874
 21
191.9562362683
 31
0.0
  0
LWPOLYLINE
  5
A1
330
A
100
AcDbEntity
  8
1
  6
CONTINUOUS
370
    50
100
AcDbPolyline
 90
        3
 70
   128
 43
0.0
 10
116.3721419201
 20
191.5170806262
 10
117.0652730632
 20
191.744651146
 10
117.763449874
 20
191.9562362683
  0
LINE
  5
A6
330
A
100
AcDbEntity
  8
1
  6
CONTINUOUS
370
    50
100
AcDbLine
 10
133.4221419201
 20
191.9562362683
 30
0.0
 11
129.4939785622
 21
191.9562362683
 31
0.0
  0
LINE
  5
A7
330
A
100
AcDbEntity
  8
1
  6
CONTINUOUS
370
    50
100
AcDbLine
 10
133.4221419201
 20
187.3773518636
 30
0.0
 11
133.4221419201
 21
191.9562362683
 31
0.0
  0
LINE
  5
A8
330
A
100
AcDbEntity
  8
1
  6
CONTINUOUS
370
    50
100
AcDbLine
 10
133.4221419201
 20
191.9562362683
 30
0.0
 11
133.9221419201
 21
191.6058746044
 31
0.0
  0
LINE
  5
A9
330
A
100
AcDbEntity
  8
1
  6
CONTINUOUS
370
    50
100
AcDbLine
 10
133.9221419201
 20
191.6058746044
 30
0.0
 11
133.9221419201
 21
186.7621810296
 31
0.0
  0
LINE
  5
AA
330
A
100
AcDbEntity
  8
1
  6
CONTINUOUS
370
    50
100
AcDbLine
 10
177.8721419201
 20
148.1094270692
 30
0.0
 11
177.8721419201
 21
174.8248173781
 31
0.0
  0
LINE
  5
AB
330
A
100
AcDbEntity
  8
1
  6
CONTINUOUS
370
    50
100
AcDbLine
 10
46.6221419201
 20
172.917397162
 30
0.0
 11
46.6221419201
 21
150.0168472662
 31
0.0
  0
LINE
  5
AC
330
A
100
AcDbEntity
  8
1
  6
CONTINUOUS
370
    50
100
AcDbLine
 10
135.4221419201
 20
138.8669131949
 30
0.0
 11
135.4221419201
 21
185.2171222236
 31
0.0
  0
LINE
  5
AD
330
A
100
AcDbEntity
  8
1
  6
CONTINUOUS
370
    50
100
AcDbLine
 10
162.0682943428
 20
137.7171222236
 30
0.0
 11
162.0682943428
 21
159.2832637377
 31
0.0
  0
LINE
  5
AE
330
A
100
AcDbEntity
  8
1
  6
CONTINUOUS
370
    50
100
AcDbLine
 10
162.0682943428
 20
163.6509807095
 30
0.0
 11
162.0682943428
 21
185.2171222236
 31
0.0
  0
LINE
  5
AF
330
A
100
AcDbEntity
  8
1
  6
CONTINUOUS
370
    50
100
AcDbLine
 10
163.5682943428
 20
138.1190460122
 30
0.0
 11
163.5682943428
 21
184.8151984349
 31
0.0
  0
LINE
  5
B0
330
A
100
AcDbEntity
  8
1
  6
CONTINUOUS
370
    50
100
AcDbLine
 10
176.3721419201
 20
145.5113508576
 30
0.0
 11
176.3721419201
 21
177.4228935895
 31
0.0
  0
LINE
  5
B1
330
A
100
AcDbEntity
  8
1
  6
CONTINUOUS
370
    50
100
AcDbLine
 10
115.6721419201
 20
139.5421222236
 30
0.0
 11
115.6721419201
 21
183.3921222236
 31
0.0
  0
LINE
  5
B2
330
A
100
AcDbEntity
  8
1
  6
CONTINUOUS
370
    50
100
AcDbLine
 10
47.4350491042
 20
173.8574533281
 30
0.0
 11
47.4350491042
 21
149.076791119
 31
0.0
  0
LINE
  5
B3
330
A
100
AcDbEntity
  8
1
  6
CONTINUOUS
370
    50
100
AcDbLine
 10
115.0256953107
 20
139.3956756142
 30
0.0
 11
115.0256953107
 21
183.538568833
 31
0.0
  0
LINE
  5
B4
330
A
100
AcDbEntity
  8
1
  6
CONTINUOUS
370
    50
100
AcDbLine
 10
115.3792487013
 20
139.5421222236
 30
0.0
 11
115.3792487013
 21
183.3921222236
 31
0.0
  0
LWPOLYLINE
  5
B5
330
A
100
AcDbEntity
  8
1
  6
CONTINUOUS
370
    50
100
AcDbPolyline
 90
       28
 70
   128
 43
0.0
 10
130.5229208539
 20
152.8349572442
 10
130.4743632136
 20
152.3625123844
 10
130.4985206433
 20
151.9155371492
 10
130.5940908096
 20
151.5181280894
 10
130.7559215002
 20
151.1917096301
 10
130.9752883807
 20
150.9538790751
 10
131.2403653257
 20
150.817457931
 10
131.5368619685
 20
150.7898006972
 10
131.8487940984
 20
150.8723983821
 10
132.1593453734
 20
151.0607981233
 10
132.451773894
 20
151.344843242
 10
132.710314763
 20
151.7092207922
 10
132.9210299752
 20
152.1342870859
 10
133.0725598188
 20
152.5971266892
 10
133.156735281
 20
153.0727877993
 10
133.1690184406
 20
153.5356274026
 10
133.1087471094
 20
153.9606936963
 10
132.9791705304
 20
154.3250712465
 10
132.7872742106
 20
154.6091163652
 10
132.5434033302
 20
154.7975161064
 10
132.2607050316
 20
154.8801137913
 10
131.9544196531
 20
154.8524565575
 10
131.6410591188
 20
154.7160354134
 10
131.3375167762
 20
154.4782048584
 10
131.0601566716
 20
154.1517863991
 10
130.82393136
 20
153.7543773392
 10
130.6415758091
 20
153.3074021041
 10
130.5229208539
 20
152.8349572442
  0
LWPOLYLINE
  5
D3
330
A
100
AcDbEntity
  8
1
  6
CONTINUOUS
370
    50
100
AcDbPolyline
 90
       18
 70
   128
 43
0.0
 10
125.7114700568
 20
156.1394434894
 10
125.6948005381
 20
155.9824619085
 10
125.67869868
 20
155.7780259736
 10
125.6637128117
 20
155.5330975052
 10
125.6503532591
 20
155.2560172485
 10
125.6390749658
 20
154.9562208394
 10
125.6302620005
 20
154.643917485
 10
125.6242144782
 20
154.3297423015
 10
125.6211383399
 20
154.0243941479
 10
125.6211383399
 20
153.7382712894
 10
125.6242144782
 20
153.4811172967
 10
125.6302620005
 20
153.2616892407
 10
125.6390749658
 20
153.0874594807
 10
125.6503532591
 20
152.9643612021
 10
125.6637128117
 20
152.8965863691
 10
125.67869868
 20
152.8864429725
 10
125.6948005381
 20
152.9342764334
 10
125.7114700568
 20
153.0384578408
  0
LWPOLYLINE
  5
E7
330
A
100
AcDbEntity
  8
1
  6
CONTINUOUS
370
    50
100
AcDbPolyline
 90
       19
 70
   128
 43
0.0
 10
125.7114700568
 20
153.0384578408
 10
125.2412582851
 20
153.0690349464
 10
124.7853336601
 20
153.145793922
 10
124.3575492209
 20
153.266402485
 10
123.9709029812
 20
153.4271960052
 10
123.6371429913
 20
153.6232888529
 10
123.3664103796
 20
153.8487228461
 10
123.1669312196
 20
154.0966482869
 10
123.0447665845
 20
154.3595320865
 10
123.0036283851
 20
154.6293866534
 10
123.0447665845
 20
154.8980125933
 10
123.1669312196
 20
155.1572478429
 10
123.3664103796
 20
155.3992156704
 10
123.6371429913
 20
155.6165640056
 10
123.9709029812
 20
155.8026888295
 10
124.3575492209
 20
155.9519348335
 10
124.7853336601
 20
156.0597672532
 10
125.2412582851
 20
156.1229096551
 10
125.7114700568
 20
156.1394434894
  0
LWPOLYLINE
  5
FC
330
A
100
AcDbEntity
  8
1
  6
CONTINUOUS
370
    50
100
AcDbPolyline
 90
       25
 70
   128
 43
0.0
 10
130.6025236606
 20
152.8920749912
 10
130.5636106331
 20
152.4754715848
 10
130.5969720172
 20
152.0872590121
 10
130.7003342895
 20
151.7538933184
 10
130.8666534821
 20
151.4980928247
 10
131.0845952169
 20
151.337289912
 10
131.3393071247
 20
151.2824430331
 10
131.61343101
 20
151.337289912
 10
131.8882857831
 20
151.4980928247
 10
132.1451405453
 20
151.7538933184
 10
132.3664910691
 20
152.0872590121
 10
132.537252682
 20
152.4754715848
 10
132.6457882625
 20
152.8920749912
 10
132.6847012899
 20
153.3086783975
 10
132.6513399058
 20
153.6968909702
 10
132.5479776335
 20
154.0302566639
 10
132.3816584409
 20
154.2860571576
 10
132.1637167061
 20
154.4468600703
 10
131.9090047983
 20
154.5017069492
 10
131.634880913
 20
154.4468600703
 10
131.3600261399
 20
154.2860571576
 10
131.1031713777
 20
154.0302566639
 10
130.881820854
 20
153.6968909702
 10
130.711059241
 20
153.3086783975
 10
130.6025236606
 20
152.8920749912
  0
ARC
  5
117
330
A
100
AcDbEntity
  8
1
  6
CONTINUOUS
370
    50
100
AcDbCircle
 10
129.3509875622
 20
170.0861197815
 30
0.0
 40
4.8074080008
100
AcDbArc
 50
341.962920909
 51
18.037079091
  0
LWPOLYLINE
  5
118
330
A
100
AcDbEntity
  8
1
  6
CONTINUOUS
370
    50
100
AcDbPolyline
 90
       25
 70
   128
 43
0.0
 10
122.3750589707
 20
155.2532666586
 10
122.3361459433
 20
154.8366632522
 10
122.3695073273
 20
154.4484506795
 10
122.4728695997
 20
154.1150849858
 10
122.6391887923
 20
153.8592844921
 10
122.857130527
 20
153.6984815794
 10
123.1118424349
 20
153.6436347005
 10
123.3859663202
 20
153.6984815794
 10
123.6608210932
 20
153.8592844921
 10
123.9176758554
 20
154.1150849858
 10
124.1390263792
 20
154.4484506795
 10
124.3097879922
 20
154.8366632522
 10
124.4183235726
 20
155.2532666586
 10
124.4572366
 20
155.6698700649
 10
124.423875216
 20
156.0580826376
 10
124.3205129436
 20
156.3914483313
 10
124.154193751
 20
156.647248825
 10
123.9362520163
 20
156.8080517377
 10
123.6815401084
 20
156.8628986166
 10
123.4074162231
 20
156.8080517377
 10
123.1325614501
 20
156.647248825
 10
122.8757066879
 20
156.3914483313
 10
122.6543561641
 20
156.0580826376
 10
122.4835945511
 20
155.6698700649
 10
122.3750589707
 20
155.2532666586
  0
LINE
  5
133
330
A
100
AcDbEntity
  8
1
  6
CONTINUOUS
370
    50
100
AcDbLine
 10
125.7114700568
 20
156.1394434894
 30
0.0
 11
125.7121875266
 21
156.1450153332
 31
0.0
  0
LINE
  5
134
330
A
100
AcDbEntity
  8
1
  6
CONTINUOUS
370
    50
100
AcDbLine
 10
125.7121875264
 20
156.1450153332
 30
0.0
 11
125.7240793566
 21
156.1392383852
 31
0.0
  0
LINE
  5
135
330
A
100
AcDbEntity
  8
1
  6
CONTINUOUS
370
    50
100
AcDbLine
 10
125.7240793566
 20
156.1392383853
 30
0.0
 11
125.7114700568
 21
156.1394434894
 31
0.0
  0
LINE
  5
136
330
A
100
AcDbEntity
  8
1
  6
CONTINUOUS
370
    50
100
AcDbLine
 10
125.7114700568
 20
153.0384578408
 30
0.0
 11
125.7240793564
 21
153.0382863575
 31
0.0
  0
LINE
  5
137
330
A
100
AcDbEntity
  8
1
  6
CONTINUOUS
370
    50
100
AcDbLine
 10
125.7240793566
 20
153.0382863574
 30
0.0
 11
125.7121875264
 21
153.0441266664
 31
0.0
  0
LINE
  5
138
330
A
100
AcDbEntity
  8
1
  6
CONTINUOUS
370
    50
100
AcDbLine
 10
125.7121875266
 20
153.0441266664
 30
0.0
 11
125.7114700568
 21
153.0384578408
 31
0.0
  0
ARC
  5
139
330
A
100
AcDbEntity
  8
1
  6
CONTINUOUS
370
    50
100
AcDbCircle
 10
162.0311571733
 20
152.88355194
 30
0.0
 40
1.8567857571
100
AcDbArc
 50
271.1460368842
 51
325.8783497227
  0
ARC
  5
13A
330
A
100
AcDbEntity
  8
1
  6
CONTINUOUS
370
    50
100
AcDbCircle
 10
162.0311571733
 20
173.0891406052
 30
0.0
 40
1.8567857571
100
AcDbArc
 50
34.1216502773
 51
88.85396311579998
  0
LINE
  5
13B
330
A
100
AcDbEntity
  8
1
  6
CONTINUOUS
370
    50
100
AcDbLine
 10
162.0682943428
 20
174.9455549389
 30
0.0
 11
147.8721419201
 21
174.9455549389
 31
0.0
  0
LINE
  5
13C
330
A
100
AcDbEntity
  8
1
  6
CONTINUOUS
370
    50
100
AcDbLine
 10
162.0682943428
 20
151.0271376062
 30
0.0
 11
147.8721419201
 21
151.0271376062
 31
0.0
  0
ARC
  5
13D
330
A
100
AcDbEntity
  8
1
  6
CONTINUOUS
370
    50
100
AcDbCircle
 10
168.2417052975
 20
162.9863462726
 30
0.0
 40
23.6207913524
100
AcDbArc
 50
149.5823070197
 51
210.4176929803
  0
LWPOLYLINE
  5
13E
330
A
100
AcDbEntity
  8
1
  6
CONTINUOUS
370
    50
100
AcDbPolyline
 90
       14
 70
   128
 43
0.0
 10
163.5682943428
 20
174.1307080154
 10
164.7872257317
 20
172.5811430566
 10
165.9058372896
 20
170.9501900519
 10
166.8807787973
 20
169.2366920376
 10
167.6687000355
 20
167.4394920496
 10
168.1173084019
 20
165.9909122597
 10
168.4018110604
 20
164.4972571591
 10
168.501307043
 20
162.9865462726
 10
168.3901364754
 20
161.3907823637
 10
168.0735200996
 20
159.8149391478
 10
167.5768822116
 20
158.2910823082
 10
166.4898517133
 20
156.0037133064
 10
165.12321765
 20
153.8553200254
 10
163.5682943428
 20
151.8419845297
  0
LINE
  5
14E
330
A
100
AcDbEntity
  8
1
  6
CONTINUOUS
370
    50
100
AcDbLine
 10
116.1721419201
 20
138.8671222236
 30
0.0
 11
116.1721419201
 21
184.1671222236
 31
0.0
  0
LWPOLYLINE
  5
14F
330
A
100
AcDbEntity
  8
1
  6
CONTINUOUS
370
    50
100
AcDbPolyline
 90
       27
 70
   128
 43
0.0
 10
122.1506886443
 20
155.2554651217
 10
122.1040437828
 20
154.7885437383
 10
122.1320776977
 20
154.3487581285
 10
122.2331611596
 20
153.9616670334
 10
122.4014195652
 20
153.6497667804
 10
122.6270743475
 20
153.4311838786
 10
122.8970112708
 20
153.3186215716
 10
123.1955425823
 20
153.3186215716
 10
123.5053187273
 20
153.4311838786
 10
123.8083366422
 20
153.6497667804
 10
124.0869860273
 20
153.9616670334
 10
124.3250727931
 20
154.3487581285
 10
124.5087602023
 20
154.7885437383
 10
124.6273730102
 20
155.2554651217
 10
124.6740178716
 20
155.7223865051
 10
124.6459839567
 20
156.1621721149
 10
124.5449004948
 20
156.5492632099
 10
124.3766420893
 20
156.8611634629
 10
124.150987307
 20
157.0797463648
 10
123.8810503837
 20
157.1923086717
 10
123.5825190721
 20
157.1923086717
 10
123.2727429271
 20
157.0797463648
 10
122.9697250122
 20
156.8611634629
 10
122.6910756271
 20
156.5492632099
 10
122.4529888613
 20
156.1621721149
 10
122.2693014522
 20
155.7223865051
 10
122.1506886443
 20
155.2554651217
  0
LWPOLYLINE
  5
16C
330
A
100
AcDbEntity
  8
1
  6
CONTINUOUS
370
    50
100
AcDbPolyline
 90
       27
 70
   128
 43
0.0
 10
122.1583490887
 20
155.2532666586
 10
122.1117042273
 20
154.7863452752
 10
122.1397381421
 20
154.3465596654
 10
122.240821604
 20
153.9594685703
 10
122.4090800096
 20
153.6475683173
 10
122.6347347919
 20
153.4289854155
 10
122.9046717152
 20
153.3164231085
 10
123.2032030267
 20
153.3164231085
 10
123.5129791717
 20
153.4289854155
 10
123.8159970867
 20
153.6475683173
 10
124.0946464718
 20
153.9594685703
 10
124.3327332376
 20
154.3465596654
 10
124.5164206467
 20
154.7863452752
 10
124.6350334546
 20
155.2532666586
 10
124.681678316
 20
155.720188042
 10
124.6536444012
 20
156.1599736518
 10
124.5525609393
 20
156.5470647468
 10
124.3843025337
 20
156.8589649998
 10
124.1586477514
 20
157.0775479017
 10
123.8887108281
 20
157.1901102086
 10
123.5901795166
 20
157.1901102086
 10
123.2804033716
 20
157.0775479017
 10
122.9773854566
 20
156.8589649998
 10
122.6987360716
 20
156.5470647468
 10
122.4606493057
 20
156.1599736518
 10
122.2769618966
 20
155.720188042
 10
122.1583490887
 20
155.2532666586
  0
LWPOLYLINE
  5
189
330
A
100
AcDbEntity
  8
1
  6
CONTINUOUS
370
    50
100
AcDbPolyline
 90
       25
 70
   128
 43
0.0
 10
122.3673985263
 20
155.2554651217
 10
122.3284854988
 20
154.8388617153
 10
122.3618468829
 20
154.4506491426
 10
122.4652091552
 20
154.1172834489
 10
122.6315283478
 20
153.8614829552
 10
122.8494700826
 20
153.7006800425
 10
123.1041819904
 20
153.6458331636
 10
123.3783058757
 20
153.7006800425
 10
123.6531606488
 20
153.8614829552
 10
123.910015411
 20
154.1172834489
 10
124.1313659348
 20
154.4506491426
 10
124.3021275477
 20
154.8388617153
 10
124.4106631282
 20
155.2554651217
 10
124.4495761556
 20
155.672068528
 10
124.4162147716
 20
156.0602811007
 10
124.3128524992
 20
156.3936467944
 10
124.1465333066
 20
156.6494472881
 10
123.9285915718
 20
156.8102502008
 10
123.673879664
 20
156.8650970797
 10
123.3997557787
 20
156.8102502008
 10
123.1249010057
 20
156.6494472881
 10
122.8680462435
 20
156.3936467944
 10
122.6466957197
 20
156.0602811007
 10
122.4759341067
 20
155.672068528
 10
122.3673985263
 20
155.2554651217
  0
LWPOLYLINE
  5
1A4
330
A
100
AcDbEntity
  8
1
  6
CONTINUOUS
370
    50
100
AcDbPolyline
 90
       24
 70
   128
 43
0.0
 10
107.6872629965
 20
159.4685021867
 10
107.609607327
 20
159.0624410514
 10
107.6768721054
 20
158.6632779395
 10
107.8745798506
 20
158.3145155419
 10
108.2040341651
 20
158.0121595707
 10
108.8403271643
 20
157.7145694794
 10
109.8558732838
 20
157.5644010882
 10
110.5344124334
 20
157.6000149252
 10
111.2156204977
 20
157.7342421978
 10
112.0485973533
 20
158.078651954
 10
112.4565546415
 20
158.3982007238
 10
112.6684268724
 20
158.7072379201
 10
112.741581302
 20
158.9937155709
 10
112.7060393065
 20
159.291950823
 10
112.5793626262
 20
159.5588640376
 10
112.2378477822
 20
159.9306699504
 10
111.4938387283
 20
160.361846755
 10
110.8597097772
 20
160.5608256918
 10
110.1824756523
 20
160.6573776142
 10
109.6235837907
 20
160.6510594863
 10
109.0592066182
 20
160.5542110784
 10
108.3698921525
 20
160.2610475959
 10
107.9313348204
 20
159.8832233531
 10
107.6872629965
 20
159.4685021867
  0
LINE
  5
1BE
330
A
100
AcDbEntity
  8
1
  6
CONTINUOUS
370
    50
100
AcDbLine
 10
115.8721419201
 20
138.1171222236
 30
0.0
 11
118.5721419201
 21
138.1171222236
 31
0.0
  0
LINE
  5
1BF
330
A
100
AcDbEntity
  8
1
  6
CONTINUOUS
370
    50
100
AcDbLine
 10
118.5721419201
 20
187.0171222236
 30
0.0
 11
115.8721419201
 21
187.0171222236
 31
0.0
  0
LINE
  5
1C0
330
A
100
AcDbEntity
  8
1
  6
CONTINUOUS
370
    50
100
AcDbLine
 10
118.2614817483
 20
138.8671222236
 30
0.0
 11
115.8721419201
 21
138.8671222236
 31
0.0
  0
LINE
  5
1C1
330
A
100
AcDbEntity
  8
1
  6
CONTINUOUS
370
    50
100
AcDbLine
 10
115.8721419201
 20
186.2671222236
 30
0.0
 11
118.2614817483
 21
186.2671222236
 31
0.0
  0
LINE
  5
1C2
330
A
100
AcDbEntity
  8
1
  6
CONTINUOUS
370
    50
100
AcDbLine
 10
47.9211800258
 20
169.9671222236
 30
0.0
 11
47.9211800258
 21
152.9671222236
 31
0.0
  0
LINE
  5
1C3
330
A
100
AcDbEntity
  8
1
  6
CONTINUOUS
370
    50
100
AcDbLine
 10
117.763449874
 20
191.9562362683
 30
0.0
 11
118.5721419201
 21
191.4834340416
 31
0.0
  0
LINE
  5
1C4
330
A
100
AcDbEntity
  8
1
  6
CONTINUOUS
370
    50
100
AcDbLine
 10
118.5721419201
 20
131.6045840673
 30
0.0
 11
117.9048398453
 21
130.9372819925
 31
0.0
  0
LINE
  5
1C5
330
A
100
AcDbEntity
  8
1
  6
CONTINUOUS
370
    50
100
AcDbLine
 10
177.0061165163
 20
169.4671222236
 30
0.0
 11
177.0061165163
 21
153.4671222236
 31
0.0
  0
LINE
  5
1C6
330
A
100
AcDbEntity
  8
1
  6
CONTINUOUS
370
    50
100
AcDbLine
 10
55.0721419201
 20
169.9671222236
 30
0.0
 11
55.0721419201
 21
152.9671222236
 31
0.0
  0
LINE
  5
1C7
330
A
100
AcDbEntity
  8
1
  6
CONTINUOUS
370
    50
100
AcDbLine
 10
55.8948660537
 20
168.5421222236
 30
0.0
 11
55.8948660537
 21
154.3921222236
 31
0.0
  0
LINE
  5
1C8
330
A
100
AcDbEntity
  8
1
  6
CONTINUOUS
370
    50
100
AcDbLine
 10
130.4391292182
 20
169.7171222236
 30
0.0
 11
130.4391292182
 21
153.2171222236
 31
0.0
  0
LINE
  5
1C9
330
A
100
AcDbEntity
  8
1
  6
CONTINUOUS
370
    50
100
AcDbLine
 10
125.6721419201
 20
153.2171222236
 30
0.0
 11
125.6721419201
 21
169.7171222236
 31
0.0
  0
LINE
  5
1CA
330
A
100
AcDbEntity
  8
1
  6
CONTINUOUS
370
    50
100
AcDbLine
 10
130.8721419201
 20
169.4671222236
 30
0.0
 11
130.8721419201
 21
153.4671222236
 31
0.0
  0
LINE
  5
1CB
330
A
100
AcDbEntity
  8
1
  6
CONTINUOUS
370
    50
100
AcDbLine
 10
124.8721419201
 20
168.9171222155
 30
0.0
 11
124.8721419201
 21
154.0171222236
 31
0.0
  0
LINE
  5
1CC
330
A
100
AcDbEntity
  8
1
  6
CONTINUOUS
370
    50
100
AcDbLine
 10
137.9151494356
 20
138.8671222236
 30
0.0
 11
118.2614817483
 21
138.8671222236
 31
0.0
  0
LINE
  5
1CD
330
A
100
AcDbEntity
  8
1
  6
CONTINUOUS
370
    50
100
AcDbLine
 10
118.5721419201
 20
138.1171222236
 30
0.0
 11
118.2614817483
 21
138.8671222236
 31
0.0
  0
LINE
  5
1CE
330
A
100
AcDbEntity
  8
1
  6
CONTINUOUS
370
    50
100
AcDbLine
 10
118.5721419201
 20
138.1171222236
 30
0.0
 11
134.0271326507
 21
138.1171222236
 31
0.0
  0
LINE
  5
1CF
330
A
100
AcDbEntity
  8
1
  6
CONTINUOUS
370
    50
100
AcDbLine
 10
133.9221419201
 20
131.6045840673
 30
0.0
 11
129.0196999967
 21
131.6045840673
 31
0.0
  0
LINE
  5
1D0
330
A
100
AcDbEntity
  8
1
  6
CONTINUOUS
370
    50
100
AcDbLine
 10
122.9245838435
 20
131.6045840673
 30
0.0
 11
118.5721419201
 21
131.6045840673
 31
0.0
  0
LINE
  5
1D1
330
A
100
AcDbEntity
  8
1
  6
CONTINUOUS
370
    50
100
AcDbLine
 10
118.5721419201
 20
131.6045840673
 30
0.0
 11
118.5721419201
 21
138.1171222236
 31
0.0
  0
LINE
  5
1D2
330
A
100
AcDbEntity
  8
1
  6
CONTINUOUS
370
    50
100
AcDbLine
 10
118.5721419201
 20
191.4834340416
 30
0.0
 11
122.8388476469
 21
191.4834340416
 31
0.0
  0
LINE
  5
1D3
330
A
100
AcDbEntity
  8
1
  6
CONTINUOUS
370
    50
100
AcDbLine
 10
129.1054361933
 20
191.4834340416
 30
0.0
 11
133.9221419201
 21
191.4834340416
 31
0.0
  0
LINE
  5
1D4
330
A
100
AcDbEntity
  8
1
  6
CONTINUOUS
370
    50
100
AcDbLine
 10
118.5721419201
 20
191.4834340416
 30
0.0
 11
118.5721419201
 21
187.0171222236
 31
0.0
  0
LINE
  5
1D5
330
A
100
AcDbEntity
  8
1
  6
CONTINUOUS
370
    50
100
AcDbLine
 10
133.9221419201
 20
187.0171222236
 30
0.0
 11
118.5721419201
 21
187.0171222236
 31
0.0
  0
LINE
  5
1D6
330
A
100
AcDbEntity
  8
1
  6
CONTINUOUS
370
    50
100
AcDbLine
 10
118.2614817483
 20
186.2671222236
 30
0.0
 11
133.9221419201
 21
186.2671222236
 31
0.0
  0
LINE
  5
1D7
330
A
100
AcDbEntity
  8
1
  6
CONTINUOUS
370
    50
100
AcDbLine
 10
118.5721419201
 20
187.0171222236
 30
0.0
 11
118.2614817483
 21
186.2671222236
 31
0.0
  0
LINE
  5
1D8
330
A
100
AcDbEntity
  8
1
  6
CONTINUOUS
370
    50
100
AcDbLine
 10
80.6221919201
 20
153.4671222236
 30
0.0
 11
80.6221919201
 21
169.4671222236
 31
0.0
  0
LINE
  5
1D9
330
A
100
AcDbEntity
  8
1
  6
CONTINUOUS
370
    50
100
AcDbLine
 10
80.6220919201
 20
153.4671222236
 30
0.0
 11
80.6220919201
 21
169.4671222236
 31
0.0
  0
LINE
  5
1DA
330
A
100
AcDbEntity
  8
1
  6
CONTINUOUS
370
    50
100
AcDbLine
 10
137.9151494356
 20
138.8671222236
 30
0.0
 11
137.9151494356
 21
138.8671222236
 31
0.0
  0
LINE
  5
1DB
330
A
100
AcDbEntity
  8
1
  6
CONTINUOUS
370
    50
100
AcDbLine
 10
137.9151494356
 20
138.8671222236
 30
0.0
 11
142.5721419201
 21
138.8671222236
 31
0.0
  0
LINE
  5
1DC
330
A
100
AcDbEntity
  8
1
  6
CONTINUOUS
370
    50
100
AcDbLine
 10
124.8084471291
 20
154.3921222236
 30
0.0
 11
124.8084471291
 21
168.5421222236
 31
0.0
  0
LWPOLYLINE
  5
1DD
330
A
100
AcDbEntity
  8
1
  6
CONTINUOUS
370
    50
100
AcDbPolyline
 90
       24
 70
   128
 43
0.0
 10
107.6872629965
 20
163.4657422605
 10
107.609607327
 20
163.8718033958
 10
107.6768721054
 20
164.2709665076
 10
107.8745798506
 20
164.6197289052
 10
108.2040341651
 20
164.9220848764
 10
108.8403271643
 20
165.2196749677
 10
109.8558732838
 20
165.3698433589
 10
110.5441651502
 20
165.3334508059
 10
111.2156204977
 20
165.2000022493
 10
112.0485973533
 20
164.8555924931
 10
112.4565546415
 20
164.5360437233
 10
112.6684268724
 20
164.227006527
 10
112.741581302
 20
163.9405288762
 10
112.7060393065
 20
163.6422936241
 10
112.5793626262
 20
163.3753804095
 10
112.2378477822
 20
163.0035744967
 10
111.4938387283
 20
162.5723976921
 10
110.8507104839
 20
162.3709719502
 10
110.1824756523
 20
162.276866833
 10
109.6162658258
 20
162.2837590888
 10
109.0592066182
 20
162.3800333687
 10
108.3698921525
 20
162.6731968512
 10
107.9313348204
 20
163.051021094
 10
107.6872629965
 20
163.4657422605
  0
LINE
  5
1F7
330
A
100
AcDbEntity
  8
1
  6
CONTINUOUS
370
    50
100
AcDbLine
 10
120.9861229342
 20
181.8671222236
 30
0.0
 11
130.958160906
 21
181.8671222236
 31
0.0
  0
LINE
  5
1F8
330
A
100
AcDbEntity
  8
1
  6
CONTINUOUS
370
    50
100
AcDbLine
 10
130.6721419201
 20
181.5671222236
 30
0.0
 11
121.2721419201
 21
181.5671222236
 31
0.0
  0
LWPOLYLINE
  5
1F9
330
A
100
AcDbEntity
  8
1
  6
CONTINUOUS
370
    50
100
AcDbPolyline
 90
       25
 70
   128
 43
0.0
 10
122.3673985263
 20
167.6787793254
 10
122.3284854988
 20
168.0953827318
 10
122.3618468829
 20
168.4835953045
 10
122.4652091552
 20
168.8169609982
 10
122.6315283478
 20
169.0727614919
 10
122.8494700826
 20
169.2335644046
 10
123.1041819904
 20
169.2884112835
 10
123.3783058757
 20
169.2335644046
 10
123.6531606488
 20
169.0727614919
 10
123.910015411
 20
168.8169609982
 10
124.1313659348
 20
168.4835953045
 10
124.3021275477
 20
168.0953827318
 10
124.4106631282
 20
167.6787793254
 10
124.4495761556
 20
167.2621759191
 10
124.4162147716
 20
166.8739633464
 10
124.3128524992
 20
166.5405976527
 10
124.1465333066
 20
166.284797159
 10
123.9285915718
 20
166.1239942463
 10
123.673879664
 20
166.0691473674
 10
123.3997557787
 20
166.1239942463
 10
123.1249010057
 20
166.284797159
 10
122.8680462435
 20
166.5405976527
 10
122.6466957197
 20
166.8739633464
 10
122.4759341067
 20
167.2621759191
 10
122.3673985263
 20
167.6787793254
  0
LINE
  5
214
330
A
100
AcDbEntity
  8
1
  6
CONTINUOUS
370
    50
100
AcDbLine
 10
127.3971419201
 20
134.6492643673
 30
0.0
 11
127.3971419201
 21
188.2849800798
 31
0.0
  0
LINE
  5
215
330
A
100
AcDbEntity
  8
1
  6
CONTINUOUS
370
    50
100
AcDbLine
 10
127.8971419201
 20
179.8171222236
 30
0.0
 11
127.8971419201
 21
183.2737152633
 31
0.0
  0
LINE
  5
216
330
A
100
AcDbEntity
  8
1
  6
CONTINUOUS
370
    50
100
AcDbLine
 10
124.0471419201
 20
179.8171222236
 30
0.0
 11
124.0471419201
 21
183.2737152633
 31
0.0
  0
LINE
  5
217
330
A
100
AcDbEntity
  8
1
  6
CONTINUOUS
370
    50
100
AcDbLine
 10
124.5471419201
 20
134.6492643673
 30
0.0
 11
124.5471419201
 21
188.2849800798
 31
0.0
  0
LINE
  5
218
330
A
100
AcDbEntity
  8
1
  6
CONTINUOUS
370
    50
100
AcDbLine
 10
122.450305278
 20
187.3773518636
 30
0.0
 11
122.450305278
 21
179.8171222236
 31
0.0
  0
LINE
  5
219
330
A
100
AcDbEntity
  8
1
  6
CONTINUOUS
370
    50
100
AcDbLine
 10
133.4221419201
 20
187.3773518636
 30
0.0
 11
133.4221419201
 21
179.8171222236
 31
0.0
  0
LINE
  5
21A
330
A
100
AcDbEntity
  8
1
  6
CONTINUOUS
370
    50
100
AcDbLine
 10
129.4939785622
 20
179.8171222236
 30
0.0
 11
129.4939785622
 21
187.3773518636
 31
0.0
  0
LINE
  5
21B
330
A
100
AcDbEntity
  8
1
  6
CONTINUOUS
370
    50
100
AcDbLine
 10
116.3721419201
 20
179.8171222236
 30
0.0
 11
116.3721419201
 21
187.3773518636
 31
0.0
  0
LWPOLYLINE
  5
21C
330
A
100
AcDbEntity
  8
1
  6
CONTINUOUS
370
    50
100
AcDbPolyline
 90
       27
 70
   128
 43
0.0
 10
122.1583490887
 20
167.6809777886
 10
122.1117042273
 20
168.147899172
 10
122.1397381421
 20
168.5876847817
 10
122.240821604
 20
168.9747758768
 10
122.4090800096
 20
169.2866761298
 10
122.6347347919
 20
169.5052590316
 10
122.9046717152
 20
169.6178213386
 10
123.2032030267
 20
169.6178213386
 10
123.5129791717
 20
169.5052590316
 10
123.8159970867
 20
169.2866761298
 10
124.0946464718
 20
168.9747758768
 10
124.3327332376
 20
168.5876847817
 10
124.5164206467
 20
168.147899172
 10
124.6350334546
 20
167.6809777886
 10
124.681678316
 20
167.2140564051
 10
124.6536444012
 20
166.7742707954
 10
124.5525609393
 20
166.3871797003
 10
124.3843025337
 20
166.0752794473
 10
124.1586477514
 20
165.8566965455
 10
123.8887108281
 20
165.7441342385
 10
123.5901795166
 20
165.7441342385
 10
123.2804033716
 20
165.8566965455
 10
122.9773854566
 20
166.0752794473
 10
122.6987360716
 20
166.3871797003
 10
122.4606493057
 20
166.7742707954
 10
122.2769618966
 20
167.2140564051
 10
122.1583490887
 20
167.6809777886
  0
LWPOLYLINE
  5
239
330
A
100
AcDbEntity
  8
1
  6
CONTINUOUS
370
    50
100
AcDbPolyline
 90
       27
 70
   128
 43
0.0
 10
122.1506886443
 20
167.6787793254
 10
122.1040437828
 20
168.1457007088
 10
122.1320776977
 20
168.5854863186
 10
122.2331611596
 20
168.9725774137
 10
122.4014195652
 20
169.2844776667
 10
122.6270743475
 20
169.5030605685
 10
122.8970112708
 20
169.6156228755
 10
123.1955425823
 20
169.6156228755
 10
123.5053187273
 20
169.5030605685
 10
123.8083366422
 20
169.2844776667
 10
124.0869860273
 20
168.9725774137
 10
124.3250727931
 20
168.5854863186
 10
124.5087602023
 20
168.1457007088
 10
124.6273730102
 20
167.6787793254
 10
124.6740178716
 20
167.211857942
 10
124.6459839567
 20
166.7720723323
 10
124.5449004948
 20
166.3849812372
 10
124.3766420893
 20
166.0730809842
 10
124.150987307
 20
165.8544980824
 10
123.8810503837
 20
165.7419357754
 10
123.5825190721
 20
165.7419357754
 10
123.2727429271
 20
165.8544980824
 10
122.9697250122
 20
166.0730809842
 10
122.6910756271
 20
166.3849812372
 10
122.4529888613
 20
166.7720723323
 10
122.2693014522
 20
167.211857942
 10
122.1506886443
 20
167.6787793254
  0
LWPOLYLINE
  5
256
330
A
100
AcDbEntity
  8
1
  6
CONTINUOUS
370
    50
100
AcDbPolyline
 90
       25
 70
   128
 43
0.0
 10
122.3750589707
 20
167.6809777886
 10
122.3361459433
 20
168.0975811949
 10
122.3695073273
 20
168.4857937676
 10
122.4728695997
 20
168.8191594613
 10
122.6391887923
 20
169.074959955
 10
122.857130527
 20
169.2357628677
 10
123.1118424349
 20
169.2906097466
 10
123.3859663202
 20
169.2357628677
 10
123.6608210932
 20
169.074959955
 10
123.9176758554
 20
168.8191594613
 10
124.1390263792
 20
168.4857937676
 10
124.3097879922
 20
168.0975811949
 10
124.4183235726
 20
167.6809777886
 10
124.4572366
 20
167.2643743822
 10
124.423875216
 20
166.8761618095
 10
124.3205129436
 20
166.5427961158
 10
124.154193751
 20
166.2869956221
 10
123.9362520163
 20
166.1261927094
 10
123.6815401084
 20
166.0713458305
 10
123.4074162231
 20
166.1261927094
 10
123.1325614501
 20
166.2869956221
 10
122.8757066879
 20
166.5427961158
 10
122.6543561641
 20
166.8761618095
 10
122.4835945511
 20
167.2643743822
 10
122.3750589707
 20
167.6809777886
  0
LWPOLYLINE
  5
271
330
A
100
AcDbEntity
  8
1
  6
CONTINUOUS
370
    50
100
AcDbPolyline
 90
       25
 70
   128
 43
0.0
 10
130.6025236606
 20
170.042169456
 10
130.5636106331
 20
170.4587728623
 10
130.5969720172
 20
170.846985435
 10
130.7003342895
 20
171.1803511287
 10
130.8666534821
 20
171.4361516224
 10
131.0845952169
 20
171.5969545351
 10
131.3393071247
 20
171.651801414
 10
131.61343101
 20
171.5969545351
 10
131.8882857831
 20
171.4361516224
 10
132.1451405453
 20
171.1803511287
 10
132.3664910691
 20
170.846985435
 10
132.537252682
 20
170.4587728623
 10
132.6457882625
 20
170.042169456
 10
132.6847012899
 20
169.6255660496
 10
132.6513399058
 20
169.2373534769
 10
132.5479776335
 20
168.9039877832
 10
132.3816584409
 20
168.6481872895
 10
132.1637167061
 20
168.4873843768
 10
131.9090047983
 20
168.4325374979
 10
131.634880913
 20
168.4873843768
 10
131.3600261399
 20
168.6481872895
 10
131.1031713777
 20
168.9039877832
 10
130.881820854
 20
169.2373534769
 10
130.711059241
 20
169.6255660496
 10
130.6025236606
 20
170.042169456
  0
LWPOLYLINE
  5
28C
330
A
100
AcDbEntity
  8
1
  6
CONTINUOUS
370
    50
100
AcDbPolyline
 90
       19
 70
   128
 43
0.0
 10
125.7114700568
 20
169.8957866063
 10
125.2412582851
 20
169.8652095007
 10
124.7853336601
 20
169.7884505251
 10
124.3575492209
 20
169.6678419621
 10
123.9709029812
 20
169.5070484419
 10
123.6371429913
 20
169.3109555942
 10
123.3664103796
 20
169.0855216011
 10
123.1669312196
 20
168.8375961602
 10
123.0447665845
 20
168.5747123606
 10
123.0036283851
 20
168.3048577937
 10
123.0447665845
 20
168.0362318538
 10
123.1669312196
 20
167.7769966042
 10
123.3664103796
 20
167.5350287768
 10
123.6371429913
 20
167.3176804415
 10
123.9709029812
 20
167.1315556176
 10
124.3575492209
 20
166.9823096136
 10
124.7853336601
 20
166.8744771939
 10
125.2412582851
 20
166.811334792
 10
125.7114700568
 20
166.7948009577
  0
LINE
  5
2A1
330
A
100
AcDbEntity
  8
1
  6
CONTINUOUS
370
    50
100
AcDbLine
 10
125.7114700568
 20
166.7948009577
 30
0.0
 11
125.7121875263
 21
166.7892291157
 31
0.0
  0
LINE
  5
2A2
330
A
100
AcDbEntity
  8
1
  6
CONTINUOUS
370
    50
100
AcDbLine
 10
125.7121875303
 20
166.7892291158
 30
0.0
 11
125.7240793526
 21
166.79500606
 31
0.0
  0
LINE
  5
2A3
330
A
100
AcDbEntity
  8
1
  6
CONTINUOUS
370
    50
100
AcDbLine
 10
125.7240793524
 20
166.7950060617
 30
0.0
 11
125.7114700568
 21
166.7948009577
 31
0.0
  0
LWPOLYLINE
  5
2A4
330
A
100
AcDbEntity
  8
1
  6
CONTINUOUS
370
    50
100
AcDbPolyline
 90
       18
 70
   128
 43
0.0
 10
125.7114700568
 20
166.7948009577
 10
125.6948005381
 20
166.9517825386
 10
125.67869868
 20
167.1562184735
 10
125.6637128117
 20
167.4011469419
 10
125.6503532591
 20
167.6782271986
 10
125.6390749658
 20
167.9780236077
 10
125.6302620005
 20
168.2903269621
 10
125.6242144782
 20
168.6045021456
 10
125.6211383399
 20
168.9098502992
 10
125.6211383399
 20
169.1959731577
 10
125.6242144782
 20
169.4531271504
 10
125.6302620005
 20
169.6725552064
 10
125.6390749658
 20
169.8467849664
 10
125.6503532591
 20
169.9698832451
 10
125.6637128117
 20
170.037658078
 10
125.67869868
 20
170.0478014746
 10
125.6948005381
 20
169.9999680137
 10
125.7114700568
 20
169.8957866063
  0
LINE
  5
2B8
330
A
100
AcDbEntity
  8
1
  6
CONTINUOUS
370
    50
100
AcDbLine
 10
125.7114700568
 20
169.8957866063
 30
0.0
 11
125.7240793564
 21
169.8959580896
 31
0.0
  0
LINE
  5
2B9
330
A
100
AcDbEntity
  8
1
  6
CONTINUOUS
370
    50
100
AcDbLine
 10
125.7240793526
 20
169.8959580879
 30
0.0
 11
125.7121875303
 21
169.8901177827
 31
0.0
  0
LINE
  5
2BA
330
A
100
AcDbEntity
  8
1
  6
CONTINUOUS
370
    50
100
AcDbLine
 10
125.7121875263
 20
169.8901177826
 30
0.0
 11
125.7114700568
 21
169.8957866063
 31
0.0
  0
LINE
  5
2BB
330
A
100
AcDbEntity
  8
1
  6
CONTINUOUS
370
    50
100
AcDbLine
 10
147.8721419201
 20
151.0271376062
 30
0.0
 11
147.8721419201
 21
174.9455549389
 31
0.0
  0
LINE
  5
2BC
330
A
100
AcDbEntity
  8
1
  6
CONTINUOUS
370
    50
100
AcDbLine
 10
162.8721419201
 20
155.0082706833
 30
0.0
 11
162.8721419201
 21
171.0839436671
 31
0.0
  0
LINE
  5
2BD
330
A
100
AcDbEntity
  8
1
  6
CONTINUOUS
370
    50
100
AcDbLine
 10
148.8721419201
 20
171.0839436671
 30
0.0
 11
148.8721419201
 21
155.0082706833
 31
0.0
  0
LINE
  5
2BE
330
A
100
AcDbEntity
  8
1
  6
CONTINUOUS
370
    50
100
AcDbLine
 10
162.8721419201
 20
171.0839436671
 30
0.0
 11
148.8721419201
 21
171.0839436671
 31
0.0
  0
LINE
  5
2BF
330
A
100
AcDbEntity
  8
1
  6
CONTINUOUS
370
    50
100
AcDbLine
 10
162.8721419201
 20
171.0839436671
 30
0.0
 11
162.8721419201
 21
171.0840177756
 31
0.0
  0
LINE
  5
2C0
330
A
100
AcDbEntity
  8
1
  6
CONTINUOUS
370
    50
100
AcDbLine
 10
148.8721419201
 20
171.0839436671
 30
0.0
 11
148.8721419201
 21
171.0840177756
 31
0.0
  0
LINE
  5
2C1
330
A
100
AcDbEntity
  8
1
  6
CONTINUOUS
370
    50
100
AcDbLine
 10
148.8721419201
 20
171.0840177756
 30
0.0
 11
162.8721419201
 21
171.0840177756
 31
0.0
  0
LINE
  5
2C2
330
A
100
AcDbEntity
  8
1
  6
CONTINUOUS
370
    50
100
AcDbLine
 10
148.8721419201
 20
155.0082706833
 30
0.0
 11
162.8721419201
 21
155.0082706833
 31
0.0
  0
LINE
  5
2C3
330
A
100
AcDbEntity
  8
1
  6
CONTINUOUS
370
    50
100
AcDbLine
 10
162.8721419201
 20
155.0083447918
 30
0.0
 11
148.8721419201
 21
155.0083447918
 31
0.0
  0
LWPOLYLINE
  5
2C4
330
A
100
AcDbEntity
  8
1
  6
CONTINUOUS
370
    50
100
AcDbPolyline
 90
       28
 70
   128
 43
0.0
 10
130.5229208539
 20
170.0992872029
 10
130.4743632136
 20
170.5717320627
 10
130.4985206433
 20
171.0187072979
 10
130.5940908096
 20
171.4161163577
 10
130.7559215002
 20
171.742534817
 10
130.9752883807
 20
171.980365372
 10
131.2403653257
 20
172.1167865161
 10
131.5368619685
 20
172.14444375
 10
131.8487940984
 20
172.061846065
 10
132.1593453734
 20
171.8734463238
 10
132.451773894
 20
171.5894012052
 10
132.710314763
 20
171.225023655
 10
132.9210299752
 20
170.7999573612
 10
133.0725598188
 20
170.3371177579
 10
133.156735281
 20
169.8614566478
 10
133.1690184406
 20
169.3986170445
 10
133.1087471094
 20
168.9735507508
 10
132.9791705304
 20
168.6091732006
 10
132.7872742106
 20
168.3251280819
 10
132.5434033302
 20
168.1367283407
 10
132.2607050316
 20
168.0541306558
 10
131.9544196531
 20
168.0817878897
 10
131.6410591188
 20
168.2182090337
 10
131.3375167762
 20
168.4560395888
 10
131.0601566716
 20
168.782458048
 10
130.82393136
 20
169.1798671079
 10
130.6415758091
 20
169.626842343
 10
130.5229208539
 20
170.0992872029
  0
LINE
  5
2E2
330
A
100
AcDbEntity
  8
1
  6
CONTINUOUS
370
    50
100
AcDbLine
 10
133.9221419201
 20
154.4173482239
 30
0.0
 11
132.4024729136
 21
154.8534764761
 31
0.0
  0
LINE
  5
2E3
330
A
100
AcDbEntity
  8
1
  6
CONTINUOUS
370
    50
100
AcDbLine
 10
131.2438873783
 20
150.8164380124
 30
0.0
 11
133.9221419201
 21
150.0478084837
 31
0.0
  0
LINE
  5
2E4
330
A
100
AcDbEntity
  8
1
  6
CONTINUOUS
370
    50
100
AcDbLine
 10
115.8721419201
 20
150.535921692
 30
0.0
 11
125.674633927
 21
152.8834722998
 31
0.0
  0
LINE
  5
2E5
330
A
100
AcDbEntity
  8
1
  6
CONTINUOUS
370
    50
100
AcDbLine
 10
124.6119569514
 20
156.0222903399
 30
0.0
 11
115.8721419201
 21
153.9292350155
 31
0.0
  0
LINE
  5
2E6
330
A
100
AcDbEntity
  8
1
  6
CONTINUOUS
370
    50
100
AcDbLine
 10
132.0793145646
 20
154.4780543876
 30
0.0
 11
123.8518498748
 21
156.839246055
 31
0.0
  0
LINE
  5
2E7
330
A
100
AcDbEntity
  8
1
  6
CONTINUOUS
370
    50
100
AcDbLine
 10
125.6725379267
 20
152.8835188593
 30
0.0
 11
131.1689973584
 21
151.3060955947
 31
0.0
  0
LINE
  5
2E8
330
A
100
AcDbEntity
  8
1
  6
CONTINUOUS
370
    50
100
AcDbLine
 10
122.9415326685
 20
153.6672872621
 30
0.0
 11
124.5493939218
 21
153.2058488073
 31
0.0
  0
LINE
  5
2E9
330
A
100
AcDbEntity
  8
1
  6
CONTINUOUS
370
    50
100
AcDbLine
 10
116.1721419201
 20
184.1671222236
 30
0.0
 11
115.8721419201
 21
184.4671222236
 31
0.0
  0
ARC
  5
2EA
330
A
100
AcDbEntity
  8
1
  6
CONTINUOUS
370
    50
100
AcDbCircle
 10
115.6721419201
 20
139.0421222236
 30
0.0
 40
0.5
100
AcDbArc
 50
0.0
 51
66.4218215218
  0
ARC
  5
2EB
330
A
100
AcDbEntity
  8
1
  6
CONTINUOUS
370
    50
100
AcDbCircle
 10
115.6721419201
 20
183.8921222236
 30
0.0
 40
0.5
100
AcDbArc
 50
293.5781784782001
 51
0.0
  0
LINE
  5
2EC
330
A
100
AcDbEntity
  8
1
  6
CONTINUOUS
370
    50
100
AcDbLine
 10
123.8441894304
 20
156.8414445181
 30
0.0
 11
111.0856263902
 21
160.5030114618
 31
0.0
  0
LINE
  5
2ED
330
A
100
AcDbEntity
  8
1
  6
CONTINUOUS
370
    50
100
AcDbLine
 10
108.8889172198
 20
157.7002329815
 30
0.0
 11
122.9338722241
 21
153.6694857252
 31
0.0
  0
LINE
  5
2EE
330
A
100
AcDbEntity
  8
1
  6
CONTINUOUS
370
    50
100
AcDbLine
 10
46.6221419201
 20
152.2171222236
 30
0.0
 11
47.9211800258
 21
152.9671222236
 31
0.0
  0
LINE
  5
2EF
330
A
100
AcDbEntity
  8
1
  6
CONTINUOUS
370
    50
100
AcDbLine
 10
47.9211800258
 20
169.9671222236
 30
0.0
 11
46.6221419201
 21
170.7171222236
 31
0.0
  0
LINE
  5
2F0
330
A
100
AcDbEntity
  8
1
  6
CONTINUOUS
370
    50
100
AcDbLine
 10
177.8721419201
 20
169.9671222236
 30
0.0
 11
177.0061165163
 21
169.4671222236
 31
0.0
  0
LINE
  5
2F1
330
A
100
AcDbEntity
  8
1
  6
CONTINUOUS
370
    50
100
AcDbLine
 10
177.0061165163
 20
153.4671222236
 30
0.0
 11
177.8721419201
 21
152.9671222236
 31
0.0
  0
LINE
  5
2F2
330
A
100
AcDbEntity
  8
1
  6
CONTINUOUS
370
    50
100
AcDbLine
 10
55.0721419201
 20
169.9671222236
 30
0.0
 11
47.9211800258
 21
169.9671222236
 31
0.0
  0
LINE
  5
2F3
330
A
100
AcDbEntity
  8
1
  6
CONTINUOUS
370
    50
100
AcDbLine
 10
47.9211800258
 20
152.9671222236
 30
0.0
 11
55.0721419201
 21
152.9671222236
 31
0.0
  0
LINE
  5
2F4
330
A
100
AcDbEntity
  8
1
  6
CONTINUOUS
370
    50
100
AcDbLine
 10
55.0721419201
 20
152.9671222236
 30
0.0
 11
55.8948660537
 21
154.3921222236
 31
0.0
  0
LINE
  5
2F5
330
A
100
AcDbEntity
  8
1
  6
CONTINUOUS
370
    50
100
AcDbLine
 10
55.8948660537
 20
168.5421222236
 30
0.0
 11
55.0721419201
 21
169.9671222236
 31
0.0
  0
LINE
  5
2F6
330
A
100
AcDbEntity
  8
1
  6
CONTINUOUS
370
    50
100
AcDbLine
 10
130.4391292182
 20
169.7171222236
 30
0.0
 11
125.6721419201
 21
169.7171222236
 31
0.0
  0
LINE
  5
2F7
330
A
100
AcDbEntity
  8
1
  6
CONTINUOUS
370
    50
100
AcDbLine
 10
125.6721419201
 20
153.2171222236
 30
0.0
 11
130.4391292182
 21
153.2171222236
 31
0.0
  0
LINE
  5
2F8
330
A
100
AcDbEntity
  8
1
  6
CONTINUOUS
370
    50
100
AcDbLine
 10
130.4391292182
 20
153.2171222236
 30
0.0
 11
130.8721419201
 21
153.4671222236
 31
0.0
  0
LINE
  5
2F9
330
A
100
AcDbEntity
  8
1
  6
CONTINUOUS
370
    50
100
AcDbLine
 10
130.8721419201
 20
169.4671222236
 30
0.0
 11
130.4391292182
 21
169.7171222236
 31
0.0
  0
ARC
  5
2FA
330
A
100
AcDbEntity
  8
1
  6
CONTINUOUS
370
    50
100
AcDbCircle
 10
125.6721419201
 20
168.9171222236
 30
0.0
 40
0.8
100
AcDbArc
 50
90.0
 51
180.0
  0
ARC
  5
2FB
330
A
100
AcDbEntity
  8
1
  6
CONTINUOUS
370
    50
100
AcDbCircle
 10
125.6721419201
 20
154.0171222236
 30
0.0
 40
0.8
100
AcDbArc
 50
180.0
 51
270.0
  0
LINE
  5
2FC
330
A
100
AcDbEntity
  8
1
  6
CONTINUOUS
370
    50
100
AcDbLine
 10
177.0061165163
 20
169.4671222236
 30
0.0
 11
130.8721419201
 21
169.4671222236
 31
0.0
  0
LINE
  5
2FD
330
A
100
AcDbEntity
  8
1
  6
CONTINUOUS
370
    50
100
AcDbLine
 10
130.8721419201
 20
153.4671222236
 30
0.0
 11
177.0061165163
 21
153.4671222236
 31
0.0
  0
LINE
  5
2FE
330
A
100
AcDbEntity
  8
1
  6
CONTINUOUS
370
    50
100
AcDbLine
 10
142.5721419201
 20
137.7171222236
 30
0.0
 11
142.5721419201
 21
138.8671222236
 31
0.0
  0
LINE
  5
2FF
330
A
100
AcDbEntity
  8
1
  6
CONTINUOUS
370
    50
100
AcDbLine
 10
124.8721419201
 20
168.7171222236
 30
0.0
 11
124.8084471291
 21
168.5421222236
 31
0.0
  0
LINE
  5
300
330
A
100
AcDbEntity
  8
1
  6
CONTINUOUS
370
    50
100
AcDbLine
 10
124.8084471291
 20
154.3921222236
 30
0.0
 11
124.8721419201
 21
154.2171222236
 31
0.0
  0
LINE
  5
301
330
A
100
AcDbEntity
  8
1
  6
CONTINUOUS
370
    50
100
AcDbLine
 10
80.6220919201
 20
168.5421222236
 30
0.0
 11
55.8948660537
 21
168.5421222236
 31
0.0
  0
LINE
  5
302
330
A
100
AcDbEntity
  8
1
  6
CONTINUOUS
370
    50
100
AcDbLine
 10
55.8948660537
 20
154.3921222236
 30
0.0
 11
80.6220919201
 21
154.3921222236
 31
0.0
  0
LINE
  5
303
330
A
100
AcDbEntity
  8
1
  6
CONTINUOUS
370
    50
100
AcDbLine
 10
124.8084471291
 20
168.5421222236
 30
0.0
 11
80.6221919201
 21
168.5421222236
 31
0.0
  0
LINE
  5
304
330
A
100
AcDbEntity
  8
1
  6
CONTINUOUS
370
    50
100
AcDbLine
 10
80.6221919201
 20
154.3921222236
 30
0.0
 11
124.8084471291
 21
154.3921222236
 31
0.0
  0
LINE
  5
305
330
A
100
AcDbEntity
  8
1
  6
CONTINUOUS
370
    50
100
AcDbLine
 10
130.9721419201
 20
181.8671222236
 30
0.0
 11
130.9721419201
 21
186.2671222236
 31
0.0
  0
LINE
  5
306
330
A
100
AcDbEntity
  8
1
  6
CONTINUOUS
370
    50
100
AcDbLine
 10
120.9721419201
 20
186.2671222236
 30
0.0
 11
120.9721419201
 21
181.8671222236
 31
0.0
  0
ARC
  5
307
330
A
100
AcDbEntity
  8
1
  6
CONTINUOUS
370
    50
100
AcDbCircle
 10
130.6721419201
 20
181.8671222236
 30
0.0
 40
0.3
100
AcDbArc
 50
270.0
 51
0.0
  0
ARC
  5
308
330
A
100
AcDbEntity
  8
1
  6
CONTINUOUS
370
    50
100
AcDbCircle
 10
121.2721419201
 20
181.8671222236
 30
0.0
 40
0.3
100
AcDbArc
 50
180.0
 51
270.0
  0
LINE
  5
309
330
A
100
AcDbEntity
  8
1
  6
CONTINUOUS
370
    50
100
AcDbLine
 10
124.2400911125
 20
181.5671222236
 30
0.0
 11
125.9721419201
 21
180.5671222236
 31
0.0
  0
LINE
  5
30A
330
A
100
AcDbEntity
  8
1
  6
CONTINUOUS
370
    50
100
AcDbLine
 10
125.9721419201
 20
180.5671222236
 30
0.0
 11
127.7041927277
 21
181.5671222236
 31
0.0
  0
LINE
  5
30B
330
A
100
AcDbEntity
  8
1
  6
CONTINUOUS
370
    50
100
AcDbLine
 10
122.9338722241
 20
169.2647587219
 30
0.0
 11
108.8889172198
 21
165.2340114656
 31
0.0
  0
LINE
  5
30C
330
A
100
AcDbEntity
  8
1
  6
CONTINUOUS
370
    50
100
AcDbLine
 10
111.085724052
 20
162.4312610132
 30
0.0
 11
123.8441894304
 21
166.092799929
 31
0.0
  0
LINE
  5
30D
330
A
100
AcDbEntity
  8
1
  6
CONTINUOUS
370
    50
100
AcDbLine
 10
124.5493939218
 20
169.7283956398
 30
0.0
 11
122.9415326685
 21
169.266957185
 31
0.0
  0
LINE
  5
30E
330
A
100
AcDbEntity
  8
1
  6
CONTINUOUS
370
    50
100
AcDbLine
 10
131.1689973584
 20
171.6281488524
 30
0.0
 11
125.6725379267
 21
170.0507255878
 31
0.0
  0
LINE
  5
30F
330
A
100
AcDbEntity
  8
1
  6
CONTINUOUS
370
    50
100
AcDbLine
 10
123.8518498748
 20
166.0949983921
 30
0.0
 11
132.0793145646
 21
168.4561900595
 31
0.0
  0
LINE
  5
310
330
A
100
AcDbEntity
  8
1
  6
CONTINUOUS
370
    50
100
AcDbLine
 10
115.8721419201
 20
169.0050094316
 30
0.0
 11
124.6119569514
 21
166.9119541072
 31
0.0
  0
LINE
  5
311
330
A
100
AcDbEntity
  8
1
  6
CONTINUOUS
370
    50
100
AcDbLine
 10
125.674633927
 20
170.0507721473
 30
0.0
 11
115.8721419201
 21
172.3983227551
 31
0.0
  0
LINE
  5
312
330
A
100
AcDbEntity
  8
1
  6
CONTINUOUS
370
    50
100
AcDbLine
 10
133.9221419201
 20
172.8864359635
 30
0.0
 11
131.2438873783
 21
172.1178064347
 31
0.0
  0
LINE
  5
313
330
A
100
AcDbEntity
  8
1
  6
CONTINUOUS
370
    50
100
AcDbLine
 10
132.4024729136
 20
168.080767971
 30
0.0
 11
133.9221419201
 21
168.5168962232
 31
0.0
  0
LINE
  5
314
330
A
100
AcDbEntity
  8
1
  6
CONTINUOUS
370
    50
100
AcDbLine
 10
135.4221419201
 20
185.2171222236
 30
0.0
 11
135.4221419201
 21
138.8669131949
 31
0.0
  0
LINE
  5
315
330
A
100
AcDbEntity
  8
1
  6
CONTINUOUS
370
    50
100
AcDbLine
 10
162.0682943428
 20
151.0271376062
 30
0.0
 11
162.0682943428
 21
137.7171222236
 31
0.0
  0
LINE
  5
316
330
A
100
AcDbEntity
  8
1
  6
CONTINUOUS
370
    50
100
AcDbLine
 10
162.0682943428
 20
185.2171222236
 30
0.0
 11
162.0682943428
 21
174.9455549389
 31
0.0
  0
LINE
  5
317
330
A
100
AcDbEntity
  8
1
  6
CONTINUOUS
370
    50
100
AcDbLine
 10
163.5682943428
 20
151.8419845297
 30
0.0
 11
163.5682943428
 21
138.1190460122
 31
0.0
  0
LINE
  5
318
330
A
100
AcDbEntity
  8
1
  6
CONTINUOUS
370
    50
100
AcDbLine
 10
163.5682943428
 20
184.8151984349
 30
0.0
 11
163.5682943428
 21
174.1307080154
 31
0.0
  0
LINE
  5
319
330
A
100
AcDbEntity
  8
1
  6
CONTINUOUS
370
    50
100
AcDbLine
 10
176.3721419201
 20
177.4228935895
 30
0.0
 11
176.3721419201
 21
145.5113508576
 31
0.0
  0
LINE
  5
31A
330
A
100
AcDbEntity
  8
1
  6
CONTINUOUS
370
    50
100
AcDbLine
 10
115.6721419201
 20
183.3921222236
 30
0.0
 11
115.6721419201
 21
139.5421222236
 31
0.0
  0
LINE
  5
31B
330
A
100
AcDbEntity
  8
1
  6
CONTINUOUS
370
    50
100
AcDbLine
 10
47.4350491042
 20
149.076791119
 30
0.0
 11
47.4350491042
 21
173.8574533281
 31
0.0
  0
LINE
  5
31C
330
A
100
AcDbEntity
  8
1
  6
CONTINUOUS
370
    50
100
AcDbLine
 10
115.0256953107
 20
183.538568833
 30
0.0
 11
115.0256953107
 21
139.3956756142
 31
0.0
  0
LINE
  5
31D
330
A
100
AcDbEntity
  8
1
  6
CONTINUOUS
370
    50
100
AcDbLine
 10
115.3792487013
 20
183.3921222236
 30
0.0
 11
115.3792487013
 21
139.5421222236
 31
0.0
  0
LINE
  5
31E
330
A
100
AcDbEntity
  8
1
  6
CONTINUOUS
370
    50
100
AcDbLine
 10
130.5406103665
 20
170.0865943702
 30
0.0
 11
130.688046097
 21
169.536914701
 31
0.0
  0
LINE
  5
31F
330
A
100
AcDbEntity
  8
1
  6
CONTINUOUS
370
    50
100
AcDbLine
 10
130.688046097
 20
169.536914701
 30
0.0
 11
130.9238605804
 21
169.0317668095
 31
0.0
  0
LINE
  5
320
330
A
100
AcDbEntity
  8
1
  6
CONTINUOUS
370
    50
100
AcDbLine
 10
130.9238605804
 20
169.0317668095
 30
0.0
 11
131.2289495297
 21
168.6120747736
 31
0.0
  0
LINE
  5
321
330
A
100
AcDbEntity
  8
1
  6
CONTINUOUS
370
    50
100
AcDbLine
 10
131.2289495297
 20
168.6120747736
 30
0.0
 11
131.5785964527
 21
168.3118395462
 31
0.0
  0
LINE
  5
322
330
A
100
AcDbEntity
  8
1
  6
CONTINUOUS
370
    50
100
AcDbLine
 10
131.5785964527
 20
168.3118395462
 30
0.0
 11
131.9444750351
 21
168.1553843997
 31
0.0
  0
LINE
  5
323
330
A
100
AcDbEntity
  8
1
  6
CONTINUOUS
370
    50
100
AcDbLine
 10
131.9444750351
 20
168.1553843997
 30
0.0
 11
132.2969439701
 21
168.1553843997
 31
0.0
  0
LINE
  5
324
330
A
100
AcDbEntity
  8
1
  6
CONTINUOUS
370
    50
100
AcDbLine
 10
132.2969439701
 20
168.1553843997
 30
0.0
 11
132.6074483208
 21
168.3118395462
 31
0.0
  0
LINE
  5
325
330
A
100
AcDbEntity
  8
1
  6
CONTINUOUS
370
    50
100
AcDbLine
 10
132.6074483208
 20
168.3118395462
 30
0.0
 11
132.8508328713
 21
168.6120747736
 31
0.0
  0
LINE
  5
326
330
A
100
AcDbEntity
  8
1
  6
CONTINUOUS
370
    50
100
AcDbLine
 10
132.8508328713
 20
168.6120747736
 30
0.0
 11
133.0073800529
 21
169.0317668095
 31
0.0
  0
LINE
  5
327
330
A
100
AcDbEntity
  8
1
  6
CONTINUOUS
370
    50
100
AcDbLine
 10
133.0073800529
 20
169.0317668095
 30
0.0
 11
133.0644073439
 21
169.536914701
 31
0.0
  0
LINE
  5
328
330
A
100
AcDbEntity
  8
1
  6
CONTINUOUS
370
    50
100
AcDbLine
 10
133.0644073439
 20
169.536914701
 30
0.0
 11
133.0172947324
 21
170.0865943702
 31
0.0
  0
LINE
  5
329
330
A
100
AcDbEntity
  8
1
  6
CONTINUOUS
370
    50
100
AcDbLine
 10
133.0172947324
 20
170.0865943702
 30
0.0
 11
132.8698590019
 21
170.6362740395
 31
0.0
  0
LINE
  5
32A
330
A
100
AcDbEntity
  8
1
  6
CONTINUOUS
370
    50
100
AcDbLine
 10
132.8698590019
 20
170.6362740395
 30
0.0
 11
132.6340445184
 21
171.141421931
 31
0.0
  0
LINE
  5
32B
330
A
100
AcDbEntity
  8
1
  6
CONTINUOUS
370
    50
100
AcDbLine
 10
132.6340445184
 20
171.141421931
 30
0.0
 11
132.3289555691
 21
171.5611139668
 31
0.0
  0
LINE
  5
32C
330
A
100
AcDbEntity
  8
1
  6
CONTINUOUS
370
    50
100
AcDbLine
 10
132.3289555691
 20
171.5611139668
 30
0.0
 11
131.9793086461
 21
171.8613491942
 31
0.0
  0
LINE
  5
32D
330
A
100
AcDbEntity
  8
1
  6
CONTINUOUS
370
    50
100
AcDbLine
 10
131.9793086461
 20
171.8613491942
 30
0.0
 11
131.6134300638
 21
172.0178043407
 31
0.0
  0
LINE
  5
32E
330
A
100
AcDbEntity
  8
1
  6
CONTINUOUS
370
    50
100
AcDbLine
 10
131.6134300638
 20
172.0178043407
 30
0.0
 11
131.2609611288
 21
172.0178043407
 31
0.0
  0
LINE
  5
32F
330
A
100
AcDbEntity
  8
1
  6
CONTINUOUS
370
    50
100
AcDbLine
 10
131.2609611288
 20
172.0178043407
 30
0.0
 11
130.9504567781
 21
171.8613491942
 31
0.0
  0
LINE
  5
330
330
A
100
AcDbEntity
  8
1
  6
CONTINUOUS
370
    50
100
AcDbLine
 10
130.9504567781
 20
171.8613491942
 30
0.0
 11
130.7070722275
 21
171.5611139668
 31
0.0
  0
LINE
  5
331
330
A
100
AcDbEntity
  8
1
  6
CONTINUOUS
370
    50
100
AcDbLine
 10
130.7070722275
 20
171.5611139668
 30
0.0
 11
130.5505250459
 21
171.141421931
 31
0.0
  0
LINE
  5
332
330
A
100
AcDbEntity
  8
1
  6
CONTINUOUS
370
    50
100
AcDbLine
 10
130.5505250459
 20
171.141421931
 30
0.0
 11
130.4934977549
 21
170.6362740395
 31
0.0
  0
LINE
  5
333
330
A
100
AcDbEntity
  8
1
  6
CONTINUOUS
370
    50
100
AcDbLine
 10
130.4934977549
 20
170.6362740395
 30
0.0
 11
130.5406103665
 21
170.0865943702
 31
0.0
  0
LINE
  5
334
330
A
100
AcDbEntity
  8
1
  6
CONTINUOUS
370
    50
100
AcDbLine
 10
133.0172947324
 20
152.8476500769
 30
0.0
 11
132.8698590019
 21
152.2979704076
 31
0.0
  0
LINE
  5
335
330
A
100
AcDbEntity
  8
1
  6
CONTINUOUS
370
    50
100
AcDbLine
 10
132.8698590019
 20
152.2979704076
 30
0.0
 11
132.6340445184
 21
151.7928225161
 31
0.0
  0
LINE
  5
336
330
A
100
AcDbEntity
  8
1
  6
CONTINUOUS
370
    50
100
AcDbLine
 10
132.6340445184
 20
151.7928225161
 30
0.0
 11
132.3289555691
 21
151.3731304803
 31
0.0
  0
LINE
  5
337
330
A
100
AcDbEntity
  8
1
  6
CONTINUOUS
370
    50
100
AcDbLine
 10
132.3289555691
 20
151.3731304803
 30
0.0
 11
131.9793086461
 21
151.0728952529
 31
0.0
  0
LINE
  5
338
330
A
100
AcDbEntity
  8
1
  6
CONTINUOUS
370
    50
100
AcDbLine
 10
131.9793086461
 20
151.0728952529
 30
0.0
 11
131.6134300638
 21
150.9164401064
 31
0.0
  0
LINE
  5
339
330
A
100
AcDbEntity
  8
1
  6
CONTINUOUS
370
    50
100
AcDbLine
 10
131.6134300638
 20
150.9164401064
 30
0.0
 11
131.2609611288
 21
150.9164401064
 31
0.0
  0
LINE
  5
33A
330
A
100
AcDbEntity
  8
1
  6
CONTINUOUS
370
    50
100
AcDbLine
 10
131.2609611288
 20
150.9164401064
 30
0.0
 11
130.9504567781
 21
151.0728952529
 31
0.0
  0
LINE
  5
33B
330
A
100
AcDbEntity
  8
1
  6
CONTINUOUS
370
    50
100
AcDbLine
 10
130.9504567781
 20
151.0728952529
 30
0.0
 11
130.7070722275
 21
151.3731304803
 31
0.0
  0
LINE
  5
33C
330
A
100
AcDbEntity
  8
1
  6
CONTINUOUS
370
    50
100
AcDbLine
 10
130.7070722275
 20
151.3731304803
 30
0.0
 11
130.5505250459
 21
151.7928225161
 31
0.0
  0
LINE
  5
33D
330
A
100
AcDbEntity
  8
1
  6
CONTINUOUS
370
    50
100
AcDbLine
 10
130.5505250459
 20
151.7928225161
 30
0.0
 11
130.4934977549
 21
152.2979704076
 31
0.0
  0
LINE
  5
33E
330
A
100
AcDbEntity
  8
1
  6
CONTINUOUS
370
    50
100
AcDbLine
 10
130.4934977549
 20
152.2979704076
 30
0.0
 11
130.5406103665
 21
152.8476500769
 31
0.0
  0
LINE
  5
33F
330
A
100
AcDbEntity
  8
1
  6
CONTINUOUS
370
    50
100
AcDbLine
 10
130.5406103665
 20
152.8476500769
 30
0.0
 11
130.688046097
 21
153.3973297461
 31
0.0
  0
LINE
  5
340
330
A
100
AcDbEntity
  8
1
  6
CONTINUOUS
370
    50
100
AcDbLine
 10
130.688046097
 20
153.3973297461
 30
0.0
 11
130.9238605804
 21
153.9024776376
 31
0.0
  0
LINE
  5
341
330
A
100
AcDbEntity
  8
1
  6
CONTINUOUS
370
    50
100
AcDbLine
 10
130.9238605804
 20
153.9024776376
 30
0.0
 11
131.2289495297
 21
154.3221696735
 31
0.0
  0
LINE
  5
342
330
A
100
AcDbEntity
  8
1
  6
CONTINUOUS
370
    50
100
AcDbLine
 10
131.2289495297
 20
154.3221696735
 30
0.0
 11
131.5785964527
 21
154.6224049009
 31
0.0
  0
LINE
  5
343
330
A
100
AcDbEntity
  8
1
  6
CONTINUOUS
370
    50
100
AcDbLine
 10
131.5785964527
 20
154.6224049009
 30
0.0
 11
131.9444750351
 21
154.7788600474
 31
0.0
  0
LINE
  5
344
330
A
100
AcDbEntity
  8
1
  6
CONTINUOUS
370
    50
100
AcDbLine
 10
131.9444750351
 20
154.7788600474
 30
0.0
 11
132.2969439701
 21
154.7788600474
 31
0.0
  0
LINE
  5
345
330
A
100
AcDbEntity
  8
1
  6
CONTINUOUS
370
    50
100
AcDbLine
 10
132.2969439701
 20
154.7788600474
 30
0.0
 11
132.6074483208
 21
154.6224049009
 31
0.0
  0
LINE
  5
346
330
A
100
AcDbEntity
  8
1
  6
CONTINUOUS
370
    50
100
AcDbLine
 10
132.6074483208
 20
154.6224049009
 30
0.0
 11
132.8508328713
 21
154.3221696735
 31
0.0
  0
LINE
  5
347
330
A
100
AcDbEntity
  8
1
  6
CONTINUOUS
370
    50
100
AcDbLine
 10
132.8508328713
 20
154.3221696735
 30
0.0
 11
133.0073800529
 21
153.9024776376
 31
0.0
  0
LINE
  5
348
330
A
100
AcDbEntity
  8
1
  6
CONTINUOUS
370
    50
100
AcDbLine
 10
133.0073800529
 20
153.9024776376
 30
0.0
 11
133.0644073439
 21
153.3973297461
 31
0.0
  0
LINE
  5
349
330
A
100
AcDbEntity
  8
1
  6
CONTINUOUS
370
    50
100
AcDbLine
 10
133.0644073439
 20
153.3973297461
 30
0.0
 11
133.0172947324
 21
152.8476500769
 31
0.0
  0
LINE
  5
34A
330
A
100
AcDbEntity
  8
1
  6
CONTINUOUS
370
    50
100
AcDbLine
 10
80.6220919201
 20
169.4671222236
 30
0.0
 11
55.3608170547
 21
169.4671222236
 31
0.0
  0
LINE
  5
34B
330
A
100
AcDbEntity
  8
1
  6
CONTINUOUS
370
    50
100
AcDbLine
 10
55.3608170547
 20
153.4671222236
 30
0.0
 11
80.6220919201
 21
153.4671222236
 31
0.0
  0
LINE
  5
34C
330
A
100
AcDbEntity
  8
1
  6
CONTINUOUS
370
    50
100
AcDbLine
 10
80.6220919201
 20
169.4671222236
 30
0.0
 11
80.6220919201
 21
169.3856937586
 31
0.0
  0
LINE
  5
34D
330
A
100
AcDbEntity
  8
1
  6
CONTINUOUS
370
    50
100
AcDbLine
 10
80.6220919201
 20
169.3856937586
 30
0.0
 11
80.6220919201
 21
153.4671222236
 31
0.0
  0
LINE
  5
34E
330
A
100
AcDbEntity
  8
1
  6
CONTINUOUS
370
    50
100
AcDbLine
 10
80.6221419201
 20
169.4671222236
 30
0.0
 11
80.6221419201
 21
169.3856937586
 31
0.0
  0
LINE
  5
34F
330
A
100
AcDbEntity
  8
1
  6
CONTINUOUS
370
    50
100
AcDbLine
 10
80.6221419201
 20
169.3856937586
 30
0.0
 11
80.6221419201
 21
153.4671222236
 31
0.0
  0
LINE
  5
350
330
A
100
AcDbEntity
  8
1
  6
CONTINUOUS
370
    50
100
AcDbLine
 10
154.3721419201
 20
168.4621221654
 30
0.0
 11
155.2809608686
 21
168.3753692489
 31
0.0
  0
LINE
  5
351
330
A
100
AcDbEntity
  8
1
  6
CONTINUOUS
370
    50
100
AcDbLine
 10
153.076086612
 20
168.328707755
 30
0.0
 11
154.3721418799
 21
168.4621222236
 31
0.0
  0
ARC
  5
352
330
A
100
AcDbEntity
  8
1
  6
CONTINUOUS
370
    50
100
AcDbCircle
 10
154.3721419201
 20
161.4671222236
 30
0.0
 40
6.995
100
AcDbArc
 50
75.0
 51
345.0
  0
ENDSEC
  0
SECTION
  2
OBJECTS
  0
DICTIONARY
  5
19
330
0
100
AcDbDictionary
281
     1
  3
ACAD_GROUP
350
1A
  3
ACAD_LAYOUT
350
377
  3
ACAD_MATERIAL
350
38B
  3
ACAD_MLEADERSTYLE
350
393
  3
ACAD_MLINESTYLE
350
1B
  3
ACAD_SCALELIST
350
355
  3
ACAD_VISUALSTYLE
350
37A
  3
ACDB_RECOMPOSE_DATA
350
3C0
  3
AcDbVariableDictionary
350
391
  0
DICTIONARY
  5
397
330
7
100
AcDbDictionary
280
     1
281
     1
  3
ACAD_XREC_ROUNDTRIP
360
398
  0
DICTIONARY
  5
1A
102
{ACAD_REACTORS
330
19
102
}
330
19
100
AcDbDictionary
281
     1
  0
DICTIONARY
  5
377
102
{ACAD_REACTORS
330
19
102
}
330
19
100
AcDbDictionary
281
     1
  3
Layout1
350
379
  3
Model
350
378
  0
DICTIONARY
  5
38B
102
{ACAD_REACTORS
330
19
102
}
330
19
100
AcDbDictionary
281
     1
  3
ByBlock
350
38D
  3
ByLayer
350
38C
  3
Global
350
38E
  0
DICTIONARY
  5
393
102
{ACAD_REACTORS
330
19
102
}
330
19
100
AcDbDictionary
281
     1
  0
DICTIONARY
  5
1B
102
{ACAD_REACTORS
330
19
102
}
330
19
100
AcDbDictionary
281
     1
  3
STANDARD
350
1C
  0
DICTIONARY
  5
355
102
{ACAD_REACTORS
330
19
102
}
330
19
100
AcDbDictionary
281
     1
  3
A0
350
356
  3
A1
350
357
  3
A2
350
358
  3
A3
350
359
  3
A4
350
35A
  3
A5
350
35B
  3
A6
350
35C
  3
A7
350
35D
  3
A8
350
35E
  3
A9
350
35F
  3
B0
350
360
  3
B1
350
361
  3
B2
350
362
  3
B3
350
363
  3
B4
350
364
  3
B5
350
365
  3
B6
350
366
  3
B7
350
367
  3
B8
350
368
  3
B9
350
369
  3
C0
350
36A
  3
C1
350
36B
  3
C2
350
36C
  3
C3
350
36D
  3
C4
350
36E
  3
C5
350
36F
  3
C6
350
370
  3
C7
350
371
  3
C8
350
372
  3
C9
350
373
  3
D0
350
374
  3
D1
350
375
  3
D2
350
376
  0
DICTIONARY
  5
37A
102
{ACAD_REACTORS
330
19
102
}
330
19
100
AcDbDictionary
281
     1
  3
2dWireframe
350
37F
  3
3D Hidden
350
381
  3
3dWireframe
350
380
  3
Basic
350
382
  3
Brighten
350
386
  3
ColorChange
350
38A
  3
Conceptual
350
384
  3
Dim
350
385
  3
Facepattern
350
389
  3
Flat
350
37B
  3
FlatWithEdges
350
37C
  3
Gouraud
350
37D
  3
GouraudWithEdges
350
37E
  3
Linepattern
350
388
  3
Realistic
350
383
  3
Thicken
350
387
  0
XRECORD
  5
3C0
102
{ACAD_REACTORS
330
19
102
}
330
19
100
AcDbXrecord
280
     1
  0
DICTIONARY
  5
391
102
{ACAD_REACTORS
330
19
102
}
330
19
100
AcDbDictionary
281
     1
  3
CANNOSCALE
350
399
  3
DIMASSOC
350
395
  3
HIDETEXT
350
396
  3
MSLTSCALE
350
394
  0
XRECORD
  5
398
102
{ACAD_REACTORS
330
397
102
}
330
397
100
AcDbXrecord
280
     1
102
VTR_0.000_0.000_1.000_1.000_VISUALSTYLE
340
37F
102
VTR_0.000_0.000_1.000_1.000_GRIDDISPLAY
 70
     3
102
VTR_0.000_0.000_1.000_1.000_GRIDMAJOR
 70
     5
102
VTR_0.000_0.000_1.000_1.000_DEFAULTLIGHTING
280
     1
102
VTR_0.000_0.000_1.000_1.000_DEFAULTLIGHTINGTYPE
 70
     1
102
VTR_0.000_0.000_1.000_1.000_BRIGHTNESS
141
0.0
102
VTR_0.000_0.000_1.000_1.000_CONTRAST
142
0.0
  0
LAYOUT
  5
379
102
{ACAD_REACTORS
330
377
102
}
330
377
100
AcDbPlotSettings
  1

  2
none_device
  4

  6

 40
0.0
 41
0.0
 42
0.0
 43
0.0
 44
0.0
 45
0.0
 46
0.0
 47
0.0
 48
0.0
 49
0.0
140
0.0
141
0.0
142
1.0
143
1.0
 70
   688
 72
     0
 73
     0
 74
     5
  7

 75
    16
147
1.0
148
0.0
149
0.0
100
AcDbLayout
  1
Layout1
 70
     1
 71
     1
 10
0.0
 20
0.0
 11
12.0
 21
9.0
 12
0.0
 22
0.0
 32
0.0
 14
1.000000000000000E+20
 24
1.000000000000000E+20
 34
1.000000000000000E+20
 15
-1.000000000000000E+20
 25
-1.000000000000000E+20
 35
-1.000000000000000E+20
146
0.0
 13
0.0
 23
0.0
 33
0.0
 16
1.0
 26
0.0
 36
0.0
 17
0.0
 27
1.0
 37
0.0
 76
     0
330
B
  0
LAYOUT
  5
378
102
{ACAD_REACTORS
330
377
102
}
330
377
100
AcDbPlotSettings
  1

  2
none_device
  4

  6

 40
0.0
 41
0.0
 42
0.0
 43
0.0
 44
0.0
 45
0.0
 46
0.0
 47
0.0
 48
0.0
 49
0.0
140
0.0
141
0.0
142
1.0
143
1.0
 70
  1712
 72
     0
 73
     0
 74
     0
  7

 75
     0
147
1.0
148
2667.54428576817
149
0.0
100
AcDbLayout
  1
Model
 70
     1
 71
     0
 10
0.0
 20
0.0
 11
0.0
 21
0.0
 12
0.0
 22
0.0
 32
0.0
 14
0.0
 24
0.0
 34
0.0
 15
210.0
 25
297.0
 35
0.0
146
0.0
 13
0.0
 23
0.0
 33
0.0
 16
1.0
 26
0.0
 36
0.0
 17
0.0
 27
1.0
 37
0.0
 76
     0
330
A
331
15
  0
MATERIAL
  5
38D
102
{ACAD_REACTORS
330
38B
102
}
102
{ACAD_XDICTIONARY
360
3BC
102
}
330
38B
100
AcDbMaterial
  1
ByBlock
  0
MATERIAL
  5
38C
102
{ACAD_REACTORS
330
38B
102
}
102
{ACAD_XDICTIONARY
360
3BA
102
}
330
38B
100
AcDbMaterial
  1
ByLayer
  0
MATERIAL
  5
38E
102
{ACAD_REACTORS
330
38B
102
}
102
{ACAD_XDICTIONARY
360
3BE
102
}
330
38B
100
AcDbMaterial
  1
Global
  0
MLINESTYLE
  5
1C
102
{ACAD_REACTORS
330
1B
102
}
330
1B
100
AcDbMlineStyle
  2
STANDARD
 70
     0
  3

 62
     0
 51
90.0
 52
90.0
 71
     2
 49
0.5
 62
   256
  6
BYLAYER
 49
-0.5
 62
   256
  6
BYLAYER
  0
SCALE
  5
356
102
{ACAD_REACTORS
330
355
102
}
330
355
100
AcDbScale
 70
     0
300
1:1
140
1.0
141
1.0
290
     1
  0
SCALE
  5
357
102
{ACAD_REACTORS
330
355
102
}
330
355
100
AcDbScale
 70
     0
300
1:2
140
1.0
141
2.0
290
     0
  0
SCALE
  5
358
102
{ACAD_REACTORS
330
355
102
}
330
355
100
AcDbScale
 70
     0
300
1:4
140
1.0
141
4.0
290
     0
  0
SCALE
  5
359
102
{ACAD_REACTORS
330
355
102
}
330
355
100
AcDbScale
 70
     0
300
1:5
140
1.0
141
5.0
290
     0
  0
SCALE
  5
35A
102
{ACAD_REACTORS
330
355
102
}
330
355
100
AcDbScale
 70
     0
300
1:8
140
1.0
141
8.0
290
     0
  0
SCALE
  5
35B
102
{ACAD_REACTORS
330
355
102
}
330
355
100
AcDbScale
 70
     0
300
1:10
140
1.0
141
10.0
290
     0
  0
SCALE
  5
35C
102
{ACAD_REACTORS
330
355
102
}
330
355
100
AcDbScale
 70
     0
300
1:16
140
1.0
141
16.0
290
     0
  0
SCALE
  5
35D
102
{ACAD_REACTORS
330
355
102
}
330
355
100
AcDbScale
 70
     0
300
1:20
140
1.0
141
20.0
290
     0
  0
SCALE
  5
35E
102
{ACAD_REACTORS
330
355
102
}
330
355
100
AcDbScale
 70
     0
300
1:30
140
1.0
141
30.0
290
     0
  0
SCALE
  5
35F
102
{ACAD_REACTORS
330
355
102
}
330
355
100
AcDbScale
 70
     0
300
1:40
140
1.0
141
40.0
290
     0
  0
SCALE
  5
360
102
{ACAD_REACTORS
330
355
102
}
330
355
100
AcDbScale
 70
     0
300
1:50
140
1.0
141
50.0
290
     0
  0
SCALE
  5
361
102
{ACAD_REACTORS
330
355
102
}
330
355
100
AcDbScale
 70
     0
300
1:100
140
1.0
141
100.0
290
     0
  0
SCALE
  5
362
102
{ACAD_REACTORS
330
355
102
}
330
355
100
AcDbScale
 70
     0
300
2:1
140
2.0
141
1.0
290
     0
  0
SCALE
  5
363
102
{ACAD_REACTORS
330
355
102
}
330
355
100
AcDbScale
 70
     0
300
4:1
140
4.0
141
1.0
290
     0
  0
SCALE
  5
364
102
{ACAD_REACTORS
330
355
102
}
330
355
100
AcDbScale
 70
     0
300
8:1
140
8.0
141
1.0
290
     0
  0
SCALE
  5
365
102
{ACAD_REACTORS
330
355
102
}
330
355
100
AcDbScale
 70
     0
300
10:1
140
10.0
141
1.0
290
     0
  0
SCALE
  5
366
102
{ACAD_REACTORS
330
355
102
}
330
355
100
AcDbScale
 70
     0
300
100:1
140
100.0
141
1.0
290
     0
  0
SCALE
  5
367
102
{ACAD_REACTORS
330
355
102
}
330
355
100
AcDbScale
 70
     0
300
1/128" = 1'-0"
140
0.0078125
141
12.0
290
     0
  0
SCALE
  5
368
102
{ACAD_REACTORS
330
355
102
}
330
355
100
AcDbScale
 70
     0
300
1/64" = 1'-0"
140
0.015625
141
12.0
290
     0
  0
SCALE
  5
369
102
{ACAD_REACTORS
330
355
102
}
330
355
100
AcDbScale
 70
     0
300
1/32" = 1'-0"
140
0.03125
141
12.0
290
     0
  0
SCALE
  5
36A
102
{ACAD_REACTORS
330
355
102
}
330
355
100
AcDbScale
 70
     0
300
1/16" = 1'-0"
140
0.0625
141
12.0
290
     0
  0
SCALE
  5
36B
102
{ACAD_REACTORS
330
355
102
}
330
355
100
AcDbScale
 70
     0
300
3/32" = 1'-0"
140
0.09375
141
12.0
290
     0
  0
SCALE
  5
36C
102
{ACAD_REACTORS
330
355
102
}
330
355
100
AcDbScale
 70
     0
300
1/8" = 1'-0"
140
0.125
141
12.0
290
     0
  0
SCALE
  5
36D
102
{ACAD_REACTORS
330
355
102
}
330
355
100
AcDbScale
 70
     0
300
3/16" = 1'-0"
140
0.1875
141
12.0
290
     0
  0
SCALE
  5
36E
102
{ACAD_REACTORS
330
355
102
}
330
355
100
AcDbScale
 70
     0
300
1/4" = 1'-0"
140
0.25
141
12.0
290
     0
  0
SCALE
  5
36F
102
{ACAD_REACTORS
330
355
102
}
330
355
100
AcDbScale
 70
     0
300
3/8" = 1'-0"
140
0.375
141
12.0
290
     0
  0
SCALE
  5
370
102
{ACAD_REACTORS
330
355
102
}
330
355
100
AcDbScale
 70
     0
300
1/2" = 1'-0"
140
0.5
141
12.0
290
     0
  0
SCALE
  5
371
102
{ACAD_REACTORS
330
355
102
}
330
355
100
AcDbScale
 70
     0
300
3/4" = 1'-0"
140
0.75
141
12.0
290
     0
  0
SCALE
  5
372
102
{ACAD_REACTORS
330
355
102
}
330
355
100
AcDbScale
 70
     0
300
1" = 1'-0"
140
1.0
141
12.0
290
     0
  0
SCALE
  5
373
102
{ACAD_REACTORS
330
355
102
}
330
355
100
AcDbScale
 70
     0
300
1-1/2" = 1'-0"
140
1.5
141
12.0
290
     0
  0
SCALE
  5
374
102
{ACAD_REACTORS
330
355
102
}
330
355
100
AcDbScale
 70
     0
300
3" = 1'-0"
140
3.0
141
12.0
290
     0
  0
SCALE
  5
375
102
{ACAD_REACTORS
330
355
102
}
330
355
100
AcDbScale
 70
     0
300
6" = 1'-0"
140
6.0
141
12.0
290
     0
  0
SCALE
  5
376
102
{ACAD_REACTORS
330
355
102
}
330
355
100
AcDbScale
 70
     0
300
1'-0" = 1'-0"
140
12.0
141
12.0
290
     0
  0
VISUALSTYLE
  5
37F
102
{ACAD_REACTORS
330
37A
102
}
102
{ACAD_XDICTIONARY
360
3A2
102
}
330
37A
100
AcDbVisualStyle
  2
2dWireframe
 70
     4
 71
     0
 72
     2
 73
     0
 90
        0
 40
-0.6
 41
-30.0
 62
     5
 63
     7
 74
     1
 91
        4
 64
     7
 65
   257
 75
     1
175
     1
 42
1.0
 92
        0
 66
   257
 43
1.0
 76
     1
 77
     6
 78
     2
 67
     7
 79
     5
170
     0
171
     0
290
     0
174
     0
 93
        1
 44
0.0
173
     0
291
     0
 45
0.0
1001
ACAD
1000
AcDbSavedByObjectVersion
1070
     0
  0
VISUALSTYLE
  5
381
102
{ACAD_REACTORS
330
37A
102
}
102
{ACAD_XDICTIONARY
360
3A6
102
}
330
37A
100
AcDbVisualStyle
  2
3D Hidden
 70
     6
 71
     1
 72
     2
 73
     2
 90
        0
 40
-0.6
 41
-30.0
 62
     5
 63
     7
 74
     2
 91
        2
 64
     7
 65
   257
 75
     2
175
     1
 42
40.0
 92
        0
 66
   257
 43
1.0
 76
     1
 77
     6
 78
     2
 67
     7
 79
     3
170
     0
171
     0
290
     0
174
     0
 93
        1
 44
0.0
173
     0
291
     0
 45
0.0
1001
ACAD
1000
AcDbSavedByObjectVersion
1070
     0
  0
VISUALSTYLE
  5
380
102
{ACAD_REACTORS
330
37A
102
}
102
{ACAD_XDICTIONARY
360
3A4
102
}
330
37A
100
AcDbVisualStyle
  2
3dWireframe
 70
     5
 71
     0
 72
     2
 73
     0
 90
        0
 40
-0.6
 41
-30.0
 62
     5
 63
     7
 74
     1
 91
        4
 64
     7
 65
   257
 75
     1
175
     1
 42
1.0
 92
        0
 66
   257
 43
1.0
 76
     1
 77
     6
 78
     2
 67
     7
 79
     5
170
     0
171
     0
290
     0
174
     0
 93
        1
 44
0.0
173
     0
291
     0
 45
0.0
1001
ACAD
1000
AcDbSavedByObjectVersion
1070
     0
  0
VISUALSTYLE
  5
382
102
{ACAD_REACTORS
330
37A
102
}
102
{ACAD_XDICTIONARY
360
3A8
102
}
330
37A
100
AcDbVisualStyle
  2
Basic
 70
     7
 71
     1
 72
     0
 73
     1
 90
        0
 40
-0.6
 41
-30.0
 62
     5
 63
     7
 74
     0
 91
        4
 64
     7
 65
   257
 75
     1
175
     1
 42
1.0
 92
        8
 66
     7
 43
1.0
 76
     1
 77
     6
 78
     2
 67
     7
 79
     5
170
     0
171
     0
290
     0
174
     0
 93
        1
 44
0.0
173
     0
291
     1
 45
0.0
1001
ACAD
1000
AcDbSavedByObjectVersion
1070
     0
  0
VISUALSTYLE
  5
386
102
{ACAD_REACTORS
330
37A
102
}
102
{ACAD_XDICTIONARY
360
3B0
102
}
330
37A
100
AcDbVisualStyle
  2
Brighten
 70
    12
 71
     2
 72
     2
 73
     0
 90
        0
 40
-0.6
 41
-30.0
 62
     5
 63
     7
 74
     1
 91
        4
 64
     7
 65
   257
 75
     1
175
     1
 42
1.0
 92
        8
 66
     7
 43
1.0
 76
     1
 77
     6
 78
     2
 67
     7
 79
     5
170
     0
171
     0
290
     0
174
     0
 93
        1
 44
50.0
173
     0
291
     1
 45
0.0
1001
ACAD
1000
AcDbSavedByObjectVersion
1070
     0
  0
VISUALSTYLE
  5
38A
102
{ACAD_REACTORS
330
37A
102
}
102
{ACAD_XDICTIONARY
360
3B8
102
}
330
37A
100
AcDbVisualStyle
  2
ColorChange
 70
    16
 71
     2
 72
     2
 73
     3
 90
        0
 40
-0.6
 41
-30.0
 62
     5
 63
     8
 74
     1
 91
        4
 64
     7
 65
   257
 75
     1
175
     1
 42
1.0
 92
        8
 66
     8
 43
1.0
 76
     1
 77
     6
 78
     2
 67
     7
 79
     5
170
     0
171
     0
290
     0
174
     0
 93
        1
 44
0.0
173
     0
291
     1
 45
0.0
1001
ACAD
1000
AcDbSavedByObjectVersion
1070
     0
  0
VISUALSTYLE
  5
384
102
{ACAD_REACTORS
330
37A
102
}
102
{ACAD_XDICTIONARY
360
3AC
102
}
330
37A
100
AcDbVisualStyle
  2
Conceptual
 70
     9
 71
     3
 72
     2
 73
     0
 90
        0
 40
-0.6
 41
-30.0
 62
     5
 63
     7
 74
     2
 91
        2
 64
     7
 65
   257
 75
     1
175
     1
 42
40.0
 92
        8
 66
     7
 43
1.0
 76
     1
 77
     6
 78
     2
 67
     7
 79
     3
170
     0
171
     0
290
     0
174
     0
 93
        1
 44
0.0
173
     0
291
     0
 45
0.0
1001
ACAD
1000
AcDbSavedByObjectVersion
1070
     0
  0
VISUALSTYLE
  5
385
102
{ACAD_REACTORS
330
37A
102
}
102
{ACAD_XDICTIONARY
360
3AE
102
}
330
37A
100
AcDbVisualStyle
  2
Dim
 70
    11
 71
     2
 72
     2
 73
     0
 90
        0
 40
-0.6
 41
-30.0
 62
     5
 63
     7
 74
     1
 91
        4
 64
     7
 65
   257
 75
     1
175
     1
 42
1.0
 92
        8
 66
     7
 43
1.0
 76
     1
 77
     6
 78
     2
 67
     7
 79
     5
170
     0
171
     0
290
     0
174
     0
 93
        1
 44
-50.0
173
     0
291
     1
 45
0.0
1001
ACAD
1000
AcDbSavedByObjectVersion
1070
     0
  0
VISUALSTYLE
  5
389
102
{ACAD_REACTORS
330
37A
102
}
102
{ACAD_XDICTIONARY
360
3B6
102
}
330
37A
100
AcDbVisualStyle
  2
Facepattern
 70
    15
 71
     2
 72
     2
 73
     0
 90
        0
 40
-0.6
 41
-30.0
 62
     5
 63
     7
 74
     1
 91
        4
 64
     7
 65
   257
 75
     1
175
     1
 42
1.0
 92
        8
 66
     7
 43
1.0
 76
     1
 77
     6
 78
     2
 67
     7
 79
     5
170
     0
171
     0
290
     0
174
     0
 93
        1
 44
0.0
173
     0
291
     1
 45
0.0
1001
ACAD
1000
AcDbSavedByObjectVersion
1070
     0
  0
VISUALSTYLE
  5
37B
102
{ACAD_REACTORS
330
37A
102
}
102
{ACAD_XDICTIONARY
360
39A
102
}
330
37A
100
AcDbVisualStyle
  2
Flat
 70
     0
 71
     2
 72
     1
 73
     1
 90
        2
 40
-0.6
 41
30.0
 62
     5
 63
     7
 74
     0
 91
        4
 64
     7
 65
   257
 75
     1
175
     1
 42
1.0
 92
        8
 66
     7
 43
1.0
 76
     1
 77
     6
 78
     2
 67
     7
 79
     5
170
     0
171
     0
290
     0
174
     0
 93
       13
 44
0.0
173
     0
291
     1
 45
0.0
1001
ACAD
1000
AcDbSavedByObjectVersion
1070
     0
  0
VISUALSTYLE
  5
37C
102
{ACAD_REACTORS
330
37A
102
}
102
{ACAD_XDICTIONARY
360
39C
102
}
330
37A
100
AcDbVisualStyle
  2
FlatWithEdges
 70
     1
 71
     2
 72
     1
 73
     1
 90
        2
 40
-0.6
 41
30.0
 62
     5
 63
     7
 74
     1
 91
        4
 64
     7
 65
   257
 75
     1
175
     1
 42
1.0
 92
        0
 66
   257
 43
1.0
 76
     1
 77
     6
 78
     2
 67
     7
 79
     5
170
     0
171
     0
290
     0
174
     0
 93
       13
 44
0.0
173
     0
291
     1
 45
0.0
1001
ACAD
1000
AcDbSavedByObjectVersion
1070
     0
  0
VISUALSTYLE
  5
37D
102
{ACAD_REACTORS
330
37A
102
}
102
{ACAD_XDICTIONARY
360
39E
102
}
330
37A
100
AcDbVisualStyle
  2
Gouraud
 70
     2
 71
     2
 72
     2
 73
     1
 90
        2
 40
-0.6
 41
30.0
 62
     5
 63
     7
 74
     0
 91
        4
 64
     7
 65
   257
 75
     1
175
     1
 42
1.0
 92
        0
 66
     7
 43
1.0
 76
     1
 77
     6
 78
     2
 67
     7
 79
     5
170
     0
171
     0
290
     0
174
     0
 93
       13
 44
0.0
173
     0
291
     1
 45
0.0
1001
ACAD
1000
AcDbSavedByObjectVersion
1070
     0
  0
VISUALSTYLE
  5
37E
102
{ACAD_REACTORS
330
37A
102
}
102
{ACAD_XDICTIONARY
360
3A0
102
}
330
37A
100
AcDbVisualStyle
  2
GouraudWithEdges
 70
     3
 71
     2
 72
     2
 73
     1
 90
        2
 40
-0.6
 41
30.0
 62
     5
 63
     7
 74
     1
 91
        4
 64
     7
 65
   257
 75
     1
175
     1
 42
1.0
 92
        0
 66
   257
 43
1.0
 76
     1
 77
     6
 78
     2
 67
     7
 79
     5
170
     0
171
     0
290
     0
174
     0
 93
       13
 44
0.0
173
     0
291
     1
 45
0.0
1001
ACAD
1000
AcDbSavedByObjectVersion
1070
     0
  0
VISUALSTYLE
  5
388
102
{ACAD_REACTORS
330
37A
102
}
102
{ACAD_XDICTIONARY
360
3B4
102
}
330
37A
100
AcDbVisualStyle
  2
Linepattern
 70
    14
 71
     2
 72
     2
 73
     0
 90
        0
 40
-0.6
 41
-30.0
 62
     5
 63
     7
 74
     1
 91
        4
 64
     7
 65
   257
 75
     7
175
     7
 42
1.0
 92
        8
 66
     7
 43
1.0
 76
     1
 77
     6
 78
     2
 67
     7
 79
     5
170
     0
171
     0
290
     0
174
     0
 93
        1
 44
0.0
173
     0
291
     1
 45
0.0
1001
ACAD
1000
AcDbSavedByObjectVersion
1070
     0
  0
VISUALSTYLE
  5
383
102
{ACAD_REACTORS
330
37A
102
}
102
{ACAD_XDICTIONARY
360
3AA
102
}
330
37A
100
AcDbVisualStyle
  2
Realistic
 70
     8
 71
     2
 72
     2
 73
     0
 90
        0
 40
-0.6
 41
-30.0
 62
     5
 63
     7
 74
     1
 91
        0
 64
     7
 65
   257
 75
     1
175
     1
 42
1.0
 92
        8
 66
     8
 43
1.0
 76
     1
 77
     6
 78
     2
 67
     7
 79
     5
170
     0
171
     0
290
     0
174
     0
 93
       13
 44
0.0
173
     0
291
     0
 45
0.0
1001
ACAD
1000
AcDbSavedByObjectVersion
1070
     0
  0
VISUALSTYLE
  5
387
102
{ACAD_REACTORS
330
37A
102
}
102
{ACAD_XDICTIONARY
360
3B2
102
}
330
37A
100
AcDbVisualStyle
  2
Thicken
 70
    13
 71
     2
 72
     2
 73
     0
 90
        0
 40
-0.6
 41
-30.0
 62
     5
 63
     7
 74
     1
 91
        4
 64
     7
 65
   257
 75
     1
175
     1
 42
1.0
 92
       12
 66
     7
 43
1.0
 76
     1
 77
     6
 78
     2
 67
     7
 79
     5
170
     0
171
     0
290
     0
174
     0
 93
        1
 44
0.0
173
     0
291
     1
 45
0.0
1001
ACAD
1000
AcDbSavedByObjectVersion
1070
     0
  0
DICTIONARYVAR
  5
399
102
{ACAD_REACTORS
330
391
102
}
330
391
100
DictionaryVariables
280
     0
  1
1:1
  0
DICTIONARYVAR
  5
395
102
{ACAD_REACTORS
330
391
102
}
330
391
100
DictionaryVariables
280
     0
  1
2
  0
DICTIONARYVAR
  5
396
102
{ACAD_REACTORS
330
391
102
}
330
391
100
DictionaryVariables
280
     0
  1
1
  0
DICTIONARYVAR
  5
394
102
{ACAD_REACTORS
330
391
102
}
330
391
100
DictionaryVariables
280
     0
  1
0
  0
DICTIONARY
  5
3BC
330
38D
100
AcDbDictionary
280
     1
281
     1
  3
ACAD_XREC_ROUNDTRIP
360
3BD
  0
DICTIONARY
  5
3BA
330
38C
100
AcDbDictionary
280
     1
281
     1
  3
ACAD_XREC_ROUNDTRIP
360
3BB
  0
DICTIONARY
  5
3BE
330
38E
100
AcDbDictionary
280
     1
281
     1
  3
ACAD_XREC_ROUNDTRIP
360
3BF
  0
DICTIONARY
  5
3A2
330
37F
100
AcDbDictionary
280
     1
281
     1
  3
ACAD_XREC_ROUNDTRIP
360
3A3
  0
DICTIONARY
  5
3A6
330
381
100
AcDbDictionary
280
     1
281
     1
  3
ACAD_XREC_ROUNDTRIP
360
3A7
  0
DICTIONARY
  5
3A4
330
380
100
AcDbDictionary
280
     1
281
     1
  3
ACAD_XREC_ROUNDTRIP
360
3A5
  0
DICTIONARY
  5
3A8
330
382
100
AcDbDictionary
280
     1
281
     1
  3
ACAD_XREC_ROUNDTRIP
360
3A9
  0
DICTIONARY
  5
3B0
330
386
100
AcDbDictionary
280
     1
281
     1
  3
ACAD_XREC_ROUNDTRIP
360
3B1
  0
DICTIONARY
  5
3B8
330
38A
100
AcDbDictionary
280
     1
281
     1
  3
ACAD_XREC_ROUNDTRIP
360
3B9
  0
DICTIONARY
  5
3AC
330
384
100
AcDbDictionary
280
     1
281
     1
  3
ACAD_XREC_ROUNDTRIP
360
3AD
  0
DICTIONARY
  5
3AE
330
385
100
AcDbDictionary
280
     1
281
     1
  3
ACAD_XREC_ROUNDTRIP
360
3AF
  0
DICTIONARY
  5
3B6
330
389
100
AcDbDictionary
280
     1
281
     1
  3
ACAD_XREC_ROUNDTRIP
360
3B7
  0
DICTIONARY
  5
39A
330
37B
100
AcDbDictionary
280
     1
281
     1
  3
ACAD_XREC_ROUNDTRIP
360
39B
  0
DICTIONARY
  5
39C
330
37C
100
AcDbDictionary
280
     1
281
     1
  3
ACAD_XREC_ROUNDTRIP
360
39D
  0
DICTIONARY
  5
39E
330
37D
100
AcDbDictionary
280
     1
281
     1
  3
ACAD_XREC_ROUNDTRIP
360
39F
  0
DICTIONARY
  5
3A0
330
37E
100
AcDbDictionary
280
     1
281
     1
  3
ACAD_XREC_ROUNDTRIP
360
3A1
  0
DICTIONARY
  5
3B4
330
388
100
AcDbDictionary
280
     1
281
     1
  3
ACAD_XREC_ROUNDTRIP
360
3B5
  0
DICTIONARY
  5
3AA
330
383
100
AcDbDictionary
280
     1
281
     1
  3
ACAD_XREC_ROUNDTRIP
360
3AB
  0
DICTIONARY
  5
3B2
330
387
100
AcDbDictionary
280
     1
281
     1
  3
ACAD_XREC_ROUNDTRIP
360
3B3
  0
XRECORD
  5
3BD
102
{ACAD_REACTORS
330
3BC
102
}
330
3BC
100
AcDbXrecord
280
     1
102
MATERIAL
148
0.0
149
0.0
149
0.0
 93
        0
 94
      127
282
     0
 72
     1
 77
     1
171
     1
175
     1
179
     1
273
     0
  0
XRECORD
  5
3BB
102
{ACAD_REACTORS
330
3BA
102
}
330
3BA
100
AcDbXrecord
280
     1
102
MATERIAL
148
0.0
149
0.0
149
0.0
 93
        0
 94
      127
282
     0
 72
     1
 77
     1
171
     1
175
     1
179
     1
273
     0
  0
XRECORD
  5
3BF
102
{ACAD_REACTORS
330
3BE
102
}
330
3BE
100
AcDbXrecord
280
     1
102
MATERIAL
148
0.0
149
0.0
149
0.0
 93
        0
 94
      127
282
     0
 72
     1
 77
     1
171
     1
175
     1
179
     1
273
     0
  0
XRECORD
  5
3A3
102
{ACAD_REACTORS
330
3A2
102
}
330
3A2
100
AcDbXrecord
280
     1
102
RTVSPropertyOp0
 70
     1
102
RTVSPropertyOp1
 70
     1
102
RTVSPropertyOp2
 70
     1
102
RTVSPropertyOp3
 70
     1
102
RTVSPropertyOp4
 70
     1
102
RTVSPropertyOp5
 70
     1
102
RTVSPropertyOp6
 70
     1
102
RTVSPropertyOp7
 70
     1
102
RTVSPropertyOp8
 70
     1
102
RTVSPropertyOp9
 70
     1
102
RTVSPropertyOp10
 70
     1
102
RTVSPropertyOp11
 70
     1
102
RTVSPropertyOp12
 70
     1
102
RTVSPropertyOp13
 70
     1
102
RTVSPropertyOp14
 70
     1
102
RTVSPropertyOp15
 70
     1
102
RTVSPropertyOp16
 70
     1
102
RTVSPropertyOp17
 70
     1
102
RTVSPropertyOp18
 70
     1
102
RTVSPropertyOp19
 70
     1
102
RTVSPropertyOp20
 70
     1
102
RTVSPropertyOp21
 70
     1
102
RTVSPropertyOp22
 70
     1
102
RTVSPropertyOp23
 70
     1
102
RTVSPropertyOp24
 70
     1
102
RTVSPropertyOp25
 70
     1
102
RTVSPropertyOp26
 70
     1
102
RTVSPropertyOp27
 70
     1
102
RTVSPropertyOp28
 70
     1
102
RTVSPropertyOp29
 70
     1
102
RTVSPropertyOp30
 70
     1
102
RTVSPropertyOp31
 70
     1
102
RTVSPropertyOp32
 70
     1
  0
XRECORD
  5
3A7
102
{ACAD_REACTORS
330
3A6
102
}
330
3A6
100
AcDbXrecord
280
     1
102
RTVSPropertyOp0
 70
     1
102
RTVSPropertyOp1
 70
     1
102
RTVSPropertyOp2
 70
     1
102
RTVSPropertyOp3
 70
     1
102
RTVSPropertyOp4
 70
     1
102
RTVSPropertyOp5
 70
     1
102
RTVSPropertyOp6
 70
     1
102
RTVSPropertyOp7
 70
     1
102
RTVSPropertyOp8
 70
     1
102
RTVSPropertyOp9
 70
     1
102
RTVSPropertyOp10
 70
     1
102
RTVSPropertyOp11
 70
     1
102
RTVSPropertyOp12
 70
     1
102
RTVSPropertyOp13
 70
     1
102
RTVSPropertyOp14
 70
     1
102
RTVSPropertyOp15
 70
     1
102
RTVSPropertyOp16
 70
     1
102
RTVSPropertyOp17
 70
     1
102
RTVSPropertyOp18
 70
     1
102
RTVSPropertyOp19
 70
     1
102
RTVSPropertyOp20
 70
     1
102
RTVSPropertyOp21
 70
     1
102
RTVSPropertyOp22
 70
     1
102
RTVSPropertyOp23
 70
     1
102
RTVSPropertyOp24
 70
     1
102
RTVSPropertyOp25
 70
     1
102
RTVSPropertyOp26
 70
     1
102
RTVSPropertyOp27
 70
     1
102
RTVSPropertyOp28
 70
     1
102
RTVSPropertyOp29
 70
     1
102
RTVSPropertyOp30
 70
     1
102
RTVSPropertyOp31
 70
     1
102
RTVSPropertyOp32
 70
     1
  0
XRECORD
  5
3A5
102
{ACAD_REACTORS
330
3A4
102
}
330
3A4
100
AcDbXrecord
280
     1
102
RTVSPropertyOp0
 70
     1
102
RTVSPropertyOp1
 70
     1
102
RTVSPropertyOp2
 70
     1
102
RTVSPropertyOp3
 70
     1
102
RTVSPropertyOp4
 70
     1
102
RTVSPropertyOp5
 70
     1
102
RTVSPropertyOp6
 70
     1
102
RTVSPropertyOp7
 70
     1
102
RTVSPropertyOp8
 70
     1
102
RTVSPropertyOp9
 70
     1
102
RTVSPropertyOp10
 70
     1
102
RTVSPropertyOp11
 70
     1
102
RTVSPropertyOp12
 70
     1
102
RTVSPropertyOp13
 70
     1
102
RTVSPropertyOp14
 70
     1
102
RTVSPropertyOp15
 70
     1
102
RTVSPropertyOp16
 70
     1
102
RTVSPropertyOp17
 70
     1
102
RTVSPropertyOp18
 70
     1
102
RTVSPropertyOp19
 70
     1
102
RTVSPropertyOp20
 70
     1
102
RTVSPropertyOp21
 70
     1
102
RTVSPropertyOp22
 70
     1
102
RTVSPropertyOp23
 70
     1
102
RTVSPropertyOp24
 70
     1
102
RTVSPropertyOp25
 70
     1
102
RTVSPropertyOp26
 70
     1
102
RTVSPropertyOp27
 70
     1
102
RTVSPropertyOp28
 70
     1
102
RTVSPropertyOp29
 70
     1
102
RTVSPropertyOp30
 70
     1
102
RTVSPropertyOp31
 70
     1
102
RTVSPropertyOp32
 70
     1
  0
XRECORD
  5
3A9
102
{ACAD_REACTORS
330
3A8
102
}
330
3A8
100
AcDbXrecord
280
     1
102
RTVSPropertyOp0
 70
     1
102
RTVSPropertyOp1
 70
     1
102
RTVSPropertyOp2
 70
     1
102
RTVSPropertyOp3
 70
     1
102
RTVSPropertyOp4
 70
     1
102
RTVSPropertyOp5
 70
     1
102
RTVSPropertyOp6
 70
     1
102
RTVSPropertyOp7
 70
     1
102
RTVSPropertyOp8
 70
     1
102
RTVSPropertyOp9
 70
     1
102
RTVSPropertyOp10
 70
     1
102
RTVSPropertyOp11
 70
     1
102
RTVSPropertyOp12
 70
     1
102
RTVSPropertyOp13
 70
     1
102
RTVSPropertyOp14
 70
     1
102
RTVSPropertyOp15
 70
     1
102
RTVSPropertyOp16
 70
     1
102
RTVSPropertyOp17
 70
     1
102
RTVSPropertyOp18
 70
     1
102
RTVSPropertyOp19
 70
     1
102
RTVSPropertyOp20
 70
     1
102
RTVSPropertyOp21
 70
     1
102
RTVSPropertyOp22
 70
     1
102
RTVSPropertyOp23
 70
     1
102
RTVSPropertyOp24
 70
     1
102
RTVSPropertyOp25
 70
     1
102
RTVSPropertyOp26
 70
     1
102
RTVSPropertyOp27
 70
     1
102
RTVSPropertyOp28
 70
     1
102
RTVSPropertyOp29
 70
     1
102
RTVSPropertyOp30
 70
     1
102
RTVSPropertyOp31
 70
     1
102
RTVSPropertyOp32
 70
     1
  0
XRECORD
  5
3B1
102
{ACAD_REACTORS
330
3B0
102
}
330
3B0
100
AcDbXrecord
280
     1
102
RTVSPropertyOp0
 70
     1
102
RTVSPropertyOp1
 70
     1
102
RTVSPropertyOp2
 70
     1
102
RTVSPropertyOp3
 70
     1
102
RTVSPropertyOp4
 70
     1
102
RTVSPropertyOp5
 70
     1
102
RTVSPropertyOp6
 70
     1
102
RTVSPropertyOp7
 70
     1
102
RTVSPropertyOp8
 70
     1
102
RTVSPropertyOp9
 70
     1
102
RTVSPropertyOp10
 70
     1
102
RTVSPropertyOp11
 70
     1
102
RTVSPropertyOp12
 70
     1
102
RTVSPropertyOp13
 70
     1
102
RTVSPropertyOp14
 70
     1
102
RTVSPropertyOp15
 70
     1
102
RTVSPropertyOp16
 70
     1
102
RTVSPropertyOp17
 70
     1
102
RTVSPropertyOp18
 70
     1
102
RTVSPropertyOp19
 70
     1
102
RTVSPropertyOp20
 70
     1
102
RTVSPropertyOp21
 70
     1
102
RTVSPropertyOp22
 70
     1
102
RTVSPropertyOp23
 70
     1
102
RTVSPropertyOp24
 70
     1
102
RTVSPropertyOp25
 70
     1
102
RTVSPropertyOp26
 70
     1
102
RTVSPropertyOp27
 70
     1
102
RTVSPropertyOp28
 70
     1
102
RTVSPropertyOp29
 70
     1
102
RTVSPropertyOp30
 70
     1
102
RTVSPropertyOp31
 70
     1
102
RTVSPropertyOp32
 70
     1
  0
XRECORD
  5
3B9
102
{ACAD_REACTORS
330
3B8
102
}
330
3B8
100
AcDbXrecord
280
     1
102
RTVSPropertyOp0
 70
     1
102
RTVSPropertyOp1
 70
     1
102
RTVSPropertyOp2
 70
     1
102
RTVSPropertyOp3
 70
     1
102
RTVSPropertyOp4
 70
     1
102
RTVSPropertyOp5
 70
     1
102
RTVSPropertyOp6
 70
     1
102
RTVSPropertyOp7
 70
     1
102
RTVSPropertyOp8
 70
     1
102
RTVSPropertyOp9
 70
     1
102
RTVSPropertyOp10
 70
     1
102
RTVSPropertyOp11
 70
     1
102
RTVSPropertyOp12
 70
     1
102
RTVSPropertyOp13
 70
     1
102
RTVSPropertyOp14
 70
     1
102
RTVSPropertyOp15
 70
     1
102
RTVSPropertyOp16
 70
     1
102
RTVSPropertyOp17
 70
     1
102
RTVSPropertyOp18
 70
     1
102
RTVSPropertyOp19
 70
     1
102
RTVSPropertyOp20
 70
     1
102
RTVSPropertyOp21
 70
     1
102
RTVSPropertyOp22
 70
     1
102
RTVSPropertyOp23
 70
     1
102
RTVSPropertyOp24
 70
     1
102
RTVSPropertyOp25
 70
     1
102
RTVSPropertyOp26
 70
     1
102
RTVSPropertyOp27
 70
     1
102
RTVSPropertyOp28
 70
     1
102
RTVSPropertyOp29
 70
     1
102
RTVSPropertyOp30
 70
     1
102
RTVSPropertyOp31
 70
     1
102
RTVSPropertyOp32
 70
     1
  0
XRECORD
  5
3AD
102
{ACAD_REACTORS
330
3AC
102
}
330
3AC
100
AcDbXrecord
280
     1
102
RTVSPropertyOp0
 70
     1
102
RTVSPropertyOp1
 70
     1
102
RTVSPropertyOp2
 70
     1
102
RTVSPropertyOp3
 70
     1
102
RTVSPropertyOp4
 70
     1
102
RTVSPropertyOp5
 70
     1
102
RTVSPropertyOp6
 70
     1
102
RTVSPropertyOp7
 70
     1
102
RTVSPropertyOp8
 70
     1
102
RTVSPropertyOp9
 70
     1
102
RTVSPropertyOp10
 70
     1
102
RTVSPropertyOp11
 70
     1
102
RTVSPropertyOp12
 70
     1
102
RTVSPropertyOp13
 70
     1
102
RTVSPropertyOp14
 70
     1
102
RTVSPropertyOp15
 70
     1
102
RTVSPropertyOp16
 70
     1
102
RTVSPropertyOp17
 70
     1
102
RTVSPropertyOp18
 70
     1
102
RTVSPropertyOp19
 70
     1
102
RTVSPropertyOp20
 70
     1
102
RTVSPropertyOp21
 70
     1
102
RTVSPropertyOp22
 70
     1
102
RTVSPropertyOp23
 70
     1
102
RTVSPropertyOp24
 70
     1
102
RTVSPropertyOp25
 70
     1
102
RTVSPropertyOp26
 70
     1
102
RTVSPropertyOp27
 70
     1
102
RTVSPropertyOp28
 70
     1
102
RTVSPropertyOp29
 70
     1
102
RTVSPropertyOp30
 70
     1
102
RTVSPropertyOp31
 70
     1
102
RTVSPropertyOp32
 70
     1
  0
XRECORD
  5
3AF
102
{ACAD_REACTORS
330
3AE
102
}
330
3AE
100
AcDbXrecord
280
     1
102
RTVSPropertyOp0
 70
     1
102
RTVSPropertyOp1
 70
     1
102
RTVSPropertyOp2
 70
     1
102
RTVSPropertyOp3
 70
     1
102
RTVSPropertyOp4
 70
     1
102
RTVSPropertyOp5
 70
     1
102
RTVSPropertyOp6
 70
     1
102
RTVSPropertyOp7
 70
     1
102
RTVSPropertyOp8
 70
     1
102
RTVSPropertyOp9
 70
     1
102
RTVSPropertyOp10
 70
     1
102
RTVSPropertyOp11
 70
     1
102
RTVSPropertyOp12
 70
     1
102
RTVSPropertyOp13
 70
     1
102
RTVSPropertyOp14
 70
     1
102
RTVSPropertyOp15
 70
     1
102
RTVSPropertyOp16
 70
     1
102
RTVSPropertyOp17
 70
     1
102
RTVSPropertyOp18
 70
     1
102
RTVSPropertyOp19
 70
     1
102
RTVSPropertyOp20
 70
     1
102
RTVSPropertyOp21
 70
     1
102
RTVSPropertyOp22
 70
     1
102
RTVSPropertyOp23
 70
     1
102
RTVSPropertyOp24
 70
     1
102
RTVSPropertyOp25
 70
     1
102
RTVSPropertyOp26
 70
     1
102
RTVSPropertyOp27
 70
     1
102
RTVSPropertyOp28
 70
     1
102
RTVSPropertyOp29
 70
     1
102
RTVSPropertyOp30
 70
     1
102
RTVSPropertyOp31
 70
     1
102
RTVSPropertyOp32
 70
     1
  0
XRECORD
  5
3B7
102
{ACAD_REACTORS
330
3B6
102
}
330
3B6
100
AcDbXrecord
280
     1
102
RTVSPropertyOp0
 70
     1
102
RTVSPropertyOp1
 70
     1
102
RTVSPropertyOp2
 70
     1
102
RTVSPropertyOp3
 70
     1
102
RTVSPropertyOp4
 70
     1
102
RTVSPropertyOp5
 70
     1
102
RTVSPropertyOp6
 70
     1
102
RTVSPropertyOp7
 70
     1
102
RTVSPropertyOp8
 70
     1
102
RTVSPropertyOp9
 70
     1
102
RTVSPropertyOp10
 70
     1
102
RTVSPropertyOp11
 70
     1
102
RTVSPropertyOp12
 70
     1
102
RTVSPropertyOp13
 70
     1
102
RTVSPropertyOp14
 70
     1
102
RTVSPropertyOp15
 70
     1
102
RTVSPropertyOp16
 70
     1
102
RTVSPropertyOp17
 70
     1
102
RTVSPropertyOp18
 70
     1
102
RTVSPropertyOp19
 70
     1
102
RTVSPropertyOp20
 70
     1
102
RTVSPropertyOp21
 70
     1
102
RTVSPropertyOp22
 70
     1
102
RTVSPropertyOp23
 70
     1
102
RTVSPropertyOp24
 70
     1
102
RTVSPropertyOp25
 70
     1
102
RTVSPropertyOp26
 70
     1
102
RTVSPropertyOp27
 70
     1
102
RTVSPropertyOp28
 70
     1
102
RTVSPropertyOp29
 70
     1
102
RTVSPropertyOp30
 70
     1
102
RTVSPropertyOp31
 70
     1
102
RTVSPropertyOp32
 70
     1
  0
XRECORD
  5
39B
102
{ACAD_REACTORS
330
39A
102
}
330
39A
100
AcDbXrecord
280
     1
102
RTVSPropertyOp0
 70
     1
102
RTVSPropertyOp1
 70
     1
102
RTVSPropertyOp2
 70
     1
102
RTVSPropertyOp3
 70
     1
102
RTVSPropertyOp4
 70
     1
102
RTVSPropertyOp5
 70
     1
102
RTVSPropertyOp6
 70
     1
102
RTVSPropertyOp7
 70
     1
102
RTVSPropertyOp8
 70
     1
102
RTVSPropertyOp9
 70
     1
102
RTVSPropertyOp10
 70
     1
102
RTVSPropertyOp11
 70
     1
102
RTVSPropertyOp12
 70
     1
102
RTVSPropertyOp13
 70
     1
102
RTVSPropertyOp14
 70
     1
102
RTVSPropertyOp15
 70
     1
102
RTVSPropertyOp16
 70
     1
102
RTVSPropertyOp17
 70
     1
102
RTVSPropertyOp18
 70
     1
102
RTVSPropertyOp19
 70
     1
102
RTVSPropertyOp20
 70
     1
102
RTVSPropertyOp21
 70
     1
102
RTVSPropertyOp22
 70
     1
102
RTVSPropertyOp23
 70
     1
102
RTVSPropertyOp24
 70
     1
102
RTVSPropertyOp25
 70
     1
102
RTVSPropertyOp26
 70
     1
102
RTVSPropertyOp27
 70
     1
102
RTVSPropertyOp28
 70
     1
102
RTVSPropertyOp29
 70
     1
102
RTVSPropertyOp30
 70
     1
102
RTVSPropertyOp31
 70
     1
102
RTVSPropertyOp32
 70
     1
  0
XRECORD
  5
39D
102
{ACAD_REACTORS
330
39C
102
}
330
39C
100
AcDbXrecord
280
     1
102
RTVSPropertyOp0
 70
     1
102
RTVSPropertyOp1
 70
     1
102
RTVSPropertyOp2
 70
     1
102
RTVSPropertyOp3
 70
     1
102
RTVSPropertyOp4
 70
     1
102
RTVSPropertyOp5
 70
     1
102
RTVSPropertyOp6
 70
     1
102
RTVSPropertyOp7
 70
     1
102
RTVSPropertyOp8
 70
     1
102
RTVSPropertyOp9
 70
     1
102
RTVSPropertyOp10
 70
     1
102
RTVSPropertyOp11
 70
     1
102
RTVSPropertyOp12
 70
     1
102
RTVSPropertyOp13
 70
     1
102
RTVSPropertyOp14
 70
     1
102
RTVSPropertyOp15
 70
     1
102
RTVSPropertyOp16
 70
     1
102
RTVSPropertyOp17
 70
     1
102
RTVSPropertyOp18
 70
     1
102
RTVSPropertyOp19
 70
     1
102
RTVSPropertyOp20
 70
     1
102
RTVSPropertyOp21
 70
     1
102
RTVSPropertyOp22
 70
     1
102
RTVSPropertyOp23
 70
     1
102
RTVSPropertyOp24
 70
     1
102
RTVSPropertyOp25
 70
     1
102
RTVSPropertyOp26
 70
     1
102
RTVSPropertyOp27
 70
     1
102
RTVSPropertyOp28
 70
     1
102
RTVSPropertyOp29
 70
     1
102
RTVSPropertyOp30
 70
     1
102
RTVSPropertyOp31
 70
     1
102
RTVSPropertyOp32
 70
     1
  0
XRECORD
  5
39F
102
{ACAD_REACTORS
330
39E
102
}
330
39E
100
AcDbXrecord
280
     1
102
RTVSPropertyOp0
 70
     1
102
RTVSPropertyOp1
 70
     1
102
RTVSPropertyOp2
 70
     1
102
RTVSPropertyOp3
 70
     1
102
RTVSPropertyOp4
 70
     1
102
RTVSPropertyOp5
 70
     1
102
RTVSPropertyOp6
 70
     1
102
RTVSPropertyOp7
 70
     1
102
RTVSPropertyOp8
 70
     1
102
RTVSPropertyOp9
 70
     1
102
RTVSPropertyOp10
 70
     1
102
RTVSPropertyOp11
 70
     1
102
RTVSPropertyOp12
 70
     1
102
RTVSPropertyOp13
 70
     1
102
RTVSPropertyOp14
 70
     1
102
RTVSPropertyOp15
 70
     1
102
RTVSPropertyOp16
 70
     1
102
RTVSPropertyOp17
 70
     1
102
RTVSPropertyOp18
 70
     1
102
RTVSPropertyOp19
 70
     1
102
RTVSPropertyOp20
 70
     1
102
RTVSPropertyOp21
 70
     1
102
RTVSPropertyOp22
 70
     1
102
RTVSPropertyOp23
 70
     1
102
RTVSPropertyOp24
 70
     1
102
RTVSPropertyOp25
 70
     1
102
RTVSPropertyOp26
 70
     1
102
RTVSPropertyOp27
 70
     1
102
RTVSPropertyOp28
 70
     1
102
RTVSPropertyOp29
 70
     1
102
RTVSPropertyOp30
 70
     1
102
RTVSPropertyOp31
 70
     1
102
RTVSPropertyOp32
 70
     1
  0
XRECORD
  5
3A1
102
{ACAD_REACTORS
330
3A0
102
}
330
3A0
100
AcDbXrecord
280
     1
102
RTVSPropertyOp0
 70
     1
102
RTVSPropertyOp1
 70
     1
102
RTVSPropertyOp2
 70
     1
102
RTVSPropertyOp3
 70
     1
102
RTVSPropertyOp4
 70
     1
102
RTVSPropertyOp5
 70
     1
102
RTVSPropertyOp6
 70
     1
102
RTVSPropertyOp7
 70
     1
102
RTVSPropertyOp8
 70
     1
102
RTVSPropertyOp9
 70
     1
102
RTVSPropertyOp10
 70
     1
102
RTVSPropertyOp11
 70
     1
102
RTVSPropertyOp12
 70
     1
102
RTVSPropertyOp13
 70
     1
102
RTVSPropertyOp14
 70
     1
102
RTVSPropertyOp15
 70
     1
102
RTVSPropertyOp16
 70
     1
102
RTVSPropertyOp17
 70
     1
102
RTVSPropertyOp18
 70
     1
102
RTVSPropertyOp19
 70
     1
102
RTVSPropertyOp20
 70
     1
102
RTVSPropertyOp21
 70
     1
102
RTVSPropertyOp22
 70
     1
102
RTVSPropertyOp23
 70
     1
102
RTVSPropertyOp24
 70
     1
102
RTVSPropertyOp25
 70
     1
102
RTVSPropertyOp26
 70
     1
102
RTVSPropertyOp27
 70
     1
102
RTVSPropertyOp28
 70
     1
102
RTVSPropertyOp29
 70
     1
102
RTVSPropertyOp30
 70
     1
102
RTVSPropertyOp31
 70
     1
102
RTVSPropertyOp32
 70
     1
  0
XRECORD
  5
3B5
102
{ACAD_REACTORS
330
3B4
102
}
330
3B4
100
AcDbXrecord
280
     1
102
RTVSPropertyOp0
 70
     1
102
RTVSPropertyOp1
 70
     1
102
RTVSPropertyOp2
 70
     1
102
RTVSPropertyOp3
 70
     1
102
RTVSPropertyOp4
 70
     1
102
RTVSPropertyOp5
 70
     1
102
RTVSPropertyOp6
 70
     1
102
RTVSPropertyOp7
 70
     1
102
RTVSPropertyOp8
 70
     1
102
RTVSPropertyOp9
 70
     1
102
RTVSPropertyOp10
 70
     1
102
RTVSPropertyOp11
 70
     1
102
RTVSPropertyOp12
 70
     1
102
RTVSPropertyOp13
 70
     1
102
RTVSPropertyOp14
 70
     1
102
RTVSPropertyOp15
 70
     1
102
RTVSPropertyOp16
 70
     1
102
RTVSPropertyOp17
 70
     1
102
RTVSPropertyOp18
 70
     1
102
RTVSPropertyOp19
 70
     1
102
RTVSPropertyOp20
 70
     1
102
RTVSPropertyOp21
 70
     1
102
RTVSPropertyOp22
 70
     1
102
RTVSPropertyOp23
 70
     1
102
RTVSPropertyOp24
 70
     1
102
RTVSPropertyOp25
 70
     1
102
RTVSPropertyOp26
 70
     1
102
RTVSPropertyOp27
 70
     1
102
RTVSPropertyOp28
 70
     1
102
RTVSPropertyOp29
 70
     1
102
RTVSPropertyOp30
 70
     1
102
RTVSPropertyOp31
 70
     1
102
RTVSPropertyOp32
 70
     1
  0
XRECORD
  5
3AB
102
{ACAD_REACTORS
330
3AA
102
}
330
3AA
100
AcDbXrecord
280
     1
102
RTVSPropertyOp0
 70
     1
102
RTVSPropertyOp1
 70
     1
102
RTVSPropertyOp2
 70
     1
102
RTVSPropertyOp3
 70
     1
102
RTVSPropertyOp4
 70
     1
102
RTVSPropertyOp5
 70
     1
102
RTVSPropertyOp6
 70
     1
102
RTVSPropertyOp7
 70
     1
102
RTVSPropertyOp8
 70
     1
102
RTVSPropertyOp9
 70
     1
102
RTVSPropertyOp10
 70
     1
102
RTVSPropertyOp11
 70
     1
102
RTVSPropertyOp12
 70
     1
102
RTVSPropertyOp13
 70
     1
102
RTVSPropertyOp14
 70
     1
102
RTVSPropertyOp15
 70
     1
102
RTVSPropertyOp16
 70
     1
102
RTVSPropertyOp17
 70
     1
102
RTVSPropertyOp18
 70
     1
102
RTVSPropertyOp19
 70
     1
102
RTVSPropertyOp20
 70
     1
102
RTVSPropertyOp21
 70
     1
102
RTVSPropertyOp22
 70
     1
102
RTVSPropertyOp23
 70
     1
102
RTVSPropertyOp24
 70
     1
102
RTVSPropertyOp25
 70
     1
102
RTVSPropertyOp26
 70
     1
102
RTVSPropertyOp27
 70
     1
102
RTVSPropertyOp28
 70
     1
102
RTVSPropertyOp29
 70
     1
102
RTVSPropertyOp30
 70
     1
102
RTVSPropertyOp31
 70
     1
102
RTVSPropertyOp32
 70
     1
  0
XRECORD
  5
3B3
102
{ACAD_REACTORS
330
3B2
102
}
330
3B2
100
AcDbXrecord
280
     1
102
RTVSPropertyOp0
 70
     1
102
RTVSPropertyOp1
 70
     1
102
RTVSPropertyOp2
 70
     1
102
RTVSPropertyOp3
 70
     1
102
RTVSPropertyOp4
 70
     1
102
RTVSPropertyOp5
 70
     1
102
RTVSPropertyOp6
 70
     1
102
RTVSPropertyOp7
 70
     1
102
RTVSPropertyOp8
 70
     1
102
RTVSPropertyOp9
 70
     1
102
RTVSPropertyOp10
 70
     1
102
RTVSPropertyOp11
 70
     1
102
RTVSPropertyOp12
 70
     1
102
RTVSPropertyOp13
 70
     1
102
RTVSPropertyOp14
 70
     1
102
RTVSPropertyOp15
 70
     1
102
RTVSPropertyOp16
 70
     1
102
RTVSPropertyOp17
 70
     1
102
RTVSPropertyOp18
 70
     1
102
RTVSPropertyOp19
 70
     1
102
RTVSPropertyOp20
 70
     1
102
RTVSPropertyOp21
 70
     1
102
RTVSPropertyOp22
 70
     1
102
RTVSPropertyOp23
 70
     1
102
RTVSPropertyOp24
 70
     1
102
RTVSPropertyOp25
 70
     1
102
RTVSPropertyOp26
 70
     1
102
RTVSPropertyOp27
 70
     1
102
RTVSPropertyOp28
 70
     1
102
RTVSPropertyOp29
 70
     1
102
RTVSPropertyOp30
 70
     1
102
RTVSPropertyOp31
 70
     1
102
RTVSPropertyOp32
 70
     1
  0
ENDSEC
  0
EOF
