  0
SECTION
  2
HEADER
  9
$ACADVER
  1
AC1027
  9
$ACADMAINTVER
 70
   105
  9
$DWGCODEPAGE
  3
ANSI_1252
  9
$REQUIREDVERSIONS
160
                 0
  9
$LASTSAVEDBY
  1
christoph.stuessi
  9
$INSBASE
 10
0.0
 20
0.0
 30
0.0
  9
$EXTMIN
 10
-113.868040156298
 20
-63.41620006682
 30
0.0
  9
$EXTMAX
 10
120.7222780292625
 20
61.73817954671559
 30
0.0
  9
$LIMMIN
 10
-72.500146928
 20
-48.214141777
  9
$LIMMAX
 10
73.828757946
 20
41.883308621
  9
$ORTHOMODE
 70
     0
  9
$REGENMODE
 70
     1
  9
$FILLMODE
 70
     1
  9
$QTEXTMODE
 70
     0
  9
$MIRRTEXT
 70
     1
  9
$LTSCALE
 40
1.0
  9
$ATTMODE
 70
     1
  9
$TEXTSIZE
 40
0.2
  9
$TRACEWID
 40
0.05
  9
$TEXTSTYLE
  7
Standard
  9
$CLAYER
  8
INFTOTAL
  9
$CELTYPE
  6
ByLayer
  9
$CECOLOR
 62
   256
  9
$CELTSCALE
 40
1.0
  9
$DISPSILH
 70
     0
  9
$DIMSCALE
 40
1.0
  9
$DIMASZ
 40
0.18
  9
$DIMEXO
 40
0.0625
  9
$DIMDLI
 40
0.38
  9
$DIMRND
 40
0.0
  9
$DIMDLE
 40
0.0
  9
$DIMEXE
 40
0.18
  9
$DIMTP
 40
0.0
  9
$DIMTM
 40
0.0
  9
$DIMTXT
 40
0.18
  9
$DIMCEN
 40
0.09
  9
$DIMTSZ
 40
0.0
  9
$DIMTOL
 70
     0
  9
$DIMLIM
 70
     0
  9
$DIMTIH
 70
     1
  9
$DIMTOH
 70
     1
  9
$DIMSE1
 70
     0
  9
$DIMSE2
 70
     0
  9
$DIMTAD
 70
     0
  9
$DIMZIN
 70
     0
  9
$DIMBLK
  1

  9
$DIMASO
 70
     1
  9
$DIMSHO
 70
     1
  9
$DIMPOST
  1

  9
$DIMAPOST
  1

  9
$DIMALT
 70
     0
  9
$DIMALTD
 70
     2
  9
$DIMALTF
 40
25.4
  9
$DIMLFAC
 40
1.0
  9
$DIMTOFL
 70
     0
  9
$DIMTVP
 40
0.0
  9
$DIMTIX
 70
     0
  9
$DIMSOXD
 70
     0
  9
$DIMSAH
 70
     0
  9
$DIMBLK1
  1

  9
$DIMBLK2
  1

  9
$DIMSTYLE
  2
Standard
  9
$DIMCLRD
 70
     0
  9
$DIMCLRE
 70
     0
  9
$DIMCLRT
 70
     0
  9
$DIMTFAC
 40
1.0
  9
$DIMGAP
 40
0.09
  9
$DIMJUST
 70
     0
  9
$DIMSD1
 70
     0
  9
$DIMSD2
 70
     0
  9
$DIMTOLJ
 70
     1
  9
$DIMTZIN
 70
     0
  9
$DIMALTZ
 70
     0
  9
$DIMALTTZ
 70
     0
  9
$DIMUPT
 70
     0
  9
$DIMDEC
 70
     4
  9
$DIMTDEC
 70
     4
  9
$DIMALTU
 70
     2
  9
$DIMALTTD
 70
     2
  9
$DIMTXSTY
  7
Standard
  9
$DIMAUNIT
 70
     0
  9
$DIMADEC
 70
     0
  9
$DIMALTRND
 40
0.0
  9
$DIMAZIN
 70
     0
  9
$DIMDSEP
 70
    46
  9
$DIMATFIT
 70
     3
  9
$DIMFRAC
 70
     0
  9
$DIMLDRBLK
  1

  9
$DIMLUNIT
 70
     2
  9
$DIMLWD
 70
    -2
  9
$DIMLWE
 70
    -2
  9
$DIMTMOVE
 70
     2
  9
$DIMFXL
 40
1.0
  9
$DIMFXLON
 70
     0
  9
$DIMJOGANG
 40
0.7853981633974483
  9
$DIMTFILL
 70
     0
  9
$DIMTFILLCLR
 70
     0
  9
$DIMARCSYM
 70
     0
  9
$DIMLTYPE
  6

  9
$DIMLTEX1
  6

  9
$DIMLTEX2
  6

  9
$DIMTXTDIRECTION
 70
     0
  9
$LUNITS
 70
     2
  9
$LUPREC
 70
     4
  9
$SKETCHINC
 40
0.1
  9
$FILLETRAD
 40
0.5
  9
$AUNITS
 70
     2
  9
$AUPREC
 70
     0
  9
$MENU
  1
.
  9
$ELEVATION
 40
0.0
  9
$PELEVATION
 40
0.0
  9
$THICKNESS
 40
0.0
  9
$LIMCHECK
 70
     0
  9
$CHAMFERA
 40
0.5
  9
$CHAMFERB
 40
0.5
  9
$CHAMFERC
 40
1.0
  9
$CHAMFERD
 40
0.0
  9
$SKPOLY
 70
     0
  9
$TDCREATE
 40
2458327.549489456
  9
$TDUCREATE
 40
2458327.466156123
  9
$TDUPDATE
 40
2458369.3726414
  9
$TDUUPDATE
 40
2458369.289308067
  9
$TDINDWG
 40
0.0010406134
  9
$TDUSRTIMER
 40
0.0062468287
  9
$USRTIMER
 70
     1
  9
$ANGBASE
 50
0.0
  9
$ANGDIR
 70
     0
  9
$PDMODE
 70
     0
  9
$PDSIZE
 40
0.0
  9
$PLINEWID
 40
0.0
  9
$SPLFRAME
 70
     0
  9
$SPLINETYPE
 70
     6
  9
$SPLINESEGS
 70
     8
  9
$HANDSEED
  5
275
  9
$SURFTAB1
 70
     6
  9
$SURFTAB2
 70
     6
  9
$SURFTYPE
 70
     6
  9
$SURFU
 70
     6
  9
$SURFV
 70
     6
  9
$UCSBASE
  2

  9
$UCSNAME
  2

  9
$UCSORG
 10
0.0
 20
0.0
 30
0.0
  9
$UCSXDIR
 10
1.0
 20
0.0
 30
0.0
  9
$UCSYDIR
 10
0.0
 20
1.0
 30
0.0
  9
$UCSORTHOREF
  2

  9
$UCSORTHOVIEW
 70
     0
  9
$UCSORGTOP
 10
0.0
 20
0.0
 30
0.0
  9
$UCSORGBOTTOM
 10
0.0
 20
0.0
 30
0.0
  9
$UCSORGLEFT
 10
0.0
 20
0.0
 30
0.0
  9
$UCSORGRIGHT
 10
0.0
 20
0.0
 30
0.0
  9
$UCSORGFRONT
 10
0.0
 20
0.0
 30
0.0
  9
$UCSORGBACK
 10
0.0
 20
0.0
 30
0.0
  9
$PUCSBASE
  2

  9
$PUCSNAME
  2

  9
$PUCSORG
 10
0.0
 20
0.0
 30
0.0
  9
$PUCSXDIR
 10
1.0
 20
0.0
 30
0.0
  9
$PUCSYDIR
 10
0.0
 20
1.0
 30
0.0
  9
$PUCSORTHOREF
  2

  9
$PUCSORTHOVIEW
 70
     0
  9
$PUCSORGTOP
 10
0.0
 20
0.0
 30
0.0
  9
$PUCSORGBOTTOM
 10
0.0
 20
0.0
 30
0.0
  9
$PUCSORGLEFT
 10
0.0
 20
0.0
 30
0.0
  9
$PUCSORGRIGHT
 10
0.0
 20
0.0
 30
0.0
  9
$PUCSORGFRONT
 10
0.0
 20
0.0
 30
0.0
  9
$PUCSORGBACK
 10
0.0
 20
0.0
 30
0.0
  9
$USERI1
 70
     0
  9
$USERI2
 70
     0
  9
$USERI3
 70
     0
  9
$USERI4
 70
     0
  9
$USERI5
 70
     0
  9
$USERR1
 40
0.0
  9
$USERR2
 40
0.0
  9
$USERR3
 40
0.0
  9
$USERR4
 40
0.0
  9
$USERR5
 40
0.0
  9
$WORLDVIEW
 70
     1
  9
$SHADEDGE
 70
     3
  9
$SHADEDIF
 70
    70
  9
$TILEMODE
 70
     1
  9
$MAXACTVP
 70
    64
  9
$PINSBASE
 10
0.0
 20
0.0
 30
0.0
  9
$PLIMCHECK
 70
     0
  9
$PEXTMIN
 10
1.000000000000000E+20
 20
1.000000000000000E+20
 30
1.000000000000000E+20
  9
$PEXTMAX
 10
-1.000000000000000E+20
 20
-1.000000000000000E+20
 30
-1.000000000000000E+20
  9
$PLIMMIN
 10
0.0
 20
0.0
  9
$PLIMMAX
 10
0.0
 20
0.0
  9
$UNITMODE
 70
     0
  9
$VISRETAIN
 70
     1
  9
$PLINEGEN
 70
     0
  9
$PSLTSCALE
 70
     1
  9
$TREEDEPTH
 70
  3020
  9
$CMLSTYLE
  2
Standard
  9
$CMLJUST
 70
     0
  9
$CMLSCALE
 40
1.0
  9
$PROXYGRAPHICS
 70
     1
  9
$MEASUREMENT
 70
     0
  9
$CELWEIGHT
370
    -1
  9
$ENDCAPS
280
     0
  9
$JOINSTYLE
280
     0
  9
$LWDISPLAY
290
     0
  9
$INSUNITS
 70
     0
  9
$HYPERLINKBASE
  1

  9
$STYLESHEET
  1

  9
$XEDIT
290
     1
  9
$CEPSNTYPE
380
     0
  9
$PSTYLEMODE
290
     1
  9
$FINGERPRINTGUID
  2
{2BE1D6CC-781E-4A48-B281-37AAA77F4EA0}
  9
$VERSIONGUID
  2
{FAEB1C32-E019-11D5-929B-00C0DF256EC4}
  9
$EXTNAMES
290
     1
  9
$PSVPSCALE
 40
0.0
  9
$OLESTARTUP
290
     0
  9
$SORTENTS
280
   127
  9
$INDEXCTL
280
     0
  9
$HIDETEXT
280
     1
  9
$XCLIPFRAME
280
     2
  9
$HALOGAP
280
     0
  9
$OBSCOLOR
 70
   257
  9
$OBSLTYPE
280
     0
  9
$INTERSECTIONDISPLAY
280
     0
  9
$INTERSECTIONCOLOR
 70
   257
  9
$DIMASSOC
280
     2
  9
$PROJECTNAME
  1

  9
$CAMERADISPLAY
290
     0
  9
$LENSLENGTH
 40
50.0
  9
$CAMERAHEIGHT
 40
0.0
  9
$STEPSPERSEC
 40
2.0
  9
$STEPSIZE
 40
6.0
  9
$3DDWFPREC
 40
2.0
  9
$PSOLWIDTH
 40
0.25
  9
$PSOLHEIGHT
 40
4.0
  9
$LOFTANG1
 40
1.570796326794897
  9
$LOFTANG2
 40
1.570796326794897
  9
$LOFTMAG1
 40
0.0
  9
$LOFTMAG2
 40
0.0
  9
$LOFTPARAM
 70
     7
  9
$LOFTNORMALS
280
     1
  9
$LATITUDE
 40
37.795
  9
$LONGITUDE
 40
-122.394
  9
$NORTHDIRECTION
 40
0.0
  9
$TIMEZONE
 70
 -8000
  9
$LIGHTGLYPHDISPLAY
280
     1
  9
$TILEMODELIGHTSYNCH
280
     1
  9
$SOLIDHIST
280
     0
  9
$SHOWHIST
280
     1
  9
$DWFFRAME
280
     2
  9
$DGNFRAME
280
     2
  9
$REALWORLDSCALE
290
     1
  9
$INTERFERECOLOR
 62
   256
  9
$CSHADOW
280
     0
  9
$SHADOWPLANELOCATION
 40
0.0
  0
ENDSEC
  0
SECTION
  2
CLASSES
  0
CLASS
  1
ACDBDICTIONARYWDFLT
  2
AcDbDictionaryWithDefault
  3
ObjectDBX Classes
 90
        0
 91
        5
280
     0
281
     0
  0
CLASS
  1
SCALE
  2
AcDbScale
  3
ObjectDBX Classes
 90
     1153
 91
        5
280
     0
281
     0
  0
CLASS
  1
VISUALSTYLE
  2
AcDbVisualStyle
  3
ObjectDBX Classes
 90
     4095
 91
        5
280
     0
281
     0
  0
CLASS
  1
MATERIAL
  2
AcDbMaterial
  3
ObjectDBX Classes
 90
     1153
 91
        5
280
     0
281
     0
  0
CLASS
  1
DICTIONARYVAR
  2
AcDbDictionaryVar
  3
ObjectDBX Classes
 90
        0
 91
        5
280
     0
281
     0
  0
CLASS
  1
ACDBPLACEHOLDER
  2
AcDbPlaceHolder
  3
ObjectDBX Classes
 90
        0
 91
        1
280
     0
281
     0
  0
CLASS
  1
LAYOUT
  2
AcDbLayout
  3
ObjectDBX Classes
 90
        0
 91
        1
280
     0
281
     0
  0
CLASS
  1
TABLESTYLE
  2
AcDbTableStyle
  3
ObjectDBX Classes
 90
     4095
 91
        5
280
     0
281
     0
  0
CLASS
  1
MLEADERSTYLE
  2
AcDbMLeaderStyle
  3
ACDB_MLEADERSTYLE_CLASS
 90
     4095
 91
        5
280
     0
281
     0
  0
CLASS
  1
CELLSTYLEMAP
  2
AcDbCellStyleMap
  3
ObjectDBX Classes
 90
     1152
 91
        5
280
     0
281
     0
  0
ENDSEC
  0
SECTION
  2
TABLES
  0
TABLE
  2
VPORT
  5
8
330
0
100
AcDbSymbolTable
 70
     1
  0
VPORT
  5
16B
330
8
100
AcDbSymbolTableRecord
100
AcDbViewportTableRecord
  2
*Active
 70
     0
 10
0.0
 20
0.0
 11
1.0
 21
1.0
 12
26.11505742092652
 22
-24.3610641299539
 13
0.0
 23
0.0
 14
0.5
 24
0.5
 15
0.5
 25
0.5
 16
0.0
 26
0.0
 36
1.0
 17
0.0
 27
0.0
 37
0.0
 40
204.6363078989087
 41
2.246376811594203
 42
50.0
 43
0.0
 44
0.0
 50
0.0
 51
0.0
 71
    16
 72
   100
 73
     1
 74
     3
 75
     0
 76
     0
 77
     0
 78
     0
281
     0
 65
     1
110
0.0
120
0.0
130
0.0
111
1.0
121
0.0
131
0.0
112
0.0
122
1.0
132
0.0
 79
     0
146
0.0
348
19C
 60
     3
 61
     5
292
     1
282
     1
141
0.0
142
0.0
 63
   256
  0
ENDTAB
  0
TABLE
  2
LTYPE
  5
5
330
0
100
AcDbSymbolTable
 70
     8
  0
LTYPE
  5
14
330
5
100
AcDbSymbolTableRecord
100
AcDbLinetypeTableRecord
  2
ByBlock
 70
     0
  3

 72
    65
 73
     0
 40
0.0
  0
LTYPE
  5
15
330
5
100
AcDbSymbolTableRecord
100
AcDbLinetypeTableRecord
  2
ByLayer
 70
     0
  3

 72
    65
 73
     0
 40
0.0
  0
LTYPE
  5
16
330
5
100
AcDbSymbolTableRecord
100
AcDbLinetypeTableRecord
  2
Continuous
 70
     0
  3
Solid line
 72
    65
 73
     0
 40
0.0
  0
LTYPE
  5
20
330
5
100
AcDbSymbolTableRecord
100
AcDbLinetypeTableRecord
  2
PUNKT
 70
     0
  3
..............
 72
    65
 73
     2
 40
1.5
 49
0.7
 74
     0
 49
-0.8
 74
     0
  0
LTYPE
  5
21
330
5
100
AcDbSymbolTableRecord
100
AcDbLinetypeTableRecord
  2
GESTRICHELT
 70
     0
  3
-- -- -- -- --
 72
    65
 73
     7
 40
2.8
 49
0.9
 74
     0
 49
0.0
 74
     0
 49
0.9
 74
     0
 49
0.0
 74
     0
 49
0.2
 74
     0
 49
0.0
 74
     0
 49
-0.8
 74
     0
  0
LTYPE
  5
22
330
5
100
AcDbSymbolTableRecord
100
AcDbLinetypeTableRecord
  2
STRICHPUNKT
 70
     0
  3
--.--.--.--.--
 72
    65
 73
     4
 40
8.8
 49
5.5
 74
     0
 49
-1.3
 74
     0
 49
0.7
 74
     0
 49
-1.3
 74
     0
  0
LTYPE
  5
25
330
5
100
AcDbSymbolTableRecord
100
AcDbLinetypeTableRecord
  2
PHANTOM
 70
     0
  3
--..--..--..--
 72
    65
 73
     6
 40
14.2
 49
7.0
 74
     0
 49
-1.8
 74
     0
 49
0.9
 74
     0
 49
-1.8
 74
     0
 49
0.9
 74
     0
 49
-1.8
 74
     0
  0
LTYPE
  5
1E3
330
5
100
AcDbSymbolTableRecord
100
AcDbLinetypeTableRecord
  2
DASH
 70
     0
  3
DASH _ _ _ _ _
 72
    65
 73
     2
 40
0.75
 49
0.4
 74
     0
 49
-0.35
 74
     0
  0
LTYPE
  5
1E4
330
5
100
AcDbSymbolTableRecord
100
AcDbLinetypeTableRecord
  2
LONGDASH_DASH
 70
     0
  3
LONGDASH_DASH __ . __ . __
 72
    65
 73
     4
 40
0.85
 49
0.4
 74
     0
 49
-0.2
 74
     0
 49
0.05
 74
     0
 49
-0.2
 74
     0
  0
LTYPE
  5
1E5
330
5
100
AcDbSymbolTableRecord
100
AcDbLinetypeTableRecord
  2
LONGDASH_DASH_DASH
 70
     0
  3
LONGDASH_DASH_DASH __ . . __ . . __
 72
    65
 73
     6
 40
1.1
 49
0.4
 74
     0
 49
-0.2
 74
     0
 49
0.05
 74
     0
 49
-0.2
 74
     0
 49
0.05
 74
     0
 49
-0.2
 74
     0
  0
ENDTAB
  0
TABLE
  2
LAYER
  5
2
102
{ACAD_XDICTIONARY
360
202
102
}
330
0
100
AcDbSymbolTable
 70
    15
  0
LAYER
  5
1AD
330
2
100
AcDbSymbolTableRecord
100
AcDbLayerTableRecord
  2
200
 70
     0
 62
     2
  6
Continuous
370
    50
390
F
347
1AB
348
0
  0
LAYER
  5
1E6
330
2
100
AcDbSymbolTableRecord
100
AcDbLayerTableRecord
  2
0
 70
     0
 62
    -1
  6
Continuous
370
    -3
390
F
347
1AB
348
0
  0
LAYER
  5
1E7
330
2
100
AcDbSymbolTableRecord
100
AcDbLayerTableRecord
  2
1
 70
     0
 62
     4
  6
Continuous
370
    50
390
F
347
1AB
348
0
  0
LAYER
  5
1E8
330
2
100
AcDbSymbolTableRecord
100
AcDbLayerTableRecord
  2
2
 70
     0
 62
     7
  6
Continuous
370
    25
390
F
347
1AB
348
0
  0
LAYER
  5
1E9
330
2
100
AcDbSymbolTableRecord
100
AcDbLayerTableRecord
  2
3
 70
     0
 62
     1
  6
DASH
370
    35
390
F
347
1AB
348
0
  0
LAYER
  5
1EA
330
2
100
AcDbSymbolTableRecord
100
AcDbLayerTableRecord
  2
4
 70
     0
 62
     2
  6
LONGDASH_DASH
370
    25
390
F
347
1AB
348
0
  0
LAYER
  5
1EB
330
2
100
AcDbSymbolTableRecord
100
AcDbLayerTableRecord
  2
6
 70
     0
 62
     5
  6
Continuous
370
    -3
390
F
347
1AB
348
0
  0
LAYER
  5
1EC
330
2
100
AcDbSymbolTableRecord
100
AcDbLayerTableRecord
  2
CUT
 70
     0
 62
     1
  6
Continuous
370
    25
390
F
347
1AB
348
0
  0
LAYER
  5
1ED
330
2
100
AcDbSymbolTableRecord
100
AcDbLayerTableRecord
  2
NOCUT
 70
     0
 62
     7
  6
Continuous
370
    25
390
F
347
1AB
348
0
  0
LAYER
  5
1EE
330
2
100
AcDbSymbolTableRecord
100
AcDbLayerTableRecord
  2
SK1
 70
     0
 62
     4
  6
Continuous
370
    50
390
F
347
1AB
348
0
  0
LAYER
  5
1EF
330
2
100
AcDbSymbolTableRecord
100
AcDbLayerTableRecord
  2
SK2
 70
     0
 62
     7
  6
Continuous
370
    25
390
F
347
1AB
348
0
  0
LAYER
  5
1F0
330
2
100
AcDbSymbolTableRecord
100
AcDbLayerTableRecord
  2
SK3
 70
     0
 62
     1
  6
DASH
370
    35
390
F
347
1AB
348
0
  0
LAYER
  5
1F1
330
2
100
AcDbSymbolTableRecord
100
AcDbLayerTableRecord
  2
SK4
 70
     0
 62
     2
  6
LONGDASH_DASH
370
    25
390
F
347
1AB
348
0
  0
LAYER
  5
1F2
330
2
100
AcDbSymbolTableRecord
100
AcDbLayerTableRecord
  2
SK6
 70
     0
 62
     5
  6
Continuous
370
    -3
390
F
347
1AB
348
0
  0
LAYER
  5
1F3
330
2
100
AcDbSymbolTableRecord
100
AcDbLayerTableRecord
  2
INFTOTAL
 70
     0
 62
     9
  6
Continuous
370
    18
390
F
347
1AB
348
0
  0
ENDTAB
  0
TABLE
  2
STYLE
  5
3
330
0
100
AcDbSymbolTable
 70
     2
  0
STYLE
  5
11
330
3
100
AcDbSymbolTableRecord
100
AcDbTextStyleTableRecord
  2
Standard
 70
     0
 40
0.0
 41
1.0
 50
0.0
 71
     0
 42
0.2
  3
txt
  4

  0
STYLE
  5
1AC
330
3
100
AcDbSymbolTableRecord
100
AcDbTextStyleTableRecord
  2
BMG_Text
 70
     0
 40
3.5
 41
1.0
 50
0.0
 71
     0
 42
0.2
  3
monos.ttf
  4

1001
ACAD
1000
Monospac821 BT
1071
       49
  0
ENDTAB
  0
TABLE
  2
VIEW
  5
6
330
0
100
AcDbSymbolTable
 70
     0
  0
ENDTAB
  0
TABLE
  2
UCS
  5
7
330
0
100
AcDbSymbolTable
 70
     0
  0
ENDTAB
  0
TABLE
  2
APPID
  5
9
330
0
100
AcDbSymbolTable
 70
     1
  0
APPID
  5
12
330
9
100
AcDbSymbolTableRecord
100
AcDbRegAppTableRecord
  2
ACAD
 70
     0
  0
ENDTAB
  0
TABLE
  2
DIMSTYLE
  5
A
330
0
100
AcDbSymbolTable
 70
     1
100
AcDbDimStyleTable
  0
DIMSTYLE
105
28
330
A
100
AcDbSymbolTableRecord
100
AcDbDimStyleTableRecord
  2
Standard
 70
     0
178
     0
340
11
  0
ENDTAB
  0
TABLE
  2
BLOCK_RECORD
  5
1
330
0
100
AcDbSymbolTable
 70
     0
  0
BLOCK_RECORD
  5
1D
330
1
100
AcDbSymbolTableRecord
100
AcDbBlockTableRecord
  2
*Model_Space
340
1E
 70
     0
280
     1
281
     0
  0
BLOCK_RECORD
  5
1B
330
1
100
AcDbSymbolTableRecord
100
AcDbBlockTableRecord
  2
*Paper_Space
340
1C
 70
     0
280
     1
281
     0
  0
ENDTAB
  0
ENDSEC
  0
SECTION
  2
BLOCKS
  0
BLOCK
  5
195
330
1D
100
AcDbEntity
  8
0
100
AcDbBlockBegin
  2
*Model_Space
 70
     0
 10
0.0
 20
0.0
 30
0.0
  3
*Model_Space
  1

  0
ENDBLK
  5
196
330
1D
100
AcDbEntity
  8
0
100
AcDbBlockEnd
  0
BLOCK
  5
193
330
1B
100
AcDbEntity
 67
     1
  8
0
100
AcDbBlockBegin
  2
*Paper_Space
 70
     0
 10
0.0
 20
0.0
 30
0.0
  3
*Paper_Space
  1

  0
ENDBLK
  5
194
330
1B
100
AcDbEntity
 67
     1
  8
0
100
AcDbBlockEnd
  0
ENDSEC
  0
SECTION
  2
ENTITIES
  0
LINE
  5
29
330
1D
100
AcDbEntity
  8
SK3
  6
DASH
370
    35
100
AcDbLine
 10
18.324387209
 20
-4.0
 30
0.0
 11
1.0
 21
-22.105874329
 31
0.0
  0
LINE
  5
2A
330
1D
100
AcDbEntity
  8
4
  6
LONGDASH_DASH
370
    25
100
AcDbLine
 10
21.357270008
 20
-3.0
 30
0.0
 11
-0.254491955
 21
-25.586648605
 31
0.0
  0
LINE
  5
2B
330
1D
100
AcDbEntity
  8
SK3
  6
DASH
370
    35
100
AcDbLine
 10
22.476476961
 20
-4.0
 30
0.0
 11
1.0
 21
-26.445261021
 31
0.0
  0
LINE
  5
2C
330
1D
100
AcDbEntity
  8
1
  6
Continuous
370
    50
100
AcDbLine
 10
19.05
 20
18.35
 30
0.0
 11
19.05
 21
25.295058806
 31
0.0
  0
LINE
  5
2D
330
1D
100
AcDbEntity
  8
1
  6
Continuous
370
    50
100
AcDbLine
 10
19.05
 20
25.295058806
 30
0.0
 11
18.55
 21
25.91022964
 31
0.0
  0
LINE
  5
2E
330
1D
100
AcDbEntity
  8
1
  6
Continuous
370
    50
100
AcDbLine
 10
18.55
 20
25.91022964
 30
0.0
 11
14.621836642
 21
25.91022964
 31
0.0
  0
LINE
  5
2F
330
1D
100
AcDbEntity
  8
1
  6
Continuous
370
    50
100
AcDbLine
 10
14.621836642
 20
25.91022964
 30
0.0
 11
13.025
 21
22.435713102
 31
0.0
  0
LINE
  5
30
330
1D
100
AcDbEntity
  8
1
  6
Continuous
370
    50
100
AcDbLine
 10
13.025
 20
22.435713102
 30
0.0
 11
13.025
 21
21.80659304
 31
0.0
  0
LINE
  5
31
330
1D
100
AcDbEntity
  8
1
  6
Continuous
370
    50
100
AcDbLine
 10
13.025
 20
21.80659304
 30
0.0
 11
13.020027323
 21
21.714579737
 31
0.0
  0
LINE
  5
32
330
1D
100
AcDbEntity
  8
1
  6
Continuous
370
    50
100
AcDbLine
 10
13.020027323
 20
21.714579737
 30
0.0
 11
12.940595044
 21
21.441994147
 31
0.0
  0
LINE
  5
33
330
1D
100
AcDbEntity
  8
1
  6
Continuous
370
    50
100
AcDbLine
 10
12.940595044
 20
21.441994147
 30
0.0
 11
12.825087681
 21
21.281240486
 31
0.0
  0
LINE
  5
34
330
1D
100
AcDbEntity
  8
1
  6
Continuous
370
    50
100
AcDbLine
 10
12.825087681
 20
21.281240486
 30
0.0
 11
12.697480808
 21
21.189553364
 31
0.0
  0
LINE
  5
35
330
1D
100
AcDbEntity
  8
1
  6
Continuous
370
    50
100
AcDbLine
 10
12.697480808
 20
21.189553364
 30
0.0
 11
12.662854419
 21
21.174586681
 31
0.0
  0
LINE
  5
36
330
1D
100
AcDbEntity
  8
1
  6
Continuous
370
    50
100
AcDbLine
 10
12.662854419
 20
21.174586681
 30
0.0
 11
12.535205465
 21
21.149074048
 31
0.0
  0
LINE
  5
37
330
1D
100
AcDbEntity
  8
1
  6
Continuous
370
    50
100
AcDbLine
 10
12.535205465
 20
21.149074048
 30
0.0
 11
12.525
 21
21.148936143
 31
0.0
  0
LINE
  5
38
330
1D
100
AcDbEntity
  8
1
  6
Continuous
370
    50
100
AcDbLine
 10
12.525
 20
21.148936143
 30
0.0
 11
9.675
 21
21.148936143
 31
0.0
  0
LINE
  5
39
330
1D
100
AcDbEntity
  8
1
  6
Continuous
370
    50
100
AcDbLine
 10
9.675
 20
21.148936143
 30
0.0
 11
9.658296717
 21
21.149305625
 31
0.0
  0
LINE
  5
3A
330
1D
100
AcDbEntity
  8
1
  6
Continuous
370
    50
100
AcDbLine
 10
9.658296717
 20
21.149305625
 30
0.0
 11
9.537145581
 21
21.174586681
 31
0.0
  0
LINE
  5
3B
330
1D
100
AcDbEntity
  8
1
  6
Continuous
370
    50
100
AcDbLine
 10
9.537145581
 20
21.174586681
 30
0.0
 11
9.396932583
 21
21.26062215
 31
0.0
  0
LINE
  5
3C
330
1D
100
AcDbEntity
  8
1
  6
Continuous
370
    50
100
AcDbLine
 10
9.396932583
 20
21.26062215
 30
0.0
 11
9.291579514
 21
21.385465392
 31
0.0
  0
LINE
  5
3D
330
1D
100
AcDbEntity
  8
1
  6
Continuous
370
    50
100
AcDbLine
 10
9.291579514
 20
21.385465392
 30
0.0
 11
9.198027676
 21
21.610194145
 31
0.0
  0
LINE
  5
3E
330
1D
100
AcDbEntity
  8
1
  6
Continuous
370
    50
100
AcDbLine
 10
9.198027676
 20
21.610194145
 30
0.0
 11
9.175
 21
21.80659304
 31
0.0
  0
LINE
  5
3F
330
1D
100
AcDbEntity
  8
1
  6
Continuous
370
    50
100
AcDbLine
 10
9.175
 20
21.80659304
 30
0.0
 11
9.175
 21
22.435713102
 31
0.0
  0
LINE
  5
40
330
1D
100
AcDbEntity
  8
1
  6
Continuous
370
    50
100
AcDbLine
 10
9.175
 20
22.435713102
 30
0.0
 11
7.578163358
 21
25.91022964
 31
0.0
  0
LINE
  5
41
330
1D
100
AcDbEntity
  8
1
  6
Continuous
370
    50
100
AcDbLine
 10
7.578163358
 20
25.91022964
 30
0.0
 11
1.5
 21
25.91022964
 31
0.0
  0
LINE
  5
42
330
1D
100
AcDbEntity
  8
1
  6
Continuous
370
    50
100
AcDbLine
 10
1.5
 20
25.91022964
 30
0.0
 11
1.0
 21
25.295058806
 31
0.0
  0
LINE
  5
43
330
1D
100
AcDbEntity
  8
1
  6
Continuous
370
    50
100
AcDbLine
 10
1.0
 20
25.295058806
 30
0.0
 11
1.0
 21
18.35
 31
0.0
  0
LINE
  5
44
330
1D
100
AcDbEntity
  8
1
  6
Continuous
370
    50
100
AcDbLine
 10
1.0
 20
18.35
 30
0.0
 11
1.0
 21
-30.179478567
 31
0.0
  0
LINE
  5
45
330
1D
100
AcDbEntity
  8
1
  6
Continuous
370
    50
100
AcDbLine
 10
1.0
 20
-30.179478567
 30
0.0
 11
1.5
 21
-30.529840231
 31
0.0
  0
LINE
  5
46
330
1D
100
AcDbEntity
  8
1
  6
Continuous
370
    50
100
AcDbLine
 10
1.5
 20
-30.529840231
 30
0.0
 11
1.5
 21
18.35
 31
0.0
  0
LINE
  5
47
330
1D
100
AcDbEntity
  8
1
  6
Continuous
370
    50
100
AcDbLine
 10
1.5
 20
18.35
 30
0.0
 11
1.0
 21
18.35
 31
0.0
  0
LINE
  5
48
330
1D
100
AcDbEntity
  8
1
  6
Continuous
370
    50
100
AcDbLine
 10
19.053974158
 20
24.8
 30
0.0
 11
19.118584307
 21
24.801614994
 31
0.0
  0
ARC
  5
49
330
1D
100
AcDbEntity
  8
1
  6
Continuous
370
    50
100
AcDbCircle
 10
0.8
 20
-22.425
 30
0.0
 40
0.5
100
AcDbArc
 50
66.421821522
 51
90.0
  0
LINE
  5
4A
330
1D
100
AcDbEntity
  8
1
  6
Continuous
370
    50
100
AcDbLine
 10
0.8
 20
-21.925
 30
0.0
 11
0.507106781
 21
-21.925
 31
0.0
  0
ARC
  5
4B
330
1D
100
AcDbEntity
  8
1
  6
Continuous
370
    50
100
AcDbCircle
 10
0.507106781
 20
-22.425
 30
0.0
 40
0.5
100
AcDbArc
 50
90.0
 51
135.0
  0
LINE
  5
4C
330
1D
100
AcDbEntity
  8
1
  6
Continuous
370
    50
100
AcDbLine
 10
0.153553391
 20
-22.071446609
 30
0.0
 11
0.0
 21
-22.225
 31
0.0
  0
LINE
  5
4D
330
1D
100
AcDbEntity
  8
SK1
100
AcDbLine
 10
0.0
 20
-22.225
 30
0.0
 11
-67.437092816
 21
-12.390331105
 31
0.0
  0
ARC
  5
4E
330
1D
100
AcDbEntity
  8
SK1
100
AcDbCircle
 10
-67.3
 20
-11.450274957
 30
0.0
 40
0.95
100
AcDbArc
 50
180.0
 51
261.702777778
  0
LINE
  5
4F
330
1D
100
AcDbEntity
  8
SK1
100
AcDbLine
 10
-68.25
 20
-11.450274957
 30
0.0
 11
-68.25
 21
11.450274957
 31
0.0
  0
ARC
  5
50
330
1D
100
AcDbEntity
  8
SK1
100
AcDbCircle
 10
-67.3
 20
11.450274957
 30
0.0
 40
0.95
100
AcDbArc
 50
98.29722222300002
 51
180.0
  0
LINE
  5
51
330
1D
100
AcDbEntity
  8
SK1
100
AcDbLine
 10
-67.437092816
 20
12.390331105
 30
0.0
 11
0.0
 21
22.225
 31
0.0
  0
LINE
  5
52
330
1D
100
AcDbEntity
  8
1
  6
Continuous
370
    50
100
AcDbLine
 10
0.0
 20
22.225
 30
0.0
 11
0.153553391
 21
22.071446609
 31
0.0
  0
ARC
  5
53
330
1D
100
AcDbEntity
  8
1
  6
Continuous
370
    50
100
AcDbCircle
 10
0.507106781
 20
22.425
 30
0.0
 40
0.5
100
AcDbArc
 50
225.0
 51
270.0
  0
LINE
  5
54
330
1D
100
AcDbEntity
  8
1
  6
Continuous
370
    50
100
AcDbLine
 10
0.507106781
 20
21.925
 30
0.0
 11
0.8
 21
21.925
 31
0.0
  0
ARC
  5
55
330
1D
100
AcDbEntity
  8
1
  6
Continuous
370
    50
100
AcDbCircle
 10
0.8
 20
22.425
 30
0.0
 40
0.5
100
AcDbArc
 50
270.0
 51
293.578178478
  0
LINE
  5
56
330
1D
100
AcDbEntity
  8
1
  6
Continuous
370
    50
100
AcDbLine
 10
18.55
 20
-30.529840231
 30
0.0
 11
14.621836642
 21
-30.529840231
 31
0.0
  0
LINE
  5
57
330
1D
100
AcDbEntity
  8
1
  6
Continuous
370
    50
100
AcDbLine
 10
14.621836642
 20
-30.529840231
 30
0.0
 11
14.621836642
 21
18.35
 31
0.0
  0
LINE
  5
58
330
1D
100
AcDbEntity
  8
1
  6
Continuous
370
    50
100
AcDbLine
 10
14.621836642
 20
18.35
 30
0.0
 11
18.55
 21
18.35
 31
0.0
  0
LINE
  5
59
330
1D
100
AcDbEntity
  8
1
  6
Continuous
370
    50
100
AcDbLine
 10
19.05
 20
18.35
 30
0.0
 11
19.05
 21
-30.124347671
 31
0.0
  0
LINE
  5
5A
330
1D
100
AcDbEntity
  8
1
  6
Continuous
370
    50
100
AcDbLine
 10
19.05
 20
-30.124347671
 30
0.0
 11
18.55
 21
-30.529840231
 31
0.0
  0
LINE
  5
5B
330
1D
100
AcDbEntity
  8
1
  6
Continuous
370
    50
100
AcDbLine
 10
18.55
 20
-30.529840231
 30
0.0
 11
18.55
 21
18.35
 31
0.0
  0
ARC
  5
5C
330
1D
100
AcDbEntity
  8
1
  6
Continuous
370
    50
100
AcDbCircle
 10
12.515297509
 20
-27.327606438
 30
0.0
 40
0.509840911
100
AcDbArc
 50
358.664846518
 51
88.90957099799999
  0
LINE
  5
5D
330
1D
100
AcDbEntity
  8
1
  6
Continuous
370
    50
100
AcDbLine
 10
12.525
 20
-26.817857856
 30
0.0
 11
9.675
 21
-26.817857856
 31
0.0
  0
ARC
  5
5E
330
1D
100
AcDbEntity
  8
1
  6
Continuous
370
    50
100
AcDbCircle
 10
9.686395939
 20
-27.329229671
 30
0.0
 40
0.511498778
100
AcDbArc
 50
91.276627142
 51
181.148955338
  0
ARC
  5
5F
330
1D
100
AcDbEntity
  8
1
  6
Continuous
370
    50
100
AcDbCircle
 10
9.687293654
 20
27.330090164
 30
0.0
 40
0.512379811
100
AcDbArc
 50
178.949261053
 51
268.6251564649999
  0
LINE
  5
60
330
1D
100
AcDbEntity
  8
1
  6
Continuous
370
    50
100
AcDbLine
 10
9.675
 20
26.817857856
 30
0.0
 11
12.525
 21
26.817857856
 31
0.0
  0
ARC
  5
61
330
1D
100
AcDbEntity
  8
1
  6
Continuous
370
    50
100
AcDbCircle
 10
12.514366592
 20
27.328498757
 30
0.0
 40
0.510751602
100
AcDbArc
 50
271.1929349470001
 51
1.232647533
  0
LINE
  5
62
330
1D
100
AcDbEntity
  8
1
  6
Continuous
370
    50
100
AcDbLine
 10
18.55
 20
25.91022964
 30
0.0
 11
18.55
 21
30.489114045
 31
0.0
  0
LINE
  5
63
330
1D
100
AcDbEntity
  8
1
  6
Continuous
370
    50
100
AcDbLine
 10
18.55
 20
30.489114045
 30
0.0
 11
19.05
 21
30.138752381
 31
0.0
  0
LINE
  5
64
330
1D
100
AcDbEntity
  8
1
  6
Continuous
370
    50
100
AcDbLine
 10
19.05
 20
30.138752381
 30
0.0
 11
19.05
 21
25.295058806
 31
0.0
  0
LINE
  5
65
330
1D
100
AcDbEntity
  8
1
  6
Continuous
370
    50
100
AcDbLine
 10
14.621836642
 20
18.35
 30
0.0
 11
13.025
 21
18.35
 31
0.0
  0
LINE
  5
66
330
1D
100
AcDbEntity
  8
1
  6
Continuous
370
    50
100
AcDbLine
 10
13.025
 20
18.35
 30
0.0
 11
13.025
 21
-27.843872259
 31
0.0
  0
LINE
  5
67
330
1D
100
AcDbEntity
  8
1
  6
Continuous
370
    50
100
AcDbLine
 10
13.025
 20
-27.843872259
 30
0.0
 11
13.942231292
 21
-29.494050961
 31
0.0
  0
LINE
  5
68
330
1D
100
AcDbEntity
  8
1
  6
Continuous
370
    50
100
AcDbLine
 10
13.942231292
 20
-29.494050961
 30
0.0
 11
14.147558077
 21
-29.862538156
 31
0.0
  0
LINE
  5
69
330
1D
100
AcDbEntity
  8
1
  6
Continuous
370
    50
100
AcDbLine
 10
14.147558077
 20
-29.862538156
 30
0.0
 11
14.621836642
 21
-30.529840231
 31
0.0
  0
LINE
  5
6A
330
1D
100
AcDbEntity
  8
1
  6
Continuous
370
    50
100
AcDbLine
 10
7.578163358
 20
18.35
 30
0.0
 11
7.578163358
 21
-30.529840231
 31
0.0
  0
LINE
  5
6B
330
1D
100
AcDbEntity
  8
1
  6
Continuous
370
    50
100
AcDbLine
 10
7.578163358
 20
-30.529840231
 30
0.0
 11
8.052441923
 21
-29.862538156
 31
0.0
  0
LINE
  5
6C
330
1D
100
AcDbEntity
  8
1
  6
Continuous
370
    50
100
AcDbLine
 10
8.052441923
 20
-29.862538156
 30
0.0
 11
8.113561095
 21
-29.752884077
 31
0.0
  0
LINE
  5
6D
330
1D
100
AcDbEntity
  8
1
  6
Continuous
370
    50
100
AcDbLine
 10
8.113561095
 20
-29.752884077
 30
0.0
 11
9.175
 21
-27.843872259
 31
0.0
  0
LINE
  5
6E
330
1D
100
AcDbEntity
  8
1
  6
Continuous
370
    50
100
AcDbLine
 10
9.175
 20
-27.843872259
 30
0.0
 11
9.175
 21
18.35
 31
0.0
  0
LINE
  5
6F
330
1D
100
AcDbEntity
  8
1
  6
Continuous
370
    50
100
AcDbLine
 10
9.175
 20
18.35
 30
0.0
 11
7.578163358
 21
18.35
 31
0.0
  0
LINE
  5
70
330
1D
100
AcDbEntity
  8
SK3
  6
DASH
370
    35
100
AcDbLine
 10
-68.25
 20
9.25
 30
0.0
 11
-66.950961894
 21
8.5
 31
0.0
  0
LINE
  5
71
330
1D
100
AcDbEntity
  8
SK3
  6
DASH
370
    35
100
AcDbLine
 10
-66.950961894
 20
8.5
 30
0.0
 11
-66.950961894
 21
-8.5
 31
0.0
  0
LINE
  5
72
330
1D
100
AcDbEntity
  8
SK3
  6
DASH
370
    35
100
AcDbLine
 10
-66.950961894
 20
-8.5
 30
0.0
 11
-59.8
 21
-8.5
 31
0.0
  0
LINE
  5
73
330
1D
100
AcDbEntity
  8
SK3
  6
DASH
370
    35
100
AcDbLine
 10
-59.8
 20
-8.5
 30
0.0
 11
-58.977275866
 21
-7.075
 31
0.0
  0
LINE
  5
74
330
1D
100
AcDbEntity
  8
SK3
  6
DASH
370
    35
100
AcDbLine
 10
-58.977275866
 20
-7.075
 30
0.0
 11
-58.977275866
 21
7.075
 31
0.0
  0
LINE
  5
75
330
1D
100
AcDbEntity
  8
SK3
  6
DASH
370
    35
100
AcDbLine
 10
-58.977275866
 20
7.075
 30
0.0
 11
-59.8
 21
8.5
 31
0.0
  0
LINE
  5
76
330
1D
100
AcDbEntity
  8
SK3
  6
DASH
370
    35
100
AcDbLine
 10
-59.8
 20
8.5
 30
0.0
 11
-59.8
 21
-8.5
 31
0.0
  0
LINE
  5
77
330
1D
100
AcDbEntity
  8
1
  6
Continuous
370
    50
100
AcDbLine
 10
1.5
 20
25.91022964
 30
0.0
 11
1.5
 21
30.489114045
 31
0.0
  0
LINE
  5
78
330
1D
100
AcDbEntity
  8
1
  6
Continuous
370
    50
100
AcDbLine
 10
1.5
 20
30.489114045
 30
0.0
 11
1.0
 21
30.138752381
 31
0.0
  0
LINE
  5
79
330
1D
100
AcDbEntity
  8
1
  6
Continuous
370
    50
100
AcDbLine
 10
1.0
 20
30.138752381
 30
0.0
 11
1.0
 21
25.295058806
 31
0.0
  0
LINE
  5
7A
330
1D
100
AcDbEntity
  8
1
  6
Continuous
370
    50
100
AcDbLine
 10
1.5
 20
-30.529840231
 30
0.0
 11
7.578163358
 21
-30.529840231
 31
0.0
  0
LINE
  5
7B
330
1D
100
AcDbEntity
  8
1
  6
Continuous
370
    50
100
AcDbLine
 10
7.578163358
 20
18.35
 30
0.0
 11
1.5
 21
18.35
 31
0.0
  0
LINE
  5
7C
330
1D
100
AcDbEntity
  8
1
  6
Continuous
370
    50
100
AcDbLine
 10
9.175
 20
18.35
 30
0.0
 11
9.675
 21
18.35
 31
0.0
  0
LINE
  5
7D
330
1D
100
AcDbEntity
  8
1
  6
Continuous
370
    50
100
AcDbLine
 10
9.675
 20
18.35
 30
0.0
 11
12.525
 21
18.35
 31
0.0
  0
LINE
  5
7E
330
1D
100
AcDbEntity
  8
1
  6
Continuous
370
    50
100
AcDbLine
 10
12.525
 20
18.35
 30
0.0
 11
13.025
 21
18.35
 31
0.0
  0
LINE
  5
7F
330
1D
100
AcDbEntity
  8
SK1
100
AcDbLine
 10
0.0
 20
-22.225
 30
0.0
 11
0.0
 21
22.225
 31
0.0
  0
LINE
  5
80
330
1D
100
AcDbEntity
  8
1
  6
Continuous
370
    50
100
AcDbLine
 10
7.578163358
 20
25.91022964
 30
0.0
 11
7.578163358
 21
30.489114045
 31
0.0
  0
LINE
  5
81
330
1D
100
AcDbEntity
  8
1
  6
Continuous
370
    50
100
AcDbLine
 10
7.578163358
 20
30.489114045
 30
0.0
 11
7.966705727
 21
30.016311818
 31
0.0
  0
LINE
  5
82
330
1D
100
AcDbEntity
  8
1
  6
Continuous
370
    50
100
AcDbLine
 10
7.966705727
 20
30.016311818
 30
0.0
 11
9.175
 21
27.843872259
 31
0.0
  0
LINE
  5
83
330
1D
100
AcDbEntity
  8
1
  6
Continuous
370
    50
100
AcDbLine
 10
9.175
 20
27.843872259
 30
0.0
 11
9.175
 21
22.435713102
 31
0.0
  0
LINE
  5
84
330
1D
100
AcDbEntity
  8
1
  6
Continuous
370
    50
100
AcDbLine
 10
13.025
 20
22.435713102
 30
0.0
 11
13.025
 21
27.843872259
 31
0.0
  0
LINE
  5
85
330
1D
100
AcDbEntity
  8
1
  6
Continuous
370
    50
100
AcDbLine
 10
13.025
 20
27.843872259
 30
0.0
 11
14.233294273
 21
30.016311818
 31
0.0
  0
LINE
  5
86
330
1D
100
AcDbEntity
  8
1
  6
Continuous
370
    50
100
AcDbLine
 10
14.233294273
 20
30.016311818
 30
0.0
 11
14.621836642
 21
30.489114045
 31
0.0
  0
LINE
  5
87
330
1D
100
AcDbEntity
  8
1
  6
Continuous
370
    50
100
AcDbLine
 10
14.621836642
 20
30.489114045
 30
0.0
 11
14.621836642
 21
25.91022964
 31
0.0
  0
LINE
  5
88
330
1D
100
AcDbEntity
  8
1
  6
Continuous
370
    50
100
AcDbLine
 10
7.578163358
 20
30.489114045
 30
0.0
 11
1.5
 21
30.489114045
 31
0.0
  0
LINE
  5
89
330
1D
100
AcDbEntity
  8
1
  6
Continuous
370
    50
100
AcDbLine
 10
18.55
 20
30.489114045
 30
0.0
 11
14.621836642
 21
30.489114045
 31
0.0
  0
LINE
  5
8A
330
1D
100
AcDbEntity
  8
1
  6
Continuous
370
    50
100
AcDbLine
 10
12.525
 20
26.817857856
 30
0.0
 11
12.525
 21
21.148936143
 31
0.0
  0
LINE
  5
8B
330
1D
100
AcDbEntity
  8
1
  6
Continuous
370
    50
100
AcDbLine
 10
9.675
 20
26.817857856
 30
0.0
 11
9.675
 21
21.148936143
 31
0.0
  0
LINE
  5
8C
330
1D
100
AcDbEntity
  8
SK3
  6
DASH
370
    35
100
AcDbLine
 10
-59.511324865
 20
-8.0
 30
0.0
 11
-34.24995
 21
-8.0
 31
0.0
  0
LINE
  5
8D
330
1D
100
AcDbEntity
  8
SK3
  6
DASH
370
    35
100
AcDbLine
 10
-34.24995
 20
-8.0
 30
0.0
 11
-34.25005
 21
8.0
 31
0.0
  0
LINE
  5
8E
330
1D
100
AcDbEntity
  8
SK3
  6
DASH
370
    35
100
AcDbLine
 10
-34.25005
 20
8.0
 30
0.0
 11
-59.511324865
 21
8.0
 31
0.0
  0
LINE
  5
8F
330
1D
100
AcDbEntity
  8
SK3
  6
DASH
370
    35
100
AcDbLine
 10
-68.25
 20
-9.25
 30
0.0
 11
-66.950961894
 21
-8.5
 31
0.0
  0
LINE
  5
90
330
1D
100
AcDbEntity
  8
SK3
  6
DASH
370
    35
100
AcDbLine
 10
-59.8
 20
8.5
 30
0.0
 11
-66.950961894
 21
8.5
 31
0.0
  0
LINE
  5
91
330
1D
100
AcDbEntity
  8
SK3
  6
DASH
370
    35
100
AcDbLine
 10
13.880791529
 20
7.075
 30
0.0
 11
-34.25005
 21
7.075
 31
0.0
  0
LINE
  5
92
330
1D
100
AcDbEntity
  8
SK3
  6
DASH
370
    35
100
AcDbLine
 10
-34.25005
 20
7.075
 30
0.0
 11
-58.977275866
 21
7.075
 31
0.0
  0
LINE
  5
93
330
1D
100
AcDbEntity
  8
SK3
  6
DASH
370
    35
100
AcDbLine
 10
-58.977275866
 20
-7.075
 30
0.0
 11
-34.24995
 21
-7.075
 31
0.0
  0
LINE
  5
94
330
1D
100
AcDbEntity
  8
SK3
  6
DASH
370
    35
100
AcDbLine
 10
-34.24995
 20
-7.075
 30
0.0
 11
13.880791529
 21
-7.075
 31
0.0
  0
TEXT
  5
95
330
1D
100
AcDbEntity
  8
SK6
  6
Continuous
370
    35
100
AcDbText
 10
22.603252246
 20
-11.095878427
 30
0.0
 40
3.5
  1
490.108
 41
0.625
  7
BMG_Text
100
AcDbText
  0
LINE
  5
96
330
1D
100
AcDbEntity
  8
6
100
AcDbLine
 10
-31.73500824
 20
-31.58081818
 30
0.0
 11
-31.73500824
 21
-33.65081024
 31
0.0
  0
ARC
  5
97
330
1D
100
AcDbEntity
  8
6
100
AcDbCircle
 10
-34.61499405
 20
-34.7308197
 30
0.0
 40
1.08000004
100
AcDbArc
 50
90.00000763
 51
206.54360962
  0
LINE
  5
98
330
1D
100
AcDbEntity
  8
6
100
AcDbLine
 10
-34.61499405
 20
-33.65084076
 30
0.0
 11
-31.7349968
 21
-33.65084076
 31
0.0
  0
ARC
  5
99
330
1D
100
AcDbEntity
  8
6
100
AcDbCircle
 10
-35.78500366
 20
-34.28081512
 30
0.0
 40
2.70000005
100
AcDbArc
 50
90.00000763
 51
206.5436554
  0
ARC
  5
9A
330
1D
100
AcDbEntity
  8
6
100
AcDbCircle
 10
-35.06498718
 20
-44.18082428
 30
0.0
 40
1.08000004
100
AcDbArc
 50
270.0
 51
26.54360962
  0
LINE
  5
9B
330
1D
100
AcDbEntity
  8
6
100
AcDbLine
 10
-35.06498718
 20
-45.26082611
 30
0.0
 11
-38.48498535
 21
-45.26082611
 31
0.0
  0
LINE
  5
9C
330
1D
100
AcDbEntity
  8
6
100
AcDbLine
 10
-38.20040512
 20
-35.48738861
 30
0.0
 11
-34.09883881
 21
-43.69818115
 31
0.0
  0
ARC
  5
9D
330
1D
100
AcDbEntity
  8
6
100
AcDbCircle
 10
-33.89500046
 20
-44.63082886
 30
0.0
 40
2.70000005
100
AcDbArc
 50
270.0
 51
26.54364014
  0
LINE
  5
9E
330
1D
100
AcDbEntity
  8
6
100
AcDbLine
 10
-35.5811615
 20
-35.21344757
 30
0.0
 11
-31.47959137
 21
-43.42424774
 31
0.0
  0
LINE
  5
9F
330
1D
100
AcDbEntity
  8
6
100
AcDbLine
 10
-38.48500824
 20
-45.26082611
 30
0.0
 11
-38.48500824
 21
-47.33083344
 31
0.0
  0
LINE
  5
A0
330
1D
100
AcDbEntity
  8
6
100
AcDbLine
 10
-38.48500824
 20
-47.33083344
 30
0.0
 11
-33.89500427
 21
-47.33083344
 31
0.0
  0
LINE
  5
A1
330
1D
100
AcDbEntity
  8
6
100
AcDbLine
 10
-29.03500366
 20
-47.33083344
 30
0.0
 11
-29.03500366
 21
-31.58083344
 31
0.0
  0
LINE
  5
A2
330
1D
100
AcDbEntity
  8
6
100
AcDbLine
 10
-20.75499725
 20
-47.33083344
 30
0.0
 11
-20.75499725
 21
-31.58083344
 31
0.0
  0
LINE
  5
A3
330
1D
100
AcDbEntity
  8
6
100
AcDbLine
 10
-20.75499725
 20
-47.33083344
 30
0.0
 11
-18.05500412
 21
-47.33083344
 31
0.0
  0
LINE
  5
A4
330
1D
100
AcDbEntity
  8
6
100
AcDbLine
 10
-18.05500412
 20
-47.33083344
 30
0.0
 11
-18.05500412
 21
-40.4908371
 31
0.0
  0
ARC
  5
A5
330
1D
100
AcDbEntity
  8
6
100
AcDbCircle
 10
-16.70499039
 20
-41.57082367
 30
0.0
 40
1.08000004
100
AcDbArc
 50
0.0
 51
90.00000763
  0
LINE
  5
A6
330
1D
100
AcDbEntity
  8
6
100
AcDbLine
 10
-16.70499039
 20
-40.49082184
 30
0.0
 11
-18.05499268
 21
-40.49082184
 31
0.0
  0
LINE
  5
A7
330
1D
100
AcDbEntity
  8
6
100
AcDbLine
 10
-15.62501144
 20
-44.81082916
 30
0.0
 11
-15.62501144
 21
-45.8008194
 31
0.0
  0
ARC
  5
A8
330
1D
100
AcDbEntity
  8
6
100
AcDbCircle
 10
-10.49501419
 20
-45.80082703
 30
0.0
 40
2.51999998
100
AcDbArc
 50
180.0
 51
217.38319397
  0
ARC
  5
A9
330
1D
100
AcDbEntity
  8
6
100
AcDbCircle
 10
-13.10502243
 20
-45.80082703
 30
0.0
 40
2.51999998
100
AcDbArc
 50
180.0
 51
217.38319397
  0
LINE
  5
AA
330
1D
100
AcDbEntity
  8
6
100
AcDbLine
 10
-12.58740616
 20
-47.33083344
 30
0.0
 11
-15.10740662
 21
-47.33083344
 31
0.0
  0
LINE
  5
AB
330
1D
100
AcDbEntity
  8
6
100
AcDbLine
 10
-15.62501144
 20
-41.57083893
 30
0.0
 11
-15.62501144
 21
-45.80082703
 31
0.0
  0
ARC
  5
AC
330
1D
100
AcDbEntity
  8
6
100
AcDbCircle
 10
-15.53499222
 20
-41.7508316
 30
0.0
 40
2.51999998
100
AcDbArc
 50
358.70883179
 51
93.06652832
  0
ARC
  5
AD
330
1D
100
AcDbEntity
  8
6
100
AcDbCircle
 10
-15.80500412
 20
-36.71083069
 30
0.0
 40
2.51999998
100
AcDbArc
 50
273.06652832
 51
0.0
  0
ARC
  5
AE
330
1D
100
AcDbEntity
  8
6
100
AcDbCircle
 10
-15.80500412
 20
-34.10083771
 30
0.0
 40
2.51999998
100
AcDbArc
 50
0.0
 51
90.00000763
  0
LINE
  5
AF
330
1D
100
AcDbEntity
  8
6
100
AcDbLine
 10
-13.28499222
 20
-34.10083771
 30
0.0
 11
-13.28499222
 21
-36.71083832
 31
0.0
  0
ARC
  5
B0
330
1D
100
AcDbEntity
  8
6
100
AcDbCircle
 10
-16.43500137
 20
-34.55083466
 30
0.0
 40
0.90000004
100
AcDbArc
 50
0.0
 51
90.00000763
  0
LINE
  5
B1
330
1D
100
AcDbEntity
  8
6
100
AcDbLine
 10
-16.43500137
 20
-33.65084076
 30
0.0
 11
-18.05500412
 21
-33.65084076
 31
0.0
  0
ARC
  5
B2
330
1D
100
AcDbEntity
  8
6
100
AcDbCircle
 10
-16.43500137
 20
-37.43082428
 30
0.0
 40
0.90000004
100
AcDbArc
 50
270.0
 51
0.0
  0
LINE
  5
B3
330
1D
100
AcDbEntity
  8
6
100
AcDbLine
 10
-15.53499222
 20
-34.55083466
 30
0.0
 11
-15.53499222
 21
-37.43083191
 31
0.0
  0
LINE
  5
B4
330
1D
100
AcDbEntity
  8
6
100
AcDbLine
 10
-18.05500412
 20
-33.65084076
 30
0.0
 11
-18.05500412
 21
-38.33083344
 31
0.0
  0
LINE
  5
B5
330
1D
100
AcDbEntity
  8
6
100
AcDbLine
 10
-16.43500137
 20
-38.33083344
 30
0.0
 11
-18.05500412
 21
-38.33083344
 31
0.0
  0
LINE
  5
B6
330
1D
100
AcDbEntity
  8
6
100
AcDbLine
 10
-13.01564407
 20
-41.80761719
 30
0.0
 11
-13.01501465
 21
-45.80123138
 31
0.0
  0
LINE
  5
B7
330
1D
100
AcDbEntity
  8
6
100
AcDbLine
 10
-12.58740616
 20
-47.33083344
 30
0.0
 11
-12.49740982
 21
-47.33083344
 31
0.0
  0
LINE
  5
B8
330
1D
100
AcDbEntity
  8
6
100
AcDbLine
 10
-35.78500366
 20
-31.58081818
 30
0.0
 11
-31.73500061
 21
-31.58081818
 31
0.0
  0
LINE
  5
B9
330
1D
100
AcDbEntity
  8
6
100
AcDbLine
 10
-15.80500412
 20
-31.58081818
 30
0.0
 11
-20.7550087
 21
-31.58081818
 31
0.0
  0
LINE
  5
BA
330
1D
100
AcDbEntity
  8
6
100
AcDbLine
 10
-62.78500366
 20
-47.33083344
 30
0.0
 11
-65.57500458
 21
-47.33083344
 31
0.0
  0
LINE
  5
BB
330
1D
100
AcDbEntity
  8
6
100
AcDbLine
 10
-62.78500366
 20
-43.91083527
 30
0.0
 11
-62.78500366
 21
-47.33083344
 31
0.0
  0
LINE
  5
BC
330
1D
100
AcDbEntity
  8
6
100
AcDbLine
 10
-61.70500183
 20
-41.84082794
 30
0.0
 11
-62.78500366
 21
-43.91083527
 31
0.0
  0
LINE
  5
BD
330
1D
100
AcDbEntity
  8
6
100
AcDbLine
 10
-59.27500916
 20
-47.33083344
 30
0.0
 11
-61.70500183
 21
-41.84082794
 31
0.0
  0
LINE
  5
BE
330
1D
100
AcDbEntity
  8
6
100
AcDbLine
 10
-56.48500824
 20
-47.33083344
 30
0.0
 11
-59.27500153
 21
-47.33083344
 31
0.0
  0
LINE
  5
BF
330
1D
100
AcDbEntity
  8
6
100
AcDbLine
 10
-60.08501434
 20
-38.33083344
 30
0.0
 11
-56.48500824
 21
-47.33083344
 31
0.0
  0
LINE
  5
C0
330
1D
100
AcDbEntity
  8
6
100
AcDbLine
 10
-57.02500916
 20
-31.58083344
 30
0.0
 11
-60.08499908
 21
-38.33083344
 31
0.0
  0
LINE
  5
C1
330
1D
100
AcDbEntity
  8
6
100
AcDbLine
 10
-62.78500366
 20
-38.69084167
 30
0.0
 11
-59.81501007
 21
-31.58084869
 31
0.0
  0
LINE
  5
C2
330
1D
100
AcDbEntity
  8
6
100
AcDbLine
 10
-62.78500366
 20
-31.58083344
 30
0.0
 11
-62.78500366
 21
-38.69084167
 31
0.0
  0
LINE
  5
C3
330
1D
100
AcDbEntity
  8
6
100
AcDbLine
 10
-65.57500458
 20
-47.33083344
 30
0.0
 11
-65.57500458
 21
-31.58083344
 31
0.0
  0
LINE
  5
C4
330
1D
100
AcDbEntity
  8
6
100
AcDbLine
 10
-59.81501007
 20
-31.58083344
 30
0.0
 11
-57.02500916
 21
-31.58083344
 31
0.0
  0
LINE
  5
C5
330
1D
100
AcDbEntity
  8
6
100
AcDbLine
 10
-65.57500458
 20
-31.58083344
 30
0.0
 11
-62.78500366
 21
-31.58083344
 31
0.0
  0
LINE
  5
C6
330
1D
100
AcDbEntity
  8
6
100
AcDbLine
 10
-43.52499771
 20
-31.58083344
 30
0.0
 11
-43.52499771
 21
-47.33083344
 31
0.0
  0
LINE
  5
C7
330
1D
100
AcDbEntity
  8
6
100
AcDbLine
 10
-40.64500046
 20
-47.33083344
 30
0.0
 11
-40.64500046
 21
-31.58083344
 31
0.0
  0
LINE
  5
C8
330
1D
100
AcDbEntity
  8
6
100
AcDbLine
 10
-43.52499771
 20
-47.33083344
 30
0.0
 11
-40.64500046
 21
-47.33083344
 31
0.0
  0
LINE
  5
C9
330
1D
100
AcDbEntity
  8
6
100
AcDbLine
 10
-40.64500046
 20
-31.58083344
 30
0.0
 11
-43.52500916
 21
-31.58083344
 31
0.0
  0
LINE
  5
CA
330
1D
100
AcDbEntity
  8
6
100
AcDbLine
 10
-23.18500137
 20
-47.33083344
 30
0.0
 11
-23.18500137
 21
-45.26082611
 31
0.0
  0
LINE
  5
CB
330
1D
100
AcDbEntity
  8
6
100
AcDbLine
 10
-29.03500366
 20
-47.33083344
 30
0.0
 11
-23.18500137
 21
-47.33083344
 31
0.0
  0
LINE
  5
CC
330
1D
100
AcDbEntity
  8
6
100
AcDbLine
 10
-23.18501282
 20
-33.6508255
 30
0.0
 11
-23.18501282
 21
-31.58083344
 31
0.0
  0
LINE
  5
CD
330
1D
100
AcDbEntity
  8
6
100
AcDbLine
 10
-26.1550293
 20
-33.6508255
 30
0.0
 11
-23.18502426
 21
-33.6508255
 31
0.0
  0
LINE
  5
CE
330
1D
100
AcDbEntity
  8
6
100
AcDbLine
 10
-26.1550293
 20
-38.33083344
 30
0.0
 11
-26.1550293
 21
-33.65084076
 31
0.0
  0
LINE
  5
CF
330
1D
100
AcDbEntity
  8
6
100
AcDbLine
 10
-23.18501282
 20
-38.33083344
 30
0.0
 11
-26.15501785
 21
-38.33083344
 31
0.0
  0
LINE
  5
D0
330
1D
100
AcDbEntity
  8
6
100
AcDbLine
 10
-23.18501282
 20
-40.49081421
 30
0.0
 11
-23.18501282
 21
-38.33081055
 31
0.0
  0
LINE
  5
D1
330
1D
100
AcDbEntity
  8
6
100
AcDbLine
 10
-26.1550293
 20
-40.49081421
 30
0.0
 11
-23.18502426
 21
-40.49081421
 31
0.0
  0
LINE
  5
D2
330
1D
100
AcDbEntity
  8
6
100
AcDbLine
 10
-26.1550293
 20
-45.26082611
 30
0.0
 11
-26.1550293
 21
-40.49081421
 31
0.0
  0
LINE
  5
D3
330
1D
100
AcDbEntity
  8
6
100
AcDbLine
 10
-23.18501282
 20
-45.26082611
 30
0.0
 11
-26.15501785
 21
-45.26082611
 31
0.0
  0
LINE
  5
D4
330
1D
100
AcDbEntity
  8
6
100
AcDbLine
 10
-23.18501282
 20
-31.58083344
 30
0.0
 11
-29.03501511
 21
-31.58083344
 31
0.0
  0
LINE
  5
D5
330
1D
100
AcDbEntity
  8
6
100
AcDbLine
 10
-49.10500336
 20
-47.33083344
 30
0.0
 11
-55.40500641
 21
-47.33083344
 31
0.0
  0
LINE
  5
D6
330
1D
100
AcDbEntity
  8
6
100
AcDbLine
 10
-49.55499268
 20
-44.81082153
 30
0.0
 11
-49.10500336
 21
-47.33081818
 31
0.0
  0
LINE
  5
D7
330
1D
100
AcDbEntity
  8
6
100
AcDbLine
 10
-52.43501282
 20
-44.81082153
 30
0.0
 11
-49.55501556
 21
-44.81082153
 31
0.0
  0
LINE
  5
D8
330
1D
100
AcDbEntity
  8
6
100
AcDbLine
 10
-50.90500641
 20
-35.45083618
 30
0.0
 11
-52.43500519
 21
-44.81084442
 31
0.0
  0
LINE
  5
D9
330
1D
100
AcDbEntity
  8
6
100
AcDbLine
 10
-47.84500885
 20
-47.33083344
 30
0.0
 11
-50.90500641
 21
-35.45083618
 31
0.0
  0
LINE
  5
DA
330
1D
100
AcDbEntity
  8
6
100
AcDbLine
 10
-44.875
 20
-47.33083344
 30
0.0
 11
-47.84499359
 21
-47.33083344
 31
0.0
  0
LINE
  5
DB
330
1D
100
AcDbEntity
  8
6
100
AcDbLine
 10
-49.28500366
 20
-31.13082886
 30
0.0
 11
-44.87501144
 21
-47.33083344
 31
0.0
  0
LINE
  5
DC
330
1D
100
AcDbEntity
  8
6
100
AcDbLine
 10
-52.34500885
 20
-31.13082886
 30
0.0
 11
-49.28501129
 21
-31.13082886
 31
0.0
  0
LINE
  5
DD
330
1D
100
AcDbEntity
  8
6
100
AcDbLine
 10
-55.40500641
 20
-47.33083344
 30
0.0
 11
-52.34500885
 21
-31.13082886
 31
0.0
  0
LINE
  5
DE
330
1D
100
AcDbEntity
  8
4
  6
LONGDASH_DASH
370
    25
100
AcDbLine
 10
-70.671389671
 20
0.0
 30
0.0
 11
-18.805153129
 21
0.0
 31
0.0
  0
LINE
  5
DF
330
1D
100
AcDbEntity
  8
4
  6
LONGDASH_DASH
370
    25
100
AcDbLine
 10
-10.901931183
 20
0.0
 30
0.0
 11
51.705645147
 21
0.0
 31
0.0
  0
LINE
  5
E0
330
1D
100
AcDbEntity
  8
4
  6
LONGDASH_DASH
370
    25
100
AcDbLine
 10
21.357270008
 20
3.0
 30
0.0
 11
-0.254491955
 21
25.586648605
 31
0.0
  0
LINE
  5
E1
330
1D
100
AcDbEntity
  8
SK3
  6
DASH
370
    35
100
AcDbLine
 10
18.324387209
 20
4.0
 30
0.0
 11
1.0
 21
22.105874329
 31
0.0
  0
LINE
  5
E2
330
1D
100
AcDbEntity
  8
SK3
  6
DASH
370
    35
100
AcDbLine
 10
22.476476961
 20
4.0
 30
0.0
 11
1.0
 21
26.445261021
 31
0.0
  0
LINE
  5
E3
330
1D
100
AcDbEntity
  8
SK3
  6
DASH
370
    35
100
AcDbLine
 10
15.0
 20
-4.0
 30
0.0
 11
13.880791529
 21
-7.075
 31
0.0
  0
LINE
  5
E4
330
1D
100
AcDbEntity
  8
SK3
  6
DASH
370
    35
100
AcDbLine
 10
15.0
 20
-4.0
 30
0.0
 11
15.0
 21
4.0
 31
0.0
  0
LINE
  5
E5
330
1D
100
AcDbEntity
  8
SK3
  6
DASH
370
    35
100
AcDbLine
 10
15.0
 20
4.0
 30
0.0
 11
13.880791529
 21
7.075
 31
0.0
  0
LINE
  5
E6
330
1D
100
AcDbEntity
  8
1
  6
Continuous
370
    50
100
AcDbLine
 10
35.386454099
 20
-0.004113204
 30
0.0
 11
33.943078426
 21
2.495886796
 31
0.0
  0
LINE
  5
E7
330
1D
100
AcDbEntity
  8
1
  6
Continuous
370
    50
100
AcDbLine
 10
33.943078426
 20
2.495886796
 30
0.0
 11
31.05632708
 21
2.495886796
 31
0.0
  0
LINE
  5
E8
330
1D
100
AcDbEntity
  8
1
  6
Continuous
370
    50
100
AcDbLine
 10
31.05632708
 20
2.495886796
 30
0.0
 11
29.612951407
 21
-0.004113204
 31
0.0
  0
LINE
  5
E9
330
1D
100
AcDbEntity
  8
1
  6
Continuous
370
    50
100
AcDbLine
 10
29.612951407
 20
-0.004113204
 30
0.0
 11
31.05632708
 21
-2.504113204
 31
0.0
  0
LINE
  5
EA
330
1D
100
AcDbEntity
  8
1
  6
Continuous
370
    50
100
AcDbLine
 10
31.05632708
 20
-2.504113204
 30
0.0
 11
33.943078426
 21
-2.504113204
 31
0.0
  0
LINE
  5
EB
330
1D
100
AcDbEntity
  8
1
  6
Continuous
370
    50
100
AcDbLine
 10
33.943078426
 20
-2.504113204
 30
0.0
 11
35.386454099
 21
-0.004113204
 31
0.0
  0
ARC
  5
EC
330
1D
100
AcDbEntity
  8
1
  6
Continuous
370
    50
100
AcDbCircle
 10
24.05
 20
-18.75
 30
0.0
 40
5.0
100
AcDbArc
 50
90.0
 51
180.0
  0
ARC
  5
ED
330
1D
100
AcDbEntity
  8
1
  6
Continuous
370
    50
100
AcDbCircle
 10
24.05
 20
18.75
 30
0.0
 40
5.0
100
AcDbArc
 50
180.0
 51
270.0
  0
ARC
  5
EE
330
1D
100
AcDbEntity
  8
1
  6
Continuous
370
    50
100
AcDbCircle
 10
38.196152423
 20
-10.75
 30
0.0
 40
3.0
100
AcDbArc
 50
270.0
 51
300.0
  0
ARC
  5
EF
330
1D
100
AcDbEntity
  8
1
  6
Continuous
370
    50
100
AcDbCircle
 10
38.196152423
 20
10.75
 30
0.0
 40
3.0
100
AcDbArc
 50
60.0
 51
90.0
  0
LINE
  5
F0
330
1D
100
AcDbEntity
  8
1
  6
Continuous
370
    50
100
AcDbLine
 10
24.05
 20
-13.75
 30
0.0
 11
38.196152423
 21
-13.75
 31
0.0
  0
LINE
  5
F1
330
1D
100
AcDbEntity
  8
1
  6
Continuous
370
    50
100
AcDbLine
 10
38.196152423
 20
13.75
 30
0.0
 11
24.05
 21
13.75
 31
0.0
  0
LINE
  5
F2
330
1D
100
AcDbEntity
  8
1
  6
Continuous
370
    50
100
AcDbLine
 10
39.696152423
 20
-13.348076211
 30
0.0
 11
49.25
 21
-7.832159741
 31
0.0
  0
LINE
  5
F3
330
1D
100
AcDbEntity
  8
1
  6
Continuous
370
    50
100
AcDbLine
 10
49.25
 20
7.832159741
 30
0.0
 11
39.696152423
 21
13.348076211
 31
0.0
  0
ARC
  5
F4
330
1D
100
AcDbEntity
  8
1
  6
Continuous
370
    50
100
AcDbCircle
 10
48.5
 20
-6.533121635
 30
0.0
 40
1.5
100
AcDbArc
 50
300.0
 51
0.0
  0
ARC
  5
F5
330
1D
100
AcDbEntity
  8
1
  6
Continuous
370
    50
100
AcDbCircle
 10
48.5
 20
6.533121635
 30
0.0
 40
1.5
100
AcDbArc
 50
0.0
 51
60.0
  0
CIRCLE
  5
F6
330
1D
100
AcDbEntity
  8
1
  6
Continuous
370
    50
100
AcDbCircle
 10
32.499702753
 20
-0.004113204
 30
0.0
 40
4.999704445
  0
LINE
  5
F7
330
1D
100
AcDbEntity
  8
1
  6
Continuous
370
    50
100
AcDbLine
 10
50.0
 20
-6.533121611
 30
0.0
 11
50.0
 21
6.533121635
 31
0.0
  0
LINE
  5
F8
330
1D
100
AcDbEntity
  8
SK3
  6
DASH
370
    35
100
AcDbLine
 10
49.566987298
 20
4.0
 30
0.0
 11
49.566987298
 21
-4.0
 31
0.0
  0
LINE
  5
F9
330
1D
100
AcDbEntity
  8
SK3
  6
DASH
370
    35
100
AcDbLine
 10
50.0
 20
4.25
 30
0.0
 11
49.566987298
 21
4.0
 31
0.0
  0
LINE
  5
FA
330
1D
100
AcDbEntity
  8
SK3
  6
DASH
370
    35
100
AcDbLine
 10
49.566987298
 20
-4.0
 30
0.0
 11
50.0
 21
-4.25
 31
0.0
  0
LINE
  5
FB
330
1D
100
AcDbEntity
  8
1
  6
Continuous
370
    50
100
AcDbLine
 10
32.618765054
 20
-3.991838799
 30
0.0
 11
32.508121299
 21
-3.994991745
 31
0.0
  0
LINE
  5
FC
330
1D
100
AcDbEntity
  8
SK3
  6
DASH
370
    35
100
AcDbLine
 10
49.566987298
 20
4.0
 30
0.0
 11
15.0
 21
4.0
 31
0.0
  0
LINE
  5
FD
330
1D
100
AcDbEntity
  8
SK3
  6
DASH
370
    35
100
AcDbLine
 10
15.0
 20
-4.0
 30
0.0
 11
49.566987298
 21
-4.0
 31
0.0
  0
LINE
  5
FE
330
1D
100
AcDbEntity
  8
SK2
100
AcDbLine
 10
-14.299087524
 20
-22.225
 30
0.0
 11
0.0
 21
-22.225
 31
0.0
  0
LINE
  5
FF
330
1D
100
AcDbEntity
  8
SK2
100
AcDbLine
 10
-12.299087524
 20
-22.225
 30
0.0
 11
-12.749087524
 21
-18.725
 31
0.0
  0
LINE
  5
100
330
1D
100
AcDbEntity
  8
SK2
100
AcDbLine
 10
-12.749087524
 20
-18.725
 30
0.0
 11
-11.849087524
 21
-18.725
 31
0.0
  0
LINE
  5
101
330
1D
100
AcDbEntity
  8
SK2
100
AcDbLine
 10
-11.849087524
 20
-18.725
 30
0.0
 11
-12.299087524
 21
-22.225
 31
0.0
  0
LINE
  5
102
330
1D
100
AcDbEntity
  8
SK2
100
AcDbLine
 10
-12.299087524
 20
-18.825
 30
0.0
 11
-12.299087524
 21
-22.125
 31
0.0
  0
LINE
  5
103
330
1D
100
AcDbEntity
  8
SK2
100
AcDbLine
 10
-12.099087524
 20
-18.825
 30
0.0
 11
-12.099087524
 21
-20.569444444
 31
0.0
  0
LINE
  5
104
330
1D
100
AcDbEntity
  8
SK2
100
AcDbLine
 10
-12.499087524
 20
-18.825
 30
0.0
 11
-12.499087524
 21
-20.569444444
 31
0.0
  0
LINE
  5
105
330
1D
100
AcDbEntity
  8
SK2
100
AcDbLine
 10
-11.899087524
 20
-18.825
 30
0.0
 11
-11.899087524
 21
-19.013888889
 31
0.0
  0
LINE
  5
106
330
1D
100
AcDbEntity
  8
SK2
100
AcDbLine
 10
-12.699087524
 20
-18.825
 30
0.0
 11
-12.699087524
 21
-19.013888889
 31
0.0
  0
LINE
  5
107
330
1D
100
AcDbEntity
  8
SK2
100
AcDbLine
 10
-14.299087524
 20
22.225
 30
0.0
 11
0.0
 21
22.225
 31
0.0
  0
LINE
  5
108
330
1D
100
AcDbEntity
  8
SK2
100
AcDbLine
 10
-12.299087524
 20
22.225
 30
0.0
 11
-11.849087524
 21
18.725
 31
0.0
  0
LINE
  5
109
330
1D
100
AcDbEntity
  8
SK2
  6
Continuous
370
    25
100
AcDbLine
 10
-11.849087524
 20
18.725
 30
0.0
 11
-12.749087524
 21
18.725
 31
0.0
  0
LINE
  5
10A
330
1D
100
AcDbEntity
  8
SK2
100
AcDbLine
 10
-12.749087524
 20
18.725
 30
0.0
 11
-12.299087524
 21
22.225
 31
0.0
  0
LINE
  5
10B
330
1D
100
AcDbEntity
  8
SK2
100
AcDbLine
 10
-12.299087524
 20
18.825
 30
0.0
 11
-12.299087524
 21
22.125
 31
0.0
  0
LINE
  5
10C
330
1D
100
AcDbEntity
  8
SK2
100
AcDbLine
 10
-12.499087524
 20
18.825
 30
0.0
 11
-12.499087524
 21
20.569444444
 31
0.0
  0
LINE
  5
10D
330
1D
100
AcDbEntity
  8
SK2
100
AcDbLine
 10
-12.099087524
 20
18.825
 30
0.0
 11
-12.099087524
 21
20.569444444
 31
0.0
  0
LINE
  5
10E
330
1D
100
AcDbEntity
  8
SK2
100
AcDbLine
 10
-12.699087524
 20
18.825
 30
0.0
 11
-12.699087524
 21
19.013888889
 31
0.0
  0
LINE
  5
10F
330
1D
100
AcDbEntity
  8
SK2
100
AcDbLine
 10
-11.899087524
 20
18.825
 30
0.0
 11
-11.899087524
 21
19.013888889
 31
0.0
  0
LINE
  5
110
330
1D
100
AcDbEntity
  8
SK2
100
AcDbLine
 10
-12.299087524
 20
-18.725
 30
0.0
 11
-12.299087524
 21
18.725
 31
0.0
  0
TEXT
  5
111
330
1D
100
AcDbEntity
  8
SK2
100
AcDbText
 10
-13.799087524
 20
-2.539687997
 30
0.0
 40
3.5
  1
44.45
 50
90.0
  7
BMG_Text
100
AcDbText
  0
CIRCLE
  5
112
330
1D
100
AcDbEntity
  8
SK2
  6
Continuous
370
    25
100
AcDbCircle
 10
-15.049087524
 20
-4.789687997
 30
0.0
 40
1.25
  0
LINE
  5
113
330
1D
100
AcDbEntity
  8
SK2
  6
Continuous
370
    25
100
AcDbLine
 10
-13.799087524
 20
-6.039687997
 30
0.0
 11
-16.299087524
 21
-3.539687997
 31
0.0
  0
LINE
  5
114
330
1D
100
AcDbEntity
  8
2
  6
Continuous
370
    25
100
AcDbLine
 10
66.00000026
 20
-4.0
 30
0.0
 11
49.566987298
 21
-4.0
 31
0.0
  0
LINE
  5
115
330
1D
100
AcDbEntity
  8
2
  6
Continuous
370
    25
100
AcDbLine
 10
64.00000026
 20
-4.0
 30
0.0
 11
63.55000026
 21
-7.5
 31
0.0
  0
LINE
  5
116
330
1D
100
AcDbEntity
  8
2
  6
Continuous
370
    25
100
AcDbLine
 10
63.55000026
 20
-7.5
 30
0.0
 11
64.45000026
 21
-7.5
 31
0.0
  0
LINE
  5
117
330
1D
100
AcDbEntity
  8
2
  6
Continuous
370
    25
100
AcDbLine
 10
64.45000026
 20
-7.5
 30
0.0
 11
64.00000026
 21
-4.0
 31
0.0
  0
LINE
  5
118
330
1D
100
AcDbEntity
  8
2
  6
Continuous
370
    25
100
AcDbLine
 10
64.00000026
 20
-7.4
 30
0.0
 11
64.00000026
 21
-4.1
 31
0.0
  0
LINE
  5
119
330
1D
100
AcDbEntity
  8
2
  6
Continuous
370
    25
100
AcDbLine
 10
63.80000026
 20
-7.4
 30
0.0
 11
63.80000026
 21
-5.655555556
 31
0.0
  0
LINE
  5
11A
330
1D
100
AcDbEntity
  8
2
  6
Continuous
370
    25
100
AcDbLine
 10
64.20000026
 20
-7.4
 30
0.0
 11
64.20000026
 21
-5.655555556
 31
0.0
  0
LINE
  5
11B
330
1D
100
AcDbEntity
  8
2
  6
Continuous
370
    25
100
AcDbLine
 10
63.60000026
 20
-7.4
 30
0.0
 11
63.60000026
 21
-7.211111111
 31
0.0
  0
LINE
  5
11C
330
1D
100
AcDbEntity
  8
2
  6
Continuous
370
    25
100
AcDbLine
 10
64.40000026
 20
-7.4
 30
0.0
 11
64.40000026
 21
-7.211111111
 31
0.0
  0
LINE
  5
11D
330
1D
100
AcDbEntity
  8
2
  6
Continuous
370
    25
100
AcDbLine
 10
64.00000026
 20
-7.5
 30
0.0
 11
64.00000026
 21
-11.5
 31
0.0
  0
LINE
  5
11E
330
1D
100
AcDbEntity
  8
2
  6
Continuous
370
    25
100
AcDbLine
 10
66.00000026
 20
4.0
 30
0.0
 11
49.566987298
 21
4.0
 31
0.0
  0
LINE
  5
11F
330
1D
100
AcDbEntity
  8
2
  6
Continuous
370
    25
100
AcDbLine
 10
64.00000026
 20
4.0
 30
0.0
 11
64.45000026
 21
7.5
 31
0.0
  0
LINE
  5
120
330
1D
100
AcDbEntity
  8
2
  6
Continuous
370
    25
100
AcDbLine
 10
64.45000026
 20
7.5
 30
0.0
 11
63.55000026
 21
7.5
 31
0.0
  0
LINE
  5
121
330
1D
100
AcDbEntity
  8
2
  6
Continuous
370
    25
100
AcDbLine
 10
63.55000026
 20
7.5
 30
0.0
 11
64.00000026
 21
4.0
 31
0.0
  0
LINE
  5
122
330
1D
100
AcDbEntity
  8
2
  6
Continuous
370
    25
100
AcDbLine
 10
64.00000026
 20
7.4
 30
0.0
 11
64.00000026
 21
4.1
 31
0.0
  0
LINE
  5
123
330
1D
100
AcDbEntity
  8
2
  6
Continuous
370
    25
100
AcDbLine
 10
64.20000026
 20
7.4
 30
0.0
 11
64.20000026
 21
5.655555556
 31
0.0
  0
LINE
  5
124
330
1D
100
AcDbEntity
  8
2
  6
Continuous
370
    25
100
AcDbLine
 10
63.80000026
 20
7.4
 30
0.0
 11
63.80000026
 21
5.655555556
 31
0.0
  0
LINE
  5
125
330
1D
100
AcDbEntity
  8
2
  6
Continuous
370
    25
100
AcDbLine
 10
64.40000026
 20
7.4
 30
0.0
 11
64.40000026
 21
7.211111111
 31
0.0
  0
LINE
  5
126
330
1D
100
AcDbEntity
  8
2
  6
Continuous
370
    25
100
AcDbLine
 10
63.60000026
 20
7.4
 30
0.0
 11
63.60000026
 21
7.211111111
 31
0.0
  0
LINE
  5
127
330
1D
100
AcDbEntity
  8
2
  6
Continuous
370
    25
100
AcDbLine
 10
64.00000026
 20
7.5
 30
0.0
 11
64.00000026
 21
11.5
 31
0.0
  0
LINE
  5
128
330
1D
100
AcDbEntity
  8
2
  6
Continuous
370
    25
100
AcDbLine
 10
64.00000026
 20
-4.0
 30
0.0
 11
64.00000026
 21
4.0
 31
0.0
  0
TEXT
  5
129
330
1D
100
AcDbEntity
  8
2
  6
Continuous
370
    25
100
AcDbText
 10
62.50000026
 20
1.206406161
 30
0.0
 40
3.5
  1
8
 50
90.0
  7
BMG_Text
100
AcDbText
  0
CIRCLE
  5
12A
330
1D
100
AcDbEntity
  8
2
  6
Continuous
370
    25
100
AcDbCircle
 10
61.25000026
 20
-1.043593839
 30
0.0
 40
1.25
  0
LINE
  5
12B
330
1D
100
AcDbEntity
  8
2
  6
Continuous
370
    25
100
AcDbLine
 10
62.50000026
 20
-2.293593839
 30
0.0
 11
60.00000026
 21
0.206406161
 31
0.0
  0
LINE
  5
12C
330
1D
100
AcDbEntity
  8
2
  6
Continuous
370
    25
100
AcDbLine
 10
74.000000689
 20
-13.75
 30
0.0
 11
38.196152423
 21
-13.75
 31
0.0
  0
LINE
  5
12D
330
1D
100
AcDbEntity
  8
2
  6
Continuous
370
    25
100
AcDbLine
 10
72.000000689
 20
-13.75
 30
0.0
 11
71.550000689
 21
-10.25
 31
0.0
  0
LINE
  5
12E
330
1D
100
AcDbEntity
  8
2
  6
Continuous
370
    25
100
AcDbLine
 10
71.550000689
 20
-10.25
 30
0.0
 11
72.450000689
 21
-10.25
 31
0.0
  0
LINE
  5
12F
330
1D
100
AcDbEntity
  8
2
  6
Continuous
370
    25
100
AcDbLine
 10
72.450000689
 20
-10.25
 30
0.0
 11
72.000000689
 21
-13.75
 31
0.0
  0
LINE
  5
130
330
1D
100
AcDbEntity
  8
2
  6
Continuous
370
    25
100
AcDbLine
 10
72.000000689
 20
-10.35
 30
0.0
 11
72.000000689
 21
-13.65
 31
0.0
  0
LINE
  5
131
330
1D
100
AcDbEntity
  8
2
  6
Continuous
370
    25
100
AcDbLine
 10
72.200000689
 20
-10.35
 30
0.0
 11
72.200000689
 21
-12.094444444
 31
0.0
  0
LINE
  5
132
330
1D
100
AcDbEntity
  8
2
  6
Continuous
370
    25
100
AcDbLine
 10
71.800000689
 20
-10.35
 30
0.0
 11
71.800000689
 21
-12.094444444
 31
0.0
  0
LINE
  5
133
330
1D
100
AcDbEntity
  8
2
  6
Continuous
370
    25
100
AcDbLine
 10
72.400000689
 20
-10.35
 30
0.0
 11
72.400000689
 21
-10.538888889
 31
0.0
  0
LINE
  5
134
330
1D
100
AcDbEntity
  8
2
  6
Continuous
370
    25
100
AcDbLine
 10
71.600000689
 20
-10.35
 30
0.0
 11
71.600000689
 21
-10.538888889
 31
0.0
  0
LINE
  5
135
330
1D
100
AcDbEntity
  8
2
  6
Continuous
370
    25
100
AcDbLine
 10
74.000000689
 20
13.75
 30
0.0
 11
38.196152423
 21
13.75
 31
0.0
  0
LINE
  5
136
330
1D
100
AcDbEntity
  8
2
  6
Continuous
370
    25
100
AcDbLine
 10
72.000000689
 20
13.75
 30
0.0
 11
72.450000689
 21
10.25
 31
0.0
  0
LINE
  5
137
330
1D
100
AcDbEntity
  8
2
  6
Continuous
370
    25
100
AcDbLine
 10
72.450000689
 20
10.25
 30
0.0
 11
71.550000689
 21
10.25
 31
0.0
  0
LINE
  5
138
330
1D
100
AcDbEntity
  8
2
  6
Continuous
370
    25
100
AcDbLine
 10
71.550000689
 20
10.25
 30
0.0
 11
72.000000689
 21
13.75
 31
0.0
  0
LINE
  5
139
330
1D
100
AcDbEntity
  8
2
  6
Continuous
370
    25
100
AcDbLine
 10
72.000000689
 20
10.35
 30
0.0
 11
72.000000689
 21
13.65
 31
0.0
  0
LINE
  5
13A
330
1D
100
AcDbEntity
  8
2
  6
Continuous
370
    25
100
AcDbLine
 10
71.800000689
 20
10.35
 30
0.0
 11
71.800000689
 21
12.094444444
 31
0.0
  0
LINE
  5
13B
330
1D
100
AcDbEntity
  8
2
  6
Continuous
370
    25
100
AcDbLine
 10
72.200000689
 20
10.35
 30
0.0
 11
72.200000689
 21
12.094444444
 31
0.0
  0
LINE
  5
13C
330
1D
100
AcDbEntity
  8
2
  6
Continuous
370
    25
100
AcDbLine
 10
71.600000689
 20
10.35
 30
0.0
 11
71.600000689
 21
10.538888889
 31
0.0
  0
LINE
  5
13D
330
1D
100
AcDbEntity
  8
2
  6
Continuous
370
    25
100
AcDbLine
 10
72.400000689
 20
10.35
 30
0.0
 11
72.400000689
 21
10.538888889
 31
0.0
  0
LINE
  5
13E
330
1D
100
AcDbEntity
  8
2
  6
Continuous
370
    25
100
AcDbLine
 10
72.000000689
 20
-10.25
 30
0.0
 11
72.000000689
 21
10.25
 31
0.0
  0
TEXT
  5
13F
330
1D
100
AcDbEntity
  8
2
  6
Continuous
370
    25
100
AcDbText
 10
70.500000689
 20
-1.418594057
 30
0.0
 40
3.5
  1
27.5
 50
90.0
  7
BMG_Text
100
AcDbText
  0
CIRCLE
  5
140
330
1D
100
AcDbEntity
  8
2
  6
Continuous
370
    25
100
AcDbCircle
 10
69.250000689
 20
-3.668594057
 30
0.0
 40
1.25
  0
LINE
  5
141
330
1D
100
AcDbEntity
  8
2
  6
Continuous
370
    25
100
AcDbLine
 10
70.500000689
 20
-4.918594057
 30
0.0
 11
68.000000689
 21
-2.418594057
 31
0.0
  0
LINE
  5
142
330
1D
100
AcDbEntity
  8
2
  6
Continuous
370
    25
100
AcDbLine
 10
15.0
 20
38.0
 30
0.0
 11
15.0
 21
4.0
 31
0.0
  0
LINE
  5
143
330
1D
100
AcDbEntity
  8
2
  6
Continuous
370
    25
100
AcDbLine
 10
15.0
 20
36.0
 30
0.0
 11
18.499999993
 21
36.450000053
 31
0.0
  0
LINE
  5
144
330
1D
100
AcDbEntity
  8
2
  6
Continuous
370
    25
100
AcDbLine
 10
18.499999993
 20
36.450000053
 30
0.0
 11
18.500000007
 21
35.550000053
 31
0.0
  0
LINE
  5
145
330
1D
100
AcDbEntity
  8
2
  6
Continuous
370
    25
100
AcDbLine
 10
18.500000007
 20
35.550000053
 30
0.0
 11
15.0
 21
36.0
 31
0.0
  0
LINE
  5
146
330
1D
100
AcDbEntity
  8
2
  6
Continuous
370
    25
100
AcDbLine
 10
18.4
 20
36.000000051
 30
0.0
 11
15.1
 21
36.000000002
 31
0.0
  0
LINE
  5
147
330
1D
100
AcDbEntity
  8
2
  6
Continuous
370
    25
100
AcDbLine
 10
18.400000003
 20
35.800000051
 30
0.0
 11
16.655555559
 21
35.800000025
 31
0.0
  0
LINE
  5
148
330
1D
100
AcDbEntity
  8
2
  6
Continuous
370
    25
100
AcDbLine
 10
18.399999997
 20
36.200000051
 30
0.0
 11
16.655555553
 21
36.200000025
 31
0.0
  0
LINE
  5
149
330
1D
100
AcDbEntity
  8
2
  6
Continuous
370
    25
100
AcDbLine
 10
18.400000006
 20
35.600000051
 30
0.0
 11
18.211111117
 21
35.600000048
 31
0.0
  0
LINE
  5
14A
330
1D
100
AcDbEntity
  8
2
  6
Continuous
370
    25
100
AcDbLine
 10
18.399999994
 20
36.400000051
 30
0.0
 11
18.211111105
 21
36.400000048
 31
0.0
  0
LINE
  5
14B
330
1D
100
AcDbEntity
  8
2
  6
Continuous
370
    25
100
AcDbLine
 10
50.0
 20
38.000000526
 30
0.0
 11
50.0
 21
6.533121635
 31
0.0
  0
LINE
  5
14C
330
1D
100
AcDbEntity
  8
2
  6
Continuous
370
    25
100
AcDbLine
 10
50.0
 20
36.000000526
 30
0.0
 11
46.500000007
 21
35.550000474
 31
0.0
  0
LINE
  5
14D
330
1D
100
AcDbEntity
  8
2
  6
Continuous
370
    25
100
AcDbLine
 10
46.500000007
 20
35.550000474
 30
0.0
 11
46.499999993
 21
36.450000474
 31
0.0
  0
LINE
  5
14E
330
1D
100
AcDbEntity
  8
2
  6
Continuous
370
    25
100
AcDbLine
 10
46.499999993
 20
36.450000474
 30
0.0
 11
50.0
 21
36.000000526
 31
0.0
  0
LINE
  5
14F
330
1D
100
AcDbEntity
  8
2
  6
Continuous
370
    25
100
AcDbLine
 10
46.6
 20
36.000000475
 30
0.0
 11
49.9
 21
36.000000525
 31
0.0
  0
LINE
  5
150
330
1D
100
AcDbEntity
  8
2
  6
Continuous
370
    25
100
AcDbLine
 10
46.599999997
 20
36.200000475
 30
0.0
 11
48.344444441
 21
36.200000501
 31
0.0
  0
LINE
  5
151
330
1D
100
AcDbEntity
  8
2
  6
Continuous
370
    25
100
AcDbLine
 10
46.600000003
 20
35.800000475
 30
0.0
 11
48.344444447
 21
35.800000501
 31
0.0
  0
LINE
  5
152
330
1D
100
AcDbEntity
  8
2
  6
Continuous
370
    25
100
AcDbLine
 10
46.599999994
 20
36.400000475
 30
0.0
 11
46.788888883
 21
36.400000478
 31
0.0
  0
LINE
  5
153
330
1D
100
AcDbEntity
  8
2
  6
Continuous
370
    25
100
AcDbLine
 10
46.600000006
 20
35.600000475
 30
0.0
 11
46.788888895
 21
35.600000478
 31
0.0
  0
LINE
  5
154
330
1D
100
AcDbEntity
  8
2
  6
Continuous
370
    25
100
AcDbLine
 10
18.5
 20
36.000000053
 30
0.0
 11
46.5
 21
36.000000474
 31
0.0
  0
TEXT
  5
155
330
1D
100
AcDbEntity
  8
2
  6
Continuous
370
    25
100
AcDbText
 10
31.136093336
 20
37.500000243
 30
0.0
 40
3.5
  1
35
 50
0.000000861
  7
BMG_Text
100
AcDbText
  0
LINE
  5
156
330
1D
100
AcDbEntity
  8
1
  6
Continuous
370
    50
100
AcDbLine
 10
38.196152423
 20
13.75
 30
0.0
 11
38.196152423
 21
-13.75
 31
0.0
  0
LINE
  5
157
330
1D
100
AcDbEntity
  8
2
  6
Continuous
370
    25
100
AcDbLine
 10
0.0
 20
-45.999999619
 30
0.0
 11
0.0
 21
-22.225
 31
0.0
  0
LINE
  5
158
330
1D
100
AcDbEntity
  8
2
  6
Continuous
370
    25
100
AcDbLine
 10
0.0
 20
-43.999999619
 30
0.0
 11
3.499999991
 21
-43.549999549
 31
0.0
  0
LINE
  5
159
330
1D
100
AcDbEntity
  8
2
  6
Continuous
370
    25
100
AcDbLine
 10
3.499999991
 20
-43.549999549
 30
0.0
 11
3.500000009
 21
-44.449999549
 31
0.0
  0
LINE
  5
15A
330
1D
100
AcDbEntity
  8
2
  6
Continuous
370
    25
100
AcDbLine
 10
3.500000009
 20
-44.449999549
 30
0.0
 11
0.0
 21
-43.999999619
 31
0.0
  0
LINE
  5
15B
330
1D
100
AcDbEntity
  8
2
  6
Continuous
370
    25
100
AcDbLine
 10
3.4
 20
-43.999999551
 30
0.0
 11
0.1
 21
-43.999999617
 31
0.0
  0
LINE
  5
15C
330
1D
100
AcDbEntity
  8
2
  6
Continuous
370
    25
100
AcDbLine
 10
3.400000004
 20
-44.199999551
 30
0.0
 11
1.65555556
 21
-44.199999585
 31
0.0
  0
LINE
  5
15D
330
1D
100
AcDbEntity
  8
2
  6
Continuous
370
    25
100
AcDbLine
 10
3.399999996
 20
-43.799999551
 30
0.0
 11
1.655555552
 21
-43.799999585
 31
0.0
  0
LINE
  5
15E
330
1D
100
AcDbEntity
  8
2
  6
Continuous
370
    25
100
AcDbLine
 10
3.400000008
 20
-44.399999551
 30
0.0
 11
3.211111119
 21
-44.399999554
 31
0.0
  0
LINE
  5
15F
330
1D
100
AcDbEntity
  8
2
  6
Continuous
370
    25
100
AcDbLine
 10
3.399999992
 20
-43.599999551
 30
0.0
 11
3.211111103
 21
-43.599999554
 31
0.0
  0
LINE
  5
160
330
1D
100
AcDbEntity
  8
2
  6
Continuous
370
    25
100
AcDbLine
 10
50.0
 20
-45.999998619
 30
0.0
 11
50.0
 21
-6.533121635
 31
0.0
  0
LINE
  5
161
330
1D
100
AcDbEntity
  8
2
  6
Continuous
370
    25
100
AcDbLine
 10
50.0
 20
-43.999998619
 30
0.0
 11
46.500000009
 21
-44.449998689
 31
0.0
  0
LINE
  5
162
330
1D
100
AcDbEntity
  8
2
  6
Continuous
370
    25
100
AcDbLine
 10
46.500000009
 20
-44.449998689
 30
0.0
 11
46.499999991
 21
-43.549998689
 31
0.0
  0
LINE
  5
163
330
1D
100
AcDbEntity
  8
2
  6
Continuous
370
    25
100
AcDbLine
 10
46.499999991
 20
-43.549998689
 30
0.0
 11
50.0
 21
-43.999998619
 31
0.0
  0
LINE
  5
164
330
1D
100
AcDbEntity
  8
2
  6
Continuous
370
    25
100
AcDbLine
 10
46.6
 20
-43.999998687
 30
0.0
 11
49.9
 21
-43.999998621
 31
0.0
  0
LINE
  5
165
330
1D
100
AcDbEntity
  8
2
  6
Continuous
370
    25
100
AcDbLine
 10
46.599999996
 20
-43.799998687
 30
0.0
 11
48.34444444
 21
-43.799998652
 31
0.0
  0
LINE
  5
166
330
1D
100
AcDbEntity
  8
2
  6
Continuous
370
    25
100
AcDbLine
 10
46.600000004
 20
-44.199998687
 30
0.0
 11
48.344444448
 21
-44.199998652
 31
0.0
  0
LINE
  5
167
330
1D
100
AcDbEntity
  8
2
  6
Continuous
370
    25
100
AcDbLine
 10
46.599999992
 20
-43.599998687
 30
0.0
 11
46.788888881
 21
-43.599998683
 31
0.0
  0
LINE
  5
168
330
1D
100
AcDbEntity
  8
2
  6
Continuous
370
    25
100
AcDbLine
 10
46.600000008
 20
-44.399998687
 30
0.0
 11
46.788888897
 21
-44.399998683
 31
0.0
  0
LINE
  5
169
330
1D
100
AcDbEntity
  8
2
  6
Continuous
370
    25
100
AcDbLine
 10
3.5
 20
-43.999999549
 30
0.0
 11
46.5
 21
-43.999998689
 31
0.0
  0
TEXT
  5
16A
330
1D
100
AcDbEntity
  8
2
  6
Continuous
370
    25
100
AcDbText
 10
23.444686911
 20
-42.49999915
 30
0.0
 40
3.5
  1
50
 50
0.000001146
  7
BMG_Text
100
AcDbText
  0
LINE
  5
209
330
1D
100
AcDbEntity
  8
NOCUT
  6
ByBlock
100
AcDbLine
 10
0.0
 20
22.225
 30
0.0
 11
0.0
 21
0.0
 31
0.0
  0
LINE
  5
20A
330
1D
100
AcDbEntity
  8
NOCUT
  6
ByBlock
100
AcDbLine
 10
0.0
 20
0.0
 30
0.0
 11
50.00474804029596
 21
0.0
 31
0.0
  0
LINE
  5
20B
330
1D
100
AcDbEntity
  8
NOCUT
  6
ByBlock
100
AcDbLine
 10
50.00474804029596
 20
0.0
 30
0.0
 11
50.0
 21
6.533121635
 31
0.0
  0
ARC
  5
20C
330
1D
100
AcDbEntity
  8
NOCUT
  6
ByBlock
100
AcDbCircle
 10
48.5
 20
6.533121635
 30
0.0
 40
1.5
100
AcDbArc
 50
0.0
 51
60.00000000000001
  0
ARC
  5
20D
330
1D
100
AcDbEntity
  8
NOCUT
  6
ByBlock
100
AcDbCircle
 10
38.19615242299999
 20
10.74999999999998
 30
0.0
 40
3.000000000000016
100
AcDbArc
 50
60.00000000000004
 51
89.99999999999987
  0
ARC
  5
20E
330
1D
100
AcDbEntity
  8
NOCUT
  6
ByBlock
100
AcDbCircle
 10
24.06310319238504
 20
18.78163390476635
 30
0.0
 40
5.031650966158614
100
AcDbArc
 50
184.9210952445471
 51
269.8507928162305
  0
ARC
  5
20F
330
1D
100
AcDbEntity
  8
NOCUT
  6
ByBlock
100
AcDbCircle
 10
12.51436659166849
 20
27.32849875713738
 30
0.0
 40
0.5107516023343859
100
AcDbArc
 50
271.1929349548034
 51
358.7673526188333
  0
ARC
  5
210
330
1D
100
AcDbEntity
  8
NOCUT
  6
ByBlock
100
AcDbCircle
 10
9.687293654958545
 20
27.33009016437504
 30
0.0
 40
0.5123798119515068
100
AcDbArc
 50
178.9492610968966
 51
268.6251563256391
  0
ARC
  5
211
330
1D
100
AcDbEntity
  8
NOCUT
  6
ByBlock
100
AcDbCircle
 10
0.8000000000000114
 20
22.42499999999996
 30
0.0
 40
0.4999999999999595
100
AcDbArc
 50
269.9999999999987
 51
293.5781784780005
  0
ARC
  5
212
330
1D
100
AcDbEntity
  8
NOCUT
  6
ByBlock
100
AcDbCircle
 10
0.5071067810000005
 20
22.425
 30
0.0
 40
0.4999999999999997
100
AcDbArc
 50
224.9999999999999
 51
269.9999999999999
  0
LINE
  5
213
330
1D
100
AcDbEntity
  8
NOCUT
  6
ByBlock
100
AcDbLine
 10
0.0
 20
22.225
 30
0.0
 11
0.1535533904067261
 21
22.07144660940673
 31
0.0
  0
LINE
  5
214
330
1D
100
AcDbEntity
  8
NOCUT
  6
ByBlock
100
AcDbLine
 10
0.5071067809999995
 20
21.925
 30
0.0
 11
0.7999999999999997
 21
21.925
 31
0.0
  0
LINE
  5
215
330
1D
100
AcDbEntity
  8
NOCUT
  6
ByBlock
100
AcDbLine
 10
1.0
 20
30.138752381
 30
0.0
 11
1.5
 21
30.489114045
 31
0.0
  0
LINE
  5
216
330
1D
100
AcDbEntity
  8
NOCUT
  6
ByBlock
100
AcDbLine
 10
1.5
 20
30.489114045
 30
0.0
 11
7.578163358
 21
30.489114045
 31
0.0
  0
LINE
  5
217
330
1D
100
AcDbEntity
  8
NOCUT
  6
ByBlock
100
AcDbLine
 10
7.578163358
 20
30.489114045
 30
0.0
 11
7.966705727
 21
30.016311818
 31
0.0
  0
LINE
  5
218
330
1D
100
AcDbEntity
  8
NOCUT
  6
ByBlock
100
AcDbLine
 10
7.966705727
 20
30.016311818
 30
0.0
 11
9.175
 21
27.843872259
 31
0.0
  0
LINE
  5
219
330
1D
100
AcDbEntity
  8
NOCUT
  6
ByBlock
100
AcDbLine
 10
9.175
 20
27.843872259
 30
0.0
 11
9.175
 21
27.32069427172065
 31
0.0
  0
LINE
  5
21A
330
1D
100
AcDbEntity
  8
NOCUT
  6
ByBlock
100
AcDbLine
 10
9.675
 20
26.817857856
 30
0.0
 11
12.525
 21
26.817857856
 31
0.0
  0
LINE
  5
21B
330
1D
100
AcDbEntity
  8
NOCUT
  6
ByBlock
100
AcDbLine
 10
13.025
 20
27.3175114197488
 30
0.0
 11
13.025
 21
27.843872259
 31
0.0
  0
LINE
  5
21C
330
1D
100
AcDbEntity
  8
NOCUT
  6
ByBlock
100
AcDbLine
 10
13.025
 20
27.843872259
 30
0.0
 11
14.233294273
 21
30.016311818
 31
0.0
  0
LINE
  5
21D
330
1D
100
AcDbEntity
  8
NOCUT
  6
ByBlock
100
AcDbLine
 10
14.233294273
 20
30.016311818
 30
0.0
 11
14.621836642
 21
30.489114045
 31
0.0
  0
LINE
  5
21E
330
1D
100
AcDbEntity
  8
NOCUT
  6
ByBlock
100
AcDbLine
 10
14.621836642
 20
30.489114045
 30
0.0
 11
18.55
 21
30.489114045
 31
0.0
  0
LINE
  5
220
330
1D
100
AcDbEntity
  8
NOCUT
  6
ByBlock
100
AcDbLine
 10
18.55
 20
30.489114045
 30
0.0
 11
19.05
 21
30.138752381
 31
0.0
  0
LINE
  5
221
330
1D
100
AcDbEntity
  8
NOCUT
  6
ByBlock
100
AcDbLine
 10
19.05
 20
30.138752381
 30
0.0
 11
19.06602568224915
 21
18.35
 31
0.0
  0
LINE
  5
222
330
1D
100
AcDbEntity
  8
NOCUT
  6
ByBlock
100
AcDbLine
 10
24.05
 20
13.75
 30
0.0
 11
38.196152423
 21
13.75
 31
0.0
  0
LINE
  5
223
330
1D
100
AcDbEntity
  8
NOCUT
  6
ByBlock
100
AcDbLine
 10
49.25
 20
7.832159741
 30
0.0
 11
39.696152423
 21
13.348076211
 31
0.0
  0
LINE
  5
230
330
1D
100
AcDbEntity
  8
NOCUT
100
AcDbLine
 10
1.0
 20
30.138752381
 30
0.0
 11
1.0
 21
22.105874329
 31
0.0
  0
LWPOLYLINE
  5
271
330
1D
100
AcDbEntity
  8
INFTOTAL
100
AcDbPolyline
 90
        4
 70
     1
 43
0.0
 10
-113.868040156298
 20
61.73817954671559
 10
-113.868040156298
 20
-63.41620006682
 10
120.7222780292625
 20
-63.41620006682
 10
120.7222780292625
 20
61.73817954671559
  0
ENDSEC
  0
SECTION
  2
OBJECTS
  0
DICTIONARY
  5
C
330
0
100
AcDbDictionary
281
     1
  3
ACAD_DETAILVIEWSTYLE
350
26E
  3
ACAD_GROUP
350
D
  3
ACAD_LAYOUT
350
1A
  3
ACAD_MATERIAL
350
1A8
  3
ACAD_MLEADERSTYLE
350
1B5
  3
ACAD_MLINESTYLE
350
17
  3
ACAD_PLOTSETTINGS
350
19
  3
ACAD_PLOTSTYLENAME
350
E
  3
ACAD_SCALELIST
350
171
  3
ACAD_SECTIONVIEWSTYLE
350
26F
  3
ACAD_TABLESTYLE
350
1FE
  3
ACAD_VISUALSTYLE
350
197
  3
ACDB_RECOMPOSE_DATA
350
274
  3
AcDbVariableDictionary
350
1B3
  3
APPDATA
350
201
  0
DICTIONARY
  5
202
330
2
100
AcDbDictionary
280
     1
281
     1
  3
ACAD_LAYERSTATES
360
203
  0
DICTIONARY
  5
26E
102
{ACAD_REACTORS
330
C
102
}
330
C
100
AcDbDictionary
281
     1
  0
DICTIONARY
  5
D
102
{ACAD_REACTORS
330
C
102
}
330
C
100
AcDbDictionary
281
     1
  0
DICTIONARY
  5
1A
102
{ACAD_REACTORS
330
C
102
}
330
C
100
AcDbDictionary
281
     1
  3
Layout1
350
1C
  3
Model
350
1E
  0
DICTIONARY
  5
1A8
102
{ACAD_REACTORS
330
C
102
}
330
C
100
AcDbDictionary
281
     1
  3
ByBlock
350
1AA
  3
ByLayer
350
1A9
  3
Global
350
1AB
  0
DICTIONARY
  5
1B5
102
{ACAD_REACTORS
330
C
102
}
330
C
100
AcDbDictionary
281
     1
  3
Standard
350
200
  0
DICTIONARY
  5
17
102
{ACAD_REACTORS
330
C
102
}
330
C
100
AcDbDictionary
281
     1
  3
Standard
350
18
  0
DICTIONARY
  5
19
102
{ACAD_REACTORS
330
C
102
}
330
C
100
AcDbDictionary
281
     1
  0
ACDBDICTIONARYWDFLT
  5
E
102
{ACAD_REACTORS
330
C
102
}
330
C
100
AcDbDictionary
281
     1
  3
Normal
350
F
100
AcDbDictionaryWithDefault
340
F
  0
DICTIONARY
  5
171
102
{ACAD_REACTORS
330
C
102
}
330
C
100
AcDbDictionary
281
     1
  3
A0
350
172
  3
A1
350
173
  3
A2
350
174
  3
A3
350
175
  3
A4
350
176
  3
A5
350
177
  3
A6
350
178
  3
A7
350
179
  3
A8
350
17A
  3
A9
350
17B
  3
B0
350
17C
  3
B1
350
17D
  3
B2
350
17E
  3
B3
350
17F
  3
B4
350
180
  3
B5
350
181
  3
B6
350
182
  3
B7
350
183
  3
B8
350
184
  3
B9
350
185
  3
C0
350
186
  3
C1
350
187
  3
C2
350
188
  3
C3
350
189
  3
C4
350
18A
  3
C5
350
18B
  3
C6
350
18C
  3
C7
350
18D
  3
C8
350
18E
  3
C9
350
18F
  3
D0
350
190
  3
D1
350
191
  3
D2
350
192
  0
DICTIONARY
  5
26F
102
{ACAD_REACTORS
330
C
102
}
330
C
100
AcDbDictionary
281
     1
  0
DICTIONARY
  5
1FE
102
{ACAD_REACTORS
330
C
102
}
330
C
100
AcDbDictionary
281
     1
  3
Standard
350
1FF
  0
DICTIONARY
  5
197
102
{ACAD_REACTORS
330
C
102
}
330
C
100
AcDbDictionary
281
     1
  3
2dWireframe
350
19C
  3
3D Hidden
350
19E
  3
3dWireframe
350
19D
  3
Basic
350
19F
  3
Brighten
350
1A3
  3
ColorChange
350
1A7
  3
Conceptual
350
1A1
  3
Dim
350
1A2
  3
EdgeColorOff
350
1F8
  3
Facepattern
350
1A6
  3
Flat
350
198
  3
FlatWithEdges
350
199
  3
Gouraud
350
19A
  3
GouraudWithEdges
350
19B
  3
Hidden
350
1F5
  3
JitterOff
350
1F6
  3
Linepattern
350
1A5
  3
OverhangOff
350
1F7
  3
Realistic
350
1A0
  3
Shaded
350
1FD
  3
Shaded with edges
350
1FC
  3
Shades of Gray
350
1F9
  3
Sketchy
350
1FA
  3
Thicken
350
1A4
  3
Wireframe
350
1F4
  3
X-Ray
350
1FB
  0
XRECORD
  5
274
102
{ACAD_REACTORS
330
C
102
}
330
C
100
AcDbXrecord
280
     1
 90
        1
330
1FF
  0
DICTIONARY
  5
1B3
102
{ACAD_REACTORS
330
C
102
}
330
C
100
AcDbDictionary
281
     1
  3
CANNOSCALE
350
26B
  3
CMLEADERSTYLE
350
26D
  3
CTABLESTYLE
350
26C
  3
DIMASSOC
350
1B7
  3
HIDETEXT
350
1B8
  3
MSLTSCALE
350
1B6
  0
DICTIONARY
  5
201
102
{ACAD_REACTORS
330
C
102
}
330
C
100
AcDbDictionary
281
     1
  0
DICTIONARY
  5
203
102
{ACAD_REACTORS
330
202
102
}
330
202
100
AcDbDictionary
281
     1
  0
LAYOUT
  5
1C
102
{ACAD_REACTORS
330
1A
102
}
330
1A
100
AcDbPlotSettings
  1

  2
none_device
  4

  6

 40
0.0
 41
0.0
 42
0.0
 43
0.0
 44
0.0
 45
0.0
 46
0.0
 47
0.0
 48
0.0
 49
0.0
140
0.0
141
0.0
142
1.0
143
1.0
 70
   688
 72
     0
 73
     0
 74
     5
  7

 75
    16
 76
     0
 77
     2
 78
   300
147
1.0
148
0.0
149
0.0
100
AcDbLayout
  1
Layout1
 70
     1
 71
     1
 10
0.0
 20
0.0
 11
12.0
 21
9.0
 12
0.0
 22
0.0
 32
0.0
 14
1.000000000000000E+20
 24
1.000000000000000E+20
 34
1.000000000000000E+20
 15
-1.000000000000000E+20
 25
-1.000000000000000E+20
 35
-1.000000000000000E+20
146
0.0
 13
0.0
 23
0.0
 33
0.0
 16
1.0
 26
0.0
 36
0.0
 17
0.0
 27
1.0
 37
0.0
 76
     0
330
1B
  0
LAYOUT
  5
1E
102
{ACAD_REACTORS
330
1A
102
}
330
1A
100
AcDbPlotSettings
  1

  2
none_device
  4

  6

 40
0.0
 41
0.0
 42
0.0
 43
0.0
 44
0.0
 45
0.0
 46
0.0
 47
0.0
 48
0.0
 49
0.0
140
0.0
141
0.0
142
1.0
143
1.0
 70
  1712
 72
     0
 73
     0
 74
     0
  7

 75
     0
 76
     0
 77
     2
 78
   300
147
1.0
148
0.0
149
0.0
100
AcDbLayout
  1
Model
 70
     1
 71
     0
 10
0.0
 20
0.0
 11
12.0
 21
9.0
 12
0.0
 22
0.0
 32
0.0
 14
-113.868040156298
 24
-63.41620006682
 34
0.0
 15
120.7222780292625
 25
61.73817954671559
 35
0.0
146
0.0
 13
0.0
 23
0.0
 33
0.0
 16
1.0
 26
0.0
 36
0.0
 17
0.0
 27
1.0
 37
0.0
 76
     0
330
1D
331
16B
  0
MATERIAL
  5
1AA
102
{ACAD_REACTORS
330
1A8
102
}
330
1A8
100
AcDbMaterial
  1
ByBlock
 72
     1
 94
      127
  0
MATERIAL
  5
1A9
102
{ACAD_REACTORS
330
1A8
102
}
330
1A8
100
AcDbMaterial
  1
ByLayer
 72
     1
 94
      127
  0
MATERIAL
  5
1AB
102
{ACAD_REACTORS
330
1A8
102
}
330
1A8
100
AcDbMaterial
  1
Global
 72
     1
 94
      127
  0
MLEADERSTYLE
  5
200
102
{ACAD_REACTORS
330
1B5
102
}
330
1B5
100
AcDbMLeaderStyle
179
     2
170
     2
171
     1
172
     0
 90
        2
 40
0.0
 41
0.0
173
     1
 91
-1056964608
340
14
 92
       -2
290
     1
 42
0.09
291
     1
 43
0.36
  3
Standard
341
0
 44
0.18
300

342
11
174
     1
178
     1
175
     1
176
     0
 93
-1056964608
 45
0.18
292
     0
297
     0
 46
0.18
343
0
 94
-1056964608
 47
1.0
 49
1.0
140
1.0
293
     1
141
0.0
294
     1
177
     0
142
1.0
295
     0
296
     0
143
0.125
271
     0
272
     9
273
     9
298
     0
  0
MLINESTYLE
  5
18
102
{ACAD_REACTORS
330
17
102
}
330
17
100
AcDbMlineStyle
  2
Standard
 70
     0
  3

 62
   256
 51
90.0
 52
90.0
 71
     2
 49
0.5
 62
   256
  6
BYLAYER
 49
-0.5
 62
   256
  6
BYLAYER
  0
ACDBPLACEHOLDER
  5
F
102
{ACAD_REACTORS
330
E
102
}
330
E
  0
SCALE
  5
172
102
{ACAD_REACTORS
330
171
102
}
330
171
100
AcDbScale
 70
     0
300
1:1
140
1.0
141
1.0
290
     1
  0
SCALE
  5
173
102
{ACAD_REACTORS
330
171
102
}
330
171
100
AcDbScale
 70
     0
300
1:2
140
1.0
141
2.0
290
     0
  0
SCALE
  5
174
102
{ACAD_REACTORS
330
171
102
}
330
171
100
AcDbScale
 70
     0
300
1:4
140
1.0
141
4.0
290
     0
  0
SCALE
  5
175
102
{ACAD_REACTORS
330
171
102
}
330
171
100
AcDbScale
 70
     0
300
1:5
140
1.0
141
5.0
290
     0
  0
SCALE
  5
176
102
{ACAD_REACTORS
330
171
102
}
330
171
100
AcDbScale
 70
     0
300
1:8
140
1.0
141
8.0
290
     0
  0
SCALE
  5
177
102
{ACAD_REACTORS
330
171
102
}
330
171
100
AcDbScale
 70
     0
300
1:10
140
1.0
141
10.0
290
     0
  0
SCALE
  5
178
102
{ACAD_REACTORS
330
171
102
}
330
171
100
AcDbScale
 70
     0
300
1:16
140
1.0
141
16.0
290
     0
  0
SCALE
  5
179
102
{ACAD_REACTORS
330
171
102
}
330
171
100
AcDbScale
 70
     0
300
1:20
140
1.0
141
20.0
290
     0
  0
SCALE
  5
17A
102
{ACAD_REACTORS
330
171
102
}
330
171
100
AcDbScale
 70
     0
300
1:30
140
1.0
141
30.0
290
     0
  0
SCALE
  5
17B
102
{ACAD_REACTORS
330
171
102
}
330
171
100
AcDbScale
 70
     0
300
1:40
140
1.0
141
40.0
290
     0
  0
SCALE
  5
17C
102
{ACAD_REACTORS
330
171
102
}
330
171
100
AcDbScale
 70
     0
300
1:50
140
1.0
141
50.0
290
     0
  0
SCALE
  5
17D
102
{ACAD_REACTORS
330
171
102
}
330
171
100
AcDbScale
 70
     0
300
1:100
140
1.0
141
100.0
290
     0
  0
SCALE
  5
17E
102
{ACAD_REACTORS
330
171
102
}
330
171
100
AcDbScale
 70
     0
300
2:1
140
2.0
141
1.0
290
     0
  0
SCALE
  5
17F
102
{ACAD_REACTORS
330
171
102
}
330
171
100
AcDbScale
 70
     0
300
4:1
140
4.0
141
1.0
290
     0
  0
SCALE
  5
180
102
{ACAD_REACTORS
330
171
102
}
330
171
100
AcDbScale
 70
     0
300
8:1
140
8.0
141
1.0
290
     0
  0
SCALE
  5
181
102
{ACAD_REACTORS
330
171
102
}
330
171
100
AcDbScale
 70
     0
300
10:1
140
10.0
141
1.0
290
     0
  0
SCALE
  5
182
102
{ACAD_REACTORS
330
171
102
}
330
171
100
AcDbScale
 70
     0
300
100:1
140
100.0
141
1.0
290
     0
  0
SCALE
  5
183
102
{ACAD_REACTORS
330
171
102
}
330
171
100
AcDbScale
 70
     0
300
1/128" = 1'-0"
140
0.0078125
141
12.0
290
     0
  0
SCALE
  5
184
102
{ACAD_REACTORS
330
171
102
}
330
171
100
AcDbScale
 70
     0
300
1/64" = 1'-0"
140
0.015625
141
12.0
290
     0
  0
SCALE
  5
185
102
{ACAD_REACTORS
330
171
102
}
330
171
100
AcDbScale
 70
     0
300
1/32" = 1'-0"
140
0.03125
141
12.0
290
     0
  0
SCALE
  5
186
102
{ACAD_REACTORS
330
171
102
}
330
171
100
AcDbScale
 70
     0
300
1/16" = 1'-0"
140
0.0625
141
12.0
290
     0
  0
SCALE
  5
187
102
{ACAD_REACTORS
330
171
102
}
330
171
100
AcDbScale
 70
     0
300
3/32" = 1'-0"
140
0.09375
141
12.0
290
     0
  0
SCALE
  5
188
102
{ACAD_REACTORS
330
171
102
}
330
171
100
AcDbScale
 70
     0
300
1/8" = 1'-0"
140
0.125
141
12.0
290
     0
  0
SCALE
  5
189
102
{ACAD_REACTORS
330
171
102
}
330
171
100
AcDbScale
 70
     0
300
3/16" = 1'-0"
140
0.1875
141
12.0
290
     0
  0
SCALE
  5
18A
102
{ACAD_REACTORS
330
171
102
}
330
171
100
AcDbScale
 70
     0
300
1/4" = 1'-0"
140
0.25
141
12.0
290
     0
  0
SCALE
  5
18B
102
{ACAD_REACTORS
330
171
102
}
330
171
100
AcDbScale
 70
     0
300
3/8" = 1'-0"
140
0.375
141
12.0
290
     0
  0
SCALE
  5
18C
102
{ACAD_REACTORS
330
171
102
}
330
171
100
AcDbScale
 70
     0
300
1/2" = 1'-0"
140
0.5
141
12.0
290
     0
  0
SCALE
  5
18D
102
{ACAD_REACTORS
330
171
102
}
330
171
100
AcDbScale
 70
     0
300
3/4" = 1'-0"
140
0.75
141
12.0
290
     0
  0
SCALE
  5
18E
102
{ACAD_REACTORS
330
171
102
}
330
171
100
AcDbScale
 70
     0
300
1" = 1'-0"
140
1.0
141
12.0
290
     0
  0
SCALE
  5
18F
102
{ACAD_REACTORS
330
171
102
}
330
171
100
AcDbScale
 70
     0
300
1-1/2" = 1'-0"
140
1.5
141
12.0
290
     0
  0
SCALE
  5
190
102
{ACAD_REACTORS
330
171
102
}
330
171
100
AcDbScale
 70
     0
300
3" = 1'-0"
140
3.0
141
12.0
290
     0
  0
SCALE
  5
191
102
{ACAD_REACTORS
330
171
102
}
330
171
100
AcDbScale
 70
     0
300
6" = 1'-0"
140
6.0
141
12.0
290
     0
  0
SCALE
  5
192
102
{ACAD_REACTORS
330
171
102
}
330
171
100
AcDbScale
 70
     0
300
1'-0" = 1'-0"
140
12.0
141
12.0
290
     0
  0
TABLESTYLE
  5
1FF
102
{ACAD_REACTORS
330
1FE
102
}
102
{ACAD_XDICTIONARY
360
272
102
}
330
1FE
100
AcDbTableStyle
  3
Standard
 70
     0
 71
     0
 40
0.06
 41
0.06
280
     0
281
     0
  7
Standard
140
0.18
170
     2
 62
     0
 63
   257
283
     0
 90
        4
 91
        0
  1

274
    -2
284
     1
 64
     0
275
    -2
285
     1
 65
     0
276
    -2
286
     1
 66
     0
277
    -2
287
     1
 67
     0
278
    -2
288
     1
 68
     0
279
    -2
289
     1
 69
     0
  7
Standard
140
0.25
170
     5
 62
     0
 63
   257
283
     0
 90
        4
 91
        0
  1

274
    -2
284
     1
 64
     0
275
    -2
285
     1
 65
     0
276
    -2
286
     1
 66
     0
277
    -2
287
     1
 67
     0
278
    -2
288
     1
 68
     0
279
    -2
289
     1
 69
     0
  7
Standard
140
0.18
170
     5
 62
     0
 63
   257
283
     0
 90
        4
 91
        0
  1

274
    -2
284
     1
 64
     0
275
    -2
285
     1
 65
     0
276
    -2
286
     1
 66
     0
277
    -2
287
     1
 67
     0
278
    -2
288
     1
 68
     0
279
    -2
289
     1
 69
     0
  0
VISUALSTYLE
  5
19C
102
{ACAD_REACTORS
330
197
102
}
330
197
100
AcDbVisualStyle
  2
2dWireframe
 70
     4
177
     3
291
     0
 70
    58
 90
        0
176
     1
 90
        2
176
     1
 90
        0
176
     1
 90
        0
176
     1
 40
-0.6
176
     1
 40
-30.0
176
     1
 62
     7
176
     1
 90
        1
176
     1
 90
        4
176
     1
 62
     7
176
     1
 62
   257
176
     1
 90
        1
176
     1
 90
        1
176
     1
 40
1.0
176
     1
 90
        0
176
     1
 62
   257
176
     1
 40
1.0
176
     1
 90
        1
176
     1
 90
        6
176
     1
 90
        2
176
     1
 62
     7
176
     1
 90
        5
176
     1
 90
        0
176
     1
 90
        0
176
     1
290
     0
176
     1
 90
        1
176
     1
 40
0.0
176
     1
 90
        0
176
     1
290
     1
176
     1
290
     1
176
     1
290
     0
176
     1
290
     0
176
     1
290
     0
176
     1
290
     0
176
     1
290
     0
176
     1
290
     0
176
     1
290
     0
176
     1
 90
       50
176
     1
 40
0.0
176
     1
 40
1.0
176
     1
 90
        0
176
     1
 62
    18
420
        0
176
     1
 90
       50
176
     1
 90
        3
176
     1
 62
     5
420
      255
176
     1
290
     0
176
     1
 90
       50
176
     1
 90
       50
176
     1
 90
       50
176
     1
290
     0
176
     1
 90
       50
176
     1
 62
   256
176
     0
 40
1.0
176
     0
 90
        2
176
     1
  1
strokes_ogs.tif
176
     1
290
     0
176
     1
 40
1.0
176
     1
 40
1.0
176
     1
  0
VISUALSTYLE
  5
19E
102
{ACAD_REACTORS
330
197
102
}
330
197
100
AcDbVisualStyle
  2
3D Hidden
 70
     6
177
     3
291
     0
 70
    58
 90
        1
176
     1
 90
        2
176
     1
 90
        2
176
     1
 90
        0
176
     1
 40
-0.6
176
     1
 40
-30.0
176
     1
 62
     7
176
     1
 90
        2
176
     1
 90
        2
176
     1
 62
     7
176
     1
 62
   257
176
     1
 90
        2
176
     1
 90
        1
176
     1
 40
40.0
176
     1
 90
        0
176
     1
 62
   257
176
     1
 40
1.0
176
     1
 90
        1
176
     1
 90
        6
176
     1
 90
        2
176
     1
 62
     7
176
     1
 90
        3
176
     1
 90
        0
176
     1
 90
        0
176
     1
290
     0
176
     1
 90
        1
176
     1
 40
0.0
176
     1
 90
        0
176
     1
290
     0
176
     1
290
     1
176
     1
290
     1
176
     1
290
     0
176
     1
290
     0
176
     1
290
     0
176
     1
290
     0
176
     1
290
     0
176
     1
290
     0
176
     1
 90
       50
176
     1
 40
0.0
176
     1
 40
1.0
176
     1
 90
        0
176
     1
 62
    18
420
        0
176
     1
 90
       50
176
     1
 90
        3
176
     1
 62
     5
420
      255
176
     1
290
     0
176
     1
 90
       50
176
     1
 90
       50
176
     1
 90
       50
176
     1
290
     0
176
     1
 90
       50
176
     1
 62
   256
176
     0
 40
1.0
176
     0
 90
        2
176
     1
  1
strokes_ogs.tif
176
     1
290
     0
176
     1
 40
1.0
176
     1
 40
1.0
176
     1
  0
VISUALSTYLE
  5
19D
102
{ACAD_REACTORS
330
197
102
}
330
197
100
AcDbVisualStyle
  2
3dWireframe
 70
     5
177
     3
291
     0
 70
    58
 90
        0
176
     1
 90
        2
176
     1
 90
        0
176
     1
 90
        0
176
     1
 40
-0.6
176
     1
 40
-30.0
176
     1
 62
     7
176
     1
 90
        1
176
     1
 90
        4
176
     1
 62
     7
176
     1
 62
   257
176
     1
 90
        1
176
     1
 90
        1
176
     1
 40
1.0
176
     1
 90
        0
176
     1
 62
   257
176
     1
 40
1.0
176
     1
 90
        1
176
     1
 90
        6
176
     1
 90
        2
176
     1
 62
     7
176
     1
 90
        5
176
     1
 90
        0
176
     1
 90
        0
176
     1
290
     0
176
     1
 90
        1
176
     1
 40
0.0
176
     1
 90
        0
176
     1
290
     0
176
     1
290
     1
176
     1
290
     1
176
     1
290
     0
176
     1
290
     0
176
     1
290
     0
176
     1
290
     0
176
     1
290
     0
176
     1
290
     0
176
     1
 90
       50
176
     1
 40
0.0
176
     1
 40
1.0
176
     1
 90
        0
176
     1
 62
    18
420
        0
176
     1
 90
       50
176
     1
 90
        3
176
     1
 62
     5
420
      255
176
     1
290
     0
176
     1
 90
       50
176
     1
 90
       50
176
     1
 90
       50
176
     1
290
     0
176
     1
 90
       50
176
     1
 62
   256
176
     0
 40
1.0
176
     0
 90
        2
176
     1
  1
strokes_ogs.tif
176
     1
290
     0
176
     1
 40
1.0
176
     1
 40
1.0
176
     1
  0
VISUALSTYLE
  5
19F
102
{ACAD_REACTORS
330
197
102
}
330
197
100
AcDbVisualStyle
  2
Basic
 70
     7
177
     3
291
     1
 70
    58
 90
        1
176
     1
 90
        0
176
     1
 90
        1
176
     1
 90
        0
176
     1
 40
-0.6
176
     1
 40
-30.0
176
     1
 62
     7
176
     1
 90
        0
176
     1
 90
        4
176
     1
 62
     7
176
     1
 62
   257
176
     1
 90
        1
176
     1
 90
        1
176
     1
 40
1.0
176
     1
 90
        8
176
     1
 62
     7
176
     1
 40
1.0
176
     1
 90
        1
176
     1
 90
        6
176
     1
 90
        2
176
     1
 62
     7
176
     1
 90
        5
176
     1
 90
        0
176
     1
 90
        0
176
     1
290
     0
176
     1
 90
        1
176
     1
 40
0.0
176
     1
 90
        0
176
     1
290
     0
176
     1
290
     1
176
     1
290
     1
176
     1
290
     0
176
     1
290
     0
176
     1
290
     0
176
     1
290
     0
176
     1
290
     0
176
     1
290
     0
176
     1
 90
       50
176
     1
 40
0.0
176
     1
 40
1.0
176
     1
 90
        0
176
     1
 62
    18
420
        0
176
     1
 90
       50
176
     1
 90
        3
176
     1
 62
     5
420
      255
176
     1
290
     0
176
     1
 90
       50
176
     1
 90
       50
176
     1
 90
       50
176
     1
290
     0
176
     1
 90
       50
176
     1
 62
   256
176
     0
 40
1.0
176
     0
 90
        2
176
     1
  1
strokes_ogs.tif
176
     1
290
     0
176
     1
 40
1.0
176
     1
 40
1.0
176
     1
  0
VISUALSTYLE
  5
1A3
102
{ACAD_REACTORS
330
197
102
}
330
197
100
AcDbVisualStyle
  2
Brighten
 70
    12
177
     3
291
     1
 70
    58
 90
        2
176
     1
 90
        2
176
     1
 90
        0
176
     1
 90
        0
176
     1
 40
-0.6
176
     1
 40
-30.0
176
     1
 62
     7
176
     1
 90
        1
176
     1
 90
        4
176
     1
 62
     7
176
     1
 62
   257
176
     1
 90
        1
176
     1
 90
        1
176
     1
 40
1.0
176
     1
 90
        8
176
     1
 62
     7
176
     1
 40
1.0
176
     1
 90
        1
176
     1
 90
        6
176
     1
 90
        2
176
     1
 62
     7
176
     1
 90
        5
176
     1
 90
        0
176
     1
 90
        0
176
     1
290
     0
176
     1
 90
        1
176
     1
 40
50.0
176
     1
 90
        0
176
     1
290
     0
176
     1
290
     1
176
     1
290
     1
176
     1
290
     0
176
     1
290
     0
176
     1
290
     0
176
     1
290
     0
176
     1
290
     0
176
     1
290
     0
176
     1
 90
       50
176
     1
 40
0.0
176
     1
 40
1.0
176
     1
 90
        0
176
     1
 62
    18
420
        0
176
     1
 90
       50
176
     1
 90
        3
176
     1
 62
     5
420
      255
176
     1
290
     0
176
     1
 90
       50
176
     1
 90
       50
176
     1
 90
       50
176
     1
290
     0
176
     1
 90
       50
176
     1
 62
   256
176
     0
 40
1.0
176
     0
 90
        2
176
     1
  1
strokes_ogs.tif
176
     1
290
     0
176
     1
 40
1.0
176
     1
 40
1.0
176
     1
  0
VISUALSTYLE
  5
1A7
102
{ACAD_REACTORS
330
197
102
}
330
197
100
AcDbVisualStyle
  2
ColorChange
 70
    16
177
     3
291
     1
 70
    58
 90
        2
176
     1
 90
        2
176
     1
 90
        3
176
     1
 90
        0
176
     1
 40
-0.6
176
     1
 40
-30.0
176
     1
 62
     8
176
     1
 90
        1
176
     1
 90
        4
176
     1
 62
     7
176
     1
 62
   257
176
     1
 90
        1
176
     1
 90
        1
176
     1
 40
1.0
176
     1
 90
        8
176
     1
 62
     8
176
     1
 40
1.0
176
     1
 90
        1
176
     1
 90
        6
176
     1
 90
        2
176
     1
 62
     7
176
     1
 90
        5
176
     1
 90
        0
176
     1
 90
        0
176
     1
290
     0
176
     1
 90
        1
176
     1
 40
0.0
176
     1
 90
        0
176
     1
290
     0
176
     1
290
     1
176
     1
290
     1
176
     1
290
     0
176
     1
290
     0
176
     1
290
     0
176
     1
290
     0
176
     1
290
     0
176
     1
290
     0
176
     1
 90
       50
176
     1
 40
0.0
176
     1
 40
1.0
176
     1
 90
        0
176
     1
 62
    18
420
        0
176
     1
 90
       50
176
     1
 90
        3
176
     1
 62
     5
420
      255
176
     1
290
     0
176
     1
 90
       50
176
     1
 90
       50
176
     1
 90
       50
176
     1
290
     0
176
     1
 90
       50
176
     1
 62
   256
176
     0
 40
1.0
176
     0
 90
        2
176
     1
  1
strokes_ogs.tif
176
     1
290
     0
176
     1
 40
1.0
176
     1
 40
1.0
176
     1
  0
VISUALSTYLE
  5
1A1
102
{ACAD_REACTORS
330
197
102
}
330
197
100
AcDbVisualStyle
  2
Conceptual
 70
     9
177
     3
291
     0
 70
    58
 90
        3
176
     1
 90
        2
176
     1
 90
        0
176
     1
 90
        0
176
     1
 40
-0.6
176
     1
 40
-30.0
176
     1
 62
     7
176
     1
 90
        2
176
     1
 90
        2
176
     1
 62
     7
176
     1
 62
   257
176
     1
 90
        1
176
     1
 90
        1
176
     1
 40
40.0
176
     1
 90
        8
176
     1
 62
     7
176
     1
 40
1.0
176
     1
 90
        1
176
     1
 90
        6
176
     1
 90
        2
176
     1
 62
     7
176
     1
 90
        3
176
     1
 90
        0
176
     1
 90
        0
176
     1
290
     0
176
     1
 90
        1
176
     1
 40
0.0
176
     1
 90
        0
176
     1
290
     0
176
     1
290
     1
176
     1
290
     1
176
     1
290
     0
176
     1
290
     0
176
     1
290
     0
176
     1
290
     0
176
     1
290
     0
176
     1
290
     0
176
     1
 90
       50
176
     1
 40
0.0
176
     1
 40
1.0
176
     1
 90
        0
176
     1
 62
    18
420
        0
176
     1
 90
       50
176
     1
 90
        3
176
     1
 62
     5
420
      255
176
     1
290
     0
176
     1
 90
       50
176
     1
 90
       50
176
     1
 90
       50
176
     1
290
     0
176
     1
 90
       50
176
     1
 62
   256
176
     0
 40
1.0
176
     0
 90
        2
176
     1
  1
strokes_ogs.tif
176
     1
290
     0
176
     1
 40
1.0
176
     1
 40
1.0
176
     1
  0
VISUALSTYLE
  5
1A2
102
{ACAD_REACTORS
330
197
102
}
330
197
100
AcDbVisualStyle
  2
Dim
 70
    11
177
     3
291
     1
 70
    58
 90
        2
176
     1
 90
        2
176
     1
 90
        0
176
     1
 90
        0
176
     1
 40
-0.6
176
     1
 40
-30.0
176
     1
 62
     7
176
     1
 90
        1
176
     1
 90
        4
176
     1
 62
     7
176
     1
 62
   257
176
     1
 90
        1
176
     1
 90
        1
176
     1
 40
1.0
176
     1
 90
        8
176
     1
 62
     7
176
     1
 40
1.0
176
     1
 90
        1
176
     1
 90
        6
176
     1
 90
        2
176
     1
 62
     7
176
     1
 90
        5
176
     1
 90
        0
176
     1
 90
        0
176
     1
290
     0
176
     1
 90
        1
176
     1
 40
-50.0
176
     1
 90
        0
176
     1
290
     0
176
     1
290
     1
176
     1
290
     1
176
     1
290
     0
176
     1
290
     0
176
     1
290
     0
176
     1
290
     0
176
     1
290
     0
176
     1
290
     0
176
     1
 90
       50
176
     1
 40
0.0
176
     1
 40
1.0
176
     1
 90
        0
176
     1
 62
    18
420
        0
176
     1
 90
       50
176
     1
 90
        3
176
     1
 62
     5
420
      255
176
     1
290
     0
176
     1
 90
       50
176
     1
 90
       50
176
     1
 90
       50
176
     1
290
     0
176
     1
 90
       50
176
     1
 62
   256
176
     0
 40
1.0
176
     0
 90
        2
176
     1
  1
strokes_ogs.tif
176
     1
290
     0
176
     1
 40
1.0
176
     1
 40
1.0
176
     1
  0
VISUALSTYLE
  5
1F8
102
{ACAD_REACTORS
330
197
102
}
330
197
100
AcDbVisualStyle
  2
EdgeColorOff
 70
    22
177
     3
291
     1
 70
    58
 90
        2
176
     0
 90
        2
176
     0
 90
        0
176
     0
 90
        0
176
     0
 40
0.6
176
     0
 40
30.0
176
     0
 62
     7
420
 16777215
176
     0
 90
        1
176
     0
 90
        4
176
     0
 62
     7
176
     0
 62
   257
176
     0
 90
        1
176
     0
 90
        1
176
     0
 40
1.0
176
     0
 90
        8
176
     2
 62
     7
176
     0
 40
1.0
176
     0
 90
        1
176
     0
 90
        6
176
     0
 90
        2
176
     0
 62
     7
176
     0
 90
        5
176
     0
 90
        0
176
     0
 90
        0
176
     0
290
     0
176
     0
 90
        1
176
     0
 40
0.0
176
     0
 90
        0
176
     0
290
     0
176
     0
290
     1
176
     0
290
     1
176
     0
290
     0
176
     0
290
     0
176
     0
290
     0
176
     0
290
     0
176
     0
290
     0
176
     0
290
     0
176
     0
 90
       50
176
     0
 40
0.0
176
     0
 40
1.0
176
     0
 90
        0
176
     0
 62
    18
420
        0
176
     0
 90
       50
176
     0
 90
        3
176
     0
 62
     5
420
      255
176
     0
290
     0
176
     0
 90
       50
176
     0
 90
       50
176
     0
 90
       50
176
     0
290
     0
176
     0
 90
       50
176
     0
 62
   256
176
     0
 40
1.0
176
     0
 90
        2
176
     0
  1
strokes_ogs.tif
176
     0
290
     0
176
     0
 40
1.0
176
     0
 40
1.0
176
     0
  0
VISUALSTYLE
  5
1A6
102
{ACAD_REACTORS
330
197
102
}
330
197
100
AcDbVisualStyle
  2
Facepattern
 70
    15
177
     3
291
     1
 70
    58
 90
        2
176
     1
 90
        2
176
     1
 90
        0
176
     1
 90
        0
176
     1
 40
-0.6
176
     1
 40
-30.0
176
     1
 62
     7
176
     1
 90
        1
176
     1
 90
        4
176
     1
 62
     7
176
     1
 62
   257
176
     1
 90
        1
176
     1
 90
        1
176
     1
 40
1.0
176
     1
 90
        8
176
     1
 62
     7
176
     1
 40
1.0
176
     1
 90
        1
176
     1
 90
        6
176
     1
 90
        2
176
     1
 62
     7
176
     1
 90
        5
176
     1
 90
        0
176
     1
 90
        0
176
     1
290
     0
176
     1
 90
        1
176
     1
 40
0.0
176
     1
 90
        0
176
     1
290
     0
176
     1
290
     1
176
     1
290
     1
176
     1
290
     0
176
     1
290
     0
176
     1
290
     0
176
     1
290
     0
176
     1
290
     0
176
     1
290
     0
176
     1
 90
       50
176
     1
 40
0.0
176
     1
 40
1.0
176
     1
 90
        0
176
     1
 62
    18
420
        0
176
     1
 90
       50
176
     1
 90
        3
176
     1
 62
     5
420
      255
176
     1
290
     0
176
     1
 90
       50
176
     1
 90
       50
176
     1
 90
       50
176
     1
290
     0
176
     1
 90
       50
176
     1
 62
   256
176
     0
 40
1.0
176
     0
 90
        2
176
     1
  1
strokes_ogs.tif
176
     1
290
     0
176
     1
 40
1.0
176
     1
 40
1.0
176
     1
  0
VISUALSTYLE
  5
198
102
{ACAD_REACTORS
330
197
102
}
330
197
100
AcDbVisualStyle
  2
Flat
 70
     0
177
     3
291
     1
 70
    58
 90
        2
176
     1
 90
        1
176
     1
 90
        1
176
     1
 90
        2
176
     1
 40
-0.6
176
     1
 40
30.0
176
     1
 62
     7
176
     1
 90
        0
176
     1
 90
        4
176
     1
 62
     7
176
     1
 62
   257
176
     1
 90
        1
176
     1
 90
        1
176
     1
 40
1.0
176
     1
 90
        8
176
     1
 62
     7
176
     1
 40
1.0
176
     1
 90
        1
176
     1
 90
        6
176
     1
 90
        2
176
     1
 62
     7
176
     1
 90
        5
176
     1
 90
        0
176
     1
 90
        0
176
     1
290
     0
176
     1
 90
       13
176
     1
 40
0.0
176
     1
 90
        0
176
     1
290
     0
176
     1
290
     1
176
     1
290
     1
176
     1
290
     0
176
     1
290
     0
176
     1
290
     0
176
     1
290
     0
176
     1
290
     0
176
     1
290
     0
176
     1
 90
       50
176
     1
 40
0.0
176
     1
 40
1.0
176
     1
 90
        0
176
     1
 62
    18
420
        0
176
     1
 90
       50
176
     1
 90
        3
176
     1
 62
     5
420
      255
176
     1
290
     0
176
     1
 90
       50
176
     1
 90
       50
176
     1
 90
       50
176
     1
290
     0
176
     1
 90
       50
176
     1
 62
   256
176
     0
 40
1.0
176
     0
 90
        2
176
     1
  1
strokes_ogs.tif
176
     1
290
     0
176
     1
 40
1.0
176
     1
 40
1.0
176
     1
  0
VISUALSTYLE
  5
199
102
{ACAD_REACTORS
330
197
102
}
330
197
100
AcDbVisualStyle
  2
FlatWithEdges
 70
     1
177
     3
291
     1
 70
    58
 90
        2
176
     1
 90
        1
176
     1
 90
        1
176
     1
 90
        2
176
     1
 40
-0.6
176
     1
 40
30.0
176
     1
 62
     7
176
     1
 90
        1
176
     1
 90
        4
176
     1
 62
     7
176
     1
 62
   257
176
     1
 90
        1
176
     1
 90
        1
176
     1
 40
1.0
176
     1
 90
        0
176
     1
 62
   257
176
     1
 40
1.0
176
     1
 90
        1
176
     1
 90
        6
176
     1
 90
        2
176
     1
 62
     7
176
     1
 90
        5
176
     1
 90
        0
176
     1
 90
        0
176
     1
290
     0
176
     1
 90
       13
176
     1
 40
0.0
176
     1
 90
        0
176
     1
290
     0
176
     1
290
     1
176
     1
290
     1
176
     1
290
     0
176
     1
290
     0
176
     1
290
     0
176
     1
290
     0
176
     1
290
     0
176
     1
290
     0
176
     1
 90
       50
176
     1
 40
0.0
176
     1
 40
1.0
176
     1
 90
        0
176
     1
 62
    18
420
        0
176
     1
 90
       50
176
     1
 90
        3
176
     1
 62
     5
420
      255
176
     1
290
     0
176
     1
 90
       50
176
     1
 90
       50
176
     1
 90
       50
176
     1
290
     0
176
     1
 90
       50
176
     1
 62
   256
176
     0
 40
1.0
176
     0
 90
        2
176
     1
  1
strokes_ogs.tif
176
     1
290
     0
176
     1
 40
1.0
176
     1
 40
1.0
176
     1
  0
VISUALSTYLE
  5
19A
102
{ACAD_REACTORS
330
197
102
}
330
197
100
AcDbVisualStyle
  2
Gouraud
 70
     2
177
     3
291
     1
 70
    58
 90
        2
176
     1
 90
        2
176
     1
 90
        1
176
     1
 90
        2
176
     1
 40
-0.6
176
     1
 40
30.0
176
     1
 62
     7
176
     1
 90
        0
176
     1
 90
        4
176
     1
 62
     7
176
     1
 62
   257
176
     1
 90
        1
176
     1
 90
        1
176
     1
 40
1.0
176
     1
 90
        0
176
     1
 62
     7
176
     1
 40
1.0
176
     1
 90
        1
176
     1
 90
        6
176
     1
 90
        2
176
     1
 62
     7
176
     1
 90
        5
176
     1
 90
        0
176
     1
 90
        0
176
     1
290
     0
176
     1
 90
       13
176
     1
 40
0.0
176
     1
 90
        0
176
     1
290
     0
176
     1
290
     1
176
     1
290
     1
176
     1
290
     0
176
     1
290
     0
176
     1
290
     0
176
     1
290
     0
176
     1
290
     0
176
     1
290
     0
176
     1
 90
       50
176
     1
 40
0.0
176
     1
 40
1.0
176
     1
 90
        0
176
     1
 62
    18
420
        0
176
     1
 90
       50
176
     1
 90
        3
176
     1
 62
     5
420
      255
176
     1
290
     0
176
     1
 90
       50
176
     1
 90
       50
176
     1
 90
       50
176
     1
290
     0
176
     1
 90
       50
176
     1
 62
   256
176
     0
 40
1.0
176
     0
 90
        2
176
     1
  1
strokes_ogs.tif
176
     1
290
     0
176
     1
 40
1.0
176
     1
 40
1.0
176
     1
  0
VISUALSTYLE
  5
19B
102
{ACAD_REACTORS
330
197
102
}
330
197
100
AcDbVisualStyle
  2
GouraudWithEdges
 70
     3
177
     3
291
     1
 70
    58
 90
        2
176
     1
 90
        2
176
     1
 90
        1
176
     1
 90
        2
176
     1
 40
-0.6
176
     1
 40
30.0
176
     1
 62
     7
176
     1
 90
        1
176
     1
 90
        4
176
     1
 62
     7
176
     1
 62
   257
176
     1
 90
        1
176
     1
 90
        1
176
     1
 40
1.0
176
     1
 90
        0
176
     1
 62
   257
176
     1
 40
1.0
176
     1
 90
        1
176
     1
 90
        6
176
     1
 90
        2
176
     1
 62
     7
176
     1
 90
        5
176
     1
 90
        0
176
     1
 90
        0
176
     1
290
     0
176
     1
 90
       13
176
     1
 40
0.0
176
     1
 90
        0
176
     1
290
     0
176
     1
290
     1
176
     1
290
     1
176
     1
290
     0
176
     1
290
     0
176
     1
290
     0
176
     1
290
     0
176
     1
290
     0
176
     1
290
     0
176
     1
 90
       50
176
     1
 40
0.0
176
     1
 40
1.0
176
     1
 90
        0
176
     1
 62
    18
420
        0
176
     1
 90
       50
176
     1
 90
        3
176
     1
 62
     5
420
      255
176
     1
290
     0
176
     1
 90
       50
176
     1
 90
       50
176
     1
 90
       50
176
     1
290
     0
176
     1
 90
       50
176
     1
 62
   256
176
     0
 40
1.0
176
     0
 90
        2
176
     1
  1
strokes_ogs.tif
176
     1
290
     0
176
     1
 40
1.0
176
     1
 40
1.0
176
     1
  0
VISUALSTYLE
  5
1F5
102
{ACAD_REACTORS
330
197
102
}
330
197
100
AcDbVisualStyle
  2
Hidden
 70
     6
177
     3
291
     0
 70
    58
 90
        1
176
     1
 90
        2
176
     1
 90
        2
176
     1
 90
        0
176
     1
 40
0.6
176
     1
 40
30.0
176
     1
 62
     7
420
 16777215
176
     1
 90
        2
176
     1
 90
        2
176
     1
 62
     7
176
     1
 62
   257
176
     1
 90
        2
176
     1
 90
        1
176
     1
 40
40.0
176
     1
 90
        0
176
     1
 62
   257
176
     1
 40
1.0
176
     1
 90
        1
176
     1
 90
        6
176
     1
 90
        2
176
     1
 62
     7
176
     1
 90
        3
176
     1
 90
        0
176
     1
 90
        0
176
     1
290
     0
176
     1
 90
        1
176
     1
 40
0.0
176
     1
 90
        0
176
     1
290
     0
176
     1
290
     1
176
     1
290
     1
176
     1
290
     0
176
     1
290
     0
176
     1
290
     0
176
     1
290
     0
176
     1
290
     0
176
     1
290
     0
176
     1
 90
       50
176
     1
 40
0.0
176
     1
 40
1.0
176
     1
 90
        0
176
     1
 62
    18
420
        0
176
     1
 90
       50
176
     1
 90
        3
176
     1
 62
     5
420
      255
176
     1
290
     0
176
     1
 90
       50
176
     1
 90
       50
176
     1
 90
       50
176
     1
290
     0
176
     1
 90
       50
176
     1
 62
   256
176
     0
 40
1.0
176
     0
 90
        2
176
     1
  1
strokes_ogs.tif
176
     1
290
     0
176
     1
 40
1.0
176
     1
 40
1.0
176
     1
  0
VISUALSTYLE
  5
1F6
102
{ACAD_REACTORS
330
197
102
}
330
197
100
AcDbVisualStyle
  2
JitterOff
 70
    20
177
     3
291
     1
 70
    58
 90
        2
176
     0
 90
        2
176
     0
 90
        0
176
     0
 90
        0
176
     0
 40
0.6
176
     0
 40
30.0
176
     0
 62
     7
420
 16777215
176
     0
 90
        1
176
     0
 90
        4
176
     0
 62
     7
176
     0
 62
   257
176
     0
 90
        1
176
     0
 90
        1
176
     0
 40
1.0
176
     0
 90
       10
176
     2
 62
     7
176
     0
 40
1.0
176
     0
 90
        1
176
     0
 90
        6
176
     0
 90
        2
176
     0
 62
     7
176
     0
 90
        5
176
     0
 90
        0
176
     0
 90
        0
176
     0
290
     0
176
     0
 90
        1
176
     0
 40
0.0
176
     0
 90
        0
176
     0
290
     0
176
     0
290
     1
176
     0
290
     1
176
     0
290
     0
176
     0
290
     0
176
     0
290
     0
176
     0
290
     0
176
     0
290
     0
176
     0
290
     0
176
     0
 90
       50
176
     0
 40
0.0
176
     0
 40
1.0
176
     0
 90
        0
176
     0
 62
    18
420
        0
176
     0
 90
       50
176
     0
 90
        3
176
     0
 62
     5
420
      255
176
     0
290
     0
176
     0
 90
       50
176
     0
 90
       50
176
     0
 90
       50
176
     0
290
     0
176
     0
 90
       50
176
     0
 62
   256
176
     0
 40
1.0
176
     0
 90
        2
176
     0
  1
strokes_ogs.tif
176
     0
290
     0
176
     0
 40
1.0
176
     0
 40
1.0
176
     0
  0
VISUALSTYLE
  5
1A5
102
{ACAD_REACTORS
330
197
102
}
330
197
100
AcDbVisualStyle
  2
Linepattern
 70
    14
177
     3
291
     1
 70
    58
 90
        2
176
     1
 90
        2
176
     1
 90
        0
176
     1
 90
        0
176
     1
 40
-0.6
176
     1
 40
-30.0
176
     1
 62
     7
176
     1
 90
        1
176
     1
 90
        4
176
     1
 62
     7
176
     1
 62
   257
176
     1
 90
        7
176
     1
 90
        7
176
     1
 40
1.0
176
     1
 90
        8
176
     1
 62
     7
176
     1
 40
1.0
176
     1
 90
        1
176
     1
 90
        6
176
     1
 90
        2
176
     1
 62
     7
176
     1
 90
        5
176
     1
 90
        0
176
     1
 90
        0
176
     1
290
     0
176
     1
 90
        1
176
     1
 40
0.0
176
     1
 90
        0
176
     1
290
     0
176
     1
290
     1
176
     1
290
     1
176
     1
290
     0
176
     1
290
     0
176
     1
290
     0
176
     1
290
     0
176
     1
290
     0
176
     1
290
     0
176
     1
 90
       50
176
     1
 40
0.0
176
     1
 40
1.0
176
     1
 90
        0
176
     1
 62
    18
420
        0
176
     1
 90
       50
176
     1
 90
        3
176
     1
 62
     5
420
      255
176
     1
290
     0
176
     1
 90
       50
176
     1
 90
       50
176
     1
 90
       50
176
     1
290
     0
176
     1
 90
       50
176
     1
 62
   256
176
     0
 40
1.0
176
     0
 90
        2
176
     1
  1
strokes_ogs.tif
176
     1
290
     0
176
     1
 40
1.0
176
     1
 40
1.0
176
     1
  0
VISUALSTYLE
  5
1F7
102
{ACAD_REACTORS
330
197
102
}
330
197
100
AcDbVisualStyle
  2
OverhangOff
 70
    21
177
     3
291
     1
 70
    58
 90
        2
176
     0
 90
        2
176
     0
 90
        0
176
     0
 90
        0
176
     0
 40
0.6
176
     0
 40
30.0
176
     0
 62
     7
420
 16777215
176
     0
 90
        1
176
     0
 90
        4
176
     0
 62
     7
176
     0
 62
   257
176
     0
 90
        1
176
     0
 90
        1
176
     0
 40
1.0
176
     0
 90
        9
176
     2
 62
     7
176
     0
 40
1.0
176
     0
 90
        1
176
     0
 90
        6
176
     0
 90
        2
176
     0
 62
     7
176
     0
 90
        5
176
     0
 90
        0
176
     0
 90
        0
176
     0
290
     0
176
     0
 90
        1
176
     0
 40
0.0
176
     0
 90
        0
176
     0
290
     0
176
     0
290
     1
176
     0
290
     1
176
     0
290
     0
176
     0
290
     0
176
     0
290
     0
176
     0
290
     0
176
     0
290
     0
176
     0
290
     0
176
     0
 90
       50
176
     0
 40
0.0
176
     0
 40
1.0
176
     0
 90
        0
176
     0
 62
    18
420
        0
176
     0
 90
       50
176
     0
 90
        3
176
     0
 62
     5
420
      255
176
     0
290
     0
176
     0
 90
       50
176
     0
 90
       50
176
     0
 90
       50
176
     0
290
     0
176
     0
 90
       50
176
     0
 62
   256
176
     0
 40
1.0
176
     0
 90
        2
176
     0
  1
strokes_ogs.tif
176
     0
290
     0
176
     0
 40
1.0
176
     0
 40
1.0
176
     0
  0
VISUALSTYLE
  5
1A0
102
{ACAD_REACTORS
330
197
102
}
330
197
100
AcDbVisualStyle
  2
Realistic
 70
     8
177
     3
291
     0
 70
    58
 90
        2
176
     1
 90
        2
176
     1
 90
        0
176
     1
 90
        0
176
     1
 40
-0.6
176
     1
 40
-30.0
176
     1
 62
     7
176
     1
 90
        1
176
     1
 90
        0
176
     1
 62
     7
176
     1
 62
   257
176
     1
 90
        1
176
     1
 90
        1
176
     1
 40
1.0
176
     1
 90
        8
176
     1
 62
     8
176
     1
 40
1.0
176
     1
 90
        1
176
     1
 90
        6
176
     1
 90
        2
176
     1
 62
     7
176
     1
 90
        5
176
     1
 90
        0
176
     1
 90
        0
176
     1
290
     0
176
     1
 90
       13
176
     1
 40
0.0
176
     1
 90
        0
176
     1
290
     0
176
     1
290
     1
176
     1
290
     1
176
     1
290
     0
176
     1
290
     0
176
     1
290
     0
176
     1
290
     0
176
     1
290
     0
176
     1
290
     0
176
     1
 90
       50
176
     1
 40
0.0
176
     1
 40
1.0
176
     1
 90
        0
176
     1
 62
    18
420
        0
176
     1
 90
       50
176
     1
 90
        3
176
     1
 62
     5
420
      255
176
     1
290
     0
176
     1
 90
       50
176
     1
 90
       50
176
     1
 90
       50
176
     1
290
     0
176
     1
 90
       50
176
     1
 62
   256
176
     0
 40
1.0
176
     0
 90
        2
176
     1
  1
strokes_ogs.tif
176
     1
290
     0
176
     1
 40
1.0
176
     1
 40
1.0
176
     1
  0
VISUALSTYLE
  5
1FD
102
{ACAD_REACTORS
330
197
102
}
330
197
100
AcDbVisualStyle
  2
Shaded
 70
    27
177
     3
291
     0
 70
    58
 90
        2
176
     1
 90
        2
176
     1
 90
        1
176
     1
 90
        2
176
     1
 40
0.6
176
     1
 40
30.0
176
     1
 62
     7
420
 16777215
176
     1
 90
        0
176
     1
 90
        4
176
     1
 62
     7
176
     1
 62
   257
176
     1
 90
        1
176
     1
 90
        1
176
     1
 40
1.0
176
     1
 90
        8
176
     1
 62
   257
176
     1
 40
1.0
176
     1
 90
        1
176
     1
 90
        6
176
     1
 90
        2
176
     1
 62
     8
420
  7895160
176
     1
 90
        3
176
     1
 90
        0
176
     1
 90
        0
176
     1
290
     0
176
     1
 90
        5
176
     1
 40
0.0
176
     1
 90
        0
176
     1
290
     0
176
     1
290
     1
176
     1
290
     1
176
     1
290
     0
176
     1
290
     0
176
     1
290
     0
176
     1
290
     0
176
     1
290
     0
176
     1
290
     0
176
     1
 90
       50
176
     1
 40
0.0
176
     1
 40
1.0
176
     1
 90
        0
176
     1
 62
    18
420
        0
176
     1
 90
       50
176
     1
 90
        3
176
     1
 62
     5
420
      255
176
     1
290
     0
176
     1
 90
       50
176
     1
 90
       50
176
     1
 90
       50
176
     1
290
     0
176
     1
 90
       50
176
     1
 62
   256
176
     0
 40
1.0
176
     0
 90
        2
176
     1
  1
strokes_ogs.tif
176
     1
290
     0
176
     1
 40
1.0
176
     1
 40
1.0
176
     1
  0
VISUALSTYLE
  5
1FC
102
{ACAD_REACTORS
330
197
102
}
330
197
100
AcDbVisualStyle
  2
Shaded with edges
 70
    26
177
     3
291
     0
 70
    58
 90
        2
176
     1
 90
        2
176
     1
 90
        1
176
     1
 90
        2
176
     1
 40
0.6
176
     1
 40
30.0
176
     1
 62
     7
420
 16777215
176
     1
 90
        1
176
     1
 90
       10
176
     1
 62
     7
176
     1
 62
   257
176
     1
 90
        2
176
     1
 90
        1
176
     1
 40
1.0
176
     1
 90
        8
176
     1
 62
   257
176
     1
 40
1.0
176
     1
 90
        1
176
     1
 90
        6
176
     1
 90
        2
176
     1
 62
     7
176
     1
 90
        3
176
     1
 90
        0
176
     1
 90
        0
176
     1
290
     0
176
     1
 90
        5
176
     1
 40
0.0
176
     1
 90
        0
176
     1
290
     0
176
     1
290
     1
176
     1
290
     1
176
     1
290
     0
176
     1
290
     0
176
     1
290
     0
176
     1
290
     0
176
     1
290
     0
176
     1
290
     0
176
     1
 90
       50
176
     1
 40
0.0
176
     1
 40
1.0
176
     1
 90
        0
176
     1
 62
    18
420
        0
176
     1
 90
       50
176
     1
 90
        3
176
     1
 62
     5
420
      255
176
     1
290
     0
176
     1
 90
       50
176
     1
 90
       50
176
     1
 90
       50
176
     1
290
     0
176
     1
 90
       50
176
     1
 62
   256
176
     0
 40
1.0
176
     0
 90
        2
176
     1
  1
strokes_ogs.tif
176
     1
290
     0
176
     1
 40
1.0
176
     1
 40
1.0
176
     1
  0
VISUALSTYLE
  5
1F9
102
{ACAD_REACTORS
330
197
102
}
330
197
100
AcDbVisualStyle
  2
Shades of Gray
 70
    23
177
     3
291
     0
 70
    58
 90
        2
176
     1
 90
        2
176
     1
 90
        3
176
     1
 90
        0
176
     1
 40
0.6
176
     1
 40
30.0
176
     1
 62
     7
420
 16777215
176
     1
 90
        2
176
     1
 90
        2
176
     1
 62
     7
176
     1
 62
     7
176
     1
 90
        1
176
     1
 90
        1
176
     1
 40
40.0
176
     1
 90
        8
176
     1
 62
     7
176
     1
 40
1.0
176
     1
 90
        1
176
     1
 90
        6
176
     1
 90
        2
176
     1
 62
     7
176
     1
 90
        3
176
     1
 90
        0
176
     1
 90
        0
176
     1
290
     0
176
     1
 90
        1
176
     1
 40
0.0
176
     1
 90
        0
176
     1
290
     0
176
     1
290
     1
176
     1
290
     1
176
     1
290
     0
176
     1
290
     0
176
     1
290
     0
176
     1
290
     0
176
     1
290
     0
176
     1
290
     0
176
     1
 90
       50
176
     1
 40
0.0
176
     1
 40
1.0
176
     1
 90
        0
176
     1
 62
    18
420
        0
176
     1
 90
       50
176
     1
 90
        3
176
     1
 62
     5
420
      255
176
     1
290
     0
176
     1
 90
       50
176
     1
 90
       50
176
     1
 90
       50
176
     1
290
     0
176
     1
 90
       50
176
     1
 62
   256
176
     0
 40
1.0
176
     0
 90
        2
176
     1
  1
strokes_ogs.tif
176
     1
290
     0
176
     1
 40
1.0
176
     1
 40
1.0
176
     1
  0
VISUALSTYLE
  5
1FA
102
{ACAD_REACTORS
330
197
102
}
330
197
100
AcDbVisualStyle
  2
Sketchy
 70
    24
177
     3
291
     0
 70
    58
 90
        1
176
     1
 90
        2
176
     1
 90
        2
176
     1
 90
        0
176
     1
 40
0.6
176
     1
 40
30.0
176
     1
 62
     7
420
 16777215
176
     1
 90
        2
176
     1
 90
        2
176
     1
 62
     7
176
     1
 62
     7
176
     1
 90
        1
176
     1
 90
        1
176
     1
 40
40.0
176
     1
 90
       11
176
     1
 62
     7
176
     1
 40
1.0
176
     1
 90
        1
176
     1
 90
        6
176
     1
 90
        2
176
     1
 62
     7
176
     1
 90
        6
176
     1
 90
        0
176
     1
 90
        0
176
     1
290
     0
176
     1
 90
        1
176
     1
 40
0.0
176
     1
 90
        0
176
     1
290
     0
176
     1
290
     1
176
     1
290
     1
176
     1
290
     0
176
     1
290
     0
176
     1
290
     0
176
     1
290
     0
176
     1
290
     0
176
     1
290
     0
176
     1
 90
       50
176
     1
 40
0.0
176
     1
 40
1.0
176
     1
 90
        0
176
     1
 62
    18
420
        0
176
     1
 90
       50
176
     1
 90
        3
176
     1
 62
     5
420
      255
176
     1
290
     0
176
     1
 90
       50
176
     1
 90
       50
176
     1
 90
       50
176
     1
290
     0
176
     1
 90
       50
176
     1
 62
   256
176
     0
 40
1.0
176
     0
 90
        2
176
     1
  1
strokes_ogs.tif
176
     1
290
     0
176
     1
 40
1.0
176
     1
 40
1.0
176
     1
  0
VISUALSTYLE
  5
1A4
102
{ACAD_REACTORS
330
197
102
}
330
197
100
AcDbVisualStyle
  2
Thicken
 70
    13
177
     3
291
     1
 70
    58
 90
        2
176
     1
 90
        2
176
     1
 90
        0
176
     1
 90
        0
176
     1
 40
-0.6
176
     1
 40
-30.0
176
     1
 62
     7
176
     1
 90
        1
176
     1
 90
        4
176
     1
 62
     7
176
     1
 62
   257
176
     1
 90
        1
176
     1
 90
        1
176
     1
 40
1.0
176
     1
 90
       12
176
     1
 62
     7
176
     1
 40
1.0
176
     1
 90
        1
176
     1
 90
        6
176
     1
 90
        2
176
     1
 62
     7
176
     1
 90
        5
176
     1
 90
        0
176
     1
 90
        0
176
     1
290
     0
176
     1
 90
        1
176
     1
 40
0.0
176
     1
 90
        0
176
     1
290
     0
176
     1
290
     1
176
     1
290
     1
176
     1
290
     0
176
     1
290
     0
176
     1
290
     0
176
     1
290
     0
176
     1
290
     0
176
     1
290
     0
176
     1
 90
       50
176
     1
 40
0.0
176
     1
 40
1.0
176
     1
 90
        0
176
     1
 62
    18
420
        0
176
     1
 90
       50
176
     1
 90
        3
176
     1
 62
     5
420
      255
176
     1
290
     0
176
     1
 90
       50
176
     1
 90
       50
176
     1
 90
       50
176
     1
290
     0
176
     1
 90
       50
176
     1
 62
   256
176
     0
 40
1.0
176
     0
 90
        2
176
     1
  1
strokes_ogs.tif
176
     1
290
     0
176
     1
 40
1.0
176
     1
 40
1.0
176
     1
  0
VISUALSTYLE
  5
1F4
102
{ACAD_REACTORS
330
197
102
}
330
197
100
AcDbVisualStyle
  2
Wireframe
 70
     5
177
     3
291
     0
 70
    58
 90
        0
176
     1
 90
        2
176
     1
 90
        0
176
     1
 90
        0
176
     1
 40
0.6
176
     1
 40
30.0
176
     1
 62
     7
420
 16777215
176
     1
 90
        1
176
     1
 90
        4
176
     1
 62
     7
176
     1
 62
   257
176
     1
 90
        1
176
     1
 90
        1
176
     1
 40
1.0
176
     1
 90
        0
176
     1
 62
   257
176
     1
 40
1.0
176
     1
 90
        1
176
     1
 90
        6
176
     1
 90
        2
176
     1
 62
     7
176
     1
 90
        3
176
     1
 90
        0
176
     1
 90
        0
176
     1
290
     0
176
     1
 90
        1
176
     1
 40
0.0
176
     1
 90
        0
176
     1
290
     0
176
     1
290
     1
176
     1
290
     1
176
     1
290
     0
176
     1
290
     0
176
     1
290
     0
176
     1
290
     0
176
     1
290
     0
176
     1
290
     0
176
     1
 90
       50
176
     1
 40
0.0
176
     1
 40
1.0
176
     1
 90
        0
176
     1
 62
    18
420
        0
176
     1
 90
       50
176
     1
 90
        3
176
     1
 62
     5
420
      255
176
     1
290
     0
176
     1
 90
       50
176
     1
 90
       50
176
     1
 90
       50
176
     1
290
     0
176
     1
 90
       50
176
     1
 62
   256
176
     0
 40
1.0
176
     0
 90
        2
176
     1
  1
strokes_ogs.tif
176
     1
290
     0
176
     1
 40
1.0
176
     1
 40
1.0
176
     1
  0
VISUALSTYLE
  5
1FB
102
{ACAD_REACTORS
330
197
102
}
330
197
100
AcDbVisualStyle
  2
X-Ray
 70
    25
177
     3
291
     0
 70
    58
 90
        2
176
     1
 90
        2
176
     1
 90
        1
176
     1
 90
        1
176
     1
 40
0.5
176
     1
 40
30.0
176
     1
 62
     7
420
 16777215
176
     1
 90
        1
176
     1
 90
        0
176
     1
 62
     7
176
     1
 62
   257
176
     1
 90
        1
176
     1
 90
        1
176
     1
 40
1.0
176
     1
 90
        8
176
     1
 62
     7
176
     1
 40
1.0
176
     1
 90
        1
176
     1
 90
        6
176
     1
 90
        2
176
     1
 62
     7
176
     1
 90
        3
176
     1
 90
        0
176
     1
 90
        0
176
     1
290
     0
176
     1
 90
       13
176
     1
 40
0.0
176
     1
 90
        0
176
     1
290
     0
176
     1
290
     1
176
     1
290
     1
176
     1
290
     0
176
     1
290
     0
176
     1
290
     0
176
     1
290
     0
176
     1
290
     0
176
     1
290
     0
176
     1
 90
       50
176
     1
 40
0.0
176
     1
 40
1.0
176
     1
 90
        0
176
     1
 62
    18
420
        0
176
     1
 90
       50
176
     1
 90
        3
176
     1
 62
     5
420
      255
176
     1
290
     0
176
     1
 90
       50
176
     1
 90
       50
176
     1
 90
       50
176
     1
290
     0
176
     1
 90
       50
176
     1
 62
   256
176
     0
 40
1.0
176
     0
 90
        2
176
     1
  1
strokes_ogs.tif
176
     1
290
     0
176
     1
 40
1.0
176
     1
 40
1.0
176
     1
  0
DICTIONARYVAR
  5
26B
102
{ACAD_REACTORS
330
1B3
102
}
330
1B3
100
DictionaryVariables
280
     0
  1
1:1
  0
DICTIONARYVAR
  5
26D
102
{ACAD_REACTORS
330
1B3
102
}
330
1B3
100
DictionaryVariables
280
     0
  1
Standard
  0
DICTIONARYVAR
  5
26C
102
{ACAD_REACTORS
330
1B3
102
}
330
1B3
100
DictionaryVariables
280
     0
  1
Standard
  0
DICTIONARYVAR
  5
1B7
102
{ACAD_REACTORS
330
1B3
102
}
330
1B3
100
DictionaryVariables
280
     0
  1
2
  0
DICTIONARYVAR
  5
1B8
102
{ACAD_REACTORS
330
1B3
102
}
330
1B3
100
DictionaryVariables
280
     0
  1
1
  0
DICTIONARYVAR
  5
1B6
102
{ACAD_REACTORS
330
1B3
102
}
330
1B3
100
DictionaryVariables
280
     0
  1
0
  0
DICTIONARY
  5
272
330
1FF
100
AcDbDictionary
280
     1
281
     1
  3
ACAD_ROUNDTRIP_2008_TABLESTYLE_CELLSTYLEMAP
360
273
  0
CELLSTYLEMAP
  5
273
102
{ACAD_REACTORS
330
272
102
}
330
272
100
AcDbCellStyleMap
 90
        3
300
CELLSTYLE
  1
TABLEFORMAT_BEGIN
 90
        5
170
     1
 91
        0
 92
    32768
 62
   257
 93
        1
300
CONTENTFORMAT
  1
CONTENTFORMAT_BEGIN
 90
        0
 91
        0
 92
        4
 93
        0
300

 40
0.0
140
1.0
 94
        5
 62
     0
340
11
144
0.25
309
CONTENTFORMAT_END
171
     1
301
MARGIN
  1
CELLMARGIN_BEGIN
 40
0.06
 40
0.06
 40
0.06
 40
0.06
 40
0.06
 40
0.06
309
CELLMARGIN_END
 94
        6
 95
        1
302
GRIDFORMAT
  1
GRIDFORMAT_BEGIN
 90
        0
 91
        1
 62
     0
 92
       -2
340
14
 93
        0
 40
0.045
309
GRIDFORMAT_END
 95
        2
302
GRIDFORMAT
  1
GRIDFORMAT_BEGIN
 90
        0
 91
        1
 62
     0
 92
       -2
340
14
 93
        0
 40
0.045
309
GRIDFORMAT_END
 95
        4
302
GRIDFORMAT
  1
GRIDFORMAT_BEGIN
 90
        0
 91
        1
 62
     0
 92
       -2
340
14
 93
        0
 40
0.045
309
GRIDFORMAT_END
 95
        8
302
GRIDFORMAT
  1
GRIDFORMAT_BEGIN
 90
        0
 91
        1
 62
     0
 92
       -2
340
14
 93
        0
 40
0.045
309
GRIDFORMAT_END
 95
       16
302
GRIDFORMAT
  1
GRIDFORMAT_BEGIN
 90
        0
 91
        1
 62
     0
 92
       -2
340
14
 93
        0
 40
0.045
309
GRIDFORMAT_END
 95
       32
302
GRIDFORMAT
  1
GRIDFORMAT_BEGIN
 90
        0
 91
        1
 62
     0
 92
       -2
340
14
 93
        0
 40
0.045
309
GRIDFORMAT_END
309
TABLEFORMAT_END
  1
CELLSTYLE_BEGIN
 90
        1
 91
        1
300
_TITLE
309
CELLSTYLE_END
300
CELLSTYLE
  1
TABLEFORMAT_BEGIN
 90
        5
170
     1
 91
        0
 92
        0
 62
   257
 93
        1
300
CONTENTFORMAT
  1
CONTENTFORMAT_BEGIN
 90
        0
 91
        0
 92
        4
 93
        0
300

 40
0.0
140
1.0
 94
        5
 62
     0
340
11
144
0.18
309
CONTENTFORMAT_END
171
     1
301
MARGIN
  1
CELLMARGIN_BEGIN
 40
0.06
 40
0.06
 40
0.06
 40
0.06
 40
0.06
 40
0.06
309
CELLMARGIN_END
 94
        6
 95
        1
302
GRIDFORMAT
  1
GRIDFORMAT_BEGIN
 90
        0
 91
        1
 62
     0
 92
       -2
340
14
 93
        0
 40
0.045
309
GRIDFORMAT_END
 95
        2
302
GRIDFORMAT
  1
GRIDFORMAT_BEGIN
 90
        0
 91
        1
 62
     0
 92
       -2
340
14
 93
        0
 40
0.045
309
GRIDFORMAT_END
 95
        4
302
GRIDFORMAT
  1
GRIDFORMAT_BEGIN
 90
        0
 91
        1
 62
     0
 92
       -2
340
14
 93
        0
 40
0.045
309
GRIDFORMAT_END
 95
        8
302
GRIDFORMAT
  1
GRIDFORMAT_BEGIN
 90
        0
 91
        1
 62
     0
 92
       -2
340
14
 93
        0
 40
0.045
309
GRIDFORMAT_END
 95
       16
302
GRIDFORMAT
  1
GRIDFORMAT_BEGIN
 90
        0
 91
        1
 62
     0
 92
       -2
340
14
 93
        0
 40
0.045
309
GRIDFORMAT_END
 95
       32
302
GRIDFORMAT
  1
GRIDFORMAT_BEGIN
 90
        0
 91
        1
 62
     0
 92
       -2
340
14
 93
        0
 40
0.045
309
GRIDFORMAT_END
309
TABLEFORMAT_END
  1
CELLSTYLE_BEGIN
 90
        2
 91
        1
300
_HEADER
309
CELLSTYLE_END
300
CELLSTYLE
  1
TABLEFORMAT_BEGIN
 90
        5
170
     1
 91
        0
 92
        0
 62
   257
 93
        1
300
CONTENTFORMAT
  1
CONTENTFORMAT_BEGIN
 90
        0
 91
        0
 92
        4
 93
        0
300

 40
0.0
140
1.0
 94
        2
 62
     0
340
11
144
0.18
309
CONTENTFORMAT_END
171
     1
301
MARGIN
  1
CELLMARGIN_BEGIN
 40
0.06
 40
0.06
 40
0.06
 40
0.06
 40
0.06
 40
0.06
309
CELLMARGIN_END
 94
        6
 95
        1
302
GRIDFORMAT
  1
GRIDFORMAT_BEGIN
 90
        0
 91
        1
 62
     0
 92
       -2
340
14
 93
        0
 40
0.045
309
GRIDFORMAT_END
 95
        2
302
GRIDFORMAT
  1
GRIDFORMAT_BEGIN
 90
        0
 91
        1
 62
     0
 92
       -2
340
14
 93
        0
 40
0.045
309
GRIDFORMAT_END
 95
        4
302
GRIDFORMAT
  1
GRIDFORMAT_BEGIN
 90
        0
 91
        1
 62
     0
 92
       -2
340
14
 93
        0
 40
0.045
309
GRIDFORMAT_END
 95
        8
302
GRIDFORMAT
  1
GRIDFORMAT_BEGIN
 90
        0
 91
        1
 62
     0
 92
       -2
340
14
 93
        0
 40
0.045
309
GRIDFORMAT_END
 95
       16
302
GRIDFORMAT
  1
GRIDFORMAT_BEGIN
 90
        0
 91
        1
 62
     0
 92
       -2
340
14
 93
        0
 40
0.045
309
GRIDFORMAT_END
 95
       32
302
GRIDFORMAT
  1
GRIDFORMAT_BEGIN
 90
        0
 91
        1
 62
     0
 92
       -2
340
14
 93
        0
 40
0.045
309
GRIDFORMAT_END
309
TABLEFORMAT_END
  1
CELLSTYLE_BEGIN
 90
        3
 91
        2
300
_DATA
309
CELLSTYLE_END
  0
ENDSEC
  0
EOF
