  0
SECTION
  2
HEADER
  9
$ACADVER
  1
AC1027
  9
$ACADMAINTVER
 70
   105
  9
$DWGCODEPAGE
  3
ANSI_1252
  9
$REQUIREDVERSIONS
160
                 0
  9
$LASTSAVEDBY
  1
matthias.ochs
  9
$INSBASE
 10
0.0
 20
0.0
 30
0.0
  9
$EXTMIN
 10
-95.42392570721879
 20
-54.76282959947784
 30
0.0
  9
$EXTMAX
 10
144.9821433284914
 20
55.31930351145284
 30
0.0
  9
$LIMMIN
 10
-63.050692971
 20
-59.031376543
  9
$LIMMAX
 10
113.643053722
 20
46.256009768
  9
$ORTHOMODE
 70
     0
  9
$REGENMODE
 70
     1
  9
$FILLMODE
 70
     1
  9
$QTEXTMODE
 70
     0
  9
$MIRRTEXT
 70
     1
  9
$LTSCALE
 40
1.0
  9
$ATTMODE
 70
     1
  9
$TEXTSIZE
 40
0.2
  9
$TRACEWID
 40
0.05
  9
$TEXTSTYLE
  7
Standard
  9
$CLAYER
  8
0
  9
$CELTYPE
  6
ByLayer
  9
$CECOLOR
 62
   256
  9
$CELTSCALE
 40
1.0
  9
$DISPSILH
 70
     0
  9
$DIMSCALE
 40
1.0
  9
$DIMASZ
 40
0.18
  9
$DIMEXO
 40
0.0625
  9
$DIMDLI
 40
0.38
  9
$DIMRND
 40
0.0
  9
$DIMDLE
 40
0.0
  9
$DIMEXE
 40
0.18
  9
$DIMTP
 40
0.0
  9
$DIMTM
 40
0.0
  9
$DIMTXT
 40
0.18
  9
$DIMCEN
 40
0.09
  9
$DIMTSZ
 40
0.0
  9
$DIMTOL
 70
     0
  9
$DIMLIM
 70
     0
  9
$DIMTIH
 70
     1
  9
$DIMTOH
 70
     1
  9
$DIMSE1
 70
     0
  9
$DIMSE2
 70
     0
  9
$DIMTAD
 70
     0
  9
$DIMZIN
 70
     0
  9
$DIMBLK
  1

  9
$DIMASO
 70
     1
  9
$DIMSHO
 70
     1
  9
$DIMPOST
  1

  9
$DIMAPOST
  1

  9
$DIMALT
 70
     0
  9
$DIMALTD
 70
     2
  9
$DIMALTF
 40
25.4
  9
$DIMLFAC
 40
1.0
  9
$DIMTOFL
 70
     0
  9
$DIMTVP
 40
0.0
  9
$DIMTIX
 70
     0
  9
$DIMSOXD
 70
     0
  9
$DIMSAH
 70
     0
  9
$DIMBLK1
  1

  9
$DIMBLK2
  1

  9
$DIMSTYLE
  2
Standard
  9
$DIMCLRD
 70
     0
  9
$DIMCLRE
 70
     0
  9
$DIMCLRT
 70
     0
  9
$DIMTFAC
 40
1.0
  9
$DIMGAP
 40
0.09
  9
$DIMJUST
 70
     0
  9
$DIMSD1
 70
     0
  9
$DIMSD2
 70
     0
  9
$DIMTOLJ
 70
     1
  9
$DIMTZIN
 70
     0
  9
$DIMALTZ
 70
     0
  9
$DIMALTTZ
 70
     0
  9
$DIMUPT
 70
     0
  9
$DIMDEC
 70
     4
  9
$DIMTDEC
 70
     4
  9
$DIMALTU
 70
     2
  9
$DIMALTTD
 70
     2
  9
$DIMTXSTY
  7
Standard
  9
$DIMAUNIT
 70
     0
  9
$DIMADEC
 70
     0
  9
$DIMALTRND
 40
0.0
  9
$DIMAZIN
 70
     0
  9
$DIMDSEP
 70
    46
  9
$DIMATFIT
 70
     3
  9
$DIMFRAC
 70
     0
  9
$DIMLDRBLK
  1

  9
$DIMLUNIT
 70
     2
  9
$DIMLWD
 70
    -2
  9
$DIMLWE
 70
    -2
  9
$DIMTMOVE
 70
     2
  9
$DIMFXL
 40
1.0
  9
$DIMFXLON
 70
     0
  9
$DIMJOGANG
 40
0.7853981633974483
  9
$DIMTFILL
 70
     0
  9
$DIMTFILLCLR
 70
     0
  9
$DIMARCSYM
 70
     0
  9
$DIMLTYPE
  6

  9
$DIMLTEX1
  6

  9
$DIMLTEX2
  6

  9
$DIMTXTDIRECTION
 70
     0
  9
$LUNITS
 70
     2
  9
$LUPREC
 70
     4
  9
$SKETCHINC
 40
0.1
  9
$FILLETRAD
 40
0.5
  9
$AUNITS
 70
     2
  9
$AUPREC
 70
     0
  9
$MENU
  1
.
  9
$ELEVATION
 40
0.0
  9
$PELEVATION
 40
0.0
  9
$THICKNESS
 40
0.0
  9
$LIMCHECK
 70
     0
  9
$CHAMFERA
 40
0.5
  9
$CHAMFERB
 40
0.5
  9
$CHAMFERC
 40
1.0
  9
$CHAMFERD
 40
0.0
  9
$SKPOLY
 70
     0
  9
$TDCREATE
 40
2458327.502766134
  9
$TDUCREATE
 40
2458327.461099468
  9
$TDUPDATE
 40
2458501.363103982
  9
$TDUUPDATE
 40
2458501.321437315
  9
$TDINDWG
 40
0.0074976968
  9
$TDUSRTIMER
 40
0.0013831829
  9
$USRTIMER
 70
     1
  9
$ANGBASE
 50
0.0
  9
$ANGDIR
 70
     0
  9
$PDMODE
 70
     0
  9
$PDSIZE
 40
0.0
  9
$PLINEWID
 40
0.0
  9
$SPLFRAME
 70
     0
  9
$SPLINETYPE
 70
     6
  9
$SPLINESEGS
 70
     8
  9
$HANDSEED
  5
2C9
  9
$SURFTAB1
 70
     6
  9
$SURFTAB2
 70
     6
  9
$SURFTYPE
 70
     6
  9
$SURFU
 70
     6
  9
$SURFV
 70
     6
  9
$UCSBASE
  2

  9
$UCSNAME
  2

  9
$UCSORG
 10
0.0
 20
0.0
 30
0.0
  9
$UCSXDIR
 10
1.0
 20
0.0
 30
0.0
  9
$UCSYDIR
 10
0.0
 20
1.0
 30
0.0
  9
$UCSORTHOREF
  2

  9
$UCSORTHOVIEW
 70
     0
  9
$UCSORGTOP
 10
0.0
 20
0.0
 30
0.0
  9
$UCSORGBOTTOM
 10
0.0
 20
0.0
 30
0.0
  9
$UCSORGLEFT
 10
0.0
 20
0.0
 30
0.0
  9
$UCSORGRIGHT
 10
0.0
 20
0.0
 30
0.0
  9
$UCSORGFRONT
 10
0.0
 20
0.0
 30
0.0
  9
$UCSORGBACK
 10
0.0
 20
0.0
 30
0.0
  9
$PUCSBASE
  2

  9
$PUCSNAME
  2

  9
$PUCSORG
 10
0.0
 20
0.0
 30
0.0
  9
$PUCSXDIR
 10
1.0
 20
0.0
 30
0.0
  9
$PUCSYDIR
 10
0.0
 20
1.0
 30
0.0
  9
$PUCSORTHOREF
  2

  9
$PUCSORTHOVIEW
 70
     0
  9
$PUCSORGTOP
 10
0.0
 20
0.0
 30
0.0
  9
$PUCSORGBOTTOM
 10
0.0
 20
0.0
 30
0.0
  9
$PUCSORGLEFT
 10
0.0
 20
0.0
 30
0.0
  9
$PUCSORGRIGHT
 10
0.0
 20
0.0
 30
0.0
  9
$PUCSORGFRONT
 10
0.0
 20
0.0
 30
0.0
  9
$PUCSORGBACK
 10
0.0
 20
0.0
 30
0.0
  9
$USERI1
 70
     0
  9
$USERI2
 70
     0
  9
$USERI3
 70
     0
  9
$USERI4
 70
     0
  9
$USERI5
 70
     0
  9
$USERR1
 40
0.0
  9
$USERR2
 40
0.0
  9
$USERR3
 40
0.0
  9
$USERR4
 40
0.0
  9
$USERR5
 40
0.0
  9
$WORLDVIEW
 70
     1
  9
$SHADEDGE
 70
     3
  9
$SHADEDIF
 70
    70
  9
$TILEMODE
 70
     1
  9
$MAXACTVP
 70
    64
  9
$PINSBASE
 10
0.0
 20
0.0
 30
0.0
  9
$PLIMCHECK
 70
     0
  9
$PEXTMIN
 10
1.000000000000000E+20
 20
1.000000000000000E+20
 30
1.000000000000000E+20
  9
$PEXTMAX
 10
-1.000000000000000E+20
 20
-1.000000000000000E+20
 30
-1.000000000000000E+20
  9
$PLIMMIN
 10
0.0
 20
0.0
  9
$PLIMMAX
 10
0.0
 20
0.0
  9
$UNITMODE
 70
     0
  9
$VISRETAIN
 70
     1
  9
$PLINEGEN
 70
     0
  9
$PSLTSCALE
 70
     1
  9
$TREEDEPTH
 70
  3020
  9
$CMLSTYLE
  2
Standard
  9
$CMLJUST
 70
     0
  9
$CMLSCALE
 40
1.0
  9
$PROXYGRAPHICS
 70
     1
  9
$MEASUREMENT
 70
     0
  9
$CELWEIGHT
370
    -1
  9
$ENDCAPS
280
     0
  9
$JOINSTYLE
280
     0
  9
$LWDISPLAY
290
     0
  9
$INSUNITS
 70
     0
  9
$HYPERLINKBASE
  1

  9
$STYLESHEET
  1

  9
$XEDIT
290
     1
  9
$CEPSNTYPE
380
     0
  9
$PSTYLEMODE
290
     1
  9
$FINGERPRINTGUID
  2
{3F86B460-EB11-48B6-AE7E-2710AD0BA68D}
  9
$VERSIONGUID
  2
{FAEB1C32-E019-11D5-929B-00C0DF256EC4}
  9
$EXTNAMES
290
     1
  9
$PSVPSCALE
 40
0.0
  9
$OLESTARTUP
290
     0
  9
$SORTENTS
280
   127
  9
$INDEXCTL
280
     0
  9
$HIDETEXT
280
     1
  9
$XCLIPFRAME
280
     2
  9
$HALOGAP
280
     0
  9
$OBSCOLOR
 70
   257
  9
$OBSLTYPE
280
     0
  9
$INTERSECTIONDISPLAY
280
     0
  9
$INTERSECTIONCOLOR
 70
   257
  9
$DIMASSOC
280
     2
  9
$PROJECTNAME
  1

  9
$CAMERADISPLAY
290
     0
  9
$LENSLENGTH
 40
50.0
  9
$CAMERAHEIGHT
 40
0.0
  9
$STEPSPERSEC
 40
2.0
  9
$STEPSIZE
 40
6.0
  9
$3DDWFPREC
 40
2.0
  9
$PSOLWIDTH
 40
0.25
  9
$PSOLHEIGHT
 40
4.0
  9
$LOFTANG1
 40
1.570796326794897
  9
$LOFTANG2
 40
1.570796326794897
  9
$LOFTMAG1
 40
0.0
  9
$LOFTMAG2
 40
0.0
  9
$LOFTPARAM
 70
     7
  9
$LOFTNORMALS
280
     1
  9
$LATITUDE
 40
37.795
  9
$LONGITUDE
 40
-122.394
  9
$NORTHDIRECTION
 40
0.0
  9
$TIMEZONE
 70
 -8000
  9
$LIGHTGLYPHDISPLAY
280
     1
  9
$TILEMODELIGHTSYNCH
280
     1
  9
$SOLIDHIST
280
     0
  9
$SHOWHIST
280
     1
  9
$DWFFRAME
280
     2
  9
$DGNFRAME
280
     2
  9
$REALWORLDSCALE
290
     1
  9
$INTERFERECOLOR
 62
   256
  9
$CSHADOW
280
     0
  9
$SHADOWPLANELOCATION
 40
0.0
  0
ENDSEC
  0
SECTION
  2
CLASSES
  0
CLASS
  1
ACDBDICTIONARYWDFLT
  2
AcDbDictionaryWithDefault
  3
ObjectDBX Classes
 90
        0
 91
        6
280
     0
281
     0
  0
CLASS
  1
SCALE
  2
AcDbScale
  3
ObjectDBX Classes
 90
     1153
 91
        6
280
     0
281
     0
  0
CLASS
  1
VISUALSTYLE
  2
AcDbVisualStyle
  3
ObjectDBX Classes
 90
     4095
 91
        6
280
     0
281
     0
  0
CLASS
  1
MATERIAL
  2
AcDbMaterial
  3
ObjectDBX Classes
 90
     1153
 91
        6
280
     0
281
     0
  0
CLASS
  1
DICTIONARYVAR
  2
AcDbDictionaryVar
  3
ObjectDBX Classes
 90
        0
 91
        6
280
     0
281
     0
  0
CLASS
  1
ACDBPLACEHOLDER
  2
AcDbPlaceHolder
  3
ObjectDBX Classes
 90
        0
 91
        1
280
     0
281
     0
  0
CLASS
  1
LAYOUT
  2
AcDbLayout
  3
ObjectDBX Classes
 90
        0
 91
        1
280
     0
281
     0
  0
CLASS
  1
TABLESTYLE
  2
AcDbTableStyle
  3
ObjectDBX Classes
 90
     4095
 91
        6
280
     0
281
     0
  0
CLASS
  1
MLEADERSTYLE
  2
AcDbMLeaderStyle
  3
ACDB_MLEADERSTYLE_CLASS
 90
     4095
 91
        6
280
     0
281
     0
  0
CLASS
  1
CELLSTYLEMAP
  2
AcDbCellStyleMap
  3
ObjectDBX Classes
 90
     1152
 91
        5
280
     0
281
     0
  0
CLASS
  1
SUN
  2
AcDbSun
  3
SCENEOE
 90
     1153
 91
        6
280
     0
281
     0
  0
ENDSEC
  0
SECTION
  2
TABLES
  0
TABLE
  2
VPORT
  5
8
330
0
100
AcDbSymbolTable
 70
     1
  0
VPORT
  5
157
330
8
100
AcDbSymbolTableRecord
100
AcDbViewportTableRecord
  2
*Active
 70
     0
 10
0.0
 20
0.0
 11
1.0
 21
1.0
 12
22.70427927556426
 22
-8.058598088916845
 13
0.0
 23
0.0
 14
0.5
 24
0.5
 15
0.5
 25
0.5
 16
0.0
 26
0.0
 36
1.0
 17
0.0
 27
0.0
 37
0.0
 40
177.0599557976372
 41
1.941903584672435
 42
50.0
 43
0.0
 44
0.0
 50
0.0
 51
0.0
 71
    16
 72
   100
 73
     1
 74
     3
 75
     0
 76
     0
 77
     0
 78
     0
281
     0
 65
     1
110
0.0
120
0.0
130
0.0
111
1.0
121
0.0
131
0.0
112
0.0
122
1.0
132
0.0
 79
     0
146
0.0
348
187
 60
     3
 61
     5
292
     1
282
     1
141
0.0
142
0.0
 63
   256
361
22D
  0
ENDTAB
  0
TABLE
  2
LTYPE
  5
5
330
0
100
AcDbSymbolTable
 70
     8
  0
LTYPE
  5
14
330
5
100
AcDbSymbolTableRecord
100
AcDbLinetypeTableRecord
  2
ByBlock
 70
     0
  3

 72
    65
 73
     0
 40
0.0
  0
LTYPE
  5
15
330
5
100
AcDbSymbolTableRecord
100
AcDbLinetypeTableRecord
  2
ByLayer
 70
     0
  3

 72
    65
 73
     0
 40
0.0
  0
LTYPE
  5
16
330
5
100
AcDbSymbolTableRecord
100
AcDbLinetypeTableRecord
  2
Continuous
 70
     0
  3
Solid line
 72
    65
 73
     0
 40
0.0
  0
LTYPE
  5
20
330
5
100
AcDbSymbolTableRecord
100
AcDbLinetypeTableRecord
  2
PUNKT
 70
     0
  3
..............
 72
    65
 73
     2
 40
1.5
 49
0.7
 74
     0
 49
-0.8
 74
     0
  0
LTYPE
  5
21
330
5
100
AcDbSymbolTableRecord
100
AcDbLinetypeTableRecord
  2
GESTRICHELT
 70
     0
  3
-- -- -- -- --
 72
    65
 73
     7
 40
2.8
 49
0.9
 74
     0
 49
0.0
 74
     0
 49
0.9
 74
     0
 49
0.0
 74
     0
 49
0.2
 74
     0
 49
0.0
 74
     0
 49
-0.8
 74
     0
  0
LTYPE
  5
22
330
5
100
AcDbSymbolTableRecord
100
AcDbLinetypeTableRecord
  2
STRICHPUNKT
 70
     0
  3
--.--.--.--.--
 72
    65
 73
     4
 40
8.8
 49
5.5
 74
     0
 49
-1.3
 74
     0
 49
0.7
 74
     0
 49
-1.3
 74
     0
  0
LTYPE
  5
25
330
5
100
AcDbSymbolTableRecord
100
AcDbLinetypeTableRecord
  2
PHANTOM
 70
     0
  3
--..--..--..--
 72
    65
 73
     6
 40
14.2
 49
7.0
 74
     0
 49
-1.8
 74
     0
 49
0.9
 74
     0
 49
-1.8
 74
     0
 49
0.9
 74
     0
 49
-1.8
 74
     0
  0
LTYPE
  5
1CD
330
5
100
AcDbSymbolTableRecord
100
AcDbLinetypeTableRecord
  2
DASH
 70
     0
  3
DASH _ _ _ _ _
 72
    65
 73
     2
 40
0.75
 49
0.4
 74
     0
 49
-0.35
 74
     0
  0
LTYPE
  5
1CE
330
5
100
AcDbSymbolTableRecord
100
AcDbLinetypeTableRecord
  2
LONGDASH_DASH
 70
     0
  3
LONGDASH_DASH __ . __ . __
 72
    65
 73
     4
 40
0.85
 49
0.4
 74
     0
 49
-0.2
 74
     0
 49
0.05
 74
     0
 49
-0.2
 74
     0
  0
LTYPE
  5
1CF
330
5
100
AcDbSymbolTableRecord
100
AcDbLinetypeTableRecord
  2
LONGDASH_DASH_DASH
 70
     0
  3
LONGDASH_DASH_DASH __ . . __ . . __
 72
    65
 73
     6
 40
1.1
 49
0.4
 74
     0
 49
-0.2
 74
     0
 49
0.05
 74
     0
 49
-0.2
 74
     0
 49
0.05
 74
     0
 49
-0.2
 74
     0
  0
ENDTAB
  0
TABLE
  2
LAYER
  5
2
102
{ACAD_XDICTIONARY
360
1EC
102
}
330
0
100
AcDbSymbolTable
 70
    15
  0
LAYER
  5
198
330
2
100
AcDbSymbolTableRecord
100
AcDbLayerTableRecord
  2
200
 70
     0
 62
     2
  6
Continuous
370
    50
390
F
347
196
348
0
  0
LAYER
  5
1D0
330
2
100
AcDbSymbolTableRecord
100
AcDbLayerTableRecord
  2
0
 70
     0
 62
    -1
  6
Continuous
370
    -3
390
F
347
196
348
0
  0
LAYER
  5
1D1
330
2
100
AcDbSymbolTableRecord
100
AcDbLayerTableRecord
  2
1
 70
     0
 62
     4
  6
Continuous
370
    50
390
F
347
196
348
0
  0
LAYER
  5
1D2
330
2
100
AcDbSymbolTableRecord
100
AcDbLayerTableRecord
  2
2
 70
     0
 62
     7
  6
Continuous
370
    25
390
F
347
196
348
0
  0
LAYER
  5
1D3
330
2
100
AcDbSymbolTableRecord
100
AcDbLayerTableRecord
  2
3
 70
     0
 62
     1
  6
DASH
370
    35
390
F
347
196
348
0
  0
LAYER
  5
1D4
330
2
100
AcDbSymbolTableRecord
100
AcDbLayerTableRecord
  2
4
 70
     0
 62
     2
  6
LONGDASH_DASH
370
    25
390
F
347
196
348
0
  0
LAYER
  5
1D5
330
2
100
AcDbSymbolTableRecord
100
AcDbLayerTableRecord
  2
6
 70
     0
 62
     5
  6
Continuous
370
    -3
390
F
347
196
348
0
  0
LAYER
  5
1D6
330
2
100
AcDbSymbolTableRecord
100
AcDbLayerTableRecord
  2
CUT
 70
     0
 62
     1
  6
Continuous
370
    25
390
F
347
196
348
0
  0
LAYER
  5
1D7
330
2
100
AcDbSymbolTableRecord
100
AcDbLayerTableRecord
  2
NOCUT
 70
     0
 62
     7
  6
Continuous
370
    25
390
F
347
196
348
0
  0
LAYER
  5
1D8
330
2
100
AcDbSymbolTableRecord
100
AcDbLayerTableRecord
  2
SK1
 70
     0
 62
     4
  6
Continuous
370
    50
390
F
347
196
348
0
  0
LAYER
  5
1D9
330
2
100
AcDbSymbolTableRecord
100
AcDbLayerTableRecord
  2
SK2
 70
     0
 62
     7
  6
Continuous
370
    25
390
F
347
196
348
0
  0
LAYER
  5
1DA
330
2
100
AcDbSymbolTableRecord
100
AcDbLayerTableRecord
  2
SK3
 70
     0
 62
     1
  6
DASH
370
    35
390
F
347
196
348
0
  0
LAYER
  5
1DB
330
2
100
AcDbSymbolTableRecord
100
AcDbLayerTableRecord
  2
SK4
 70
     0
 62
     2
  6
LONGDASH_DASH
370
    25
390
F
347
196
348
0
  0
LAYER
  5
1DC
330
2
100
AcDbSymbolTableRecord
100
AcDbLayerTableRecord
  2
SK6
 70
     0
 62
     5
  6
Continuous
370
    -3
390
F
347
196
348
0
  0
LAYER
  5
1DD
330
2
100
AcDbSymbolTableRecord
100
AcDbLayerTableRecord
  2
INFTOTAL
 70
     0
 62
     9
  6
Continuous
370
    18
390
F
347
196
348
0
  0
ENDTAB
  0
TABLE
  2
STYLE
  5
3
330
0
100
AcDbSymbolTable
 70
     2
  0
STYLE
  5
11
330
3
100
AcDbSymbolTableRecord
100
AcDbTextStyleTableRecord
  2
Standard
 70
     0
 40
0.0
 41
1.0
 50
0.0
 71
     0
 42
0.2
  3
txt
  4

  0
STYLE
  5
197
330
3
100
AcDbSymbolTableRecord
100
AcDbTextStyleTableRecord
  2
BMG_Text
 70
     0
 40
3.5
 41
1.0
 50
0.0
 71
     0
 42
0.2
  3
monos.ttf
  4

1001
ACAD
1000
Monospac821 BT
1071
       49
  0
ENDTAB
  0
TABLE
  2
VIEW
  5
6
330
0
100
AcDbSymbolTable
 70
     0
  0
ENDTAB
  0
TABLE
  2
UCS
  5
7
330
0
100
AcDbSymbolTable
 70
     0
  0
ENDTAB
  0
TABLE
  2
APPID
  5
9
330
0
100
AcDbSymbolTable
 70
     1
  0
APPID
  5
12
330
9
100
AcDbSymbolTableRecord
100
AcDbRegAppTableRecord
  2
ACAD
 70
     0
  0
ENDTAB
  0
TABLE
  2
DIMSTYLE
  5
A
330
0
100
AcDbSymbolTable
 70
     1
100
AcDbDimStyleTable
  0
DIMSTYLE
105
28
330
A
100
AcDbSymbolTableRecord
100
AcDbDimStyleTableRecord
  2
Standard
 70
     0
178
     0
340
11
  0
ENDTAB
  0
TABLE
  2
BLOCK_RECORD
  5
1
330
0
100
AcDbSymbolTable
 70
     0
  0
BLOCK_RECORD
  5
1D
330
1
100
AcDbSymbolTableRecord
100
AcDbBlockTableRecord
  2
*Model_Space
340
1E
 70
     0
280
     1
281
     0
  0
BLOCK_RECORD
  5
1B
330
1
100
AcDbSymbolTableRecord
100
AcDbBlockTableRecord
  2
*Paper_Space
340
1C
 70
     0
280
     1
281
     0
  0
ENDTAB
  0
ENDSEC
  0
SECTION
  2
BLOCKS
  0
BLOCK
  5
180
330
1D
100
AcDbEntity
  8
0
100
AcDbBlockBegin
  2
*Model_Space
 70
     0
 10
0.0
 20
0.0
 30
0.0
  3
*Model_Space
  1

  0
ENDBLK
  5
181
330
1D
100
AcDbEntity
  8
0
100
AcDbBlockEnd
  0
BLOCK
  5
17E
330
1B
100
AcDbEntity
 67
     1
  8
0
100
AcDbBlockBegin
  2
*Paper_Space
 70
     0
 10
0.0
 20
0.0
 30
0.0
  3
*Paper_Space
  1

  0
ENDBLK
  5
17F
330
1B
100
AcDbEntity
 67
     1
  8
0
100
AcDbBlockEnd
  0
ENDSEC
  0
SECTION
  2
ENTITIES
  0
LINE
  5
29
330
1D
100
AcDbEntity
  8
SK1
  6
Continuous
370
    50
100
AcDbLine
 10
-19.659213722
 20
4.053425044
 30
0.0
 11
-18.733242527
 21
4.764994606
 31
0.0
  0
LINE
  5
2A
330
1D
100
AcDbEntity
  8
SK1
  6
Continuous
370
    50
100
AcDbLine
 10
-18.733242527
 20
4.764994606
 30
0.0
 11
-17.683362588
 21
5.285566673
 31
0.0
  0
LINE
  5
2B
330
1D
100
AcDbEntity
  8
SK1
  6
Continuous
370
    50
100
AcDbLine
 10
-17.683362588
 20
5.285566673
 30
0.0
 11
-16.710625961
 21
5.564278457
 31
0.0
  0
LINE
  5
2C
330
1D
100
AcDbEntity
  8
SK1
  6
Continuous
370
    50
100
AcDbLine
 10
-16.710625961
 20
5.564278457
 30
0.0
 11
-15.702519566
 21
5.681178533
 31
0.0
  0
LINE
  5
2D
330
1D
100
AcDbEntity
  8
SK1
  6
Continuous
370
    50
100
AcDbLine
 10
-15.702519566
 20
5.681178533
 30
0.0
 11
-14.705377631
 21
5.632695742
 31
0.0
  0
LINE
  5
2E
330
1D
100
AcDbEntity
  8
SK1
  6
Continuous
370
    50
100
AcDbLine
 10
-14.705377631
 20
5.632695742
 30
0.0
 11
-13.730789535
 21
5.425866693
 31
0.0
  0
LINE
  5
2F
330
1D
100
AcDbEntity
  8
SK1
  6
Continuous
370
    50
100
AcDbLine
 10
-13.730789535
 20
5.425866693
 30
0.0
 11
-12.810882181
 21
5.066479091
 31
0.0
  0
LINE
  5
30
330
1D
100
AcDbEntity
  8
SK1
  6
Continuous
370
    50
100
AcDbLine
 10
-12.810882181
 20
5.066479091
 30
0.0
 11
-11.964477599
 21
4.564785864
 31
0.0
  0
LINE
  5
31
330
1D
100
AcDbEntity
  8
SK1
  6
Continuous
370
    50
100
AcDbLine
 10
-11.964477599
 20
4.564785864
 30
0.0
 11
-11.200563051
 21
3.915967885
 31
0.0
  0
LINE
  5
32
330
1D
100
AcDbEntity
  8
SK1
  6
Continuous
370
    50
100
AcDbLine
 10
-11.200563051
 20
3.915967885
 30
0.0
 11
-10.558930226
 21
3.145723836
 31
0.0
  0
LINE
  5
33
330
1D
100
AcDbEntity
  8
SK1
  6
Continuous
370
    50
100
AcDbLine
 10
-10.558930226
 20
3.145723836
 30
0.0
 11
-10.068262927
 21
2.283057431
 31
0.0
  0
LINE
  5
34
330
1D
100
AcDbEntity
  8
SK1
  6
Continuous
370
    50
100
AcDbLine
 10
-10.068262927
 20
2.283057431
 30
0.0
 11
-9.736262262
 21
1.343887416
 31
0.0
  0
LINE
  5
35
330
1D
100
AcDbEntity
  8
SK1
  6
Continuous
370
    50
100
AcDbLine
 10
-9.736262262
 20
1.343887416
 30
0.0
 11
-9.585407563
 21
0.423819059
 31
0.0
  0
LINE
  5
36
330
1D
100
AcDbEntity
  8
SK1
  6
Continuous
370
    50
100
AcDbLine
 10
-9.585407563
 20
0.423819059
 30
0.0
 11
-9.592041373
 21
-0.509502366
 31
0.0
  0
LINE
  5
37
330
1D
100
AcDbEntity
  8
SK1
  6
Continuous
370
    50
100
AcDbLine
 10
-9.592041373
 20
-0.509502366
 30
0.0
 11
-9.745568968
 21
-1.37793459
 31
0.0
  0
LINE
  5
38
330
1D
100
AcDbEntity
  8
SK1
  6
Continuous
370
    50
100
AcDbLine
 10
-9.745568968
 20
-1.37793459
 30
0.0
 11
-10.034060106
 21
-2.208650112
 31
0.0
  0
LINE
  5
39
330
1D
100
AcDbEntity
  8
SK1
  6
Continuous
370
    50
100
AcDbLine
 10
-10.034060106
 20
-2.208650112
 30
0.0
 11
-10.456990451
 21
-2.992689842
 31
0.0
  0
LINE
  5
3A
330
1D
100
AcDbEntity
  8
SK1
  6
Continuous
370
    50
100
AcDbLine
 10
-10.456990451
 20
-2.992689842
 30
0.0
 11
-10.995650664
 21
-3.69921769
 31
0.0
  0
LINE
  5
3B
330
1D
100
AcDbEntity
  8
SK1
  6
Continuous
370
    50
100
AcDbLine
 10
-10.995650664
 20
-3.69921769
 30
0.0
 11
-11.683046818
 21
-4.351147451
 31
0.0
  0
LINE
  5
3C
330
1D
100
AcDbEntity
  8
SK1
  6
Continuous
370
    50
100
AcDbLine
 10
-11.683046818
 20
-4.351147451
 30
0.0
 11
-12.466948479
 21
-4.885470495
 31
0.0
  0
LINE
  5
3D
330
1D
100
AcDbEntity
  8
SK1
  6
Continuous
370
    50
100
AcDbLine
 10
-12.466948479
 20
-4.885470495
 30
0.0
 11
-13.376886956
 21
-5.30746486
 31
0.0
  0
LINE
  5
3E
330
1D
100
AcDbEntity
  8
SK1
  6
Continuous
370
    50
100
AcDbLine
 10
-13.376886956
 20
-5.30746486
 30
0.0
 11
-14.347390272
 21
-5.576191004
 31
0.0
  0
LINE
  5
3F
330
1D
100
AcDbEntity
  8
SK1
  6
Continuous
370
    50
100
AcDbLine
 10
-14.347390272
 20
-5.576191004
 30
0.0
 11
-15.350614674
 21
-5.682075396
 31
0.0
  0
LINE
  5
40
330
1D
100
AcDbEntity
  8
SK1
  6
Continuous
370
    50
100
AcDbLine
 10
-15.350614674
 20
-5.682075396
 30
0.0
 11
-16.358187422
 21
-5.624711048
 31
0.0
  0
LINE
  5
41
330
1D
100
AcDbEntity
  8
SK1
  6
Continuous
370
    50
100
AcDbLine
 10
-16.358187422
 20
-5.624711048
 30
0.0
 11
-17.323076725
 21
-5.408924539
 31
0.0
  0
LINE
  5
42
330
1D
100
AcDbEntity
  8
SK1
  6
Continuous
370
    50
100
AcDbLine
 10
-17.323076725
 20
-5.408924539
 30
0.0
 11
-18.237670884
 21
-5.043099634
 31
0.0
  0
LINE
  5
43
330
1D
100
AcDbEntity
  8
SK1
  6
Continuous
370
    50
100
AcDbLine
 10
-18.237670884
 20
-5.043099634
 30
0.0
 11
-19.087541848
 21
-4.526744131
 31
0.0
  0
LINE
  5
44
330
1D
100
AcDbEntity
  8
SK1
  6
Continuous
370
    50
100
AcDbLine
 10
-19.087541848
 20
-4.526744131
 30
0.0
 11
-19.838003442
 21
-3.877508221
 31
0.0
  0
LINE
  5
45
330
1D
100
AcDbEntity
  8
SK1
  6
Continuous
370
    50
100
AcDbLine
 10
-19.838003442
 20
-3.877508221
 30
0.0
 11
-20.472114906
 21
-3.099298105
 31
0.0
  0
LINE
  5
46
330
1D
100
AcDbEntity
  8
SK1
  6
Continuous
370
    50
100
AcDbLine
 10
-20.472114906
 20
-3.099298105
 30
0.0
 11
-20.961144939
 21
-2.219520975
 31
0.0
  0
LINE
  5
47
330
1D
100
AcDbEntity
  8
SK1
  6
Continuous
370
    50
100
AcDbLine
 10
-20.961144939
 20
-2.219520975
 30
0.0
 11
-21.272253245
 21
-1.306639169
 31
0.0
  0
LINE
  5
48
330
1D
100
AcDbEntity
  8
SK1
  6
Continuous
370
    50
100
AcDbLine
 10
-21.272253245
 20
-1.306639169
 30
0.0
 11
-21.420523524
 21
-0.350781047
 31
0.0
  0
LINE
  5
49
330
1D
100
AcDbEntity
  8
SK1
  6
Continuous
370
    50
100
AcDbLine
 10
-21.420523524
 20
-0.350781047
 30
0.0
 11
-21.403502673
 21
0.548772863
 31
0.0
  0
LINE
  5
4A
330
1D
100
AcDbEntity
  8
SK1
  6
Continuous
370
    50
100
AcDbLine
 10
-21.403502673
 20
0.548772863
 30
0.0
 11
-21.240489557
 21
1.432385179
 31
0.0
  0
LINE
  5
4B
330
1D
100
AcDbEntity
  8
SK1
  6
Continuous
370
    50
100
AcDbLine
 10
-21.240489557
 20
1.432385179
 30
0.0
 11
-20.942863077
 21
2.259294502
 31
0.0
  0
LINE
  5
4C
330
1D
100
AcDbEntity
  8
SK1
  6
Continuous
370
    50
100
AcDbLine
 10
-20.942863077
 20
2.259294502
 30
0.0
 11
-20.521176979
 21
3.026973456
 31
0.0
  0
LINE
  5
4D
330
1D
100
AcDbEntity
  8
SK1
  6
Continuous
370
    50
100
AcDbLine
 10
-20.521176979
 20
3.026973456
 30
0.0
 11
-19.659213722
 21
4.053425044
 31
0.0
  0
LINE
  5
4E
330
1D
100
AcDbEntity
  8
SK1
  6
Continuous
370
    50
100
AcDbLine
 10
-1.485441491
 20
-17.804343093
 30
0.0
 11
-1.485441462
 21
17.804343253
 31
0.0
  0
LINE
  5
4F
330
1D
100
AcDbEntity
  8
SK1
  6
Continuous
370
    50
100
AcDbLine
 10
-1.485441462
 20
17.804343253
 30
0.0
 11
-1.967724646
 21
17.64703542
 31
0.0
  0
LINE
  5
50
330
1D
100
AcDbEntity
  8
SK1
  6
Continuous
370
    50
100
AcDbLine
 10
-1.967724646
 20
17.64703542
 30
0.0
 11
-2.586885588
 21
17.458422109
 31
0.0
  0
LINE
  5
51
330
1D
100
AcDbEntity
  8
SK1
  6
Continuous
370
    50
100
AcDbLine
 10
-2.586885588
 20
17.458422109
 30
0.0
 11
-3.408091608
 21
17.232226208
 31
0.0
  0
LINE
  5
52
330
1D
100
AcDbEntity
  8
SK1
  6
Continuous
370
    50
100
AcDbLine
 10
-3.408091608
 20
17.232226208
 30
0.0
 11
-4.364899825
 21
17.004549503
 31
0.0
  0
LINE
  5
53
330
1D
100
AcDbEntity
  8
SK1
  6
Continuous
370
    50
100
AcDbLine
 10
-4.364899825
 20
17.004549503
 30
0.0
 11
-5.533869378
 21
16.781080514
 31
0.0
  0
LINE
  5
54
330
1D
100
AcDbEntity
  8
SK1
  6
Continuous
370
    50
100
AcDbLine
 10
-5.533869378
 20
16.781080514
 30
0.0
 11
-6.824044976
 21
16.607133672
 31
0.0
  0
LINE
  5
55
330
1D
100
AcDbEntity
  8
SK1
  6
Continuous
370
    50
100
AcDbLine
 10
-6.824044976
 20
16.607133672
 30
0.0
 11
-8.202673867
 21
16.508322209
 31
0.0
  0
LINE
  5
56
330
1D
100
AcDbEntity
  8
SK1
  6
Continuous
370
    50
100
AcDbLine
 10
-8.202673867
 20
16.508322209
 30
0.0
 11
-9.646022692
 21
16.503039747
 31
0.0
  0
LINE
  5
57
330
1D
100
AcDbEntity
  8
SK1
  6
Continuous
370
    50
100
AcDbLine
 10
-9.646022692
 20
16.503039747
 30
0.0
 11
-11.007836089
 21
16.590222716
 31
0.0
  0
LINE
  5
58
330
1D
100
AcDbEntity
  8
SK1
  6
Continuous
370
    50
100
AcDbLine
 10
-11.007836089
 20
16.590222716
 30
0.0
 11
-12.351162732
 21
16.762442887
 31
0.0
  0
LINE
  5
59
330
1D
100
AcDbEntity
  8
SK1
  6
Continuous
370
    50
100
AcDbLine
 10
-12.351162732
 20
16.762442887
 30
0.0
 11
-13.575471006
 21
16.9916749
 31
0.0
  0
LINE
  5
5A
330
1D
100
AcDbEntity
  8
SK1
  6
Continuous
370
    50
100
AcDbLine
 10
-13.575471006
 20
16.9916749
 30
0.0
 11
-14.704412781
 21
17.261561006
 31
0.0
  0
LINE
  5
5B
330
1D
100
AcDbEntity
  8
SK1
  6
Continuous
370
    50
100
AcDbLine
 10
-14.704412781
 20
17.261561006
 30
0.0
 11
-15.635402873
 21
17.524383962
 31
0.0
  0
LINE
  5
5C
330
1D
100
AcDbEntity
  8
SK1
  6
Continuous
370
    50
100
AcDbLine
 10
-15.635402873
 20
17.524383962
 30
0.0
 11
-16.389816999
 21
17.762798816
 31
0.0
  0
LINE
  5
5D
330
1D
100
AcDbEntity
  8
SK1
  6
Continuous
370
    50
100
AcDbLine
 10
-16.389816999
 20
17.762798816
 30
0.0
 11
-16.832297668
 21
17.912818119
 31
0.0
  0
LINE
  5
5E
330
1D
100
AcDbEntity
  8
SK1
  6
Continuous
370
    50
100
AcDbLine
 10
-16.832297668
 20
17.912818119
 30
0.0
 11
-17.058301717
 21
17.999999225
 31
0.0
  0
LINE
  5
5F
330
1D
100
AcDbEntity
  8
SK1
  6
Continuous
370
    50
100
AcDbLine
 10
-17.058301717
 20
17.999999225
 30
0.0
 11
-35.0
 21
18.0
 31
0.0
  0
LINE
  5
60
330
1D
100
AcDbEntity
  8
SK1
  6
Continuous
370
    50
100
AcDbLine
 10
-35.0
 20
18.0
 30
0.0
 11
-37.177189596
 21
17.694015957
 31
0.0
  0
LINE
  5
61
330
1D
100
AcDbEntity
  8
SK1
  6
Continuous
370
    50
100
AcDbLine
 10
-37.177189596
 20
17.694015957
 30
0.0
 11
-38.826351822
 21
17.984807753
 31
0.0
  0
ARC
  5
62
330
1D
100
AcDbEntity
  8
SK1
  6
Continuous
370
    50
100
AcDbCircle
 10
-39.0
 20
17.0
 30
0.0
 40
1.0
100
AcDbArc
 50
80.0
 51
180.0
  0
LINE
  5
63
330
1D
100
AcDbEntity
  8
SK1
  6
Continuous
370
    50
100
AcDbLine
 10
-40.0
 20
17.0
 30
0.0
 11
-40.0
 21
-17.0
 31
0.0
  0
ARC
  5
64
330
1D
100
AcDbEntity
  8
SK1
  6
Continuous
370
    50
100
AcDbCircle
 10
-39.0
 20
-17.0
 30
0.0
 40
1.0
100
AcDbArc
 50
180.0
 51
280.000000002
  0
LINE
  5
65
330
1D
100
AcDbEntity
  8
SK1
  6
Continuous
370
    50
100
AcDbLine
 10
-38.826351822
 20
-17.984807753
 30
0.0
 11
-37.177189596
 21
-17.694015957
 31
0.0
  0
LINE
  5
66
330
1D
100
AcDbEntity
  8
SK1
  6
Continuous
370
    50
100
AcDbLine
 10
-37.177189596
 20
-17.694015957
 30
0.0
 11
-35.0
 21
-18.0
 31
0.0
  0
LINE
  5
67
330
1D
100
AcDbEntity
  8
SK1
  6
Continuous
370
    50
100
AcDbLine
 10
-35.0
 20
-18.0
 30
0.0
 11
-17.065489665
 21
-17.999999225
 31
0.0
  0
LINE
  5
68
330
1D
100
AcDbEntity
  8
SK1
  6
Continuous
370
    50
100
AcDbLine
 10
-38.714016473
 20
-7.019484723
 30
0.0
 11
-38.714016473
 21
7.019484723
 31
0.0
  0
LINE
  5
69
330
1D
100
AcDbEntity
  8
SK1
  6
Continuous
370
    50
100
AcDbLine
 10
-38.714016473
 20
7.019484723
 30
0.0
 11
-38.826350123
 21
7.764190901
 31
0.0
  0
LINE
  5
6A
330
1D
100
AcDbEntity
  8
SK1
  6
Continuous
370
    50
100
AcDbLine
 10
-38.826350123
 20
7.764190901
 30
0.0
 11
-38.89118135
 21
7.921804674
 31
0.0
  0
LINE
  5
6B
330
1D
100
AcDbEntity
  8
SK1
  6
Continuous
370
    50
100
AcDbLine
 10
-38.89118135
 20
7.921804674
 30
0.0
 11
-38.947012275
 21
7.989772595
 31
0.0
  0
LINE
  5
6C
330
1D
100
AcDbEntity
  8
SK1
  6
Continuous
370
    50
100
AcDbLine
 10
-38.947012275
 20
7.989772595
 30
0.0
 11
-38.972716779
 21
8.004603907
 31
0.0
  0
LINE
  5
6D
330
1D
100
AcDbEntity
  8
SK1
  6
Continuous
370
    50
100
AcDbLine
 10
-38.972716779
 20
8.004603907
 30
0.0
 11
-38.995485753
 21
8.009750396
 31
0.0
  0
LINE
  5
6E
330
1D
100
AcDbEntity
  8
SK1
  6
Continuous
370
    50
100
AcDbLine
 10
-38.995485753
 20
8.009750396
 30
0.0
 11
-39.018865675
 21
8.007368073
 31
0.0
  0
LINE
  5
6F
330
1D
100
AcDbEntity
  8
SK1
  6
Continuous
370
    50
100
AcDbLine
 10
-39.018865675
 20
8.007368073
 30
0.0
 11
-39.044369012
 21
7.995833643
 31
0.0
  0
LINE
  5
70
330
1D
100
AcDbEntity
  8
SK1
  6
Continuous
370
    50
100
AcDbLine
 10
-39.044369012
 20
7.995833643
 30
0.0
 11
-39.078358561
 21
7.965301163
 31
0.0
  0
LINE
  5
71
330
1D
100
AcDbEntity
  8
SK1
  6
Continuous
370
    50
100
AcDbLine
 10
-39.078358561
 20
7.965301163
 30
0.0
 11
-39.141967893
 21
7.854112424
 31
0.0
  0
LINE
  5
72
330
1D
100
AcDbEntity
  8
SK1
  6
Continuous
370
    50
100
AcDbLine
 10
-39.141967893
 20
7.854112424
 30
0.0
 11
-39.242811501
 21
7.39615364
 31
0.0
  0
LINE
  5
73
330
1D
100
AcDbEntity
  8
SK1
  6
Continuous
370
    50
100
AcDbLine
 10
-39.242811501
 20
7.39615364
 30
0.0
 11
-39.262249881
 21
7.019484723
 31
0.0
  0
LINE
  5
74
330
1D
100
AcDbEntity
  8
SK1
  6
Continuous
370
    50
100
AcDbLine
 10
-39.262249881
 20
7.019484723
 30
0.0
 11
-39.262250066
 21
-7.019484881
 31
0.0
  0
LINE
  5
75
330
1D
100
AcDbEntity
  8
SK1
  6
Continuous
370
    50
100
AcDbLine
 10
-39.262250066
 20
-7.019484881
 30
0.0
 11
-39.173852652
 21
-7.763511036
 31
0.0
  0
LINE
  5
76
330
1D
100
AcDbEntity
  8
SK1
  6
Continuous
370
    50
100
AcDbLine
 10
-39.173852652
 20
-7.763511036
 30
0.0
 11
-39.098985493
 21
-7.937644608
 31
0.0
  0
LINE
  5
77
330
1D
100
AcDbEntity
  8
SK1
  6
Continuous
370
    50
100
AcDbLine
 10
-39.098985493
 20
-7.937644608
 30
0.0
 11
-39.065975696
 21
-7.978510112
 31
0.0
  0
LINE
  5
78
330
1D
100
AcDbEntity
  8
SK1
  6
Continuous
370
    50
100
AcDbLine
 10
-39.065975696
 20
-7.978510112
 30
0.0
 11
-39.037529379
 21
-7.999856025
 31
0.0
  0
LINE
  5
79
330
1D
100
AcDbEntity
  8
SK1
  6
Continuous
370
    50
100
AcDbLine
 10
-39.037529379
 20
-7.999856025
 30
0.0
 11
-39.013974369
 21
-8.008509874
 31
0.0
  0
LINE
  5
7A
330
1D
100
AcDbEntity
  8
SK1
  6
Continuous
370
    50
100
AcDbLine
 10
-39.013974369
 20
-8.008509874
 30
0.0
 11
-38.988430053
 21
-8.008945733
 31
0.0
  0
LINE
  5
7B
330
1D
100
AcDbEntity
  8
SK1
  6
Continuous
370
    50
100
AcDbLine
 10
-38.988430053
 20
-8.008945733
 30
0.0
 11
-38.967423141
 21
-8.002341725
 31
0.0
  0
LINE
  5
7C
330
1D
100
AcDbEntity
  8
SK1
  6
Continuous
370
    50
100
AcDbLine
 10
-38.967423141
 20
-8.002341725
 30
0.0
 11
-38.937963545
 21
-7.982201874
 31
0.0
  0
LINE
  5
7D
330
1D
100
AcDbEntity
  8
SK1
  6
Continuous
370
    50
100
AcDbLine
 10
-38.937963545
 20
-7.982201874
 30
0.0
 11
-38.895081729
 21
-7.928304374
 31
0.0
  0
LINE
  5
7E
330
1D
100
AcDbEntity
  8
SK1
  6
Continuous
370
    50
100
AcDbLine
 10
-38.895081729
 20
-7.928304374
 30
0.0
 11
-38.826351822
 21
-7.76419111
 31
0.0
  0
LINE
  5
7F
330
1D
100
AcDbEntity
  8
SK1
  6
Continuous
370
    50
100
AcDbLine
 10
-38.826351822
 20
-7.76419111
 30
0.0
 11
-38.714016473
 21
-7.019484723
 31
0.0
  0
LINE
  5
80
330
1D
100
AcDbEntity
  8
SK1
  6
Continuous
370
    50
100
AcDbLine
 10
-17.076343298
 20
-17.998691648
 30
0.0
 11
-16.943307593
 21
-17.951607704
 31
0.0
  0
LINE
  5
81
330
1D
100
AcDbEntity
  8
SK1
  6
Continuous
370
    50
100
AcDbLine
 10
-16.943307593
 20
-17.951607704
 30
0.0
 11
-16.662636772
 21
-17.854424193
 31
0.0
  0
LINE
  5
82
330
1D
100
AcDbEntity
  8
SK1
  6
Continuous
370
    50
100
AcDbLine
 10
-16.662636772
 20
-17.854424193
 30
0.0
 11
-16.23028703
 21
-17.710536718
 31
0.0
  0
LINE
  5
83
330
1D
100
AcDbEntity
  8
SK1
  6
Continuous
370
    50
100
AcDbLine
 10
-16.23028703
 20
-17.710536718
 30
0.0
 11
-15.639992431
 21
-17.525766045
 31
0.0
  0
LINE
  5
84
330
1D
100
AcDbEntity
  8
SK1
  6
Continuous
370
    50
100
AcDbLine
 10
-15.639992431
 20
-17.525766045
 30
0.0
 11
-14.910979196
 21
-17.316803336
 31
0.0
  0
LINE
  5
85
330
1D
100
AcDbEntity
  8
SK1
  6
Continuous
370
    50
100
AcDbLine
 10
-14.910979196
 20
-17.316803336
 30
0.0
 11
-13.972918503
 21
-17.080426216
 31
0.0
  0
LINE
  5
86
330
1D
100
AcDbEntity
  8
SK1
  6
Continuous
370
    50
100
AcDbLine
 10
-13.972918503
 20
-17.080426216
 30
0.0
 11
-12.901405804
 21
-16.857108101
 31
0.0
  0
LINE
  5
87
330
1D
100
AcDbEntity
  8
SK1
  6
Continuous
370
    50
100
AcDbLine
 10
-12.901405804
 20
-16.857108101
 30
0.0
 11
-11.639622971
 21
-16.660694033
 31
0.0
  0
LINE
  5
88
330
1D
100
AcDbEntity
  8
SK1
  6
Continuous
370
    50
100
AcDbLine
 10
-11.639622971
 20
-16.660694033
 30
0.0
 11
-10.269371793
 21
-16.531895846
 31
0.0
  0
LINE
  5
89
330
1D
100
AcDbEntity
  8
SK1
  6
Continuous
370
    50
100
AcDbLine
 10
-10.269371793
 20
-16.531895846
 30
0.0
 11
-8.875224739
 21
-16.493318602
 31
0.0
  0
LINE
  5
8A
330
1D
100
AcDbEntity
  8
SK1
  6
Continuous
370
    50
100
AcDbLine
 10
-8.875224739
 20
-16.493318602
 30
0.0
 11
-7.443337701
 21
-16.551487148
 31
0.0
  0
LINE
  5
8B
330
1D
100
AcDbEntity
  8
SK1
  6
Continuous
370
    50
100
AcDbLine
 10
-7.443337701
 20
-16.551487148
 30
0.0
 11
-6.116462406
 21
-16.692923382
 31
0.0
  0
LINE
  5
8C
330
1D
100
AcDbEntity
  8
SK1
  6
Continuous
370
    50
100
AcDbLine
 10
-6.116462406
 20
-16.692923382
 30
0.0
 11
-4.833437502
 21
-16.907623038
 31
0.0
  0
LINE
  5
8D
330
1D
100
AcDbEntity
  8
SK1
  6
Continuous
370
    50
100
AcDbLine
 10
-4.833437502
 20
-16.907623038
 30
0.0
 11
-3.68075748
 21
-17.163343728
 31
0.0
  0
LINE
  5
8E
330
1D
100
AcDbEntity
  8
SK1
  6
Continuous
370
    50
100
AcDbLine
 10
-3.68075748
 20
-17.163343728
 30
0.0
 11
-2.649721922
 21
-17.440136522
 31
0.0
  0
LINE
  5
8F
330
1D
100
AcDbEntity
  8
SK1
  6
Continuous
370
    50
100
AcDbLine
 10
-2.649721922
 20
-17.440136522
 30
0.0
 11
-2.006522613
 21
-17.634771764
 31
0.0
  0
LINE
  5
90
330
1D
100
AcDbEntity
  8
SK1
  6
Continuous
370
    50
100
AcDbLine
 10
-2.006522613
 20
-17.634771764
 30
0.0
 11
-1.485441462
 21
-17.804343253
 31
0.0
  0
LINE
  5
91
330
1D
100
AcDbEntity
  8
SK1
  6
Continuous
370
    50
100
AcDbLine
 10
-1.485441462
 20
-17.804343253
 30
0.0
 11
-1.116437023
 21
-17.851863056
 31
0.0
  0
LINE
  5
92
330
1D
100
AcDbEntity
  8
SK1
  6
Continuous
370
    50
100
AcDbLine
 10
-1.116437023
 20
-17.851863056
 30
0.0
 11
-0.996349729
 21
-17.8689491
 31
0.0
  0
LINE
  5
93
330
1D
100
AcDbEntity
  8
SK1
  6
Continuous
370
    50
100
AcDbLine
 10
-0.996349729
 20
-17.8689491
 30
0.0
 11
-0.429409523
 21
-17.717037087
 31
0.0
  0
ARC
  5
94
330
1D
100
AcDbEntity
  8
SK1
  6
Continuous
370
    50
100
AcDbCircle
 10
-0.3
 20
-18.2
 30
0.0
 40
0.5
100
AcDbArc
 50
53.130102354
 51
105.0
  0
LINE
  5
95
330
1D
100
AcDbEntity
  8
SK1
  6
Continuous
370
    50
100
AcDbLine
 10
-2.034999896
 20
17.626540735
 30
0.0
 11
-2.035
 21
17.782050808
 31
0.0
  0
ARC
  5
96
330
1D
100
AcDbEntity
  8
SK1
  6
Continuous
370
    50
100
AcDbCircle
 10
-3.035
 20
17.782050808
 30
0.0
 40
1.0
100
AcDbArc
 50
0.0
 51
30.0
  0
LINE
  5
97
330
1D
100
AcDbEntity
  8
SK1
  6
Continuous
370
    50
100
AcDbLine
 10
-2.168974596
 20
18.282050808
 30
0.0
 11
-3.738183294
 21
21.0
 31
0.0
  0
ARC
  5
98
330
1D
100
AcDbEntity
  8
SK1
  6
Continuous
370
    50
100
AcDbCircle
 10
-4.604208698
 20
20.5
 30
0.0
 40
1.0
100
AcDbArc
 50
30.0
 51
90.0
  0
LINE
  5
99
330
1D
100
AcDbEntity
  8
SK1
  6
Continuous
370
    50
100
AcDbLine
 10
-4.604208698
 20
21.5
 30
0.0
 11
-13.395791302
 21
21.5
 31
0.0
  0
ARC
  5
9A
330
1D
100
AcDbEntity
  8
SK1
  6
Continuous
370
    50
100
AcDbCircle
 10
-13.395791302
 20
20.5
 30
0.0
 40
1.0
100
AcDbArc
 50
90.0
 51
150.0
  0
LINE
  5
9B
330
1D
100
AcDbEntity
  8
SK1
  6
Continuous
370
    50
100
AcDbLine
 10
-14.261816706
 20
21.0
 30
0.0
 11
-15.831025404
 21
18.282050808
 31
0.0
  0
ARC
  5
9C
330
1D
100
AcDbEntity
  8
SK1
  6
Continuous
370
    50
100
AcDbCircle
 10
-14.965
 20
17.782050808
 30
0.0
 40
1.0
100
AcDbArc
 50
150.0
 51
180.0
  0
LINE
  5
9D
330
1D
100
AcDbEntity
  8
SK1
  6
Continuous
370
    50
100
AcDbLine
 10
-15.965
 20
17.782050808
 30
0.0
 11
-15.964999795
 21
17.628544942
 31
0.0
  0
LINE
  5
9E
330
1D
100
AcDbEntity
  8
SK1
  6
Continuous
370
    50
100
AcDbLine
 10
-15.964999795
 20
-17.627498135
 30
0.0
 11
-15.965
 21
-17.782050808
 31
0.0
  0
ARC
  5
9F
330
1D
100
AcDbEntity
  8
SK1
  6
Continuous
370
    50
100
AcDbCircle
 10
-14.965
 20
-17.782050808
 30
0.0
 40
1.0
100
AcDbArc
 50
180.0
 51
210.0
  0
LINE
  5
A0
330
1D
100
AcDbEntity
  8
SK1
  6
Continuous
370
    50
100
AcDbLine
 10
-15.831025404
 20
-18.282050808
 30
0.0
 11
-14.261816706
 21
-21.0
 31
0.0
  0
ARC
  5
A1
330
1D
100
AcDbEntity
  8
SK1
  6
Continuous
370
    50
100
AcDbCircle
 10
-13.395791302
 20
-20.5
 30
0.0
 40
1.0
100
AcDbArc
 50
210.0
 51
270.0
  0
LINE
  5
A2
330
1D
100
AcDbEntity
  8
SK1
  6
Continuous
370
    50
100
AcDbLine
 10
-13.395791302
 20
-21.5
 30
0.0
 11
-4.604208698
 21
-21.5
 31
0.0
  0
ARC
  5
A3
330
1D
100
AcDbEntity
  8
SK1
  6
Continuous
370
    50
100
AcDbCircle
 10
-4.604208698
 20
-20.5
 30
0.0
 40
1.0
100
AcDbArc
 50
270.0
 51
330.0
  0
LINE
  5
A4
330
1D
100
AcDbEntity
  8
SK1
  6
Continuous
370
    50
100
AcDbLine
 10
-3.738183294
 20
-21.0
 30
0.0
 11
-2.168974596
 21
-18.282050808
 31
0.0
  0
ARC
  5
A5
330
1D
100
AcDbEntity
  8
SK1
  6
Continuous
370
    50
100
AcDbCircle
 10
-3.035
 20
-17.782050808
 30
0.0
 40
1.0
100
AcDbArc
 50
330.0
 51
0.0
  0
LINE
  5
A6
330
1D
100
AcDbEntity
  8
SK1
  6
Continuous
370
    50
100
AcDbLine
 10
-2.035
 20
-17.782050808
 30
0.0
 11
-2.034999896
 21
-17.626153305
 31
0.0
  0
LINE
  5
A7
330
1D
100
AcDbEntity
  8
SK1
  6
Continuous
370
    50
100
AcDbLine
 10
-35.0
 20
-8.009895165
 30
0.0
 11
-9.0
 21
-8.009895165
 31
0.0
  0
LINE
  5
A8
330
1D
100
AcDbEntity
  8
SK1
  6
Continuous
370
    50
100
AcDbLine
 10
-9.0
 20
-8.009895165
 30
0.0
 11
-9.0
 21
8.009895165
 31
0.0
  0
LINE
  5
A9
330
1D
100
AcDbEntity
  8
SK1
  6
Continuous
370
    50
100
AcDbLine
 10
-9.0
 20
8.009895165
 30
0.0
 11
-35.000000149
 21
8.009894751
 31
0.0
  0
LINE
  5
AA
330
1D
100
AcDbEntity
  8
SK1
  6
Continuous
370
    50
100
AcDbLine
 10
-35.000000149
 20
8.009894751
 30
0.0
 11
-35.235881805
 21
7.246821187
 31
0.0
  0
LINE
  5
AB
330
1D
100
AcDbEntity
  8
SK1
  6
Continuous
370
    50
100
AcDbLine
 10
-35.235881805
 20
7.246821187
 30
0.0
 11
-35.24903794
 21
7.019484723
 31
0.0
  0
LINE
  5
AC
330
1D
100
AcDbEntity
  8
SK1
  6
Continuous
370
    50
100
AcDbLine
 10
-35.24903794
 20
7.019484723
 30
0.0
 11
-35.249039531
 21
-7.019484881
 31
0.0
  0
LINE
  5
AD
330
1D
100
AcDbEntity
  8
SK1
  6
Continuous
370
    50
100
AcDbLine
 10
-35.249039531
 20
-7.019484881
 30
0.0
 11
-35.094488412
 21
-7.799373474
 31
0.0
  0
LINE
  5
AE
330
1D
100
AcDbEntity
  8
SK1
  6
Continuous
370
    50
100
AcDbLine
 10
-35.094488412
 20
-7.799373474
 30
0.0
 11
-35.0
 21
-8.009895165
 31
0.0
  0
LINE
  5
AF
330
1D
100
AcDbEntity
  8
SK1
  6
Continuous
370
    50
100
AcDbLine
 10
-35.0
 20
-8.009895165
 30
0.0
 11
-35.0
 21
-18.0
 31
0.0
  0
LINE
  5
B0
330
1D
100
AcDbEntity
  8
SK1
  6
Continuous
370
    50
100
AcDbLine
 10
-1.485441462
 20
17.804343253
 30
0.0
 11
-1.123457448
 21
17.850898206
 31
0.0
  0
LINE
  5
B1
330
1D
100
AcDbEntity
  8
SK1
  6
Continuous
370
    50
100
AcDbLine
 10
-1.123457448
 20
17.850898206
 30
0.0
 11
-0.996349729
 21
17.8689491
 31
0.0
  0
LINE
  5
B2
330
1D
100
AcDbEntity
  8
SK1
  6
Continuous
370
    50
100
AcDbLine
 10
-0.996349729
 20
17.8689491
 30
0.0
 11
-0.429409523
 21
17.717037087
 31
0.0
  0
ARC
  5
B3
330
1D
100
AcDbEntity
  8
SK1
  6
Continuous
370
    50
100
AcDbCircle
 10
-0.3
 20
18.2
 30
0.0
 40
0.5
100
AcDbArc
 50
255.0
 51
306.8698976460001
  0
LINE
  5
B4
330
1D
100
AcDbEntity
  8
SK1
  6
Continuous
370
    50
100
AcDbLine
 10
-35.0
 20
8.009895165
 30
0.0
 11
-35.0
 21
18.0
 31
0.0
  0
LINE
  5
B5
330
1D
100
AcDbEntity
  8
SK1
  6
Continuous
370
    50
100
AcDbLine
 10
-37.177189596
 20
-17.694015957
 30
0.0
 11
-37.177189596
 21
17.694015957
 31
0.0
  0
LINE
  5
B6
330
1D
100
AcDbEntity
  8
SK1
  6
Continuous
370
    50
100
AcDbLine
 10
-38.826351822
 20
7.76419111
 30
0.0
 11
-38.826351822
 21
17.984807753
 31
0.0
  0
LINE
  5
B7
330
1D
100
AcDbEntity
  8
SK1
  6
Continuous
370
    50
100
AcDbLine
 10
-38.826351822
 20
-17.984807753
 30
0.0
 11
-38.826351822
 21
-7.76419111
 31
0.0
  0
LINE
  5
BA
330
1D
100
AcDbEntity
  8
SK4
100
AcDbLine
 10
-9.0
 20
-23.791686626
 30
0.0
 11
-9.0
 21
-8.009895165
 31
0.0
  0
LINE
  5
BB
330
1D
100
AcDbEntity
  8
SK4
100
AcDbLine
 10
-9.0
 20
8.009895165
 30
0.0
 11
-9.0
 21
23.139245565
 31
0.0
  0
CIRCLE
  5
BC
330
1D
100
AcDbEntity
  8
SK1
  6
Continuous
370
    50
100
AcDbCircle
 10
-15.5
 20
0.0
 30
0.0
 40
4.5
  0
TEXT
  5
BD
330
1D
100
AcDbEntity
  8
SK6
  6
Continuous
370
    35
100
AcDbText
 10
63.42037784969872
 20
-6.278105322999998
 30
0.0
 40
3.5
  1
337.322
  7
BMG_Text
100
AcDbText
  0
LINE
  5
BE
330
1D
100
AcDbEntity
  8
SK2
  6
Continuous
370
    25
100
AcDbLine
 10
-49.358541489
 20
-18.0
 30
0.0
 11
-35.0
 21
-18.0
 31
0.0
  0
LINE
  5
BF
330
1D
100
AcDbEntity
  8
SK2
  6
Continuous
370
    25
100
AcDbLine
 10
-47.358541489
 20
-18.0
 30
0.0
 11
-47.808541489
 21
-14.5
 31
0.0
  0
LINE
  5
C0
330
1D
100
AcDbEntity
  8
SK2
  6
Continuous
370
    25
100
AcDbLine
 10
-47.808541489
 20
-14.5
 30
0.0
 11
-46.908541489
 21
-14.5
 31
0.0
  0
LINE
  5
C1
330
1D
100
AcDbEntity
  8
SK2
  6
Continuous
370
    25
100
AcDbLine
 10
-46.908541489
 20
-14.5
 30
0.0
 11
-47.358541489
 21
-18.0
 31
0.0
  0
LINE
  5
C2
330
1D
100
AcDbEntity
  8
SK2
  6
Continuous
370
    25
100
AcDbLine
 10
-49.358541489
 20
18.0
 30
0.0
 11
-35.0
 21
18.0
 31
0.0
  0
LINE
  5
C3
330
1D
100
AcDbEntity
  8
SK2
  6
Continuous
370
    25
100
AcDbLine
 10
-47.358541489
 20
18.0
 30
0.0
 11
-46.908541489
 21
14.5
 31
0.0
  0
LINE
  5
C4
330
1D
100
AcDbEntity
  8
SK2
  6
Continuous
370
    25
100
AcDbLine
 10
-46.908541489
 20
14.5
 30
0.0
 11
-47.808541489
 21
14.5
 31
0.0
  0
LINE
  5
C5
330
1D
100
AcDbEntity
  8
SK2
  6
Continuous
370
    25
100
AcDbLine
 10
-47.808541489
 20
14.5
 30
0.0
 11
-47.358541489
 21
18.0
 31
0.0
  0
LINE
  5
C6
330
1D
100
AcDbEntity
  8
SK2
  6
Continuous
370
    25
100
AcDbLine
 10
-47.358541489
 20
-14.5
 30
0.0
 11
-47.358541489
 21
14.5
 31
0.0
  0
TEXT
  5
C7
330
1D
100
AcDbEntity
  8
SK2
  6
Continuous
370
    25
100
AcDbText
 10
-48.858541489
 20
0.331405848
 30
0.0
 40
3.5
  1
36
 50
90.0
  7
BMG_Text
100
AcDbText
  0
CIRCLE
  5
C8
330
1D
100
AcDbEntity
  8
SK2
  6
Continuous
370
    25
100
AcDbCircle
 10
-50.108541489
 20
-1.918594152
 30
0.0
 40
1.25
  0
LINE
  5
C9
330
1D
100
AcDbEntity
  8
SK2
  6
Continuous
370
    25
100
AcDbLine
 10
-48.858541489
 20
-3.168594152
 30
0.0
 11
-51.358541489
 21
-0.668594152
 31
0.0
  0
LINE
  5
CA
330
1D
100
AcDbEntity
  8
2
  6
Continuous
370
    25
100
AcDbLine
 10
-58.318401337
 20
-31.75
 30
0.0
 11
0.75
 21
-31.75
 31
0.0
  0
LINE
  5
CB
330
1D
100
AcDbEntity
  8
2
  6
Continuous
370
    25
100
AcDbLine
 10
-56.318401337
 20
-31.75
 30
0.0
 11
-56.768401337
 21
-28.25
 31
0.0
  0
LINE
  5
CC
330
1D
100
AcDbEntity
  8
2
  6
Continuous
370
    25
100
AcDbLine
 10
-56.768401337
 20
-28.25
 30
0.0
 11
-55.868401337
 21
-28.25
 31
0.0
  0
LINE
  5
CD
330
1D
100
AcDbEntity
  8
2
  6
Continuous
370
    25
100
AcDbLine
 10
-55.868401337
 20
-28.25
 30
0.0
 11
-56.318401337
 21
-31.75
 31
0.0
  0
LINE
  5
CE
330
1D
100
AcDbEntity
  8
2
  6
Continuous
370
    25
100
AcDbLine
 10
-58.318401337
 20
31.75
 30
0.0
 11
0.75
 21
31.75
 31
0.0
  0
LINE
  5
CF
330
1D
100
AcDbEntity
  8
2
  6
Continuous
370
    25
100
AcDbLine
 10
-56.318401337
 20
31.75
 30
0.0
 11
-55.868401337
 21
28.25
 31
0.0
  0
LINE
  5
D0
330
1D
100
AcDbEntity
  8
2
  6
Continuous
370
    25
100
AcDbLine
 10
-55.868401337
 20
28.25
 30
0.0
 11
-56.768401337
 21
28.25
 31
0.0
  0
LINE
  5
D1
330
1D
100
AcDbEntity
  8
2
  6
Continuous
370
    25
100
AcDbLine
 10
-56.768401337
 20
28.25
 30
0.0
 11
-56.318401337
 21
31.75
 31
0.0
  0
LINE
  5
D2
330
1D
100
AcDbEntity
  8
2
  6
Continuous
370
    25
100
AcDbLine
 10
-56.318401337
 20
-28.25
 30
0.0
 11
-56.318401337
 21
28.25
 31
0.0
  0
TEXT
  5
D3
330
1D
100
AcDbEntity
  8
2
  6
Continuous
370
    25
100
AcDbText
 10
-57.818401337
 20
-1.17250071
 30
0.0
 40
3.5
  1
63.5
 50
90.0
  7
BMG_Text
100
AcDbText
  0
CIRCLE
  5
D4
330
1D
100
AcDbEntity
  8
2
  6
Continuous
370
    25
100
AcDbCircle
 10
-59.068401337
 20
-3.42250071
 30
0.0
 40
1.25
  0
LINE
  5
D5
330
1D
100
AcDbEntity
  8
2
  6
Continuous
370
    25
100
AcDbLine
 10
-57.818401337
 20
-4.67250071
 30
0.0
 11
-60.318401337
 21
-2.17250071
 31
0.0
  0
LINE
  5
D6
330
1D
100
AcDbEntity
  8
2
  6
Continuous
370
    25
100
AcDbLine
 10
0.0
 20
-46.525366783
 30
0.0
 11
0.0
 21
-31.0
 31
0.0
  0
LINE
  5
D7
330
1D
100
AcDbEntity
  8
2
  6
Continuous
370
    25
100
AcDbLine
 10
0.0
 20
-44.525366783
 30
0.0
 11
3.499999999
 21
-44.075366776
 31
0.0
  0
LINE
  5
D8
330
1D
100
AcDbEntity
  8
2
  6
Continuous
370
    25
100
AcDbLine
 10
3.499999999
 20
-44.075366776
 30
0.0
 11
3.500000001
 21
-44.975366776
 31
0.0
  0
LINE
  5
D9
330
1D
100
AcDbEntity
  8
2
  6
Continuous
370
    25
100
AcDbLine
 10
3.500000001
 20
-44.975366776
 30
0.0
 11
0.0
 21
-44.525366783
 31
0.0
  0
LINE
  5
DA
330
1D
100
AcDbEntity
  8
2
  6
Continuous
370
    25
100
AcDbLine
 10
102.99870726
 20
-46.525366565
 30
0.0
 11
102.99870726
 21
-6.522192736
 31
0.0
  0
LINE
  5
DB
330
1D
100
AcDbEntity
  8
2
  6
Continuous
370
    25
100
AcDbLine
 10
102.99870726
 20
-44.525366565
 30
0.0
 11
99.498707261
 21
-44.975366572
 31
0.0
  0
LINE
  5
DC
330
1D
100
AcDbEntity
  8
2
  6
Continuous
370
    25
100
AcDbLine
 10
99.498707261
 20
-44.975366572
 30
0.0
 11
99.498707259
 21
-44.075366572
 31
0.0
  0
LINE
  5
DD
330
1D
100
AcDbEntity
  8
2
  6
Continuous
370
    25
100
AcDbLine
 10
99.498707259
 20
-44.075366572
 30
0.0
 11
102.99870726
 21
-44.525366565
 31
0.0
  0
LINE
  5
DE
330
1D
100
AcDbEntity
  8
2
  6
Continuous
370
    25
100
AcDbLine
 10
3.5
 20
-44.525366776
 30
0.0
 11
99.49870726
 21
-44.525366572
 31
0.0
  0
TEXT
  5
DF
330
1D
100
AcDbEntity
  8
2
  6
Continuous
370
    25
100
AcDbText
 10
49.287789976
 20
-43.025366679
 30
0.0
 40
3.5
  1
103
 50
0.000000122
  7
BMG_Text
100
AcDbText
  0
LINE
  5
E0
330
1D
100
AcDbEntity
  8
2
  6
Continuous
370
    25
100
AcDbLine
 10
36.99870726
 20
-38.227460143
 30
0.0
 11
36.99870726
 21
-9.563288925
 31
0.0
  0
LINE
  5
E1
330
1D
100
AcDbEntity
  8
2
  6
Continuous
370
    25
100
AcDbLine
 10
36.99870726
 20
-36.227460143
 30
0.0
 11
40.498707257
 21
-35.777460119
 31
0.0
  0
LINE
  5
E2
330
1D
100
AcDbEntity
  8
2
  6
Continuous
370
    25
100
AcDbLine
 10
40.498707257
 20
-35.777460119
 30
0.0
 11
40.498707263
 21
-36.677460119
 31
0.0
  0
LINE
  5
E3
330
1D
100
AcDbEntity
  8
2
  6
Continuous
370
    25
100
AcDbLine
 10
40.498707263
 20
-36.677460119
 30
0.0
 11
36.99870726
 21
-36.227460143
 31
0.0
  0
LINE
  5
E4
330
1D
100
AcDbEntity
  8
2
  6
Continuous
370
    25
100
AcDbLine
 10
102.99870726
 20
-38.227459689
 30
0.0
 11
102.99870726
 21
-6.522192736
 31
0.0
  0
LINE
  5
E5
330
1D
100
AcDbEntity
  8
2
  6
Continuous
370
    25
100
AcDbLine
 10
102.99870726
 20
-36.227459689
 30
0.0
 11
99.498707263
 21
-36.677459713
 31
0.0
  0
LINE
  5
E6
330
1D
100
AcDbEntity
  8
2
  6
Continuous
370
    25
100
AcDbLine
 10
99.498707263
 20
-36.677459713
 30
0.0
 11
99.498707257
 21
-35.777459713
 31
0.0
  0
LINE
  5
E7
330
1D
100
AcDbEntity
  8
2
  6
Continuous
370
    25
100
AcDbLine
 10
99.498707257
 20
-35.777459713
 30
0.0
 11
102.99870726
 21
-36.227459689
 31
0.0
  0
LINE
  5
E8
330
1D
100
AcDbEntity
  8
2
  6
Continuous
370
    25
100
AcDbLine
 10
40.49870726
 20
-36.227460119
 30
0.0
 11
99.49870726
 21
-36.227459713
 31
0.0
  0
TEXT
  5
E9
330
1D
100
AcDbEntity
  8
2
  6
Continuous
370
    25
100
AcDbText
 10
68.443394012
 20
-34.727459927
 30
0.0
 40
3.5
  1
66
 50
0.000000395
  7
BMG_Text
100
AcDbText
  0
LINE
  5
EA
330
1D
100
AcDbEntity
  8
1
  6
Continuous
370
    50
100
AcDbLine
 10
0.7495
 20
31.7495
 30
0.0
 11
0.0
 21
31.0
 31
0.0
  0
LINE
  5
EB
330
1D
100
AcDbEntity
  8
1
  6
Continuous
370
    50
100
AcDbLine
 10
0.0
 20
-31.0
 30
0.0
 11
0.7495
 21
-31.7495
 31
0.0
  0
LINE
  5
EC
330
1D
100
AcDbEntity
  8
1
  6
Continuous
370
    50
100
AcDbLine
 10
0.7495
 20
-31.7495
 30
0.0
 11
12.25
 21
-31.7495
 31
0.0
  0
LINE
  5
ED
330
1D
100
AcDbEntity
  8
1
  6
Continuous
370
    50
100
AcDbLine
 10
12.25
 20
31.7495
 30
0.0
 11
0.7495
 21
31.7495
 31
0.0
  0
LINE
  5
EE
330
1D
100
AcDbEntity
  8
1
  6
Continuous
370
    50
100
AcDbLine
 10
12.25
 20
-31.7495
 30
0.0
 11
13.0
 21
-30.9995
 31
0.0
  0
LINE
  5
EF
330
1D
100
AcDbEntity
  8
1
  6
Continuous
370
    50
100
AcDbLine
 10
13.0
 20
30.9995
 30
0.0
 11
12.25
 21
31.7495
 31
0.0
  0
LINE
  5
F0
330
1D
100
AcDbEntity
  8
1
  6
Continuous
370
    50
100
AcDbLine
 10
13.000000268
 20
-27.499999851
 30
0.0
 11
14.494854957
 21
-26.248306036
 31
0.0
  0
LINE
  5
F1
330
1D
100
AcDbEntity
  8
1
  6
Continuous
370
    50
100
AcDbLine
 10
14.618746936
 20
26.144566014
 30
0.0
 11
13.000000268
 21
27.499999851
 31
0.0
  0
LINE
  5
F2
330
1D
100
AcDbEntity
  8
1
  6
Continuous
370
    50
100
AcDbLine
 10
0.7495
 20
-31.7495
 30
0.0
 11
0.7495
 21
31.7495
 31
0.0
  0
LINE
  5
F3
330
1D
100
AcDbEntity
  8
1
  6
Continuous
370
    50
100
AcDbLine
 10
0.0
 20
-31.0
 30
0.0
 11
0.0
 21
31.0
 31
0.0
  0
LINE
  5
F4
330
1D
100
AcDbEntity
  8
1
  6
Continuous
370
    50
100
AcDbLine
 10
12.25
 20
-31.7495
 30
0.0
 11
12.25
 21
31.7495
 31
0.0
  0
LINE
  5
F5
330
1D
100
AcDbEntity
  8
1
  6
Continuous
370
    50
100
AcDbLine
 10
13.0
 20
30.9995
 30
0.0
 11
13.0
 21
-30.9995
 31
0.0
  0
LINE
  5
F6
330
1D
100
AcDbEntity
  8
1
  6
Continuous
370
    50
100
AcDbLine
 10
31.790032983
 20
10.619871318
 30
0.0
 11
15.608727932
 21
23.643469438
 31
0.0
  0
LINE
  5
F7
330
1D
100
AcDbEntity
  8
1
  6
Continuous
370
    50
100
AcDbLine
 10
15.608727932
 20
23.643469438
 30
0.0
 11
15.383045189
 21
23.824609816
 31
0.0
  0
LINE
  5
F8
330
1D
100
AcDbEntity
  8
1
  6
Continuous
370
    50
100
AcDbLine
 10
15.017103404
 20
24.151936173
 30
0.0
 11
15.211225487
 21
23.968176916
 31
0.0
  0
LINE
  5
F9
330
1D
100
AcDbEntity
  8
1
  6
Continuous
370
    50
100
AcDbLine
 10
15.211225487
 20
23.968176916
 30
0.0
 11
15.383045189
 21
23.824609816
 31
0.0
  0
ARC
  5
FA
330
1D
100
AcDbEntity
  8
1
  6
Continuous
370
    50
100
AcDbCircle
 10
-37.78743912
 20
16.34001222
 30
0.0
 40
53.378263497
100
AcDbArc
 50
7.276977676999998
 51
9.365293804
  0
ARC
  5
FB
330
1D
100
AcDbEntity
  8
1
  6
Continuous
370
    50
100
AcDbCircle
 10
6.054295513
 20
23.570682656
 30
0.0
 40
8.949930039
100
AcDbArc
 50
9.365293804
 51
16.632267124
  0
ARC
  5
FC
330
1D
100
AcDbEntity
  8
1
  6
Continuous
370
    50
100
AcDbCircle
 10
14.604738092
 20
26.124924504
 30
0.0
 40
0.026129295
100
AcDbArc
 50
16.632162216
 51
54.503664278
  0
LINE
  5
FD
330
1D
100
AcDbEntity
  8
1
  6
Continuous
370
    50
100
AcDbLine
 10
15.160884708
 20
23.101225495
 30
0.0
 11
15.172083862
 21
23.018250242
 31
0.0
  0
LINE
  5
FE
330
1D
100
AcDbEntity
  8
1
  6
Continuous
370
    50
100
AcDbLine
 10
15.172083862
 20
23.018250242
 30
0.0
 11
15.349485911
 21
22.093754262
 31
0.0
  0
LINE
  5
FF
330
1D
100
AcDbEntity
  8
1
  6
Continuous
370
    50
100
AcDbLine
 10
15.349485911
 20
22.093754262
 30
0.0
 11
15.667706728
 21
21.000687033
 31
0.0
  0
LINE
  5
100
330
1D
100
AcDbEntity
  8
1
  6
Continuous
370
    50
100
AcDbLine
 10
15.667706728
 20
21.000687033
 30
0.0
 11
16.069225967
 21
19.957603887
 31
0.0
  0
LINE
  5
101
330
1D
100
AcDbEntity
  8
1
  6
Continuous
370
    50
100
AcDbLine
 10
16.069225967
 20
19.957603887
 30
0.0
 11
16.599332914
 21
18.835125491
 31
0.0
  0
LINE
  5
102
330
1D
100
AcDbEntity
  8
1
  6
Continuous
370
    50
100
AcDbLine
 10
16.599332914
 20
18.835125491
 30
0.0
 11
17.258236185
 21
17.668640241
 31
0.0
  0
LINE
  5
103
330
1D
100
AcDbEntity
  8
1
  6
Continuous
370
    50
100
AcDbLine
 10
17.258236185
 20
17.668640241
 30
0.0
 11
18.028736114
 21
16.499303281
 31
0.0
  0
LINE
  5
104
330
1D
100
AcDbEntity
  8
1
  6
Continuous
370
    50
100
AcDbLine
 10
18.028736114
 20
16.499303281
 30
0.0
 11
19.10514757
 21
15.103920363
 31
0.0
  0
LINE
  5
105
330
1D
100
AcDbEntity
  8
1
  6
Continuous
370
    50
100
AcDbLine
 10
19.10514757
 20
15.103920363
 30
0.0
 11
20.282879472
 21
13.796944171
 31
0.0
  0
LINE
  5
106
330
1D
100
AcDbEntity
  8
1
  6
Continuous
370
    50
100
AcDbLine
 10
20.282879472
 20
13.796944171
 30
0.0
 11
21.457375959
 21
12.668071315
 31
0.0
  0
LINE
  5
107
330
1D
100
AcDbEntity
  8
1
  6
Continuous
370
    50
100
AcDbLine
 10
21.457375959
 20
12.668071315
 30
0.0
 11
22.678410634
 21
11.640872806
 31
0.0
  0
LINE
  5
108
330
1D
100
AcDbEntity
  8
1
  6
Continuous
370
    50
100
AcDbLine
 10
22.678410634
 20
11.640872806
 30
0.0
 11
23.92511256
 21
10.722036473
 31
0.0
  0
LINE
  5
109
330
1D
100
AcDbEntity
  8
1
  6
Continuous
370
    50
100
AcDbLine
 10
23.92511256
 20
10.722036473
 30
0.0
 11
25.78901872
 21
9.561531246
 31
0.0
  0
LINE
  5
10A
330
1D
100
AcDbEntity
  8
1
  6
Continuous
370
    50
100
AcDbLine
 10
25.78901872
 20
9.561531246
 30
0.0
 11
27.674302459
 21
8.614421822
 31
0.0
  0
LINE
  5
10B
330
1D
100
AcDbEntity
  8
1
  6
Continuous
370
    50
100
AcDbLine
 10
27.674302459
 20
8.614421822
 30
0.0
 11
29.548851773
 21
7.876483724
 31
0.0
  0
LINE
  5
10C
330
1D
100
AcDbEntity
  8
1
  6
Continuous
370
    50
100
AcDbLine
 10
29.548851773
 20
7.876483724
 30
0.0
 11
31.099999323
 21
7.410262246
 31
0.0
  0
LINE
  5
10D
330
1D
100
AcDbEntity
  8
1
  6
Continuous
370
    50
100
AcDbLine
 10
31.099999323
 20
7.410262246
 30
0.0
 11
31.790033603
 21
7.23003359
 31
0.0
  0
LINE
  5
10E
330
1D
100
AcDbEntity
  8
1
  6
Continuous
370
    50
100
AcDbLine
 10
15.232362784
 20
-23.588506505
 30
0.0
 11
31.790033603
 21
-10.408423837
 31
0.0
  0
ARC
  5
10F
330
1D
100
AcDbEntity
  8
1
  6
Continuous
370
    50
100
AcDbCircle
 10
16.552445145
 20
-25.625634903
 30
0.0
 40
2.427449186
100
AcDbArc
 50
122.9436962
 51
154.490191592
  0
ARC
  5
110
330
1D
100
AcDbEntity
  8
1
  6
Continuous
370
    50
100
AcDbCircle
 10
65.899144262
 20
-24.83609478
 30
0.0
 40
51.538135485
100
AcDbArc
 50
179.715534745
 51
180.215673466
  0
ARC
  5
111
330
1D
100
AcDbEntity
  8
1
  6
Continuous
370
    50
100
AcDbCircle
 10
23.278461638
 20
-24.996528827
 30
0.0
 40
8.918478585
100
AcDbArc
 50
180.215673466
 51
187.940911931
  0
ARC
  5
112
330
1D
100
AcDbEntity
  8
1
  6
Continuous
370
    50
100
AcDbCircle
 10
14.477380106
 20
-26.224185806
 30
0.0
 40
0.032187019
100
AcDbArc
 50
187.940978647
 51
265.264674912
  0
ARC
  5
113
330
1D
100
AcDbEntity
  8
1
  6
Continuous
370
    50
100
AcDbCircle
 10
14.477380106
 20
-26.224185806
 30
0.0
 40
0.032187019
100
AcDbArc
 50
265.264674912
 51
342.588371177
  0
ARC
  5
114
330
1D
100
AcDbEntity
  8
1
  6
Continuous
370
    50
100
AcDbCircle
 10
5.998258732
 20
-23.565111058
 30
0.0
 40
8.918478585
100
AcDbArc
 50
342.588437893
 51
350.313676357
  0
ARC
  5
115
330
1D
100
AcDbEntity
  8
1
  6
Continuous
370
    50
100
AcDbCircle
 10
-36.015106557
 20
-16.393956089
 30
0.0
 40
51.539463163
100
AcDbArc
 50
350.313676357
 51
351.710202554
  0
ARC
  5
116
330
1D
100
AcDbEntity
  8
1
  6
Continuous
370
    50
100
AcDbCircle
 10
34.900468463
 20
20.175183998
 30
0.0
 40
13.313591809
100
AcDbArc
 50
256.489204261
 51
270.4283441129999
  0
ARC
  5
117
330
1D
100
AcDbEntity
  8
1
  6
Continuous
370
    50
100
AcDbCircle
 10
34.988548579
 20
-14.426971716
 30
0.0
 40
5.136071363
100
AcDbArc
 50
89.872251155
 51
128.517620493
  0
LINE
  5
118
330
1D
100
AcDbEntity
  8
1
  6
Continuous
370
    50
100
AcDbLine
 10
90.084500611
 20
3.822695231
 30
0.0
 11
87.919093668
 21
4.231364466
 31
0.0
  0
LINE
  5
119
330
1D
100
AcDbEntity
  8
1
  6
Continuous
370
    50
100
AcDbLine
 10
87.919093668
 20
4.231364466
 30
0.0
 11
80.409936607
 21
5.60869649
 31
0.0
  0
LINE
  5
11A
330
1D
100
AcDbEntity
  8
1
  6
Continuous
370
    50
100
AcDbLine
 10
80.409936607
 20
5.60869649
 30
0.0
 11
73.137283325
 21
6.861964241
 31
0.0
  0
LINE
  5
11B
330
1D
100
AcDbEntity
  8
1
  6
Continuous
370
    50
100
AcDbLine
 10
102.1
 20
-10.388454331
 30
0.0
 11
102.1
 21
2.442781727
 31
0.0
  0
LINE
  5
11C
330
1D
100
AcDbEntity
  8
1
  6
Continuous
370
    50
100
AcDbLine
 10
101.8
 20
-10.687021615
 30
0.0
 11
102.1
 21
-10.388454331
 31
0.0
  0
LINE
  5
11D
330
1D
100
AcDbEntity
  8
1
  6
Continuous
370
    50
100
AcDbLine
 10
101.8
 20
-10.687021615
 30
0.0
 11
101.8
 21
2.423963464
 31
0.0
  0
LINE
  5
11E
330
1D
100
AcDbEntity
  8
1
  6
Continuous
370
    50
100
AcDbLine
 10
101.8
 20
2.423963464
 30
0.0
 11
102.1
 21
2.442781727
 31
0.0
  0
LINE
  5
11F
330
1D
100
AcDbEntity
  8
1
  6
Continuous
370
    50
100
AcDbLine
 10
92.1
 20
-10.640973275
 30
0.0
 11
92.1
 21
2.802367101
 31
0.0
  0
ARC
  5
120
330
1D
100
AcDbEntity
  8
1
  6
Continuous
370
    50
100
AcDbCircle
 10
95.510503342
 20
12.106429296
 30
0.0
 40
9.909444678
100
AcDbArc
 50
249.869059984
 51
272.149844571
  0
ARC
  5
121
330
1D
100
AcDbEntity
  8
1
  6
Continuous
370
    50
100
AcDbCircle
 10
-7612.885034814
 20
206819.3256952
 30
0.0
 40
206960.73766736
100
AcDbArc
 50
272.13461755
 51
272.1362569780001
  0
ARC
  5
122
330
1D
100
AcDbEntity
  8
1
  6
Continuous
370
    50
100
AcDbCircle
 10
109.748329254
 20
2922.351107037
 30
0.0
 40
2933.04942625
100
AcDbArc
 50
269.659279639
 51
269.783090645
  0
ARC
  5
123
330
1D
100
AcDbEntity
  8
1
  6
Continuous
370
    50
100
AcDbCircle
 10
109.748329254
 20
2922.351107037
 30
0.0
 40
2933.048723933
100
AcDbArc
 50
269.783090645
 51
269.844732804
  0
LINE
  5
124
330
1D
100
AcDbEntity
  8
1
  6
Continuous
370
    50
100
AcDbLine
 10
92.306487262
 20
-10.646458715
 30
0.0
 11
92.1
 21
-10.640973275
 31
0.0
  0
LINE
  5
125
330
1D
100
AcDbEntity
  8
1
  6
Continuous
370
    50
100
AcDbLine
 10
91.71269834
 20
2.957543591
 30
0.0
 11
92.006750405
 21
2.838706365
 31
0.0
  0
LINE
  5
126
330
1D
100
AcDbEntity
  8
1
  6
Continuous
370
    50
100
AcDbLine
 10
92.006750405
 20
2.838706365
 30
0.0
 11
92.100001872
 21
2.802367089
 31
0.0
  0
LINE
  5
127
330
1D
100
AcDbEntity
  8
1
  6
Continuous
370
    50
100
AcDbLine
 10
92.100001872
 20
-10.640973225
 30
0.0
 11
91.843426228
 21
-10.546444915
 31
0.0
  0
LINE
  5
128
330
1D
100
AcDbEntity
  8
1
  6
Continuous
370
    50
100
AcDbLine
 10
91.843426228
 20
-10.546444915
 30
0.0
 11
91.71269834
 21
-10.532170534
 31
0.0
  0
LINE
  5
129
330
1D
100
AcDbEntity
  8
1
  6
Continuous
370
    50
100
AcDbLine
 10
90.084500611
 20
3.822695231
 30
0.0
 11
90.870410204
 21
3.355827881
 31
0.0
  0
LINE
  5
12A
330
1D
100
AcDbEntity
  8
1
  6
Continuous
370
    50
100
AcDbLine
 10
90.870410204
 20
3.355827881
 30
0.0
 11
91.71269834
 21
2.957543591
 31
0.0
  0
ARC
  5
12B
330
1D
100
AcDbEntity
  8
1
  6
Continuous
370
    50
100
AcDbCircle
 10
74.786032419
 20
-32.125844063
 30
0.0
 40
22.834983836
100
AcDbArc
 50
79.764881426
 51
89.87667948599999
  0
LINE
  5
12C
330
1D
100
AcDbEntity
  8
1
  6
Continuous
370
    50
100
AcDbLine
 10
35.0
 20
-9.290913422
 30
0.0
 11
74.835181236
 21
-9.29091312
 31
0.0
  0
LINE
  5
12D
330
1D
100
AcDbEntity
  8
1
  6
Continuous
370
    50
100
AcDbLine
 10
35.0
 20
6.861964216
 30
0.0
 11
73.137283325
 21
6.861964241
 31
0.0
  0
ARC
  5
12E
330
1D
100
AcDbEntity
  8
1
  6
Continuous
370
    50
100
AcDbCircle
 10
96.6753576
 20
156.972758671
 30
0.0
 40
167.578427296
100
AcDbArc
 50
263.8916589120001
 51
268.302997516
  0
LINE
  5
12F
330
1D
100
AcDbEntity
  8
1
  6
Continuous
370
    50
100
AcDbLine
 10
102.1
 20
2.442781727
 30
0.0
 11
102.099999785
 21
2.513356972
 31
0.0
  0
LINE
  5
130
330
1D
100
AcDbEntity
  8
1
  6
Continuous
370
    50
100
AcDbLine
 10
102.099999785
 20
2.513356972
 30
0.0
 11
102.099999785
 21
3.247923683
 31
0.0
  0
ARC
  5
131
330
1D
100
AcDbEntity
  8
1
  6
Continuous
370
    50
100
AcDbCircle
 10
93.295387915
 20
-124.21245008
 30
0.0
 40
134.813887415
100
AcDbArc
 50
90.67265708100001
 51
96.142460691
  0
LINE
  5
132
330
1D
100
AcDbEntity
  8
1
  6
Continuous
370
    50
100
AcDbLine
 10
92.100001872
 20
10.6953457
 30
0.0
 11
91.842576861
 21
10.604058392
 31
0.0
  0
LINE
  5
133
330
1D
100
AcDbEntity
  8
1
  6
Continuous
370
    50
100
AcDbLine
 10
91.842576861
 20
10.604058392
 30
0.0
 11
91.71269834
 21
10.592146777
 31
0.0
  0
LINE
  5
134
330
1D
100
AcDbEntity
  8
1
  6
Continuous
370
    50
100
AcDbLine
 10
93.12658757
 20
10.699980892
 30
0.0
 11
92.100001872
 21
10.6953457
 31
0.0
  0
ARC
  5
135
330
1D
100
AcDbEntity
  8
1
  6
Continuous
370
    50
100
AcDbCircle
 10
95.465178314
 20
-16494.195592628
 30
0.0
 40
16504.895615408
100
AcDbArc
 50
90.003418837
 51
90.008118288
  0
ARC
  5
136
330
1D
100
AcDbEntity
  8
1
  6
Continuous
370
    50
100
AcDbCircle
 10
94.738987562
 20
9.772202835
 30
0.0
 40
0.915930625
100
AcDbArc
 50
59.499635201
 51
80.83298994
  0
ARC
  5
137
330
1D
100
AcDbEntity
  8
1
  6
Continuous
370
    50
100
AcDbCircle
 10
119.879224644
 20
-16494.195592628
 30
0.0
 40
16504.89989456
100
AcDbArc
 50
90.08676131199996
 51
90.087250958
  0
ARC
  5
138
330
1D
100
AcDbEntity
  8
1
  6
Continuous
370
    50
100
AcDbCircle
 10
94.687334961
 20
12.484400073
 30
0.0
 40
1.800130923
100
AcDbArc
 50
263.6634672039999
 51
271.845291899
  0
ARC
  5
139
330
1D
100
AcDbEntity
  8
1
  6
Continuous
370
    50
100
AcDbCircle
 10
74.763857723
 20
34.677536423
 30
0.0
 40
25.187063155
100
AcDbArc
 50
270.181653943
 51
279.38297972
  0
ARC
  5
13A
330
1D
100
AcDbEntity
  8
1
  6
Continuous
370
    50
100
AcDbCircle
 10
34.991555897
 20
14.593417062
 30
0.0
 40
5.102824193
100
AcDbArc
 50
231.141282483
 51
270.094814207
  0
LINE
  5
13B
330
1D
100
AcDbEntity
  8
1
  6
Continuous
370
    50
100
AcDbLine
 10
35.000000149
 20
9.490599856
 30
0.0
 11
74.843712151
 21
9.490599856
 31
0.0
  0
LINE
  5
13C
330
1D
100
AcDbEntity
  8
CUT
100
AcDbLine
 10
102.237716317
 20
-6.528064143
 30
0.0
 11
102.099999785
 21
-6.537430454
 31
0.0
  0
LINE
  5
13D
330
1D
100
AcDbEntity
  8
CUT
100
AcDbLine
 10
102.237716317
 20
-6.528064143
 30
0.0
 11
102.439627051
 21
-7.504315115
 31
0.0
  0
LINE
  5
13E
330
1D
100
AcDbEntity
  8
CUT
100
AcDbLine
 10
102.439627051
 20
-7.504315115
 30
0.0
 11
102.099999785
 21
-7.527413778
 31
0.0
  0
LINE
  5
13F
330
1D
100
AcDbEntity
  8
CUT
100
AcDbLine
 10
102.099999785
 20
-2.700094366
 30
0.0
 11
102.364532649
 21
-6.382179912
 31
0.0
  0
LINE
  5
140
330
1D
100
AcDbEntity
  8
CUT
100
AcDbLine
 10
102.364532649
 20
-6.382179912
 30
0.0
 11
102.237716317
 21
-6.528064143
 31
0.0
  0
LINE
  5
141
330
1D
100
AcDbEntity
  8
CUT
100
AcDbLine
 10
102.364532649
 20
-6.382179912
 30
0.0
 11
102.995723486
 21
-6.864602212
 31
0.0
  0
LINE
  5
142
330
1D
100
AcDbEntity
  8
CUT
100
AcDbLine
 10
102.995723486
 20
-6.864602212
 30
0.0
 11
102.439627051
 21
-7.504315115
 31
0.0
  0
LINE
  5
143
330
1D
100
AcDbEntity
  8
CUT
100
AcDbLine
 10
102.099999785
 20
-0.421797304
 30
0.0
 11
102.52391547
 21
-0.297373626
 31
0.0
  0
LINE
  5
144
330
1D
100
AcDbEntity
  8
CUT
100
AcDbLine
 10
102.52391547
 20
-0.297373626
 30
0.0
 11
102.995723486
 21
-6.864602212
 31
0.0
  0
LINE
  5
145
330
1D
100
AcDbEntity
  8
CUT
100
AcDbLine
 10
102.099999785
 20
0.071129412
 30
0.0
 11
102.52391547
 21
-0.297373626
 31
0.0
  0
LINE
  5
146
330
1D
100
AcDbEntity
  8
CUT
100
AcDbLine
 10
102.023608983
 20
11.047923006
 30
0.0
 11
95.433279872
 21
10.808276944
 31
0.0
  0
LINE
  5
147
330
1D
100
AcDbEntity
  8
CUT
100
AcDbLine
 10
102.890565991
 20
3.878538264
 30
0.0
 11
102.646909654
 21
10.468720458
 31
0.0
  0
LINE
  5
148
330
1D
100
AcDbEntity
  8
CUT
100
AcDbLine
 10
102.311715484
 20
3.255622461
 30
0.0
 11
102.890565991
 21
3.878538264
 31
0.0
  0
LINE
  5
14A
330
1D
100
AcDbEntity
  8
1
  6
Continuous
370
    50
100
AcDbLine
 10
95.098093152
 20
3.595178714
 30
0.0
 11
95.721386373
 21
3.015976632
 31
0.0
  0
LINE
  5
14B
330
1D
100
AcDbEntity
  8
1
  6
Continuous
370
    50
100
AcDbLine
 10
94.854429364
 20
10.185360908
 30
0.0
 11
95.098093152
 21
3.595178714
 31
0.0
  0
LINE
  5
14D
330
1D
100
AcDbEntity
  8
CUT
100
AcDbLine
 10
102.646909654
 20
10.468720458
 30
0.0
 11
102.023608983
 21
11.047923006
 31
0.0
  0
CIRCLE
  5
14E
330
1D
100
AcDbEntity
  8
1
  6
Continuous
370
    50
100
AcDbCircle
 10
98.821538961
 20
6.971802546
 30
0.0
 40
2.199173612
  0
LINE
  5
14F
330
1D
100
AcDbEntity
  8
2
  6
Continuous
370
    25
100
AcDbLine
 10
113.91076125
 20
11.047923526
 30
0.0
 11
102.023608983
 21
11.047923006
 31
0.0
  0
LINE
  5
150
330
1D
100
AcDbEntity
  8
2
  6
Continuous
370
    25
100
AcDbLine
 10
111.91076125
 20
11.047923438
 30
0.0
 11
112.360761403
 21
7.547923458
 31
0.0
  0
LINE
  5
151
330
1D
100
AcDbEntity
  8
2
  6
Continuous
370
    25
100
AcDbLine
 10
112.360761403
 20
7.547923458
 30
0.0
 11
111.460761403
 21
7.547923419
 31
0.0
  0
LINE
  5
152
330
1D
100
AcDbEntity
  8
2
  6
Continuous
370
    25
100
AcDbLine
 10
111.460761403
 20
7.547923419
 30
0.0
 11
111.91076125
 21
11.047923438
 31
0.0
  0
LINE
  5
153
330
1D
100
AcDbEntity
  8
2
  6
Continuous
370
    25
100
AcDbLine
 10
111.910762088
 20
-8.125189788
 30
0.0
 11
111.910761403
 21
7.547923438
 31
0.0
  0
CIRCLE
  5
154
330
1D
100
AcDbEntity
  8
2
  6
Continuous
370
    25
100
AcDbCircle
 10
109.170856396
 20
-3.191550255
 30
0.0
 40
1.25
  0
LINE
  5
155
330
1D
100
AcDbEntity
  8
2
  6
Continuous
370
    25
100
AcDbLine
 10
110.420856451
 20
-4.4415502
 30
0.0
 11
107.920856341
 21
-1.941550309
 31
0.0
  0
TEXT
  5
156
330
1D
100
AcDbEntity
  8
2
  6
Continuous
370
    25
100
AcDbText
 10
110.420856298
 20
-0.9415502
 30
0.0
 40
3.5
  1
22
 50
90.00000250400001
  7
BMG_Text
100
AcDbText
  0
LINE
  5
1F2
330
1D
100
AcDbEntity
  8
CUT
100
AcDbLine
 10
95.20386251673307
 20
10.56139241062478
 30
0.0
 11
95.433279872
 21
10.808276944
 31
0.0
  0
LINE
  5
1F3
330
1D
100
AcDbEntity
  8
CUT
100
AcDbLine
 10
102.099999785
 20
3.247923683
 30
0.0
 11
102.311715484
 21
3.255622461
 31
0.0
  0
LINE
  5
1F5
330
1D
100
AcDbEntity
  8
1
100
AcDbLine
 10
95.721386373
 20
3.015976632
 30
0.0
 11
102.099999785
 21
3.247923683
 31
0.0
  0
LINE
  5
1F6
330
1D
100
AcDbEntity
  8
1
100
AcDbLine
 10
102.099999785
 20
3.247923683
 30
0.0
 11
102.099999785
 21
10.36287025077285
 31
0.0
  0
LINE
  5
1F7
330
1D
100
AcDbEntity
  8
1
100
AcDbLine
 10
102.099999785
 20
10.36287025077285
 30
0.0
 11
101.5753277567518
 21
10.77445561662651
 31
0.0
  0
LINE
  5
1F8
330
1D
100
AcDbEntity
  8
1
100
AcDbLine
 10
101.5753277567518
 20
10.77445561662651
 30
0.0
 11
95.20386251673307
 21
10.56139241062478
 31
0.0
  0
LINE
  5
1F9
330
1D
100
AcDbEntity
  8
1
100
AcDbLine
 10
95.20386251673307
 20
10.56139241062478
 30
0.0
 11
94.854429364
 21
10.185360908
 31
0.0
  0
LINE
  5
1FB
330
1D
100
AcDbEntity
  8
CUT
100
AcDbLine
 10
95.20386251673307
 20
10.56139241062478
 30
0.0
 11
94.854429364
 21
10.185360908
 31
0.0
  0
LINE
  5
1FC
330
1D
100
AcDbEntity
  8
CUT
100
AcDbLine
 10
94.854429364
 20
10.185360908
 30
0.0
 11
95.098093152
 21
3.595178714
 31
0.0
  0
LINE
  5
1FD
330
1D
100
AcDbEntity
  8
CUT
100
AcDbLine
 10
95.098093152
 20
3.595178714
 30
0.0
 11
95.721386373
 21
3.015976632
 31
0.0
  0
LINE
  5
1FE
330
1D
100
AcDbEntity
  8
CUT
100
AcDbLine
 10
95.721386373
 20
3.015976632
 30
0.0
 11
98.910693079
 21
3.1319501575
 31
0.0
  0
LINE
  5
1FF
330
1D
100
AcDbEntity
  8
CUT
100
AcDbLine
 10
98.910693079
 20
3.1319501575
 30
0.0
 11
102.099999785
 21
3.247923683
 31
0.0
  0
CIRCLE
  5
200
330
1D
100
AcDbEntity
  8
CUT
100
AcDbCircle
 10
98.821538961
 20
6.971802546
 30
0.0
 40
2.199173612
  0
LINE
  5
206
330
1D
100
AcDbEntity
  8
NOCUT
100
AcDbLine
 10
0.0
 20
0.0
 30
0.0
 11
0.0
 21
31.0
 31
0.0
  0
LINE
  5
207
330
1D
100
AcDbEntity
  8
NOCUT
100
AcDbLine
 10
0.0
 20
31.0
 30
0.0
 11
0.7495
 21
31.7495
 31
0.0
  0
LINE
  5
208
330
1D
100
AcDbEntity
  8
NOCUT
100
AcDbLine
 10
0.7495
 20
31.7495
 30
0.0
 11
12.25
 21
31.7495
 31
0.0
  0
LINE
  5
209
330
1D
100
AcDbEntity
  8
NOCUT
100
AcDbLine
 10
12.25
 20
31.7495
 30
0.0
 11
13.0
 21
30.9995
 31
0.0
  0
LINE
  5
20A
330
1D
100
AcDbEntity
  8
NOCUT
100
AcDbLine
 10
13.0
 20
30.9995
 30
0.0
 11
13.0
 21
27.49780607242961
 31
0.0
  0
LINE
  5
20B
330
1D
100
AcDbEntity
  8
NOCUT
100
AcDbLine
 10
13.0
 20
27.49780607242961
 30
0.0
 11
13.809373602
 21
26.8222829325
 31
0.0
  0
LINE
  5
20C
330
1D
100
AcDbEntity
  8
NOCUT
100
AcDbLine
 10
13.809373602
 20
26.8222829325
 30
0.0
 11
14.62977419122082
 21
26.13240339456123
 31
0.0
  0
LINE
  5
20D
330
1D
100
AcDbEntity
  8
NOCUT
100
AcDbLine
 10
14.62977419122082
 20
26.13240339456123
 30
0.0
 11
14.77488227579394
 21
25.58379323805399
 31
0.0
  0
LINE
  5
20E
330
1D
100
AcDbEntity
  8
NOCUT
100
AcDbLine
 10
14.77488227579394
 20
25.58379323805399
 30
0.0
 11
14.88493115808356
 21
25.02708981293592
 31
0.0
  0
LINE
  5
20F
330
1D
100
AcDbEntity
  8
NOCUT
100
AcDbLine
 10
14.88493115808356
 20
25.02708981293592
 30
0.0
 11
15.017103404
 21
24.151936173
 31
0.0
  0
LINE
  5
210
330
1D
100
AcDbEntity
  8
NOCUT
100
AcDbLine
 10
15.017103404
 20
24.151936173
 30
0.0
 11
15.608727932
 21
23.643469438
 31
0.0
  0
LINE
  5
211
330
1D
100
AcDbEntity
  8
NOCUT
100
AcDbLine
 10
15.608727932
 20
23.643469438
 30
0.0
 11
23.6993804575
 21
17.131670378
 31
0.0
  0
LINE
  5
212
330
1D
100
AcDbEntity
  8
NOCUT
100
AcDbLine
 10
23.6993804575
 20
17.131670378
 30
0.0
 11
31.790032983
 21
10.619871318
 31
0.0
  0
ARC
  5
218
330
1D
100
AcDbEntity
  8
NOCUT
100
AcDbCircle
 10
34.99155589695967
 20
14.59341706422586
 30
0.0
 40
5.102824195086331
100
AcDbArc
 50
231.1412825001781
 51
270.0948142058939
  0
LINE
  5
219
330
1D
100
AcDbEntity
  8
NOCUT
100
AcDbLine
 10
35.000000149
 20
9.490599856
 30
0.0
 11
74.84371215047307
 21
9.490599855716326
 31
0.0
  0
ARC
  5
21A
330
1D
100
AcDbEntity
  8
NOCUT
100
AcDbCircle
 10
74.76385772780988
 20
34.67753639315632
 30
0.0
 40
25.18706312485922
100
AcDbArc
 50
270.1816539334745
 51
279.3829797232097
  0
ARC
  5
21B
330
1D
100
AcDbEntity
  8
NOCUT
100
AcDbCircle
 10
93.48611109618926
 20
-126.4956542696171
 30
0.0
 40
137.1044020083282
100
AcDbArc
 50
90.71398768234387
 51
96.11961134293038
  0
LINE
  5
21C
330
1D
100
AcDbEntity
  8
NOCUT
100
AcDbLine
 10
91.77763760049999
 20
10.59810258450001
 30
0.0
 11
91.8439896038989
 21
10.59810258450001
 31
0.0
  0
LINE
  5
21D
330
1D
100
AcDbEntity
  8
NOCUT
100
AcDbLine
 10
91.8439896038989
 20
10.59810258450001
 30
0.0
 11
92.100001872
 21
10.6953457
 31
0.0
  0
LINE
  5
21E
330
1D
100
AcDbEntity
  8
NOCUT
100
AcDbLine
 10
92.100001872
 20
10.6953457
 30
0.0
 11
94.49687879883791
 21
10.6953457
 31
0.0
  0
LINE
  5
21F
330
1D
100
AcDbEntity
  8
NOCUT
100
AcDbLine
 10
94.49687879883791
 20
10.6953457
 30
0.0
 11
94.90048465249644
 21
10.6953457
 31
0.0
  0
LWPOLYLINE
  5
229
330
1D
100
AcDbEntity
  8
INFTOTAL
100
AcDbPolyline
 90
        4
 70
     1
 43
0.0
 10
144.9821433284914
 20
55.31930351145284
 10
144.9821433284914
 20
-54.76282959947784
 10
-95.42392570721879
 20
-54.76282959947784
 10
-95.42392570721879
 20
55.31930351145284
  0
LINE
  5
235
330
1D
100
AcDbEntity
  8
SK4
100
AcDbLine
 10
-42.664451715
 20
0.0
 30
0.0
 11
0.0
 21
0.0
 31
0.0
  0
LINE
  5
238
330
1D
100
AcDbEntity
  8
4
100
AcDbLine
 10
0.0
 20
0.0
 30
0.0
 11
105.271894879
 21
0.0
 31
0.0
  0
LINE
  5
262
330
1D
100
AcDbEntity
  8
NOCUT
100
AcDbLine
 10
94.90048465249644
 20
10.6953457
 30
0.0
 11
101.5753277567518
 21
10.77445561662651
 31
0.0
  0
LINE
  5
263
330
1D
100
AcDbEntity
  8
NOCUT
100
AcDbLine
 10
101.5753277567518
 20
10.77445561662651
 30
0.0
 11
102.099999785
 21
10.36287025077285
 31
0.0
  0
LINE
  5
265
330
1D
100
AcDbEntity
  8
NOCUT
100
AcDbLine
 10
102.099999785
 20
10.36287025077285
 30
0.0
 11
102.099999785
 21
-0.0000000000000018
 31
0.0
  0
LINE
  5
266
330
1D
100
AcDbEntity
  8
NOCUT
100
AcDbLine
 10
102.099999785
 20
-0.0000000000000018
 30
0.0
 11
0.0
 21
0.0
 31
0.0
  0
ENDSEC
  0
SECTION
  2
OBJECTS
  0
DICTIONARY
  5
C
330
0
100
AcDbDictionary
281
     1
  3
ACAD_DETAILVIEWSTYLE
350
216
  3
ACAD_GROUP
350
D
  3
ACAD_LAYOUT
350
1A
  3
ACAD_MATERIAL
350
193
  3
ACAD_MLEADERSTYLE
350
19F
  3
ACAD_MLINESTYLE
350
17
  3
ACAD_PLOTSETTINGS
350
19
  3
ACAD_PLOTSTYLENAME
350
E
  3
ACAD_SCALELIST
350
15C
  3
ACAD_SECTIONVIEWSTYLE
350
217
  3
ACAD_TABLESTYLE
350
1E8
  3
ACAD_VISUALSTYLE
350
182
  3
ACDB_RECOMPOSE_DATA
350
2C8
  3
AcDbVariableDictionary
350
19D
  3
APPDATA
350
1EB
  0
SUN
  5
22D
330
157
100
AcDbSun
 90
        1
290
     0
 63
     7
421
 16777215
 40
1.0
291
     1
 91
  2455826
 92
 54000000
292
     0
 70
     2
 71
   256
280
     1
  0
DICTIONARY
  5
1EC
330
2
100
AcDbDictionary
280
     1
281
     1
  3
ACAD_LAYERSTATES
360
1ED
  0
DICTIONARY
  5
216
102
{ACAD_REACTORS
330
C
102
}
330
C
100
AcDbDictionary
281
     1
  0
DICTIONARY
  5
D
102
{ACAD_REACTORS
330
C
102
}
330
C
100
AcDbDictionary
281
     1
  0
DICTIONARY
  5
1A
102
{ACAD_REACTORS
330
C
102
}
330
C
100
AcDbDictionary
281
     1
  3
Layout1
350
1C
  3
Model
350
1E
  0
DICTIONARY
  5
193
102
{ACAD_REACTORS
330
C
102
}
330
C
100
AcDbDictionary
281
     1
  3
ByBlock
350
195
  3
ByLayer
350
194
  3
Global
350
196
  0
DICTIONARY
  5
19F
102
{ACAD_REACTORS
330
C
102
}
330
C
100
AcDbDictionary
281
     1
  3
Standard
350
1EA
  0
DICTIONARY
  5
17
102
{ACAD_REACTORS
330
C
102
}
330
C
100
AcDbDictionary
281
     1
  3
Standard
350
18
  0
DICTIONARY
  5
19
102
{ACAD_REACTORS
330
C
102
}
330
C
100
AcDbDictionary
281
     1
  0
ACDBDICTIONARYWDFLT
  5
E
102
{ACAD_REACTORS
330
C
102
}
330
C
100
AcDbDictionary
281
     1
  3
Normal
350
F
100
AcDbDictionaryWithDefault
340
F
  0
DICTIONARY
  5
15C
102
{ACAD_REACTORS
330
C
102
}
330
C
100
AcDbDictionary
281
     1
  3
A0
350
15D
  3
A1
350
15E
  3
A2
350
15F
  3
A3
350
160
  3
A4
350
161
  3
A5
350
162
  3
A6
350
163
  3
A7
350
164
  3
A8
350
165
  3
A9
350
166
  3
B0
350
167
  3
B1
350
168
  3
B2
350
169
  3
B3
350
16A
  3
B4
350
16B
  3
B5
350
16C
  3
B6
350
16D
  3
B7
350
16E
  3
B8
350
16F
  3
B9
350
170
  3
C0
350
171
  3
C1
350
172
  3
C2
350
173
  3
C3
350
174
  3
C4
350
175
  3
C5
350
176
  3
C6
350
177
  3
C7
350
178
  3
C8
350
179
  3
C9
350
17A
  3
D0
350
17B
  3
D1
350
17C
  3
D2
350
17D
  0
DICTIONARY
  5
217
102
{ACAD_REACTORS
330
C
102
}
330
C
100
AcDbDictionary
281
     1
  0
DICTIONARY
  5
1E8
102
{ACAD_REACTORS
330
C
102
}
330
C
100
AcDbDictionary
281
     1
  3
Standard
350
1E9
  0
DICTIONARY
  5
182
102
{ACAD_REACTORS
330
C
102
}
330
C
100
AcDbDictionary
281
     1
  3
2dWireframe
350
187
  3
3D Hidden
350
189
  3
3dWireframe
350
188
  3
Basic
350
18A
  3
Brighten
350
18E
  3
ColorChange
350
192
  3
Conceptual
350
18C
  3
Dim
350
18D
  3
EdgeColorOff
350
1E2
  3
Facepattern
350
191
  3
Flat
350
183
  3
FlatWithEdges
350
184
  3
Gouraud
350
185
  3
GouraudWithEdges
350
186
  3
Hidden
350
1DF
  3
JitterOff
350
1E0
  3
Linepattern
350
190
  3
OverhangOff
350
1E1
  3
Realistic
350
18B
  3
Shaded
350
1E7
  3
Shaded with edges
350
1E6
  3
Shades of Gray
350
1E3
  3
Sketchy
350
1E4
  3
Thicken
350
18F
  3
Wireframe
350
1DE
  3
X-Ray
350
1E5
  0
XRECORD
  5
2C8
102
{ACAD_REACTORS
330
C
102
}
330
C
100
AcDbXrecord
280
     1
 90
        1
330
1E9
  0
DICTIONARY
  5
19D
102
{ACAD_REACTORS
330
C
102
}
330
C
100
AcDbDictionary
281
     1
  3
CANNOSCALE
350
213
  3
CMLEADERSTYLE
350
215
  3
CTABLESTYLE
350
214
  3
DIMASSOC
350
1A1
  3
HIDETEXT
350
1A2
  3
MSLTSCALE
350
1A0
  0
DICTIONARY
  5
1EB
102
{ACAD_REACTORS
330
C
102
}
330
C
100
AcDbDictionary
281
     1
  0
DICTIONARY
  5
1ED
102
{ACAD_REACTORS
330
1EC
102
}
330
1EC
100
AcDbDictionary
281
     1
  0
LAYOUT
  5
1C
102
{ACAD_REACTORS
330
1A
102
}
330
1A
100
AcDbPlotSettings
  1

  2
none_device
  4

  6

 40
0.0
 41
0.0
 42
0.0
 43
0.0
 44
0.0
 45
0.0
 46
0.0
 47
0.0
 48
0.0
 49
0.0
140
0.0
141
0.0
142
1.0
143
1.0
 70
   688
 72
     0
 73
     0
 74
     5
  7

 75
    16
 76
     0
 77
     2
 78
   300
147
1.0
148
0.0
149
0.0
100
AcDbLayout
  1
Layout1
 70
     1
 71
     1
 10
0.0
 20
0.0
 11
12.0
 21
9.0
 12
0.0
 22
0.0
 32
0.0
 14
1.000000000000000E+20
 24
1.000000000000000E+20
 34
1.000000000000000E+20
 15
-1.000000000000000E+20
 25
-1.000000000000000E+20
 35
-1.000000000000000E+20
146
0.0
 13
0.0
 23
0.0
 33
0.0
 16
1.0
 26
0.0
 36
0.0
 17
0.0
 27
1.0
 37
0.0
 76
     0
330
1B
  0
LAYOUT
  5
1E
102
{ACAD_REACTORS
330
1A
102
}
330
1A
100
AcDbPlotSettings
  1

  2
none_device
  4

  6

 40
0.0
 41
0.0
 42
0.0
 43
0.0
 44
0.0
 45
0.0
 46
0.0
 47
0.0
 48
0.0
 49
0.0
140
0.0
141
0.0
142
1.0
143
1.0
 70
  1712
 72
     0
 73
     0
 74
     0
  7

 75
     0
 76
     0
 77
     2
 78
   300
147
1.0
148
0.0
149
0.0
100
AcDbLayout
  1
Model
 70
     1
 71
     0
 10
0.0
 20
0.0
 11
12.0
 21
9.0
 12
0.0
 22
0.0
 32
0.0
 14
-95.42392570721879
 24
-54.76282959947784
 34
0.0
 15
144.9821433284914
 25
55.31930351145284
 35
0.0
146
0.0
 13
0.0
 23
0.0
 33
0.0
 16
1.0
 26
0.0
 36
0.0
 17
0.0
 27
1.0
 37
0.0
 76
     0
330
1D
331
157
  0
MATERIAL
  5
195
102
{ACAD_REACTORS
330
193
102
}
330
193
100
AcDbMaterial
  1
ByBlock
 72
     1
 94
      127
  0
MATERIAL
  5
194
102
{ACAD_REACTORS
330
193
102
}
330
193
100
AcDbMaterial
  1
ByLayer
 72
     1
 94
      127
  0
MATERIAL
  5
196
102
{ACAD_REACTORS
330
193
102
}
330
193
100
AcDbMaterial
  1
Global
 72
     1
 94
      127
  0
MLEADERSTYLE
  5
1EA
102
{ACAD_REACTORS
330
19F
102
}
330
19F
100
AcDbMLeaderStyle
179
     2
170
     2
171
     1
172
     0
 90
        2
 40
0.0
 41
0.0
173
     1
 91
-1056964608
340
14
 92
       -2
290
     1
 42
0.09
291
     1
 43
0.36
  3
Standard
341
0
 44
0.18
300

342
11
174
     1
178
     1
175
     1
176
     0
 93
-1056964608
 45
0.18
292
     0
297
     0
 46
0.18
343
0
 94
-1056964608
 47
1.0
 49
1.0
140
1.0
293
     1
141
0.0
294
     1
177
     0
142
1.0
295
     0
296
     0
143
0.125
271
     0
272
     9
273
     9
298
     0
  0
MLINESTYLE
  5
18
102
{ACAD_REACTORS
330
17
102
}
330
17
100
AcDbMlineStyle
  2
Standard
 70
     0
  3

 62
   256
 51
90.0
 52
90.0
 71
     2
 49
0.5
 62
   256
  6
BYLAYER
 49
-0.5
 62
   256
  6
BYLAYER
  0
ACDBPLACEHOLDER
  5
F
102
{ACAD_REACTORS
330
E
102
}
330
E
  0
SCALE
  5
15D
102
{ACAD_REACTORS
330
15C
102
}
330
15C
100
AcDbScale
 70
     0
300
1:1
140
1.0
141
1.0
290
     1
  0
SCALE
  5
15E
102
{ACAD_REACTORS
330
15C
102
}
330
15C
100
AcDbScale
 70
     0
300
1:2
140
1.0
141
2.0
290
     0
  0
SCALE
  5
15F
102
{ACAD_REACTORS
330
15C
102
}
330
15C
100
AcDbScale
 70
     0
300
1:4
140
1.0
141
4.0
290
     0
  0
SCALE
  5
160
102
{ACAD_REACTORS
330
15C
102
}
330
15C
100
AcDbScale
 70
     0
300
1:5
140
1.0
141
5.0
290
     0
  0
SCALE
  5
161
102
{ACAD_REACTORS
330
15C
102
}
330
15C
100
AcDbScale
 70
     0
300
1:8
140
1.0
141
8.0
290
     0
  0
SCALE
  5
162
102
{ACAD_REACTORS
330
15C
102
}
330
15C
100
AcDbScale
 70
     0
300
1:10
140
1.0
141
10.0
290
     0
  0
SCALE
  5
163
102
{ACAD_REACTORS
330
15C
102
}
330
15C
100
AcDbScale
 70
     0
300
1:16
140
1.0
141
16.0
290
     0
  0
SCALE
  5
164
102
{ACAD_REACTORS
330
15C
102
}
330
15C
100
AcDbScale
 70
     0
300
1:20
140
1.0
141
20.0
290
     0
  0
SCALE
  5
165
102
{ACAD_REACTORS
330
15C
102
}
330
15C
100
AcDbScale
 70
     0
300
1:30
140
1.0
141
30.0
290
     0
  0
SCALE
  5
166
102
{ACAD_REACTORS
330
15C
102
}
330
15C
100
AcDbScale
 70
     0
300
1:40
140
1.0
141
40.0
290
     0
  0
SCALE
  5
167
102
{ACAD_REACTORS
330
15C
102
}
330
15C
100
AcDbScale
 70
     0
300
1:50
140
1.0
141
50.0
290
     0
  0
SCALE
  5
168
102
{ACAD_REACTORS
330
15C
102
}
330
15C
100
AcDbScale
 70
     0
300
1:100
140
1.0
141
100.0
290
     0
  0
SCALE
  5
169
102
{ACAD_REACTORS
330
15C
102
}
330
15C
100
AcDbScale
 70
     0
300
2:1
140
2.0
141
1.0
290
     0
  0
SCALE
  5
16A
102
{ACAD_REACTORS
330
15C
102
}
330
15C
100
AcDbScale
 70
     0
300
4:1
140
4.0
141
1.0
290
     0
  0
SCALE
  5
16B
102
{ACAD_REACTORS
330
15C
102
}
330
15C
100
AcDbScale
 70
     0
300
8:1
140
8.0
141
1.0
290
     0
  0
SCALE
  5
16C
102
{ACAD_REACTORS
330
15C
102
}
330
15C
100
AcDbScale
 70
     0
300
10:1
140
10.0
141
1.0
290
     0
  0
SCALE
  5
16D
102
{ACAD_REACTORS
330
15C
102
}
330
15C
100
AcDbScale
 70
     0
300
100:1
140
100.0
141
1.0
290
     0
  0
SCALE
  5
16E
102
{ACAD_REACTORS
330
15C
102
}
330
15C
100
AcDbScale
 70
     0
300
1/128" = 1'-0"
140
0.0078125
141
12.0
290
     0
  0
SCALE
  5
16F
102
{ACAD_REACTORS
330
15C
102
}
330
15C
100
AcDbScale
 70
     0
300
1/64" = 1'-0"
140
0.015625
141
12.0
290
     0
  0
SCALE
  5
170
102
{ACAD_REACTORS
330
15C
102
}
330
15C
100
AcDbScale
 70
     0
300
1/32" = 1'-0"
140
0.03125
141
12.0
290
     0
  0
SCALE
  5
171
102
{ACAD_REACTORS
330
15C
102
}
330
15C
100
AcDbScale
 70
     0
300
1/16" = 1'-0"
140
0.0625
141
12.0
290
     0
  0
SCALE
  5
172
102
{ACAD_REACTORS
330
15C
102
}
330
15C
100
AcDbScale
 70
     0
300
3/32" = 1'-0"
140
0.09375
141
12.0
290
     0
  0
SCALE
  5
173
102
{ACAD_REACTORS
330
15C
102
}
330
15C
100
AcDbScale
 70
     0
300
1/8" = 1'-0"
140
0.125
141
12.0
290
     0
  0
SCALE
  5
174
102
{ACAD_REACTORS
330
15C
102
}
330
15C
100
AcDbScale
 70
     0
300
3/16" = 1'-0"
140
0.1875
141
12.0
290
     0
  0
SCALE
  5
175
102
{ACAD_REACTORS
330
15C
102
}
330
15C
100
AcDbScale
 70
     0
300
1/4" = 1'-0"
140
0.25
141
12.0
290
     0
  0
SCALE
  5
176
102
{ACAD_REACTORS
330
15C
102
}
330
15C
100
AcDbScale
 70
     0
300
3/8" = 1'-0"
140
0.375
141
12.0
290
     0
  0
SCALE
  5
177
102
{ACAD_REACTORS
330
15C
102
}
330
15C
100
AcDbScale
 70
     0
300
1/2" = 1'-0"
140
0.5
141
12.0
290
     0
  0
SCALE
  5
178
102
{ACAD_REACTORS
330
15C
102
}
330
15C
100
AcDbScale
 70
     0
300
3/4" = 1'-0"
140
0.75
141
12.0
290
     0
  0
SCALE
  5
179
102
{ACAD_REACTORS
330
15C
102
}
330
15C
100
AcDbScale
 70
     0
300
1" = 1'-0"
140
1.0
141
12.0
290
     0
  0
SCALE
  5
17A
102
{ACAD_REACTORS
330
15C
102
}
330
15C
100
AcDbScale
 70
     0
300
1-1/2" = 1'-0"
140
1.5
141
12.0
290
     0
  0
SCALE
  5
17B
102
{ACAD_REACTORS
330
15C
102
}
330
15C
100
AcDbScale
 70
     0
300
3" = 1'-0"
140
3.0
141
12.0
290
     0
  0
SCALE
  5
17C
102
{ACAD_REACTORS
330
15C
102
}
330
15C
100
AcDbScale
 70
     0
300
6" = 1'-0"
140
6.0
141
12.0
290
     0
  0
SCALE
  5
17D
102
{ACAD_REACTORS
330
15C
102
}
330
15C
100
AcDbScale
 70
     0
300
1'-0" = 1'-0"
140
12.0
141
12.0
290
     0
  0
TABLESTYLE
  5
1E9
102
{ACAD_REACTORS
330
1E8
102
}
102
{ACAD_XDICTIONARY
360
2C6
102
}
330
1E8
100
AcDbTableStyle
  3
Standard
 70
     0
 71
     0
 40
0.06
 41
0.06
280
     0
281
     0
  7
Standard
140
0.18
170
     2
 62
     0
 63
   257
283
     0
 90
        4
 91
        0
  1

274
    -2
284
     1
 64
     0
275
    -2
285
     1
 65
     0
276
    -2
286
     1
 66
     0
277
    -2
287
     1
 67
     0
278
    -2
288
     1
 68
     0
279
    -2
289
     1
 69
     0
  7
Standard
140
0.25
170
     5
 62
     0
 63
   257
283
     0
 90
        4
 91
        0
  1

274
    -2
284
     1
 64
     0
275
    -2
285
     1
 65
     0
276
    -2
286
     1
 66
     0
277
    -2
287
     1
 67
     0
278
    -2
288
     1
 68
     0
279
    -2
289
     1
 69
     0
  7
Standard
140
0.18
170
     5
 62
     0
 63
   257
283
     0
 90
        4
 91
        0
  1

274
    -2
284
     1
 64
     0
275
    -2
285
     1
 65
     0
276
    -2
286
     1
 66
     0
277
    -2
287
     1
 67
     0
278
    -2
288
     1
 68
     0
279
    -2
289
     1
 69
     0
  0
VISUALSTYLE
  5
187
102
{ACAD_REACTORS
330
182
102
}
330
182
100
AcDbVisualStyle
  2
2dWireframe
 70
     4
177
     3
291
     0
 70
    58
 90
        0
176
     1
 90
        2
176
     1
 90
        0
176
     1
 90
        0
176
     1
 40
-0.6
176
     1
 40
-30.0
176
     1
 62
     7
176
     1
 90
        1
176
     1
 90
        4
176
     1
 62
     7
176
     1
 62
   257
176
     1
 90
        1
176
     1
 90
        1
176
     1
 40
1.0
176
     1
 90
        0
176
     1
 62
   257
176
     1
 40
1.0
176
     1
 90
        1
176
     1
 90
        6
176
     1
 90
        2
176
     1
 62
     7
176
     1
 90
        5
176
     1
 90
        0
176
     1
 90
        0
176
     1
290
     0
176
     1
 90
        1
176
     1
 40
0.0
176
     1
 90
        0
176
     1
290
     1
176
     1
290
     1
176
     1
290
     0
176
     1
290
     0
176
     1
290
     0
176
     1
290
     0
176
     1
290
     0
176
     1
290
     0
176
     1
290
     0
176
     1
 90
       50
176
     1
 40
0.0
176
     1
 40
1.0
176
     1
 90
        0
176
     1
 62
    18
420
        0
176
     1
 90
       50
176
     1
 90
        3
176
     1
 62
     5
420
      255
176
     1
290
     0
176
     1
 90
       50
176
     1
 90
       50
176
     1
 90
       50
176
     1
290
     0
176
     1
 90
       50
176
     1
 62
   256
176
     0
 40
1.0
176
     0
 90
        2
176
     1
  1
strokes_ogs.tif
176
     1
290
     0
176
     1
 40
1.0
176
     1
 40
1.0
176
     1
  0
VISUALSTYLE
  5
189
102
{ACAD_REACTORS
330
182
102
}
330
182
100
AcDbVisualStyle
  2
3D Hidden
 70
     6
177
     3
291
     0
 70
    58
 90
        1
176
     1
 90
        2
176
     1
 90
        2
176
     1
 90
        0
176
     1
 40
-0.6
176
     1
 40
-30.0
176
     1
 62
     7
176
     1
 90
        2
176
     1
 90
        2
176
     1
 62
     7
176
     1
 62
   257
176
     1
 90
        2
176
     1
 90
        1
176
     1
 40
40.0
176
     1
 90
        0
176
     1
 62
   257
176
     1
 40
1.0
176
     1
 90
        1
176
     1
 90
        6
176
     1
 90
        2
176
     1
 62
     7
176
     1
 90
        3
176
     1
 90
        0
176
     1
 90
        0
176
     1
290
     0
176
     1
 90
        1
176
     1
 40
0.0
176
     1
 90
        0
176
     1
290
     0
176
     1
290
     1
176
     1
290
     1
176
     1
290
     0
176
     1
290
     0
176
     1
290
     0
176
     1
290
     0
176
     1
290
     0
176
     1
290
     0
176
     1
 90
       50
176
     1
 40
0.0
176
     1
 40
1.0
176
     1
 90
        0
176
     1
 62
    18
420
        0
176
     1
 90
       50
176
     1
 90
        3
176
     1
 62
     5
420
      255
176
     1
290
     0
176
     1
 90
       50
176
     1
 90
       50
176
     1
 90
       50
176
     1
290
     0
176
     1
 90
       50
176
     1
 62
   256
176
     0
 40
1.0
176
     0
 90
        2
176
     1
  1
strokes_ogs.tif
176
     1
290
     0
176
     1
 40
1.0
176
     1
 40
1.0
176
     1
  0
VISUALSTYLE
  5
188
102
{ACAD_REACTORS
330
182
102
}
330
182
100
AcDbVisualStyle
  2
3dWireframe
 70
     5
177
     3
291
     0
 70
    58
 90
        0
176
     1
 90
        2
176
     1
 90
        0
176
     1
 90
        0
176
     1
 40
-0.6
176
     1
 40
-30.0
176
     1
 62
     7
176
     1
 90
        1
176
     1
 90
        4
176
     1
 62
     7
176
     1
 62
   257
176
     1
 90
        1
176
     1
 90
        1
176
     1
 40
1.0
176
     1
 90
        0
176
     1
 62
   257
176
     1
 40
1.0
176
     1
 90
        1
176
     1
 90
        6
176
     1
 90
        2
176
     1
 62
     7
176
     1
 90
        5
176
     1
 90
        0
176
     1
 90
        0
176
     1
290
     0
176
     1
 90
        1
176
     1
 40
0.0
176
     1
 90
        0
176
     1
290
     0
176
     1
290
     1
176
     1
290
     1
176
     1
290
     0
176
     1
290
     0
176
     1
290
     0
176
     1
290
     0
176
     1
290
     0
176
     1
290
     0
176
     1
 90
       50
176
     1
 40
0.0
176
     1
 40
1.0
176
     1
 90
        0
176
     1
 62
    18
420
        0
176
     1
 90
       50
176
     1
 90
        3
176
     1
 62
     5
420
      255
176
     1
290
     0
176
     1
 90
       50
176
     1
 90
       50
176
     1
 90
       50
176
     1
290
     0
176
     1
 90
       50
176
     1
 62
   256
176
     0
 40
1.0
176
     0
 90
        2
176
     1
  1
strokes_ogs.tif
176
     1
290
     0
176
     1
 40
1.0
176
     1
 40
1.0
176
     1
  0
VISUALSTYLE
  5
18A
102
{ACAD_REACTORS
330
182
102
}
330
182
100
AcDbVisualStyle
  2
Basic
 70
     7
177
     3
291
     1
 70
    58
 90
        1
176
     1
 90
        0
176
     1
 90
        1
176
     1
 90
        0
176
     1
 40
-0.6
176
     1
 40
-30.0
176
     1
 62
     7
176
     1
 90
        0
176
     1
 90
        4
176
     1
 62
     7
176
     1
 62
   257
176
     1
 90
        1
176
     1
 90
        1
176
     1
 40
1.0
176
     1
 90
        8
176
     1
 62
     7
176
     1
 40
1.0
176
     1
 90
        1
176
     1
 90
        6
176
     1
 90
        2
176
     1
 62
     7
176
     1
 90
        5
176
     1
 90
        0
176
     1
 90
        0
176
     1
290
     0
176
     1
 90
        1
176
     1
 40
0.0
176
     1
 90
        0
176
     1
290
     0
176
     1
290
     1
176
     1
290
     1
176
     1
290
     0
176
     1
290
     0
176
     1
290
     0
176
     1
290
     0
176
     1
290
     0
176
     1
290
     0
176
     1
 90
       50
176
     1
 40
0.0
176
     1
 40
1.0
176
     1
 90
        0
176
     1
 62
    18
420
        0
176
     1
 90
       50
176
     1
 90
        3
176
     1
 62
     5
420
      255
176
     1
290
     0
176
     1
 90
       50
176
     1
 90
       50
176
     1
 90
       50
176
     1
290
     0
176
     1
 90
       50
176
     1
 62
   256
176
     0
 40
1.0
176
     0
 90
        2
176
     1
  1
strokes_ogs.tif
176
     1
290
     0
176
     1
 40
1.0
176
     1
 40
1.0
176
     1
  0
VISUALSTYLE
  5
18E
102
{ACAD_REACTORS
330
182
102
}
330
182
100
AcDbVisualStyle
  2
Brighten
 70
    12
177
     3
291
     1
 70
    58
 90
        2
176
     1
 90
        2
176
     1
 90
        0
176
     1
 90
        0
176
     1
 40
-0.6
176
     1
 40
-30.0
176
     1
 62
     7
176
     1
 90
        1
176
     1
 90
        4
176
     1
 62
     7
176
     1
 62
   257
176
     1
 90
        1
176
     1
 90
        1
176
     1
 40
1.0
176
     1
 90
        8
176
     1
 62
     7
176
     1
 40
1.0
176
     1
 90
        1
176
     1
 90
        6
176
     1
 90
        2
176
     1
 62
     7
176
     1
 90
        5
176
     1
 90
        0
176
     1
 90
        0
176
     1
290
     0
176
     1
 90
        1
176
     1
 40
50.0
176
     1
 90
        0
176
     1
290
     0
176
     1
290
     1
176
     1
290
     1
176
     1
290
     0
176
     1
290
     0
176
     1
290
     0
176
     1
290
     0
176
     1
290
     0
176
     1
290
     0
176
     1
 90
       50
176
     1
 40
0.0
176
     1
 40
1.0
176
     1
 90
        0
176
     1
 62
    18
420
        0
176
     1
 90
       50
176
     1
 90
        3
176
     1
 62
     5
420
      255
176
     1
290
     0
176
     1
 90
       50
176
     1
 90
       50
176
     1
 90
       50
176
     1
290
     0
176
     1
 90
       50
176
     1
 62
   256
176
     0
 40
1.0
176
     0
 90
        2
176
     1
  1
strokes_ogs.tif
176
     1
290
     0
176
     1
 40
1.0
176
     1
 40
1.0
176
     1
  0
VISUALSTYLE
  5
192
102
{ACAD_REACTORS
330
182
102
}
330
182
100
AcDbVisualStyle
  2
ColorChange
 70
    16
177
     3
291
     1
 70
    58
 90
        2
176
     1
 90
        2
176
     1
 90
        3
176
     1
 90
        0
176
     1
 40
-0.6
176
     1
 40
-30.0
176
     1
 62
     8
176
     1
 90
        1
176
     1
 90
        4
176
     1
 62
     7
176
     1
 62
   257
176
     1
 90
        1
176
     1
 90
        1
176
     1
 40
1.0
176
     1
 90
        8
176
     1
 62
     8
176
     1
 40
1.0
176
     1
 90
        1
176
     1
 90
        6
176
     1
 90
        2
176
     1
 62
     7
176
     1
 90
        5
176
     1
 90
        0
176
     1
 90
        0
176
     1
290
     0
176
     1
 90
        1
176
     1
 40
0.0
176
     1
 90
        0
176
     1
290
     0
176
     1
290
     1
176
     1
290
     1
176
     1
290
     0
176
     1
290
     0
176
     1
290
     0
176
     1
290
     0
176
     1
290
     0
176
     1
290
     0
176
     1
 90
       50
176
     1
 40
0.0
176
     1
 40
1.0
176
     1
 90
        0
176
     1
 62
    18
420
        0
176
     1
 90
       50
176
     1
 90
        3
176
     1
 62
     5
420
      255
176
     1
290
     0
176
     1
 90
       50
176
     1
 90
       50
176
     1
 90
       50
176
     1
290
     0
176
     1
 90
       50
176
     1
 62
   256
176
     0
 40
1.0
176
     0
 90
        2
176
     1
  1
strokes_ogs.tif
176
     1
290
     0
176
     1
 40
1.0
176
     1
 40
1.0
176
     1
  0
VISUALSTYLE
  5
18C
102
{ACAD_REACTORS
330
182
102
}
330
182
100
AcDbVisualStyle
  2
Conceptual
 70
     9
177
     3
291
     0
 70
    58
 90
        3
176
     1
 90
        2
176
     1
 90
        0
176
     1
 90
        0
176
     1
 40
-0.6
176
     1
 40
-30.0
176
     1
 62
     7
176
     1
 90
        2
176
     1
 90
        2
176
     1
 62
     7
176
     1
 62
   257
176
     1
 90
        1
176
     1
 90
        1
176
     1
 40
40.0
176
     1
 90
        8
176
     1
 62
     7
176
     1
 40
1.0
176
     1
 90
        1
176
     1
 90
        6
176
     1
 90
        2
176
     1
 62
     7
176
     1
 90
        3
176
     1
 90
        0
176
     1
 90
        0
176
     1
290
     0
176
     1
 90
        1
176
     1
 40
0.0
176
     1
 90
        0
176
     1
290
     0
176
     1
290
     1
176
     1
290
     1
176
     1
290
     0
176
     1
290
     0
176
     1
290
     0
176
     1
290
     0
176
     1
290
     0
176
     1
290
     0
176
     1
 90
       50
176
     1
 40
0.0
176
     1
 40
1.0
176
     1
 90
        0
176
     1
 62
    18
420
        0
176
     1
 90
       50
176
     1
 90
        3
176
     1
 62
     5
420
      255
176
     1
290
     0
176
     1
 90
       50
176
     1
 90
       50
176
     1
 90
       50
176
     1
290
     0
176
     1
 90
       50
176
     1
 62
   256
176
     0
 40
1.0
176
     0
 90
        2
176
     1
  1
strokes_ogs.tif
176
     1
290
     0
176
     1
 40
1.0
176
     1
 40
1.0
176
     1
  0
VISUALSTYLE
  5
18D
102
{ACAD_REACTORS
330
182
102
}
330
182
100
AcDbVisualStyle
  2
Dim
 70
    11
177
     3
291
     1
 70
    58
 90
        2
176
     1
 90
        2
176
     1
 90
        0
176
     1
 90
        0
176
     1
 40
-0.6
176
     1
 40
-30.0
176
     1
 62
     7
176
     1
 90
        1
176
     1
 90
        4
176
     1
 62
     7
176
     1
 62
   257
176
     1
 90
        1
176
     1
 90
        1
176
     1
 40
1.0
176
     1
 90
        8
176
     1
 62
     7
176
     1
 40
1.0
176
     1
 90
        1
176
     1
 90
        6
176
     1
 90
        2
176
     1
 62
     7
176
     1
 90
        5
176
     1
 90
        0
176
     1
 90
        0
176
     1
290
     0
176
     1
 90
        1
176
     1
 40
-50.0
176
     1
 90
        0
176
     1
290
     0
176
     1
290
     1
176
     1
290
     1
176
     1
290
     0
176
     1
290
     0
176
     1
290
     0
176
     1
290
     0
176
     1
290
     0
176
     1
290
     0
176
     1
 90
       50
176
     1
 40
0.0
176
     1
 40
1.0
176
     1
 90
        0
176
     1
 62
    18
420
        0
176
     1
 90
       50
176
     1
 90
        3
176
     1
 62
     5
420
      255
176
     1
290
     0
176
     1
 90
       50
176
     1
 90
       50
176
     1
 90
       50
176
     1
290
     0
176
     1
 90
       50
176
     1
 62
   256
176
     0
 40
1.0
176
     0
 90
        2
176
     1
  1
strokes_ogs.tif
176
     1
290
     0
176
     1
 40
1.0
176
     1
 40
1.0
176
     1
  0
VISUALSTYLE
  5
1E2
102
{ACAD_REACTORS
330
182
102
}
330
182
100
AcDbVisualStyle
  2
EdgeColorOff
 70
    22
177
     3
291
     1
 70
    58
 90
        2
176
     0
 90
        2
176
     0
 90
        0
176
     0
 90
        0
176
     0
 40
0.6
176
     0
 40
30.0
176
     0
 62
     7
420
 16777215
176
     0
 90
        1
176
     0
 90
        4
176
     0
 62
     7
176
     0
 62
   257
176
     0
 90
        1
176
     0
 90
        1
176
     0
 40
1.0
176
     0
 90
        8
176
     2
 62
     7
176
     0
 40
1.0
176
     0
 90
        1
176
     0
 90
        6
176
     0
 90
        2
176
     0
 62
     7
176
     0
 90
        5
176
     0
 90
        0
176
     0
 90
        0
176
     0
290
     0
176
     0
 90
        1
176
     0
 40
0.0
176
     0
 90
        0
176
     0
290
     0
176
     0
290
     1
176
     0
290
     1
176
     0
290
     0
176
     0
290
     0
176
     0
290
     0
176
     0
290
     0
176
     0
290
     0
176
     0
290
     0
176
     0
 90
       50
176
     0
 40
0.0
176
     0
 40
1.0
176
     0
 90
        0
176
     0
 62
    18
420
        0
176
     0
 90
       50
176
     0
 90
        3
176
     0
 62
     5
420
      255
176
     0
290
     0
176
     0
 90
       50
176
     0
 90
       50
176
     0
 90
       50
176
     0
290
     0
176
     0
 90
       50
176
     0
 62
   256
176
     0
 40
1.0
176
     0
 90
        2
176
     0
  1
strokes_ogs.tif
176
     0
290
     0
176
     0
 40
1.0
176
     0
 40
1.0
176
     0
  0
VISUALSTYLE
  5
191
102
{ACAD_REACTORS
330
182
102
}
330
182
100
AcDbVisualStyle
  2
Facepattern
 70
    15
177
     3
291
     1
 70
    58
 90
        2
176
     1
 90
        2
176
     1
 90
        0
176
     1
 90
        0
176
     1
 40
-0.6
176
     1
 40
-30.0
176
     1
 62
     7
176
     1
 90
        1
176
     1
 90
        4
176
     1
 62
     7
176
     1
 62
   257
176
     1
 90
        1
176
     1
 90
        1
176
     1
 40
1.0
176
     1
 90
        8
176
     1
 62
     7
176
     1
 40
1.0
176
     1
 90
        1
176
     1
 90
        6
176
     1
 90
        2
176
     1
 62
     7
176
     1
 90
        5
176
     1
 90
        0
176
     1
 90
        0
176
     1
290
     0
176
     1
 90
        1
176
     1
 40
0.0
176
     1
 90
        0
176
     1
290
     0
176
     1
290
     1
176
     1
290
     1
176
     1
290
     0
176
     1
290
     0
176
     1
290
     0
176
     1
290
     0
176
     1
290
     0
176
     1
290
     0
176
     1
 90
       50
176
     1
 40
0.0
176
     1
 40
1.0
176
     1
 90
        0
176
     1
 62
    18
420
        0
176
     1
 90
       50
176
     1
 90
        3
176
     1
 62
     5
420
      255
176
     1
290
     0
176
     1
 90
       50
176
     1
 90
       50
176
     1
 90
       50
176
     1
290
     0
176
     1
 90
       50
176
     1
 62
   256
176
     0
 40
1.0
176
     0
 90
        2
176
     1
  1
strokes_ogs.tif
176
     1
290
     0
176
     1
 40
1.0
176
     1
 40
1.0
176
     1
  0
VISUALSTYLE
  5
183
102
{ACAD_REACTORS
330
182
102
}
330
182
100
AcDbVisualStyle
  2
Flat
 70
     0
177
     3
291
     1
 70
    58
 90
        2
176
     1
 90
        1
176
     1
 90
        1
176
     1
 90
        2
176
     1
 40
-0.6
176
     1
 40
30.0
176
     1
 62
     7
176
     1
 90
        0
176
     1
 90
        4
176
     1
 62
     7
176
     1
 62
   257
176
     1
 90
        1
176
     1
 90
        1
176
     1
 40
1.0
176
     1
 90
        8
176
     1
 62
     7
176
     1
 40
1.0
176
     1
 90
        1
176
     1
 90
        6
176
     1
 90
        2
176
     1
 62
     7
176
     1
 90
        5
176
     1
 90
        0
176
     1
 90
        0
176
     1
290
     0
176
     1
 90
       13
176
     1
 40
0.0
176
     1
 90
        0
176
     1
290
     0
176
     1
290
     1
176
     1
290
     1
176
     1
290
     0
176
     1
290
     0
176
     1
290
     0
176
     1
290
     0
176
     1
290
     0
176
     1
290
     0
176
     1
 90
       50
176
     1
 40
0.0
176
     1
 40
1.0
176
     1
 90
        0
176
     1
 62
    18
420
        0
176
     1
 90
       50
176
     1
 90
        3
176
     1
 62
     5
420
      255
176
     1
290
     0
176
     1
 90
       50
176
     1
 90
       50
176
     1
 90
       50
176
     1
290
     0
176
     1
 90
       50
176
     1
 62
   256
176
     0
 40
1.0
176
     0
 90
        2
176
     1
  1
strokes_ogs.tif
176
     1
290
     0
176
     1
 40
1.0
176
     1
 40
1.0
176
     1
  0
VISUALSTYLE
  5
184
102
{ACAD_REACTORS
330
182
102
}
330
182
100
AcDbVisualStyle
  2
FlatWithEdges
 70
     1
177
     3
291
     1
 70
    58
 90
        2
176
     1
 90
        1
176
     1
 90
        1
176
     1
 90
        2
176
     1
 40
-0.6
176
     1
 40
30.0
176
     1
 62
     7
176
     1
 90
        1
176
     1
 90
        4
176
     1
 62
     7
176
     1
 62
   257
176
     1
 90
        1
176
     1
 90
        1
176
     1
 40
1.0
176
     1
 90
        0
176
     1
 62
   257
176
     1
 40
1.0
176
     1
 90
        1
176
     1
 90
        6
176
     1
 90
        2
176
     1
 62
     7
176
     1
 90
        5
176
     1
 90
        0
176
     1
 90
        0
176
     1
290
     0
176
     1
 90
       13
176
     1
 40
0.0
176
     1
 90
        0
176
     1
290
     0
176
     1
290
     1
176
     1
290
     1
176
     1
290
     0
176
     1
290
     0
176
     1
290
     0
176
     1
290
     0
176
     1
290
     0
176
     1
290
     0
176
     1
 90
       50
176
     1
 40
0.0
176
     1
 40
1.0
176
     1
 90
        0
176
     1
 62
    18
420
        0
176
     1
 90
       50
176
     1
 90
        3
176
     1
 62
     5
420
      255
176
     1
290
     0
176
     1
 90
       50
176
     1
 90
       50
176
     1
 90
       50
176
     1
290
     0
176
     1
 90
       50
176
     1
 62
   256
176
     0
 40
1.0
176
     0
 90
        2
176
     1
  1
strokes_ogs.tif
176
     1
290
     0
176
     1
 40
1.0
176
     1
 40
1.0
176
     1
  0
VISUALSTYLE
  5
185
102
{ACAD_REACTORS
330
182
102
}
330
182
100
AcDbVisualStyle
  2
Gouraud
 70
     2
177
     3
291
     1
 70
    58
 90
        2
176
     1
 90
        2
176
     1
 90
        1
176
     1
 90
        2
176
     1
 40
-0.6
176
     1
 40
30.0
176
     1
 62
     7
176
     1
 90
        0
176
     1
 90
        4
176
     1
 62
     7
176
     1
 62
   257
176
     1
 90
        1
176
     1
 90
        1
176
     1
 40
1.0
176
     1
 90
        0
176
     1
 62
     7
176
     1
 40
1.0
176
     1
 90
        1
176
     1
 90
        6
176
     1
 90
        2
176
     1
 62
     7
176
     1
 90
        5
176
     1
 90
        0
176
     1
 90
        0
176
     1
290
     0
176
     1
 90
       13
176
     1
 40
0.0
176
     1
 90
        0
176
     1
290
     0
176
     1
290
     1
176
     1
290
     1
176
     1
290
     0
176
     1
290
     0
176
     1
290
     0
176
     1
290
     0
176
     1
290
     0
176
     1
290
     0
176
     1
 90
       50
176
     1
 40
0.0
176
     1
 40
1.0
176
     1
 90
        0
176
     1
 62
    18
420
        0
176
     1
 90
       50
176
     1
 90
        3
176
     1
 62
     5
420
      255
176
     1
290
     0
176
     1
 90
       50
176
     1
 90
       50
176
     1
 90
       50
176
     1
290
     0
176
     1
 90
       50
176
     1
 62
   256
176
     0
 40
1.0
176
     0
 90
        2
176
     1
  1
strokes_ogs.tif
176
     1
290
     0
176
     1
 40
1.0
176
     1
 40
1.0
176
     1
  0
VISUALSTYLE
  5
186
102
{ACAD_REACTORS
330
182
102
}
330
182
100
AcDbVisualStyle
  2
GouraudWithEdges
 70
     3
177
     3
291
     1
 70
    58
 90
        2
176
     1
 90
        2
176
     1
 90
        1
176
     1
 90
        2
176
     1
 40
-0.6
176
     1
 40
30.0
176
     1
 62
     7
176
     1
 90
        1
176
     1
 90
        4
176
     1
 62
     7
176
     1
 62
   257
176
     1
 90
        1
176
     1
 90
        1
176
     1
 40
1.0
176
     1
 90
        0
176
     1
 62
   257
176
     1
 40
1.0
176
     1
 90
        1
176
     1
 90
        6
176
     1
 90
        2
176
     1
 62
     7
176
     1
 90
        5
176
     1
 90
        0
176
     1
 90
        0
176
     1
290
     0
176
     1
 90
       13
176
     1
 40
0.0
176
     1
 90
        0
176
     1
290
     0
176
     1
290
     1
176
     1
290
     1
176
     1
290
     0
176
     1
290
     0
176
     1
290
     0
176
     1
290
     0
176
     1
290
     0
176
     1
290
     0
176
     1
 90
       50
176
     1
 40
0.0
176
     1
 40
1.0
176
     1
 90
        0
176
     1
 62
    18
420
        0
176
     1
 90
       50
176
     1
 90
        3
176
     1
 62
     5
420
      255
176
     1
290
     0
176
     1
 90
       50
176
     1
 90
       50
176
     1
 90
       50
176
     1
290
     0
176
     1
 90
       50
176
     1
 62
   256
176
     0
 40
1.0
176
     0
 90
        2
176
     1
  1
strokes_ogs.tif
176
     1
290
     0
176
     1
 40
1.0
176
     1
 40
1.0
176
     1
  0
VISUALSTYLE
  5
1DF
102
{ACAD_REACTORS
330
182
102
}
330
182
100
AcDbVisualStyle
  2
Hidden
 70
     6
177
     3
291
     0
 70
    58
 90
        1
176
     1
 90
        2
176
     1
 90
        2
176
     1
 90
        0
176
     1
 40
0.6
176
     1
 40
30.0
176
     1
 62
     7
420
 16777215
176
     1
 90
        2
176
     1
 90
        2
176
     1
 62
     7
176
     1
 62
   257
176
     1
 90
        2
176
     1
 90
        1
176
     1
 40
40.0
176
     1
 90
        0
176
     1
 62
   257
176
     1
 40
1.0
176
     1
 90
        1
176
     1
 90
        6
176
     1
 90
        2
176
     1
 62
     7
176
     1
 90
        3
176
     1
 90
        0
176
     1
 90
        0
176
     1
290
     0
176
     1
 90
        1
176
     1
 40
0.0
176
     1
 90
        0
176
     1
290
     0
176
     1
290
     1
176
     1
290
     1
176
     1
290
     0
176
     1
290
     0
176
     1
290
     0
176
     1
290
     0
176
     1
290
     0
176
     1
290
     0
176
     1
 90
       50
176
     1
 40
0.0
176
     1
 40
1.0
176
     1
 90
        0
176
     1
 62
    18
420
        0
176
     1
 90
       50
176
     1
 90
        3
176
     1
 62
     5
420
      255
176
     1
290
     0
176
     1
 90
       50
176
     1
 90
       50
176
     1
 90
       50
176
     1
290
     0
176
     1
 90
       50
176
     1
 62
   256
176
     0
 40
1.0
176
     0
 90
        2
176
     1
  1
strokes_ogs.tif
176
     1
290
     0
176
     1
 40
1.0
176
     1
 40
1.0
176
     1
  0
VISUALSTYLE
  5
1E0
102
{ACAD_REACTORS
330
182
102
}
330
182
100
AcDbVisualStyle
  2
JitterOff
 70
    20
177
     3
291
     1
 70
    58
 90
        2
176
     0
 90
        2
176
     0
 90
        0
176
     0
 90
        0
176
     0
 40
0.6
176
     0
 40
30.0
176
     0
 62
     7
420
 16777215
176
     0
 90
        1
176
     0
 90
        4
176
     0
 62
     7
176
     0
 62
   257
176
     0
 90
        1
176
     0
 90
        1
176
     0
 40
1.0
176
     0
 90
       10
176
     2
 62
     7
176
     0
 40
1.0
176
     0
 90
        1
176
     0
 90
        6
176
     0
 90
        2
176
     0
 62
     7
176
     0
 90
        5
176
     0
 90
        0
176
     0
 90
        0
176
     0
290
     0
176
     0
 90
        1
176
     0
 40
0.0
176
     0
 90
        0
176
     0
290
     0
176
     0
290
     1
176
     0
290
     1
176
     0
290
     0
176
     0
290
     0
176
     0
290
     0
176
     0
290
     0
176
     0
290
     0
176
     0
290
     0
176
     0
 90
       50
176
     0
 40
0.0
176
     0
 40
1.0
176
     0
 90
        0
176
     0
 62
    18
420
        0
176
     0
 90
       50
176
     0
 90
        3
176
     0
 62
     5
420
      255
176
     0
290
     0
176
     0
 90
       50
176
     0
 90
       50
176
     0
 90
       50
176
     0
290
     0
176
     0
 90
       50
176
     0
 62
   256
176
     0
 40
1.0
176
     0
 90
        2
176
     0
  1
strokes_ogs.tif
176
     0
290
     0
176
     0
 40
1.0
176
     0
 40
1.0
176
     0
  0
VISUALSTYLE
  5
190
102
{ACAD_REACTORS
330
182
102
}
330
182
100
AcDbVisualStyle
  2
Linepattern
 70
    14
177
     3
291
     1
 70
    58
 90
        2
176
     1
 90
        2
176
     1
 90
        0
176
     1
 90
        0
176
     1
 40
-0.6
176
     1
 40
-30.0
176
     1
 62
     7
176
     1
 90
        1
176
     1
 90
        4
176
     1
 62
     7
176
     1
 62
   257
176
     1
 90
        7
176
     1
 90
        7
176
     1
 40
1.0
176
     1
 90
        8
176
     1
 62
     7
176
     1
 40
1.0
176
     1
 90
        1
176
     1
 90
        6
176
     1
 90
        2
176
     1
 62
     7
176
     1
 90
        5
176
     1
 90
        0
176
     1
 90
        0
176
     1
290
     0
176
     1
 90
        1
176
     1
 40
0.0
176
     1
 90
        0
176
     1
290
     0
176
     1
290
     1
176
     1
290
     1
176
     1
290
     0
176
     1
290
     0
176
     1
290
     0
176
     1
290
     0
176
     1
290
     0
176
     1
290
     0
176
     1
 90
       50
176
     1
 40
0.0
176
     1
 40
1.0
176
     1
 90
        0
176
     1
 62
    18
420
        0
176
     1
 90
       50
176
     1
 90
        3
176
     1
 62
     5
420
      255
176
     1
290
     0
176
     1
 90
       50
176
     1
 90
       50
176
     1
 90
       50
176
     1
290
     0
176
     1
 90
       50
176
     1
 62
   256
176
     0
 40
1.0
176
     0
 90
        2
176
     1
  1
strokes_ogs.tif
176
     1
290
     0
176
     1
 40
1.0
176
     1
 40
1.0
176
     1
  0
VISUALSTYLE
  5
1E1
102
{ACAD_REACTORS
330
182
102
}
330
182
100
AcDbVisualStyle
  2
OverhangOff
 70
    21
177
     3
291
     1
 70
    58
 90
        2
176
     0
 90
        2
176
     0
 90
        0
176
     0
 90
        0
176
     0
 40
0.6
176
     0
 40
30.0
176
     0
 62
     7
420
 16777215
176
     0
 90
        1
176
     0
 90
        4
176
     0
 62
     7
176
     0
 62
   257
176
     0
 90
        1
176
     0
 90
        1
176
     0
 40
1.0
176
     0
 90
        9
176
     2
 62
     7
176
     0
 40
1.0
176
     0
 90
        1
176
     0
 90
        6
176
     0
 90
        2
176
     0
 62
     7
176
     0
 90
        5
176
     0
 90
        0
176
     0
 90
        0
176
     0
290
     0
176
     0
 90
        1
176
     0
 40
0.0
176
     0
 90
        0
176
     0
290
     0
176
     0
290
     1
176
     0
290
     1
176
     0
290
     0
176
     0
290
     0
176
     0
290
     0
176
     0
290
     0
176
     0
290
     0
176
     0
290
     0
176
     0
 90
       50
176
     0
 40
0.0
176
     0
 40
1.0
176
     0
 90
        0
176
     0
 62
    18
420
        0
176
     0
 90
       50
176
     0
 90
        3
176
     0
 62
     5
420
      255
176
     0
290
     0
176
     0
 90
       50
176
     0
 90
       50
176
     0
 90
       50
176
     0
290
     0
176
     0
 90
       50
176
     0
 62
   256
176
     0
 40
1.0
176
     0
 90
        2
176
     0
  1
strokes_ogs.tif
176
     0
290
     0
176
     0
 40
1.0
176
     0
 40
1.0
176
     0
  0
VISUALSTYLE
  5
18B
102
{ACAD_REACTORS
330
182
102
}
330
182
100
AcDbVisualStyle
  2
Realistic
 70
     8
177
     3
291
     0
 70
    58
 90
        2
176
     1
 90
        2
176
     1
 90
        0
176
     1
 90
        0
176
     1
 40
-0.6
176
     1
 40
-30.0
176
     1
 62
     7
176
     1
 90
        1
176
     1
 90
        0
176
     1
 62
     7
176
     1
 62
   257
176
     1
 90
        1
176
     1
 90
        1
176
     1
 40
1.0
176
     1
 90
        8
176
     1
 62
     8
176
     1
 40
1.0
176
     1
 90
        1
176
     1
 90
        6
176
     1
 90
        2
176
     1
 62
     7
176
     1
 90
        5
176
     1
 90
        0
176
     1
 90
        0
176
     1
290
     0
176
     1
 90
       13
176
     1
 40
0.0
176
     1
 90
        0
176
     1
290
     0
176
     1
290
     1
176
     1
290
     1
176
     1
290
     0
176
     1
290
     0
176
     1
290
     0
176
     1
290
     0
176
     1
290
     0
176
     1
290
     0
176
     1
 90
       50
176
     1
 40
0.0
176
     1
 40
1.0
176
     1
 90
        0
176
     1
 62
    18
420
        0
176
     1
 90
       50
176
     1
 90
        3
176
     1
 62
     5
420
      255
176
     1
290
     0
176
     1
 90
       50
176
     1
 90
       50
176
     1
 90
       50
176
     1
290
     0
176
     1
 90
       50
176
     1
 62
   256
176
     0
 40
1.0
176
     0
 90
        2
176
     1
  1
strokes_ogs.tif
176
     1
290
     0
176
     1
 40
1.0
176
     1
 40
1.0
176
     1
  0
VISUALSTYLE
  5
1E7
102
{ACAD_REACTORS
330
182
102
}
330
182
100
AcDbVisualStyle
  2
Shaded
 70
    27
177
     3
291
     0
 70
    58
 90
        2
176
     1
 90
        2
176
     1
 90
        1
176
     1
 90
        2
176
     1
 40
0.6
176
     1
 40
30.0
176
     1
 62
     7
420
 16777215
176
     1
 90
        0
176
     1
 90
        4
176
     1
 62
     7
176
     1
 62
   257
176
     1
 90
        1
176
     1
 90
        1
176
     1
 40
1.0
176
     1
 90
        8
176
     1
 62
   257
176
     1
 40
1.0
176
     1
 90
        1
176
     1
 90
        6
176
     1
 90
        2
176
     1
 62
     8
420
  7895160
176
     1
 90
        3
176
     1
 90
        0
176
     1
 90
        0
176
     1
290
     0
176
     1
 90
        5
176
     1
 40
0.0
176
     1
 90
        0
176
     1
290
     0
176
     1
290
     1
176
     1
290
     1
176
     1
290
     0
176
     1
290
     0
176
     1
290
     0
176
     1
290
     0
176
     1
290
     0
176
     1
290
     0
176
     1
 90
       50
176
     1
 40
0.0
176
     1
 40
1.0
176
     1
 90
        0
176
     1
 62
    18
420
        0
176
     1
 90
       50
176
     1
 90
        3
176
     1
 62
     5
420
      255
176
     1
290
     0
176
     1
 90
       50
176
     1
 90
       50
176
     1
 90
       50
176
     1
290
     0
176
     1
 90
       50
176
     1
 62
   256
176
     0
 40
1.0
176
     0
 90
        2
176
     1
  1
strokes_ogs.tif
176
     1
290
     0
176
     1
 40
1.0
176
     1
 40
1.0
176
     1
  0
VISUALSTYLE
  5
1E6
102
{ACAD_REACTORS
330
182
102
}
330
182
100
AcDbVisualStyle
  2
Shaded with edges
 70
    26
177
     3
291
     0
 70
    58
 90
        2
176
     1
 90
        2
176
     1
 90
        1
176
     1
 90
        2
176
     1
 40
0.6
176
     1
 40
30.0
176
     1
 62
     7
420
 16777215
176
     1
 90
        1
176
     1
 90
       10
176
     1
 62
     7
176
     1
 62
   257
176
     1
 90
        2
176
     1
 90
        1
176
     1
 40
1.0
176
     1
 90
        8
176
     1
 62
   257
176
     1
 40
1.0
176
     1
 90
        1
176
     1
 90
        6
176
     1
 90
        2
176
     1
 62
     7
176
     1
 90
        3
176
     1
 90
        0
176
     1
 90
        0
176
     1
290
     0
176
     1
 90
        5
176
     1
 40
0.0
176
     1
 90
        0
176
     1
290
     0
176
     1
290
     1
176
     1
290
     1
176
     1
290
     0
176
     1
290
     0
176
     1
290
     0
176
     1
290
     0
176
     1
290
     0
176
     1
290
     0
176
     1
 90
       50
176
     1
 40
0.0
176
     1
 40
1.0
176
     1
 90
        0
176
     1
 62
    18
420
        0
176
     1
 90
       50
176
     1
 90
        3
176
     1
 62
     5
420
      255
176
     1
290
     0
176
     1
 90
       50
176
     1
 90
       50
176
     1
 90
       50
176
     1
290
     0
176
     1
 90
       50
176
     1
 62
   256
176
     0
 40
1.0
176
     0
 90
        2
176
     1
  1
strokes_ogs.tif
176
     1
290
     0
176
     1
 40
1.0
176
     1
 40
1.0
176
     1
  0
VISUALSTYLE
  5
1E3
102
{ACAD_REACTORS
330
182
102
}
330
182
100
AcDbVisualStyle
  2
Shades of Gray
 70
    23
177
     3
291
     0
 70
    58
 90
        2
176
     1
 90
        2
176
     1
 90
        3
176
     1
 90
        0
176
     1
 40
0.6
176
     1
 40
30.0
176
     1
 62
     7
420
 16777215
176
     1
 90
        2
176
     1
 90
        2
176
     1
 62
     7
176
     1
 62
     7
176
     1
 90
        1
176
     1
 90
        1
176
     1
 40
40.0
176
     1
 90
        8
176
     1
 62
     7
176
     1
 40
1.0
176
     1
 90
        1
176
     1
 90
        6
176
     1
 90
        2
176
     1
 62
     7
176
     1
 90
        3
176
     1
 90
        0
176
     1
 90
        0
176
     1
290
     0
176
     1
 90
        1
176
     1
 40
0.0
176
     1
 90
        0
176
     1
290
     0
176
     1
290
     1
176
     1
290
     1
176
     1
290
     0
176
     1
290
     0
176
     1
290
     0
176
     1
290
     0
176
     1
290
     0
176
     1
290
     0
176
     1
 90
       50
176
     1
 40
0.0
176
     1
 40
1.0
176
     1
 90
        0
176
     1
 62
    18
420
        0
176
     1
 90
       50
176
     1
 90
        3
176
     1
 62
     5
420
      255
176
     1
290
     0
176
     1
 90
       50
176
     1
 90
       50
176
     1
 90
       50
176
     1
290
     0
176
     1
 90
       50
176
     1
 62
   256
176
     0
 40
1.0
176
     0
 90
        2
176
     1
  1
strokes_ogs.tif
176
     1
290
     0
176
     1
 40
1.0
176
     1
 40
1.0
176
     1
  0
VISUALSTYLE
  5
1E4
102
{ACAD_REACTORS
330
182
102
}
330
182
100
AcDbVisualStyle
  2
Sketchy
 70
    24
177
     3
291
     0
 70
    58
 90
        1
176
     1
 90
        2
176
     1
 90
        2
176
     1
 90
        0
176
     1
 40
0.6
176
     1
 40
30.0
176
     1
 62
     7
420
 16777215
176
     1
 90
        2
176
     1
 90
        2
176
     1
 62
     7
176
     1
 62
     7
176
     1
 90
        1
176
     1
 90
        1
176
     1
 40
40.0
176
     1
 90
       11
176
     1
 62
     7
176
     1
 40
1.0
176
     1
 90
        1
176
     1
 90
        6
176
     1
 90
        2
176
     1
 62
     7
176
     1
 90
        6
176
     1
 90
        0
176
     1
 90
        0
176
     1
290
     0
176
     1
 90
        1
176
     1
 40
0.0
176
     1
 90
        0
176
     1
290
     0
176
     1
290
     1
176
     1
290
     1
176
     1
290
     0
176
     1
290
     0
176
     1
290
     0
176
     1
290
     0
176
     1
290
     0
176
     1
290
     0
176
     1
 90
       50
176
     1
 40
0.0
176
     1
 40
1.0
176
     1
 90
        0
176
     1
 62
    18
420
        0
176
     1
 90
       50
176
     1
 90
        3
176
     1
 62
     5
420
      255
176
     1
290
     0
176
     1
 90
       50
176
     1
 90
       50
176
     1
 90
       50
176
     1
290
     0
176
     1
 90
       50
176
     1
 62
   256
176
     0
 40
1.0
176
     0
 90
        2
176
     1
  1
strokes_ogs.tif
176
     1
290
     0
176
     1
 40
1.0
176
     1
 40
1.0
176
     1
  0
VISUALSTYLE
  5
18F
102
{ACAD_REACTORS
330
182
102
}
330
182
100
AcDbVisualStyle
  2
Thicken
 70
    13
177
     3
291
     1
 70
    58
 90
        2
176
     1
 90
        2
176
     1
 90
        0
176
     1
 90
        0
176
     1
 40
-0.6
176
     1
 40
-30.0
176
     1
 62
     7
176
     1
 90
        1
176
     1
 90
        4
176
     1
 62
     7
176
     1
 62
   257
176
     1
 90
        1
176
     1
 90
        1
176
     1
 40
1.0
176
     1
 90
       12
176
     1
 62
     7
176
     1
 40
1.0
176
     1
 90
        1
176
     1
 90
        6
176
     1
 90
        2
176
     1
 62
     7
176
     1
 90
        5
176
     1
 90
        0
176
     1
 90
        0
176
     1
290
     0
176
     1
 90
        1
176
     1
 40
0.0
176
     1
 90
        0
176
     1
290
     0
176
     1
290
     1
176
     1
290
     1
176
     1
290
     0
176
     1
290
     0
176
     1
290
     0
176
     1
290
     0
176
     1
290
     0
176
     1
290
     0
176
     1
 90
       50
176
     1
 40
0.0
176
     1
 40
1.0
176
     1
 90
        0
176
     1
 62
    18
420
        0
176
     1
 90
       50
176
     1
 90
        3
176
     1
 62
     5
420
      255
176
     1
290
     0
176
     1
 90
       50
176
     1
 90
       50
176
     1
 90
       50
176
     1
290
     0
176
     1
 90
       50
176
     1
 62
   256
176
     0
 40
1.0
176
     0
 90
        2
176
     1
  1
strokes_ogs.tif
176
     1
290
     0
176
     1
 40
1.0
176
     1
 40
1.0
176
     1
  0
VISUALSTYLE
  5
1DE
102
{ACAD_REACTORS
330
182
102
}
330
182
100
AcDbVisualStyle
  2
Wireframe
 70
     5
177
     3
291
     0
 70
    58
 90
        0
176
     1
 90
        2
176
     1
 90
        0
176
     1
 90
        0
176
     1
 40
0.6
176
     1
 40
30.0
176
     1
 62
     7
420
 16777215
176
     1
 90
        1
176
     1
 90
        4
176
     1
 62
     7
176
     1
 62
   257
176
     1
 90
        1
176
     1
 90
        1
176
     1
 40
1.0
176
     1
 90
        0
176
     1
 62
   257
176
     1
 40
1.0
176
     1
 90
        1
176
     1
 90
        6
176
     1
 90
        2
176
     1
 62
     7
176
     1
 90
        3
176
     1
 90
        0
176
     1
 90
        0
176
     1
290
     0
176
     1
 90
        1
176
     1
 40
0.0
176
     1
 90
        0
176
     1
290
     0
176
     1
290
     1
176
     1
290
     1
176
     1
290
     0
176
     1
290
     0
176
     1
290
     0
176
     1
290
     0
176
     1
290
     0
176
     1
290
     0
176
     1
 90
       50
176
     1
 40
0.0
176
     1
 40
1.0
176
     1
 90
        0
176
     1
 62
    18
420
        0
176
     1
 90
       50
176
     1
 90
        3
176
     1
 62
     5
420
      255
176
     1
290
     0
176
     1
 90
       50
176
     1
 90
       50
176
     1
 90
       50
176
     1
290
     0
176
     1
 90
       50
176
     1
 62
   256
176
     0
 40
1.0
176
     0
 90
        2
176
     1
  1
strokes_ogs.tif
176
     1
290
     0
176
     1
 40
1.0
176
     1
 40
1.0
176
     1
  0
VISUALSTYLE
  5
1E5
102
{ACAD_REACTORS
330
182
102
}
330
182
100
AcDbVisualStyle
  2
X-Ray
 70
    25
177
     3
291
     0
 70
    58
 90
        2
176
     1
 90
        2
176
     1
 90
        1
176
     1
 90
        1
176
     1
 40
0.5
176
     1
 40
30.0
176
     1
 62
     7
420
 16777215
176
     1
 90
        1
176
     1
 90
        0
176
     1
 62
     7
176
     1
 62
   257
176
     1
 90
        1
176
     1
 90
        1
176
     1
 40
1.0
176
     1
 90
        8
176
     1
 62
     7
176
     1
 40
1.0
176
     1
 90
        1
176
     1
 90
        6
176
     1
 90
        2
176
     1
 62
     7
176
     1
 90
        3
176
     1
 90
        0
176
     1
 90
        0
176
     1
290
     0
176
     1
 90
       13
176
     1
 40
0.0
176
     1
 90
        0
176
     1
290
     0
176
     1
290
     1
176
     1
290
     1
176
     1
290
     0
176
     1
290
     0
176
     1
290
     0
176
     1
290
     0
176
     1
290
     0
176
     1
290
     0
176
     1
 90
       50
176
     1
 40
0.0
176
     1
 40
1.0
176
     1
 90
        0
176
     1
 62
    18
420
        0
176
     1
 90
       50
176
     1
 90
        3
176
     1
 62
     5
420
      255
176
     1
290
     0
176
     1
 90
       50
176
     1
 90
       50
176
     1
 90
       50
176
     1
290
     0
176
     1
 90
       50
176
     1
 62
   256
176
     0
 40
1.0
176
     0
 90
        2
176
     1
  1
strokes_ogs.tif
176
     1
290
     0
176
     1
 40
1.0
176
     1
 40
1.0
176
     1
  0
DICTIONARYVAR
  5
213
102
{ACAD_REACTORS
330
19D
102
}
330
19D
100
DictionaryVariables
280
     0
  1
1:1
  0
DICTIONARYVAR
  5
215
102
{ACAD_REACTORS
330
19D
102
}
330
19D
100
DictionaryVariables
280
     0
  1
Standard
  0
DICTIONARYVAR
  5
214
102
{ACAD_REACTORS
330
19D
102
}
330
19D
100
DictionaryVariables
280
     0
  1
Standard
  0
DICTIONARYVAR
  5
1A1
102
{ACAD_REACTORS
330
19D
102
}
330
19D
100
DictionaryVariables
280
     0
  1
2
  0
DICTIONARYVAR
  5
1A2
102
{ACAD_REACTORS
330
19D
102
}
330
19D
100
DictionaryVariables
280
     0
  1
1
  0
DICTIONARYVAR
  5
1A0
102
{ACAD_REACTORS
330
19D
102
}
330
19D
100
DictionaryVariables
280
     0
  1
0
  0
DICTIONARY
  5
2C6
330
1E9
100
AcDbDictionary
280
     1
281
     1
  3
ACAD_ROUNDTRIP_2008_TABLESTYLE_CELLSTYLEMAP
360
2C7
  0
CELLSTYLEMAP
  5
2C7
102
{ACAD_REACTORS
330
2C6
102
}
330
2C6
100
AcDbCellStyleMap
 90
        3
300
CELLSTYLE
  1
TABLEFORMAT_BEGIN
 90
        5
170
     1
 91
        0
 92
    32768
 62
   257
 93
        1
300
CONTENTFORMAT
  1
CONTENTFORMAT_BEGIN
 90
        0
 91
        0
 92
        4
 93
        0
300

 40
0.0
140
1.0
 94
        5
 62
     0
340
11
144
0.25
309
CONTENTFORMAT_END
171
     1
301
MARGIN
  1
CELLMARGIN_BEGIN
 40
0.06
 40
0.06
 40
0.06
 40
0.06
 40
0.06
 40
0.06
309
CELLMARGIN_END
 94
        6
 95
        1
302
GRIDFORMAT
  1
GRIDFORMAT_BEGIN
 90
        0
 91
        1
 62
     0
 92
       -2
340
14
 93
        0
 40
0.045
309
GRIDFORMAT_END
 95
        2
302
GRIDFORMAT
  1
GRIDFORMAT_BEGIN
 90
        0
 91
        1
 62
     0
 92
       -2
340
14
 93
        0
 40
0.045
309
GRIDFORMAT_END
 95
        4
302
GRIDFORMAT
  1
GRIDFORMAT_BEGIN
 90
        0
 91
        1
 62
     0
 92
       -2
340
14
 93
        0
 40
0.045
309
GRIDFORMAT_END
 95
        8
302
GRIDFORMAT
  1
GRIDFORMAT_BEGIN
 90
        0
 91
        1
 62
     0
 92
       -2
340
14
 93
        0
 40
0.045
309
GRIDFORMAT_END
 95
       16
302
GRIDFORMAT
  1
GRIDFORMAT_BEGIN
 90
        0
 91
        1
 62
     0
 92
       -2
340
14
 93
        0
 40
0.045
309
GRIDFORMAT_END
 95
       32
302
GRIDFORMAT
  1
GRIDFORMAT_BEGIN
 90
        0
 91
        1
 62
     0
 92
       -2
340
14
 93
        0
 40
0.045
309
GRIDFORMAT_END
309
TABLEFORMAT_END
  1
CELLSTYLE_BEGIN
 90
        1
 91
        1
300
_TITLE
309
CELLSTYLE_END
300
CELLSTYLE
  1
TABLEFORMAT_BEGIN
 90
        5
170
     1
 91
        0
 92
        0
 62
   257
 93
        1
300
CONTENTFORMAT
  1
CONTENTFORMAT_BEGIN
 90
        0
 91
        0
 92
        4
 93
        0
300

 40
0.0
140
1.0
 94
        5
 62
     0
340
11
144
0.18
309
CONTENTFORMAT_END
171
     1
301
MARGIN
  1
CELLMARGIN_BEGIN
 40
0.06
 40
0.06
 40
0.06
 40
0.06
 40
0.06
 40
0.06
309
CELLMARGIN_END
 94
        6
 95
        1
302
GRIDFORMAT
  1
GRIDFORMAT_BEGIN
 90
        0
 91
        1
 62
     0
 92
       -2
340
14
 93
        0
 40
0.045
309
GRIDFORMAT_END
 95
        2
302
GRIDFORMAT
  1
GRIDFORMAT_BEGIN
 90
        0
 91
        1
 62
     0
 92
       -2
340
14
 93
        0
 40
0.045
309
GRIDFORMAT_END
 95
        4
302
GRIDFORMAT
  1
GRIDFORMAT_BEGIN
 90
        0
 91
        1
 62
     0
 92
       -2
340
14
 93
        0
 40
0.045
309
GRIDFORMAT_END
 95
        8
302
GRIDFORMAT
  1
GRIDFORMAT_BEGIN
 90
        0
 91
        1
 62
     0
 92
       -2
340
14
 93
        0
 40
0.045
309
GRIDFORMAT_END
 95
       16
302
GRIDFORMAT
  1
GRIDFORMAT_BEGIN
 90
        0
 91
        1
 62
     0
 92
       -2
340
14
 93
        0
 40
0.045
309
GRIDFORMAT_END
 95
       32
302
GRIDFORMAT
  1
GRIDFORMAT_BEGIN
 90
        0
 91
        1
 62
     0
 92
       -2
340
14
 93
        0
 40
0.045
309
GRIDFORMAT_END
309
TABLEFORMAT_END
  1
CELLSTYLE_BEGIN
 90
        2
 91
        1
300
_HEADER
309
CELLSTYLE_END
300
CELLSTYLE
  1
TABLEFORMAT_BEGIN
 90
        5
170
     1
 91
        0
 92
        0
 62
   257
 93
        1
300
CONTENTFORMAT
  1
CONTENTFORMAT_BEGIN
 90
        0
 91
        0
 92
        4
 93
        0
300

 40
0.0
140
1.0
 94
        2
 62
     0
340
11
144
0.18
309
CONTENTFORMAT_END
171
     1
301
MARGIN
  1
CELLMARGIN_BEGIN
 40
0.06
 40
0.06
 40
0.06
 40
0.06
 40
0.06
 40
0.06
309
CELLMARGIN_END
 94
        6
 95
        1
302
GRIDFORMAT
  1
GRIDFORMAT_BEGIN
 90
        0
 91
        1
 62
     0
 92
       -2
340
14
 93
        0
 40
0.045
309
GRIDFORMAT_END
 95
        2
302
GRIDFORMAT
  1
GRIDFORMAT_BEGIN
 90
        0
 91
        1
 62
     0
 92
       -2
340
14
 93
        0
 40
0.045
309
GRIDFORMAT_END
 95
        4
302
GRIDFORMAT
  1
GRIDFORMAT_BEGIN
 90
        0
 91
        1
 62
     0
 92
       -2
340
14
 93
        0
 40
0.045
309
GRIDFORMAT_END
 95
        8
302
GRIDFORMAT
  1
GRIDFORMAT_BEGIN
 90
        0
 91
        1
 62
     0
 92
       -2
340
14
 93
        0
 40
0.045
309
GRIDFORMAT_END
 95
       16
302
GRIDFORMAT
  1
GRIDFORMAT_BEGIN
 90
        0
 91
        1
 62
     0
 92
       -2
340
14
 93
        0
 40
0.045
309
GRIDFORMAT_END
 95
       32
302
GRIDFORMAT
  1
GRIDFORMAT_BEGIN
 90
        0
 91
        1
 62
     0
 92
       -2
340
14
 93
        0
 40
0.045
309
GRIDFORMAT_END
309
TABLEFORMAT_END
  1
CELLSTYLE_BEGIN
 90
        3
 91
        2
300
_DATA
309
CELLSTYLE_END
  0
ENDSEC
  0
EOF
