  0
SECTION
  2
HEADER
  9
$ACADVER
  1
AC1027
  9
$ACADMAINTVER
 70
   105
  9
$DWGCODEPAGE
  3
ANSI_1252
  9
$REQUIREDVERSIONS
160
                 0
  9
$LASTSAVEDBY
  1
christoph.stuessi
  9
$INSBASE
 10
0.0
 20
0.0
 30
0.0
  9
$EXTMIN
 10
-192.368254408691
 20
-113.2373934673366
 30
0.0
  9
$EXTMAX
 10
204.415800479082
 20
83.7065169879084
 30
0.0
  9
$LIMMIN
 10
-105.758003081
 20
-70.022397793
  9
$LIMMAX
 10
93.95800003
 20
54.200956143
  9
$ORTHOMODE
 70
     0
  9
$REGENMODE
 70
     1
  9
$FILLMODE
 70
     1
  9
$QTEXTMODE
 70
     0
  9
$MIRRTEXT
 70
     1
  9
$LTSCALE
 40
1.0
  9
$ATTMODE
 70
     1
  9
$TEXTSIZE
 40
0.2
  9
$TRACEWID
 40
0.05
  9
$TEXTSTYLE
  7
Standard
  9
$CLAYER
  8
INFTOTAL
  9
$CELTYPE
  6
ByLayer
  9
$CECOLOR
 62
   256
  9
$CELTSCALE
 40
1.0
  9
$DISPSILH
 70
     0
  9
$DIMSCALE
 40
1.0
  9
$DIMASZ
 40
0.18
  9
$DIMEXO
 40
0.0625
  9
$DIMDLI
 40
0.38
  9
$DIMRND
 40
0.0
  9
$DIMDLE
 40
0.0
  9
$DIMEXE
 40
0.18
  9
$DIMTP
 40
0.0
  9
$DIMTM
 40
0.0
  9
$DIMTXT
 40
0.18
  9
$DIMCEN
 40
0.09
  9
$DIMTSZ
 40
0.0
  9
$DIMTOL
 70
     0
  9
$DIMLIM
 70
     0
  9
$DIMTIH
 70
     1
  9
$DIMTOH
 70
     1
  9
$DIMSE1
 70
     0
  9
$DIMSE2
 70
     0
  9
$DIMTAD
 70
     0
  9
$DIMZIN
 70
     0
  9
$DIMBLK
  1

  9
$DIMASO
 70
     1
  9
$DIMSHO
 70
     1
  9
$DIMPOST
  1

  9
$DIMAPOST
  1

  9
$DIMALT
 70
     0
  9
$DIMALTD
 70
     2
  9
$DIMALTF
 40
25.4
  9
$DIMLFAC
 40
1.0
  9
$DIMTOFL
 70
     0
  9
$DIMTVP
 40
0.0
  9
$DIMTIX
 70
     0
  9
$DIMSOXD
 70
     0
  9
$DIMSAH
 70
     0
  9
$DIMBLK1
  1

  9
$DIMBLK2
  1

  9
$DIMSTYLE
  2
Standard
  9
$DIMCLRD
 70
     0
  9
$DIMCLRE
 70
     0
  9
$DIMCLRT
 70
     0
  9
$DIMTFAC
 40
1.0
  9
$DIMGAP
 40
0.09
  9
$DIMJUST
 70
     0
  9
$DIMSD1
 70
     0
  9
$DIMSD2
 70
     0
  9
$DIMTOLJ
 70
     1
  9
$DIMTZIN
 70
     0
  9
$DIMALTZ
 70
     0
  9
$DIMALTTZ
 70
     0
  9
$DIMUPT
 70
     0
  9
$DIMDEC
 70
     4
  9
$DIMTDEC
 70
     4
  9
$DIMALTU
 70
     2
  9
$DIMALTTD
 70
     2
  9
$DIMTXSTY
  7
Standard
  9
$DIMAUNIT
 70
     0
  9
$DIMADEC
 70
     0
  9
$DIMALTRND
 40
0.0
  9
$DIMAZIN
 70
     0
  9
$DIMDSEP
 70
    46
  9
$DIMATFIT
 70
     3
  9
$DIMFRAC
 70
     0
  9
$DIMLDRBLK
  1

  9
$DIMLUNIT
 70
     2
  9
$DIMLWD
 70
    -2
  9
$DIMLWE
 70
    -2
  9
$DIMTMOVE
 70
     2
  9
$DIMFXL
 40
1.0
  9
$DIMFXLON
 70
     0
  9
$DIMJOGANG
 40
0.7853981633974483
  9
$DIMTFILL
 70
     0
  9
$DIMTFILLCLR
 70
     0
  9
$DIMARCSYM
 70
     0
  9
$DIMLTYPE
  6

  9
$DIMLTEX1
  6

  9
$DIMLTEX2
  6

  9
$DIMTXTDIRECTION
 70
     0
  9
$LUNITS
 70
     2
  9
$LUPREC
 70
     4
  9
$SKETCHINC
 40
0.1
  9
$FILLETRAD
 40
0.5
  9
$AUNITS
 70
     2
  9
$AUPREC
 70
     0
  9
$MENU
  1
.
  9
$ELEVATION
 40
0.0
  9
$PELEVATION
 40
0.0
  9
$THICKNESS
 40
0.0
  9
$LIMCHECK
 70
     0
  9
$CHAMFERA
 40
0.5
  9
$CHAMFERB
 40
0.5
  9
$CHAMFERC
 40
1.0
  9
$CHAMFERD
 40
0.0
  9
$SKPOLY
 70
     0
  9
$TDCREATE
 40
2458327.549463067
  9
$TDUCREATE
 40
2458327.466129734
  9
$TDUPDATE
 40
2458362.497013357
  9
$TDUUPDATE
 40
2458362.413680023
  9
$TDINDWG
 40
0.0033173264
  9
$TDUSRTIMER
 40
0.0033177431
  9
$USRTIMER
 70
     1
  9
$ANGBASE
 50
0.0
  9
$ANGDIR
 70
     0
  9
$PDMODE
 70
     0
  9
$PDSIZE
 40
0.0
  9
$PLINEWID
 40
0.0
  9
$SPLFRAME
 70
     0
  9
$SPLINETYPE
 70
     6
  9
$SPLINESEGS
 70
     8
  9
$HANDSEED
  5
263
  9
$SURFTAB1
 70
     6
  9
$SURFTAB2
 70
     6
  9
$SURFTYPE
 70
     6
  9
$SURFU
 70
     6
  9
$SURFV
 70
     6
  9
$UCSBASE
  2

  9
$UCSNAME
  2

  9
$UCSORG
 10
0.0
 20
0.0
 30
0.0
  9
$UCSXDIR
 10
1.0
 20
0.0
 30
0.0
  9
$UCSYDIR
 10
0.0
 20
1.0
 30
0.0
  9
$UCSORTHOREF
  2

  9
$UCSORTHOVIEW
 70
     0
  9
$UCSORGTOP
 10
0.0
 20
0.0
 30
0.0
  9
$UCSORGBOTTOM
 10
0.0
 20
0.0
 30
0.0
  9
$UCSORGLEFT
 10
0.0
 20
0.0
 30
0.0
  9
$UCSORGRIGHT
 10
0.0
 20
0.0
 30
0.0
  9
$UCSORGFRONT
 10
0.0
 20
0.0
 30
0.0
  9
$UCSORGBACK
 10
0.0
 20
0.0
 30
0.0
  9
$PUCSBASE
  2

  9
$PUCSNAME
  2

  9
$PUCSORG
 10
0.0
 20
0.0
 30
0.0
  9
$PUCSXDIR
 10
1.0
 20
0.0
 30
0.0
  9
$PUCSYDIR
 10
0.0
 20
1.0
 30
0.0
  9
$PUCSORTHOREF
  2

  9
$PUCSORTHOVIEW
 70
     0
  9
$PUCSORGTOP
 10
0.0
 20
0.0
 30
0.0
  9
$PUCSORGBOTTOM
 10
0.0
 20
0.0
 30
0.0
  9
$PUCSORGLEFT
 10
0.0
 20
0.0
 30
0.0
  9
$PUCSORGRIGHT
 10
0.0
 20
0.0
 30
0.0
  9
$PUCSORGFRONT
 10
0.0
 20
0.0
 30
0.0
  9
$PUCSORGBACK
 10
0.0
 20
0.0
 30
0.0
  9
$USERI1
 70
     0
  9
$USERI2
 70
     0
  9
$USERI3
 70
     0
  9
$USERI4
 70
     0
  9
$USERI5
 70
     0
  9
$USERR1
 40
0.0
  9
$USERR2
 40
0.0
  9
$USERR3
 40
0.0
  9
$USERR4
 40
0.0
  9
$USERR5
 40
0.0
  9
$WORLDVIEW
 70
     1
  9
$SHADEDGE
 70
     3
  9
$SHADEDIF
 70
    70
  9
$TILEMODE
 70
     1
  9
$MAXACTVP
 70
    64
  9
$PINSBASE
 10
0.0
 20
0.0
 30
0.0
  9
$PLIMCHECK
 70
     0
  9
$PEXTMIN
 10
1.000000000000000E+20
 20
1.000000000000000E+20
 30
1.000000000000000E+20
  9
$PEXTMAX
 10
-1.000000000000000E+20
 20
-1.000000000000000E+20
 30
-1.000000000000000E+20
  9
$PLIMMIN
 10
0.0
 20
0.0
  9
$PLIMMAX
 10
0.0
 20
0.0
  9
$UNITMODE
 70
     0
  9
$VISRETAIN
 70
     1
  9
$PLINEGEN
 70
     0
  9
$PSLTSCALE
 70
     1
  9
$TREEDEPTH
 70
  3020
  9
$CMLSTYLE
  2
Standard
  9
$CMLJUST
 70
     0
  9
$CMLSCALE
 40
1.0
  9
$PROXYGRAPHICS
 70
     1
  9
$MEASUREMENT
 70
     0
  9
$CELWEIGHT
370
    -1
  9
$ENDCAPS
280
     0
  9
$JOINSTYLE
280
     0
  9
$LWDISPLAY
290
     0
  9
$INSUNITS
 70
     0
  9
$HYPERLINKBASE
  1

  9
$STYLESHEET
  1

  9
$XEDIT
290
     1
  9
$CEPSNTYPE
380
     0
  9
$PSTYLEMODE
290
     1
  9
$FINGERPRINTGUID
  2
{31A7663A-3A88-407F-BD2D-3F75C4D5B29A}
  9
$VERSIONGUID
  2
{FAEB1C32-E019-11D5-929B-00C0DF256EC4}
  9
$EXTNAMES
290
     1
  9
$PSVPSCALE
 40
0.0
  9
$OLESTARTUP
290
     0
  9
$SORTENTS
280
   127
  9
$INDEXCTL
280
     0
  9
$HIDETEXT
280
     1
  9
$XCLIPFRAME
280
     2
  9
$HALOGAP
280
     0
  9
$OBSCOLOR
 70
   257
  9
$OBSLTYPE
280
     0
  9
$INTERSECTIONDISPLAY
280
     0
  9
$INTERSECTIONCOLOR
 70
   257
  9
$DIMASSOC
280
     2
  9
$PROJECTNAME
  1

  9
$CAMERADISPLAY
290
     0
  9
$LENSLENGTH
 40
50.0
  9
$CAMERAHEIGHT
 40
0.0
  9
$STEPSPERSEC
 40
2.0
  9
$STEPSIZE
 40
6.0
  9
$3DDWFPREC
 40
2.0
  9
$PSOLWIDTH
 40
0.25
  9
$PSOLHEIGHT
 40
4.0
  9
$LOFTANG1
 40
1.570796326794897
  9
$LOFTANG2
 40
1.570796326794897
  9
$LOFTMAG1
 40
0.0
  9
$LOFTMAG2
 40
0.0
  9
$LOFTPARAM
 70
     7
  9
$LOFTNORMALS
280
     1
  9
$LATITUDE
 40
37.795
  9
$LONGITUDE
 40
-122.394
  9
$NORTHDIRECTION
 40
0.0
  9
$TIMEZONE
 70
 -8000
  9
$LIGHTGLYPHDISPLAY
280
     1
  9
$TILEMODELIGHTSYNCH
280
     1
  9
$SOLIDHIST
280
     0
  9
$SHOWHIST
280
     1
  9
$DWFFRAME
280
     2
  9
$DGNFRAME
280
     2
  9
$REALWORLDSCALE
290
     1
  9
$INTERFERECOLOR
 62
   256
  9
$CSHADOW
280
     0
  9
$SHADOWPLANELOCATION
 40
0.0
  0
ENDSEC
  0
SECTION
  2
CLASSES
  0
CLASS
  1
ACDBDICTIONARYWDFLT
  2
AcDbDictionaryWithDefault
  3
ObjectDBX Classes
 90
        0
 91
        5
280
     0
281
     0
  0
CLASS
  1
SCALE
  2
AcDbScale
  3
ObjectDBX Classes
 90
     1153
 91
        5
280
     0
281
     0
  0
CLASS
  1
VISUALSTYLE
  2
AcDbVisualStyle
  3
ObjectDBX Classes
 90
     4095
 91
        5
280
     0
281
     0
  0
CLASS
  1
MATERIAL
  2
AcDbMaterial
  3
ObjectDBX Classes
 90
     1153
 91
        5
280
     0
281
     0
  0
CLASS
  1
DICTIONARYVAR
  2
AcDbDictionaryVar
  3
ObjectDBX Classes
 90
        0
 91
        5
280
     0
281
     0
  0
CLASS
  1
ACDBPLACEHOLDER
  2
AcDbPlaceHolder
  3
ObjectDBX Classes
 90
        0
 91
        1
280
     0
281
     0
  0
CLASS
  1
LAYOUT
  2
AcDbLayout
  3
ObjectDBX Classes
 90
        0
 91
        1
280
     0
281
     0
  0
CLASS
  1
TABLESTYLE
  2
AcDbTableStyle
  3
ObjectDBX Classes
 90
     4095
 91
        5
280
     0
281
     0
  0
CLASS
  1
MLEADERSTYLE
  2
AcDbMLeaderStyle
  3
ACDB_MLEADERSTYLE_CLASS
 90
     4095
 91
        5
280
     0
281
     0
  0
CLASS
  1
CELLSTYLEMAP
  2
AcDbCellStyleMap
  3
ObjectDBX Classes
 90
     1152
 91
        5
280
     0
281
     0
  0
ENDSEC
  0
SECTION
  2
TABLES
  0
TABLE
  2
VPORT
  5
8
330
0
100
AcDbSymbolTable
 70
     1
  0
VPORT
  5
193
330
8
100
AcDbSymbolTableRecord
100
AcDbViewportTableRecord
  2
*Active
 70
     0
 10
0.0
 20
0.0
 11
1.0
 21
1.0
 12
2.837915660184194
 22
30.41581180590097
 13
0.0
 23
0.0
 14
0.5
 24
0.5
 15
0.5
 25
0.5
 16
0.0
 26
0.0
 36
1.0
 17
0.0
 27
0.0
 37
0.0
 40
399.680288865056
 41
2.246376811594203
 42
50.0
 43
0.0
 44
0.0
 50
0.0
 51
0.0
 71
    16
 72
   100
 73
     1
 74
     3
 75
     0
 76
     0
 77
     0
 78
     0
281
     0
 65
     1
110
0.0
120
0.0
130
0.0
111
1.0
121
0.0
131
0.0
112
0.0
122
1.0
132
0.0
 79
     0
146
0.0
348
1C4
 60
     3
 61
     5
292
     1
282
     1
141
0.0
142
0.0
 63
   256
  0
ENDTAB
  0
TABLE
  2
LTYPE
  5
5
330
0
100
AcDbSymbolTable
 70
     8
  0
LTYPE
  5
14
330
5
100
AcDbSymbolTableRecord
100
AcDbLinetypeTableRecord
  2
ByBlock
 70
     0
  3

 72
    65
 73
     0
 40
0.0
  0
LTYPE
  5
15
330
5
100
AcDbSymbolTableRecord
100
AcDbLinetypeTableRecord
  2
ByLayer
 70
     0
  3

 72
    65
 73
     0
 40
0.0
  0
LTYPE
  5
16
330
5
100
AcDbSymbolTableRecord
100
AcDbLinetypeTableRecord
  2
Continuous
 70
     0
  3
Solid line
 72
    65
 73
     0
 40
0.0
  0
LTYPE
  5
20
330
5
100
AcDbSymbolTableRecord
100
AcDbLinetypeTableRecord
  2
PUNKT
 70
     0
  3
..............
 72
    65
 73
     2
 40
1.5
 49
0.7
 74
     0
 49
-0.8
 74
     0
  0
LTYPE
  5
21
330
5
100
AcDbSymbolTableRecord
100
AcDbLinetypeTableRecord
  2
GESTRICHELT
 70
     0
  3
-- -- -- -- --
 72
    65
 73
     7
 40
2.8
 49
0.9
 74
     0
 49
0.0
 74
     0
 49
0.9
 74
     0
 49
0.0
 74
     0
 49
0.2
 74
     0
 49
0.0
 74
     0
 49
-0.8
 74
     0
  0
LTYPE
  5
22
330
5
100
AcDbSymbolTableRecord
100
AcDbLinetypeTableRecord
  2
STRICHPUNKT
 70
     0
  3
--.--.--.--.--
 72
    65
 73
     4
 40
8.8
 49
5.5
 74
     0
 49
-1.3
 74
     0
 49
0.7
 74
     0
 49
-1.3
 74
     0
  0
LTYPE
  5
25
330
5
100
AcDbSymbolTableRecord
100
AcDbLinetypeTableRecord
  2
PHANTOM
 70
     0
  3
--..--..--..--
 72
    65
 73
     6
 40
14.2
 49
7.0
 74
     0
 49
-1.8
 74
     0
 49
0.9
 74
     0
 49
-1.8
 74
     0
 49
0.9
 74
     0
 49
-1.8
 74
     0
  0
LTYPE
  5
20B
330
5
100
AcDbSymbolTableRecord
100
AcDbLinetypeTableRecord
  2
DASH
 70
     0
  3
DASH _ _ _ _ _
 72
    65
 73
     2
 40
0.75
 49
0.4
 74
     0
 49
-0.35
 74
     0
  0
LTYPE
  5
20C
330
5
100
AcDbSymbolTableRecord
100
AcDbLinetypeTableRecord
  2
LONGDASH_DASH
 70
     0
  3
LONGDASH_DASH __ . __ . __
 72
    65
 73
     4
 40
0.85
 49
0.4
 74
     0
 49
-0.2
 74
     0
 49
0.05
 74
     0
 49
-0.2
 74
     0
  0
LTYPE
  5
20D
330
5
100
AcDbSymbolTableRecord
100
AcDbLinetypeTableRecord
  2
LONGDASH_DASH_DASH
 70
     0
  3
LONGDASH_DASH_DASH __ . . __ . . __
 72
    65
 73
     6
 40
1.1
 49
0.4
 74
     0
 49
-0.2
 74
     0
 49
0.05
 74
     0
 49
-0.2
 74
     0
 49
0.05
 74
     0
 49
-0.2
 74
     0
  0
ENDTAB
  0
TABLE
  2
LAYER
  5
2
102
{ACAD_XDICTIONARY
360
22A
102
}
330
0
100
AcDbSymbolTable
 70
    15
  0
LAYER
  5
1D5
330
2
100
AcDbSymbolTableRecord
100
AcDbLayerTableRecord
  2
200
 70
     0
 62
     2
  6
Continuous
370
    50
390
F
347
1D3
348
0
  0
LAYER
  5
20E
330
2
100
AcDbSymbolTableRecord
100
AcDbLayerTableRecord
  2
0
 70
     0
 62
    -1
  6
Continuous
370
    -3
390
F
347
1D3
348
0
  0
LAYER
  5
20F
330
2
100
AcDbSymbolTableRecord
100
AcDbLayerTableRecord
  2
1
 70
     0
 62
     4
  6
Continuous
370
    50
390
F
347
1D3
348
0
  0
LAYER
  5
210
330
2
100
AcDbSymbolTableRecord
100
AcDbLayerTableRecord
  2
2
 70
     0
 62
     7
  6
Continuous
370
    25
390
F
347
1D3
348
0
  0
LAYER
  5
211
330
2
100
AcDbSymbolTableRecord
100
AcDbLayerTableRecord
  2
3
 70
     0
 62
     1
  6
DASH
370
    35
390
F
347
1D3
348
0
  0
LAYER
  5
212
330
2
100
AcDbSymbolTableRecord
100
AcDbLayerTableRecord
  2
4
 70
     0
 62
     2
  6
LONGDASH_DASH
370
    25
390
F
347
1D3
348
0
  0
LAYER
  5
213
330
2
100
AcDbSymbolTableRecord
100
AcDbLayerTableRecord
  2
6
 70
     0
 62
     5
  6
Continuous
370
    -3
390
F
347
1D3
348
0
  0
LAYER
  5
214
330
2
100
AcDbSymbolTableRecord
100
AcDbLayerTableRecord
  2
CUT
 70
     0
 62
     1
  6
Continuous
370
    25
390
F
347
1D3
348
0
  0
LAYER
  5
215
330
2
100
AcDbSymbolTableRecord
100
AcDbLayerTableRecord
  2
NOCUT
 70
     0
 62
     7
  6
Continuous
370
    25
390
F
347
1D3
348
0
  0
LAYER
  5
216
330
2
100
AcDbSymbolTableRecord
100
AcDbLayerTableRecord
  2
SK1
 70
     0
 62
     4
  6
Continuous
370
    50
390
F
347
1D3
348
0
  0
LAYER
  5
217
330
2
100
AcDbSymbolTableRecord
100
AcDbLayerTableRecord
  2
SK2
 70
     0
 62
     7
  6
Continuous
370
    25
390
F
347
1D3
348
0
  0
LAYER
  5
218
330
2
100
AcDbSymbolTableRecord
100
AcDbLayerTableRecord
  2
SK3
 70
     0
 62
     1
  6
DASH
370
    35
390
F
347
1D3
348
0
  0
LAYER
  5
219
330
2
100
AcDbSymbolTableRecord
100
AcDbLayerTableRecord
  2
SK4
 70
     0
 62
     2
  6
LONGDASH_DASH
370
    25
390
F
347
1D3
348
0
  0
LAYER
  5
21A
330
2
100
AcDbSymbolTableRecord
100
AcDbLayerTableRecord
  2
SK6
 70
     0
 62
     5
  6
Continuous
370
    -3
390
F
347
1D3
348
0
  0
LAYER
  5
21B
330
2
100
AcDbSymbolTableRecord
100
AcDbLayerTableRecord
  2
INFTOTAL
 70
     0
 62
     9
  6
Continuous
370
    18
390
F
347
1D3
348
0
  0
ENDTAB
  0
TABLE
  2
STYLE
  5
3
330
0
100
AcDbSymbolTable
 70
     2
  0
STYLE
  5
11
330
3
100
AcDbSymbolTableRecord
100
AcDbTextStyleTableRecord
  2
Standard
 70
     0
 40
0.0
 41
1.0
 50
0.0
 71
     0
 42
0.2
  3
txt
  4

  0
STYLE
  5
1D4
330
3
100
AcDbSymbolTableRecord
100
AcDbTextStyleTableRecord
  2
BMG_Text
 70
     0
 40
3.5
 41
1.0
 50
0.0
 71
     0
 42
0.2
  3
monos.ttf
  4

1001
ACAD
1000
Monospac821 BT
1071
       49
  0
ENDTAB
  0
TABLE
  2
VIEW
  5
6
330
0
100
AcDbSymbolTable
 70
     0
  0
ENDTAB
  0
TABLE
  2
UCS
  5
7
330
0
100
AcDbSymbolTable
 70
     0
  0
ENDTAB
  0
TABLE
  2
APPID
  5
9
330
0
100
AcDbSymbolTable
 70
     1
  0
APPID
  5
12
330
9
100
AcDbSymbolTableRecord
100
AcDbRegAppTableRecord
  2
ACAD
 70
     0
  0
ENDTAB
  0
TABLE
  2
DIMSTYLE
  5
A
330
0
100
AcDbSymbolTable
 70
     1
100
AcDbDimStyleTable
  0
DIMSTYLE
105
28
330
A
100
AcDbSymbolTableRecord
100
AcDbDimStyleTableRecord
  2
Standard
 70
     0
178
     0
340
11
  0
ENDTAB
  0
TABLE
  2
BLOCK_RECORD
  5
1
330
0
100
AcDbSymbolTable
 70
     0
  0
BLOCK_RECORD
  5
1D
330
1
100
AcDbSymbolTableRecord
100
AcDbBlockTableRecord
  2
*Model_Space
340
1E
 70
     0
280
     1
281
     0
  0
BLOCK_RECORD
  5
1B
330
1
100
AcDbSymbolTableRecord
100
AcDbBlockTableRecord
  2
*Paper_Space
340
1C
 70
     0
280
     1
281
     0
  0
ENDTAB
  0
ENDSEC
  0
SECTION
  2
BLOCKS
  0
BLOCK
  5
1BD
330
1D
100
AcDbEntity
  8
0
100
AcDbBlockBegin
  2
*Model_Space
 70
     0
 10
0.0
 20
0.0
 30
0.0
  3
*Model_Space
  1

  0
ENDBLK
  5
1BE
330
1D
100
AcDbEntity
  8
0
100
AcDbBlockEnd
  0
BLOCK
  5
1BB
330
1B
100
AcDbEntity
 67
     1
  8
0
100
AcDbBlockBegin
  2
*Paper_Space
 70
     0
 10
0.0
 20
0.0
 30
0.0
  3
*Paper_Space
  1

  0
ENDBLK
  5
1BC
330
1B
100
AcDbEntity
 67
     1
  8
0
100
AcDbBlockEnd
  0
ENDSEC
  0
SECTION
  2
ENTITIES
  0
ARC
  5
29
330
1D
100
AcDbEntity
  8
1
  6
Continuous
370
    50
100
AcDbCircle
 10
43.0
 20
-36.0
 30
0.0
 40
5.0
100
AcDbArc
 50
90.0
 51
180.0
  0
LINE
  5
2A
330
1D
100
AcDbEntity
  8
1
  6
Continuous
370
    50
100
AcDbLine
 10
43.0
 20
-31.0
 30
0.0
 11
67.0
 21
-31.0
 31
0.0
  0
LINE
  5
2B
330
1D
100
AcDbEntity
  8
1
  6
Continuous
370
    50
100
AcDbLine
 10
67.0
 20
-31.37423297
 30
0.0
 11
67.0
 21
31.374134339
 31
0.0
  0
LINE
  5
2C
330
1D
100
AcDbEntity
  8
1
  6
Continuous
370
    50
100
AcDbLine
 10
67.0
 20
31.374134339
 30
0.0
 11
67.65000916
 21
32.5
 31
0.0
  0
LINE
  5
2D
330
1D
100
AcDbEntity
  8
1
  6
Continuous
370
    50
100
AcDbLine
 10
67.65000916
 20
32.5
 30
0.0
 11
71.35002136
 21
32.5
 31
0.0
  0
LINE
  5
2E
330
1D
100
AcDbEntity
  8
1
  6
Continuous
370
    50
100
AcDbLine
 10
71.35002136
 20
32.5
 30
0.0
 11
72.0
 21
31.37419128
 31
0.0
  0
LINE
  5
2F
330
1D
100
AcDbEntity
  8
1
  6
Continuous
370
    50
100
AcDbLine
 10
72.0
 20
31.37419128
 30
0.0
 11
72.00001526
 21
-31.37420654
 31
0.0
  0
LINE
  5
30
330
1D
100
AcDbEntity
  8
1
  6
Continuous
370
    50
100
AcDbLine
 10
72.00001526
 20
-31.37420654
 30
0.0
 11
71.34999084
 21
-32.50005341
 31
0.0
  0
LINE
  5
31
330
1D
100
AcDbEntity
  8
1
  6
Continuous
370
    50
100
AcDbLine
 10
71.34999084
 20
-32.50005341
 30
0.0
 11
67.65000916
 21
-32.50005341
 31
0.0
  0
LINE
  5
32
330
1D
100
AcDbEntity
  8
1
  6
Continuous
370
    50
100
AcDbLine
 10
67.65000916
 20
-32.50005341
 30
0.0
 11
66.99998474
 21
-31.37420654
 31
0.0
  0
CIRCLE
  5
33
330
1D
100
AcDbEntity
  8
1
  6
Continuous
370
    50
100
AcDbCircle
 10
55.94999695
 20
0.0
 30
0.0
 40
6.0
  0
LINE
  5
34
330
1D
100
AcDbEntity
  8
1
  6
Continuous
370
    50
100
AcDbLine
 10
52.94999695
 20
-1.73204041
 30
0.0
 11
52.94999695
 21
1.73204041
 31
0.0
  0
LINE
  5
35
330
1D
100
AcDbEntity
  8
1
  6
Continuous
370
    50
100
AcDbLine
 10
52.94999695
 20
1.73204041
 30
0.0
 11
55.94999695
 21
3.46409607
 31
0.0
  0
LINE
  5
36
330
1D
100
AcDbEntity
  8
1
  6
Continuous
370
    50
100
AcDbLine
 10
55.94999695
 20
3.46409607
 30
0.0
 11
58.94999695
 21
1.73204041
 31
0.0
  0
LINE
  5
37
330
1D
100
AcDbEntity
  8
1
  6
Continuous
370
    50
100
AcDbLine
 10
58.94999695
 20
-1.73204041
 30
0.0
 11
58.94999695
 21
1.73204041
 31
0.0
  0
LINE
  5
38
330
1D
100
AcDbEntity
  8
1
  6
Continuous
370
    50
100
AcDbLine
 10
3.0
 20
49.0
 30
0.0
 11
3.0
 21
-49.0
 31
0.0
  0
LINE
  5
39
330
1D
100
AcDbEntity
  8
1
  6
Continuous
370
    50
100
AcDbLine
 10
38.0
 20
49.0
 30
0.0
 11
38.0
 21
-49.0
 31
0.0
  0
LINE
  5
3A
330
1D
100
AcDbEntity
  8
1
  6
Continuous
370
    50
100
AcDbLine
 10
36.99998474
 20
50.0
 30
0.0
 11
30.69978333
 21
50.0
 31
0.0
  0
LINE
  5
3B
330
1D
100
AcDbEntity
  8
1
  6
Continuous
370
    50
100
AcDbLine
 10
38.0
 20
49.0
 30
0.0
 11
36.99998474
 21
50.0
 31
0.0
  0
LINE
  5
3C
330
1D
100
AcDbEntity
  8
1
  6
Continuous
370
    50
100
AcDbLine
 10
4.0
 20
50.0
 30
0.0
 11
3.0
 21
49.0
 31
0.0
  0
LINE
  5
3D
330
1D
100
AcDbEntity
  8
1
  6
Continuous
370
    50
100
AcDbLine
 10
1.5
 20
34.92500305
 30
0.0
 11
0.0
 21
34.92500305
 31
0.0
  0
LINE
  5
3E
330
1D
100
AcDbEntity
  8
1
  6
Continuous
370
    50
100
AcDbLine
 10
26.75
 20
-43.15878296
 30
0.0
 11
26.75
 21
43.15878296
 31
0.0
  0
LINE
  5
3F
330
1D
100
AcDbEntity
  8
1
  6
Continuous
370
    50
100
AcDbLine
 10
19.6499939
 20
-43.15878296
 30
0.0
 11
19.6499939
 21
43.15878296
 31
0.0
  0
LINE
  5
40
330
1D
100
AcDbEntity
  8
1
  6
Continuous
370
    50
100
AcDbLine
 10
26.44999695
 20
42.42500305
 30
0.0
 11
19.94999695
 21
42.42500305
 31
0.0
  0
LINE
  5
41
330
1D
100
AcDbEntity
  8
1
  6
Continuous
370
    50
100
AcDbLine
 10
26.75
 20
43.15878296
 30
0.0
 11
30.69978333
 21
50.0
 31
0.0
  0
LINE
  5
42
330
1D
100
AcDbEntity
  8
1
  6
Continuous
370
    50
100
AcDbLine
 10
19.6499939
 20
43.15878296
 30
0.0
 11
15.70022583
 21
50.0
 31
0.0
  0
LINE
  5
43
330
1D
100
AcDbEntity
  8
1
  6
Continuous
370
    50
100
AcDbLine
 10
15.70022583
 20
50.0
 30
0.0
 11
4.0
 21
50.0
 31
0.0
  0
ARC
  5
44
330
1D
100
AcDbEntity
  8
1
  6
Continuous
370
    50
100
AcDbCircle
 10
19.94999695
 20
42.7250061
 30
0.0
 40
0.30000305
100
AcDbArc
 50
180.0
 51
270.0
  0
ARC
  5
45
330
1D
100
AcDbEntity
  8
1
  6
Continuous
370
    50
100
AcDbCircle
 10
26.44999695
 20
42.7250061
 30
0.0
 40
0.30000305
100
AcDbArc
 50
270.0
 51
0.0
  0
LINE
  5
46
330
1D
100
AcDbEntity
  8
1
  6
Continuous
370
    50
100
AcDbLine
 10
30.69978333
 20
50.0
 30
0.0
 11
30.69978333
 21
-50.0
 31
0.0
  0
LINE
  5
47
330
1D
100
AcDbEntity
  8
1
  6
Continuous
370
    50
100
AcDbLine
 10
15.70022583
 20
50.0
 30
0.0
 11
15.70022583
 21
-50.0
 31
0.0
  0
ARC
  5
48
330
1D
100
AcDbEntity
  8
1
  6
Continuous
370
    50
100
AcDbCircle
 10
1.5
 20
36.42500305
 30
0.0
 40
1.5
100
AcDbArc
 50
270.0
 51
0.0
  0
ARC
  5
49
330
1D
100
AcDbEntity
  8
1
  6
Continuous
370
    50
100
AcDbCircle
 10
43.0
 20
36.0
 30
0.0
 40
5.0
100
AcDbArc
 50
180.0
 51
270.0
  0
LINE
  5
4A
330
1D
100
AcDbEntity
  8
1
  6
Continuous
370
    50
100
AcDbLine
 10
43.0
 20
31.0
 30
0.0
 11
67.0
 21
31.0
 31
0.0
  0
LINE
  5
4B
330
1D
100
AcDbEntity
  8
1
  6
Continuous
370
    50
100
AcDbLine
 10
63.79997253
 20
12.58996582
 30
0.0
 11
66.99998474
 21
12.58996582
 31
0.0
  0
LINE
  5
4C
330
1D
100
AcDbEntity
  8
1
  6
Continuous
370
    50
100
AcDbLine
 10
63.79997253
 20
10.90997314
 30
0.0
 11
66.99998474
 21
10.90997314
 31
0.0
  0
LINE
  5
4D
330
1D
100
AcDbEntity
  8
1
  6
Continuous
370
    50
100
AcDbLine
 10
63.79997253
 20
9.22998047
 30
0.0
 11
66.99998474
 21
9.22998047
 31
0.0
  0
LINE
  5
4E
330
1D
100
AcDbEntity
  8
1
  6
Continuous
370
    50
100
AcDbLine
 10
63.79997253
 20
7.54994202
 30
0.0
 11
66.99998474
 21
7.54994202
 31
0.0
  0
LINE
  5
4F
330
1D
100
AcDbEntity
  8
1
  6
Continuous
370
    50
100
AcDbLine
 10
63.79997253
 20
5.86999512
 30
0.0
 11
66.99998474
 21
5.86999512
 31
0.0
  0
LINE
  5
50
330
1D
100
AcDbEntity
  8
1
  6
Continuous
370
    50
100
AcDbLine
 10
63.79997253
 20
4.18994141
 30
0.0
 11
66.99998474
 21
4.18994141
 31
0.0
  0
LINE
  5
51
330
1D
100
AcDbEntity
  8
1
  6
Continuous
370
    50
100
AcDbLine
 10
63.79997253
 20
2.50997925
 30
0.0
 11
66.99998474
 21
2.50997925
 31
0.0
  0
LINE
  5
52
330
1D
100
AcDbEntity
  8
1
  6
Continuous
370
    50
100
AcDbLine
 10
63.79997253
 20
0.82995605
 30
0.0
 11
66.99998474
 21
0.82995605
 31
0.0
  0
LINE
  5
53
330
1D
100
AcDbEntity
  8
1
  6
Continuous
370
    50
100
AcDbLine
 10
71.34997559
 20
30.38989258
 30
0.0
 11
67.64996338
 21
30.38989258
 31
0.0
  0
LINE
  5
54
330
1D
100
AcDbEntity
  8
1
  6
Continuous
370
    50
100
AcDbLine
 10
71.34997559
 20
31.38990784
 30
0.0
 11
67.64996338
 21
31.38990784
 31
0.0
  0
ARC
  5
55
330
1D
100
AcDbEntity
  8
1
  6
Continuous
370
    50
100
AcDbCircle
 10
72.30325494
 20
-2.565299825
 30
0.0
 40
5.382513399
100
AcDbArc
 50
149.827640247
 51
151.695422972
  0
ARC
  5
56
330
1D
100
AcDbEntity
  8
1
  6
Continuous
370
    50
100
AcDbCircle
 10
71.883225945
 20
-2.363280391
 30
0.0
 40
4.91696016
100
AcDbArc
 50
151.447284695
 51
173.284579616
  0
ARC
  5
57
330
1D
100
AcDbEntity
  8
1
  6
Continuous
370
    50
100
AcDbCircle
 10
67.081061519
 20
-2.37268765
 30
0.0
 40
4.953497597
100
AcDbArc
 50
6.773478538
 51
30.480766136
  0
LINE
  5
58
330
1D
100
AcDbEntity
  8
1
  6
Continuous
370
    50
100
AcDbLine
 10
71.35002136
 20
0.1399231
 30
0.0
 11
67.65003967
 21
0.1399231
 31
0.0
  0
LINE
  5
59
330
1D
100
AcDbEntity
  8
1
  6
Continuous
370
    50
100
AcDbLine
 10
58.94999695
 20
-1.73204041
 30
0.0
 11
55.94999695
 21
-3.46409607
 31
0.0
  0
LINE
  5
5A
330
1D
100
AcDbEntity
  8
1
  6
Continuous
370
    50
100
AcDbLine
 10
52.94999695
 20
-1.73204041
 30
0.0
 11
55.94999695
 21
-3.46409607
 31
0.0
  0
LINE
  5
5B
330
1D
100
AcDbEntity
  8
1
  6
Continuous
370
    50
100
AcDbLine
 10
37.0
 20
-50.0
 30
0.0
 11
30.69976807
 21
-50.0
 31
0.0
  0
LINE
  5
5C
330
1D
100
AcDbEntity
  8
1
  6
Continuous
370
    50
100
AcDbLine
 10
3.0
 20
-49.0
 30
0.0
 11
4.0
 21
-50.0
 31
0.0
  0
LINE
  5
5D
330
1D
100
AcDbEntity
  8
1
  6
Continuous
370
    50
100
AcDbLine
 10
38.0
 20
-49.0
 30
0.0
 11
37.0
 21
-50.0
 31
0.0
  0
LINE
  5
5E
330
1D
100
AcDbEntity
  8
1
  6
Continuous
370
    50
100
AcDbLine
 10
1.5
 20
-34.92500305
 30
0.0
 11
0.0
 21
-34.92500305
 31
0.0
  0
LINE
  5
5F
330
1D
100
AcDbEntity
  8
1
  6
Continuous
370
    50
100
AcDbLine
 10
19.6499939
 20
-43.15878296
 30
0.0
 11
15.70022583
 21
-50.0
 31
0.0
  0
LINE
  5
60
330
1D
100
AcDbEntity
  8
1
  6
Continuous
370
    50
100
AcDbLine
 10
26.44999695
 20
-42.42500305
 30
0.0
 11
19.94999695
 21
-42.42500305
 31
0.0
  0
LINE
  5
61
330
1D
100
AcDbEntity
  8
1
  6
Continuous
370
    50
100
AcDbLine
 10
26.75
 20
-43.15878296
 30
0.0
 11
30.69978333
 21
-50.0
 31
0.0
  0
ARC
  5
62
330
1D
100
AcDbEntity
  8
1
  6
Continuous
370
    50
100
AcDbCircle
 10
19.94999695
 20
-42.72502136
 30
0.0
 40
0.30000305
100
AcDbArc
 50
90.0
 51
180.0
  0
ARC
  5
63
330
1D
100
AcDbEntity
  8
1
  6
Continuous
370
    50
100
AcDbCircle
 10
26.44999695
 20
-42.72502136
 30
0.0
 40
0.30000305
100
AcDbArc
 50
0.0
 51
90.00000763
  0
LINE
  5
64
330
1D
100
AcDbEntity
  8
1
  6
Continuous
370
    50
100
AcDbLine
 10
15.70022583
 20
-50.0
 30
0.0
 11
4.0
 21
-50.0
 31
0.0
  0
ARC
  5
65
330
1D
100
AcDbEntity
  8
1
  6
Continuous
370
    50
100
AcDbCircle
 10
1.5
 20
-36.42500305
 30
0.0
 40
1.5
100
AcDbArc
 50
0.0
 51
90.0
  0
LINE
  5
66
330
1D
100
AcDbEntity
  8
1
  6
Continuous
370
    50
100
AcDbLine
 10
61.50003052
 20
-10.65003967
 30
0.0
 11
61.50003052
 21
-7.85003662
 31
0.0
  0
LINE
  5
67
330
1D
100
AcDbEntity
  8
1
  6
Continuous
370
    50
100
AcDbLine
 10
63.79997253
 20
-9.25004578
 30
0.0
 11
61.49995422
 21
-7.8500061
 31
0.0
  0
LINE
  5
68
330
1D
100
AcDbEntity
  8
1
  6
Continuous
370
    50
100
AcDbLine
 10
61.50003052
 20
-10.65003967
 30
0.0
 11
63.80001831
 21
-9.25004578
 31
0.0
  0
LINE
  5
69
330
1D
100
AcDbEntity
  8
1
  6
Continuous
370
    50
100
AcDbLine
 10
63.79997253
 20
-7.5700531
 30
0.0
 11
66.99998474
 21
-7.5700531
 31
0.0
  0
LINE
  5
6A
330
1D
100
AcDbEntity
  8
1
  6
Continuous
370
    50
100
AcDbLine
 10
63.79997253
 20
-9.25004578
 30
0.0
 11
66.99998474
 21
-9.25004578
 31
0.0
  0
LINE
  5
6B
330
1D
100
AcDbEntity
  8
1
  6
Continuous
370
    50
100
AcDbLine
 10
63.79997253
 20
-10.93005371
 30
0.0
 11
66.99998474
 21
-10.93005371
 31
0.0
  0
LINE
  5
6C
330
1D
100
AcDbEntity
  8
1
  6
Continuous
370
    50
100
AcDbLine
 10
63.79997253
 20
-12.61001587
 30
0.0
 11
66.99998474
 21
-12.61001587
 31
0.0
  0
LINE
  5
6D
330
1D
100
AcDbEntity
  8
1
  6
Continuous
370
    50
100
AcDbLine
 10
63.79997253
 20
-0.85002136
 30
0.0
 11
66.99998474
 21
-0.85002136
 31
0.0
  0
LINE
  5
6E
330
1D
100
AcDbEntity
  8
1
  6
Continuous
370
    50
100
AcDbLine
 10
63.79997253
 20
-2.53005981
 30
0.0
 11
66.99998474
 21
-2.53005981
 31
0.0
  0
LINE
  5
6F
330
1D
100
AcDbEntity
  8
1
  6
Continuous
370
    50
100
AcDbLine
 10
63.79997253
 20
-4.21005249
 30
0.0
 11
66.99998474
 21
-4.21005249
 31
0.0
  0
LINE
  5
70
330
1D
100
AcDbEntity
  8
1
  6
Continuous
370
    50
100
AcDbLine
 10
63.79997253
 20
-5.89004517
 30
0.0
 11
66.99998474
 21
-5.89004517
 31
0.0
  0
LINE
  5
71
330
1D
100
AcDbEntity
  8
1
  6
Continuous
370
    50
100
AcDbLine
 10
71.35002136
 20
-31.39006805
 30
0.0
 11
67.65003967
 21
-31.39006805
 31
0.0
  0
LINE
  5
72
330
1D
100
AcDbEntity
  8
1
  6
Continuous
370
    50
100
AcDbLine
 10
61.50003052
 20
-10.58825684
 30
0.0
 11
61.53842163
 21
-10.62664795
 31
0.0
  0
LINE
  5
73
330
1D
100
AcDbEntity
  8
1
  6
Continuous
370
    50
100
AcDbLine
 10
61.50003052
 20
-10.48222351
 30
0.0
 11
61.60437012
 21
-10.58654785
 31
0.0
  0
LINE
  5
74
330
1D
100
AcDbEntity
  8
1
  6
Continuous
370
    50
100
AcDbLine
 10
61.50003052
 20
-10.37612915
 30
0.0
 11
61.67028809
 21
-10.54638672
 31
0.0
  0
LINE
  5
75
330
1D
100
AcDbEntity
  8
1
  6
Continuous
370
    50
100
AcDbLine
 10
61.50003052
 20
-10.27012634
 30
0.0
 11
61.73623657
 21
-10.50628662
 31
0.0
  0
LINE
  5
76
330
1D
100
AcDbEntity
  8
1
  6
Continuous
370
    50
100
AcDbLine
 10
61.50003052
 20
-10.16403198
 30
0.0
 11
61.80215454
 21
-10.46615601
 31
0.0
  0
LINE
  5
77
330
1D
100
AcDbEntity
  8
1
  6
Continuous
370
    50
100
AcDbLine
 10
61.50003052
 20
-10.05793762
 30
0.0
 11
61.86808777
 21
-10.42602539
 31
0.0
  0
LINE
  5
78
330
1D
100
AcDbEntity
  8
1
  6
Continuous
370
    50
100
AcDbLine
 10
61.50003052
 20
-9.9519043
 30
0.0
 11
61.93400574
 21
-10.38587952
 31
0.0
  0
LINE
  5
79
330
1D
100
AcDbEntity
  8
1
  6
Continuous
370
    50
100
AcDbLine
 10
61.50003052
 20
-9.84579468
 30
0.0
 11
61.99995422
 21
-10.34571838
 31
0.0
  0
LINE
  5
7A
330
1D
100
AcDbEntity
  8
1
  6
Continuous
370
    50
100
AcDbLine
 10
61.50003052
 20
-9.73974609
 30
0.0
 11
62.06587219
 21
-10.30560303
 31
0.0
  0
LINE
  5
7B
330
1D
100
AcDbEntity
  8
1
  6
Continuous
370
    50
100
AcDbLine
 10
61.50003052
 20
-9.63368225
 30
0.0
 11
62.13182068
 21
-10.26545715
 31
0.0
  0
LINE
  5
7C
330
1D
100
AcDbEntity
  8
1
  6
Continuous
370
    50
100
AcDbLine
 10
61.50003052
 20
-9.52758789
 30
0.0
 11
62.19773865
 21
-10.22531128
 31
0.0
  0
LINE
  5
7D
330
1D
100
AcDbEntity
  8
1
  6
Continuous
370
    50
100
AcDbLine
 10
61.50003052
 20
-9.42153931
 30
0.0
 11
62.26368713
 21
-10.18518066
 31
0.0
  0
LINE
  5
7E
330
1D
100
AcDbEntity
  8
1
  6
Continuous
370
    50
100
AcDbLine
 10
61.50003052
 20
-9.31547546
 30
0.0
 11
62.32965088
 21
-10.14505005
 31
0.0
  0
LINE
  5
7F
330
1D
100
AcDbEntity
  8
1
  6
Continuous
370
    50
100
AcDbLine
 10
61.50003052
 20
-9.20941162
 30
0.0
 11
62.39556885
 21
-10.10493469
 31
0.0
  0
LINE
  5
80
330
1D
100
AcDbEntity
  8
1
  6
Continuous
370
    50
100
AcDbLine
 10
61.50003052
 20
-9.10336304
 30
0.0
 11
62.46150208
 21
-10.06481934
 31
0.0
  0
LINE
  5
81
330
1D
100
AcDbEntity
  8
1
  6
Continuous
370
    50
100
AcDbLine
 10
61.50003052
 20
-8.99728394
 30
0.0
 11
62.52742004
 21
-10.02467346
 31
0.0
  0
LINE
  5
82
330
1D
100
AcDbEntity
  8
1
  6
Continuous
370
    50
100
AcDbLine
 10
61.50003052
 20
-8.89118958
 30
0.0
 11
62.59338379
 21
-9.98449707
 31
0.0
  0
LINE
  5
83
330
1D
100
AcDbEntity
  8
1
  6
Continuous
370
    50
100
AcDbLine
 10
61.50003052
 20
-8.78515625
 30
0.0
 11
62.6592865
 21
-9.94444275
 31
0.0
  0
LINE
  5
84
330
1D
100
AcDbEntity
  8
1
  6
Continuous
370
    50
100
AcDbLine
 10
61.50003052
 20
-8.67907715
 30
0.0
 11
62.72525024
 21
-9.90426636
 31
0.0
  0
LINE
  5
85
330
1D
100
AcDbEntity
  8
1
  6
Continuous
370
    50
100
AcDbLine
 10
61.50003052
 20
-8.57299805
 30
0.0
 11
62.79116821
 21
-9.86410522
 31
0.0
  0
LINE
  5
86
330
1D
100
AcDbEntity
  8
1
  6
Continuous
370
    50
100
AcDbLine
 10
61.50003052
 20
-8.4669342
 30
0.0
 11
62.85710144
 21
-9.82398987
 31
0.0
  0
LINE
  5
87
330
1D
100
AcDbEntity
  8
1
  6
Continuous
370
    50
100
AcDbLine
 10
61.50003052
 20
-8.3608551
 30
0.0
 11
62.92301941
 21
-9.78387451
 31
0.0
  0
LINE
  5
88
330
1D
100
AcDbEntity
  8
1
  6
Continuous
370
    50
100
AcDbLine
 10
61.50003052
 20
-8.25482178
 30
0.0
 11
62.98898315
 21
-9.7437439
 31
0.0
  0
LINE
  5
89
330
1D
100
AcDbEntity
  8
1
  6
Continuous
370
    50
100
AcDbLine
 10
61.50003052
 20
-8.14875793
 30
0.0
 11
63.05488586
 21
-9.70361328
 31
0.0
  0
LINE
  5
8A
330
1D
100
AcDbEntity
  8
1
  6
Continuous
370
    50
100
AcDbLine
 10
61.50003052
 20
-8.04270935
 30
0.0
 11
63.12084961
 21
-9.66349792
 31
0.0
  0
LINE
  5
8B
330
1D
100
AcDbEntity
  8
1
  6
Continuous
370
    50
100
AcDbLine
 10
61.50003052
 20
-7.93661499
 30
0.0
 11
63.18676758
 21
-9.62332153
 31
0.0
  0
LINE
  5
8C
330
1D
100
AcDbEntity
  8
1
  6
Continuous
370
    50
100
AcDbLine
 10
61.54988098
 20
-7.88040161
 30
0.0
 11
63.25271606
 21
-9.58320618
 31
0.0
  0
LINE
  5
8D
330
1D
100
AcDbEntity
  8
1
  6
Continuous
370
    50
100
AcDbLine
 10
61.82092285
 20
-8.04537964
 30
0.0
 11
63.31858826
 21
-9.54307556
 31
0.0
  0
LINE
  5
8E
330
1D
100
AcDbEntity
  8
1
  6
Continuous
370
    50
100
AcDbLine
 10
62.09199524
 20
-8.21038818
 30
0.0
 11
63.384552
 21
-9.50294495
 31
0.0
  0
LINE
  5
8F
330
1D
100
AcDbEntity
  8
1
  6
Continuous
370
    50
100
AcDbLine
 10
62.36305237
 20
-8.37535095
 30
0.0
 11
63.45048523
 21
-9.46278381
 31
0.0
  0
LINE
  5
90
330
1D
100
AcDbEntity
  8
1
  6
Continuous
370
    50
100
AcDbLine
 10
62.6341095
 20
-8.54037476
 30
0.0
 11
63.5164032
 21
-9.42263794
 31
0.0
  0
LINE
  5
91
330
1D
100
AcDbEntity
  8
1
  6
Continuous
370
    50
100
AcDbLine
 10
62.90516663
 20
-8.70535278
 30
0.0
 11
63.58235168
 21
-9.38250732
 31
0.0
  0
LINE
  5
92
330
1D
100
AcDbEntity
  8
1
  6
Continuous
370
    50
100
AcDbLine
 10
63.1762085
 20
-8.87037659
 30
0.0
 11
63.64825439
 21
-9.34242249
 31
0.0
  0
LINE
  5
93
330
1D
100
AcDbEntity
  8
1
  6
Continuous
370
    50
100
AcDbLine
 10
63.44729614
 20
-9.03533936
 30
0.0
 11
63.71420288
 21
-9.30226135
 31
0.0
  0
LINE
  5
94
330
1D
100
AcDbEntity
  8
1
  6
Continuous
370
    50
100
AcDbLine
 10
63.71835327
 20
-9.20033264
 30
0.0
 11
63.78013611
 21
-9.262146
 31
0.0
  0
LINE
  5
95
330
1D
100
AcDbEntity
  8
1
  6
Continuous
370
    50
100
AcDbLine
 10
68.57513428
 20
-9.25004578
 30
0.0
 11
67.0
 21
-9.25004578
 31
0.0
  0
LINE
  5
96
330
1D
100
AcDbEntity
  8
1
  6
Continuous
370
    50
100
AcDbLine
 10
71.0
 20
-7.91307068
 30
0.0
 11
70.96003723
 21
-7.87309265
 31
0.0
  0
LINE
  5
97
330
1D
100
AcDbEntity
  8
1
  6
Continuous
370
    50
100
AcDbLine
 10
71.0
 20
-8.05453491
 30
0.0
 11
70.87036133
 21
-7.92489624
 31
0.0
  0
LINE
  5
98
330
1D
100
AcDbEntity
  8
1
  6
Continuous
370
    50
100
AcDbLine
 10
71.0
 20
-8.19592285
 30
0.0
 11
70.78070068
 21
-7.97662354
 31
0.0
  0
LINE
  5
99
330
1D
100
AcDbEntity
  8
1
  6
Continuous
370
    50
100
AcDbLine
 10
71.0
 20
-8.33734131
 30
0.0
 11
70.69102478
 21
-8.02842712
 31
0.0
  0
LINE
  5
9A
330
1D
100
AcDbEntity
  8
1
  6
Continuous
370
    50
100
AcDbLine
 10
71.0
 20
-8.47875977
 30
0.0
 11
70.60142517
 21
-8.08015442
 31
0.0
  0
LINE
  5
9B
330
1D
100
AcDbEntity
  8
1
  6
Continuous
370
    50
100
AcDbLine
 10
71.0
 20
-8.62020874
 30
0.0
 11
70.51174927
 21
-8.13197327
 31
0.0
  0
LINE
  5
9C
330
1D
100
AcDbEntity
  8
1
  6
Continuous
370
    50
100
AcDbLine
 10
71.0
 20
-8.76161194
 30
0.0
 11
70.42207336
 21
-8.18370056
 31
0.0
  0
LINE
  5
9D
330
1D
100
AcDbEntity
  8
1
  6
Continuous
370
    50
100
AcDbLine
 10
71.0
 20
-8.90304565
 30
0.0
 11
70.33242798
 21
-8.23547363
 31
0.0
  0
LINE
  5
9E
330
1D
100
AcDbEntity
  8
1
  6
Continuous
370
    50
100
AcDbLine
 10
71.0
 20
-9.04443359
 30
0.0
 11
70.24275208
 21
-8.28718567
 31
0.0
  0
LINE
  5
9F
330
1D
100
AcDbEntity
  8
1
  6
Continuous
370
    50
100
AcDbLine
 10
71.0
 20
-9.18586731
 30
0.0
 11
70.15310669
 21
-8.33898926
 31
0.0
  0
LINE
  5
A0
330
1D
100
AcDbEntity
  8
1
  6
Continuous
370
    50
100
AcDbLine
 10
71.0
 20
-9.32727051
 30
0.0
 11
70.06347656
 21
-8.39074707
 31
0.0
  0
LINE
  5
A1
330
1D
100
AcDbEntity
  8
1
  6
Continuous
370
    50
100
AcDbLine
 10
71.0
 20
-9.46871948
 30
0.0
 11
69.97383118
 21
-8.4425354
 31
0.0
  0
LINE
  5
A2
330
1D
100
AcDbEntity
  8
1
  6
Continuous
370
    50
100
AcDbLine
 10
71.0
 20
-9.61010742
 30
0.0
 11
69.88415527
 21
-8.4942627
 31
0.0
  0
LINE
  5
A3
330
1D
100
AcDbEntity
  8
1
  6
Continuous
370
    50
100
AcDbLine
 10
71.0
 20
-9.75154114
 30
0.0
 11
69.79449463
 21
-8.54603577
 31
0.0
  0
LINE
  5
A4
330
1D
100
AcDbEntity
  8
1
  6
Continuous
370
    50
100
AcDbLine
 10
71.0
 20
-9.89294434
 30
0.0
 11
69.70483398
 21
-8.5978241
 31
0.0
  0
LINE
  5
A5
330
1D
100
AcDbEntity
  8
1
  6
Continuous
370
    50
100
AcDbLine
 10
71.0
 20
-10.03437805
 30
0.0
 11
69.61515808
 21
-8.64958191
 31
0.0
  0
LINE
  5
A6
330
1D
100
AcDbEntity
  8
1
  6
Continuous
370
    50
100
AcDbLine
 10
71.0
 20
-10.17578125
 30
0.0
 11
69.5255127
 21
-8.70132446
 31
0.0
  0
LINE
  5
A7
330
1D
100
AcDbEntity
  8
1
  6
Continuous
370
    50
100
AcDbLine
 10
71.0
 20
-10.31723022
 30
0.0
 11
69.43586731
 21
-8.75309753
 31
0.0
  0
LINE
  5
A8
330
1D
100
AcDbEntity
  8
1
  6
Continuous
370
    50
100
AcDbLine
 10
71.0
 20
-10.45864868
 30
0.0
 11
69.34622192
 21
-8.80490112
 31
0.0
  0
LINE
  5
A9
330
1D
100
AcDbEntity
  8
1
  6
Continuous
370
    50
100
AcDbLine
 10
71.0
 20
-10.60005188
 30
0.0
 11
69.25656128
 21
-8.8565979
 31
0.0
  0
LINE
  5
AA
330
1D
100
AcDbEntity
  8
1
  6
Continuous
370
    50
100
AcDbLine
 10
70.78366089
 20
-10.52511597
 30
0.0
 11
69.16688538
 21
-8.90840149
 31
0.0
  0
LINE
  5
AB
330
1D
100
AcDbEntity
  8
1
  6
Continuous
370
    50
100
AcDbLine
 10
70.44908142
 20
-10.3319397
 30
0.0
 11
69.07728577
 21
-8.9601593
 31
0.0
  0
LINE
  5
AC
330
1D
100
AcDbEntity
  8
1
  6
Continuous
370
    50
100
AcDbLine
 10
70.11448669
 20
-10.13879395
 30
0.0
 11
68.98762512
 21
-9.01194763
 31
0.0
  0
LINE
  5
AD
330
1D
100
AcDbEntity
  8
1
  6
Continuous
370
    50
100
AcDbLine
 10
69.77987671
 20
-9.94554138
 30
0.0
 11
68.89794922
 21
-9.06364441
 31
0.0
  0
LINE
  5
AE
330
1D
100
AcDbEntity
  8
1
  6
Continuous
370
    50
100
AcDbLine
 10
69.44525146
 20
-9.75241089
 30
0.0
 11
68.80828857
 21
-9.11546326
 31
0.0
  0
LINE
  5
AF
330
1D
100
AcDbEntity
  8
1
  6
Continuous
370
    50
100
AcDbLine
 10
69.11065674
 20
-9.5592041
 30
0.0
 11
68.71862793
 21
-9.16717529
 31
0.0
  0
LINE
  5
B0
330
1D
100
AcDbEntity
  8
1
  6
Continuous
370
    50
100
AcDbLine
 10
68.77606201
 20
-9.36605835
 30
0.0
 11
68.62896729
 21
-9.21896362
 31
0.0
  0
LINE
  5
B1
330
1D
100
AcDbEntity
  8
1
  6
Continuous
370
    50
100
AcDbLine
 10
71.0
 20
-7.85006714
 30
0.0
 11
68.57513428
 21
-9.25006104
 31
0.0
  0
LINE
  5
B2
330
1D
100
AcDbEntity
  8
1
  6
Continuous
370
    50
100
AcDbLine
 10
71.0
 20
-10.65003967
 30
0.0
 11
68.57513428
 21
-9.25004578
 31
0.0
  0
LINE
  5
B3
330
1D
100
AcDbEntity
  8
1
  6
Continuous
370
    50
100
AcDbLine
 10
71.0
 20
-7.85006714
 30
0.0
 11
71.0
 21
-10.65007019
 31
0.0
  0
TEXT
  5
B4
330
1D
100
AcDbEntity
  8
SK6
  6
Continuous
370
    35
100
AcDbText
 10
72.46295166
 20
-15.41805363
 30
0.0
 40
3.5
  1
-
 50
90.000208186
 41
0.625
  7
BMG_Text
100
AcDbText
  0
TEXT
  5
B5
330
1D
100
AcDbEntity
  8
SK6
  6
Continuous
370
    35
100
AcDbText
 10
72.46295166
 20
-6.02802372
 30
0.0
 40
3.5
  1
+
 50
90.000208186
 41
0.625
  7
BMG_Text
100
AcDbText
  0
LINE
  5
B6
330
1D
100
AcDbEntity
  8
SK3
  6
DASH
370
    35
100
AcDbLine
 10
30.0
 20
18.0
 30
0.0
 11
30.0
 21
-18.0
 31
0.0
  0
LINE
  5
B7
330
1D
100
AcDbEntity
  8
SK3
  6
DASH
370
    35
100
AcDbLine
 10
30.0
 20
18.0
 30
0.0
 11
27.11325073
 21
13.0
 31
0.0
  0
LINE
  5
B8
330
1D
100
AcDbEntity
  8
SK3
  6
DASH
370
    35
100
AcDbLine
 10
30.0
 20
18.0
 30
0.0
 11
72.0
 21
18.0
 31
0.0
  0
LINE
  5
B9
330
1D
100
AcDbEntity
  8
SK3
  6
DASH
370
    35
100
AcDbLine
 10
27.11325073
 20
13.0
 30
0.0
 11
27.11325073
 21
-13.0
 31
0.0
  0
LINE
  5
BA
330
1D
100
AcDbEntity
  8
SK3
  6
DASH
370
    35
100
AcDbLine
 10
3.0
 20
38.81802368
 30
0.0
 11
27.73724365
 21
14.08079529
 31
0.0
  0
LINE
  5
BB
330
1D
100
AcDbEntity
  8
4
  6
LONGDASH_DASH
370
    25
100
AcDbLine
 10
2.0
 20
43.0
 30
0.0
 11
28.90193176
 21
16.0980835
 31
0.0
  0
LINE
  5
BC
330
1D
100
AcDbEntity
  8
SK3
  6
DASH
370
    35
100
AcDbLine
 10
3.0
 20
45.18197632
 30
0.0
 11
30.18197632
 21
18.0
 31
0.0
  0
LINE
  5
BD
330
1D
100
AcDbEntity
  8
SK3
  6
DASH
370
    35
100
AcDbLine
 10
-89.44530487
 20
10.5
 30
0.0
 11
-89.44529724
 21
-10.5
 31
0.0
  0
LINE
  5
BE
330
1D
100
AcDbEntity
  8
SK3
  6
DASH
370
    35
100
AcDbLine
 10
-90.6000061
 20
12.5
 30
0.0
 11
-89.44530487
 21
10.5
 31
0.0
  0
LINE
  5
BF
330
1D
100
AcDbEntity
  8
SK3
  6
DASH
370
    35
100
AcDbLine
 10
-54.80000305
 20
12.0
 30
0.0
 11
-90.3113327
 21
12.0
 31
0.0
  0
LINE
  5
C0
330
1D
100
AcDbEntity
  8
SK3
  6
DASH
370
    35
100
AcDbLine
 10
-54.80000305
 20
12.0
 30
0.0
 11
-54.80000305
 21
-12.0
 31
0.0
  0
LINE
  5
C1
330
1D
100
AcDbEntity
  8
SK3
  6
DASH
370
    35
100
AcDbLine
 10
-54.80000305
 20
12.0
 30
0.0
 11
-49.20192719
 21
10.5
 31
0.0
  0
LINE
  5
C2
330
1D
100
AcDbEntity
  8
SK3
  6
DASH
370
    35
100
AcDbLine
 10
-9.44337463
 20
10.5
 30
0.0
 11
-89.44530487
 21
10.5
 31
0.0
  0
LINE
  5
C3
330
1D
100
AcDbEntity
  8
SK3
  6
DASH
370
    35
100
AcDbLine
 10
-9.44337463
 20
10.5
 30
0.0
 11
-9.44337463
 21
-10.5
 31
0.0
  0
LINE
  5
C4
330
1D
100
AcDbEntity
  8
SK3
  6
DASH
370
    35
100
AcDbLine
 10
-8.0
 20
13.0
 30
0.0
 11
-8.0
 21
-13.0
 31
0.0
  0
LINE
  5
C5
330
1D
100
AcDbEntity
  8
SK3
  6
DASH
370
    35
100
AcDbLine
 10
-8.0
 20
13.0
 30
0.0
 11
-9.44337463
 21
10.5
 31
0.0
  0
LINE
  5
C6
330
1D
100
AcDbEntity
  8
SK3
  6
DASH
370
    35
100
AcDbLine
 10
27.11325073
 20
13.0
 30
0.0
 11
-8.0
 21
13.0
 31
0.0
  0
LINE
  5
C7
330
1D
100
AcDbEntity
  8
SK3
  6
DASH
370
    35
100
AcDbLine
 10
-90.6000061
 20
12.5
 30
0.0
 11
-101.80000305
 21
12.5
 31
0.0
  0
LINE
  5
C8
330
1D
100
AcDbEntity
  8
SK3
  6
DASH
370
    35
100
AcDbLine
 10
-90.6000061
 20
12.5
 30
0.0
 11
-90.6000061
 21
-12.5
 31
0.0
  0
LINE
  5
C9
330
1D
100
AcDbEntity
  8
4
  6
LONGDASH_DASH
370
    25
100
AcDbLine
 10
74.0
 20
0.0
 30
0.0
 11
-17.137147263
 21
0.0
 31
0.0
  0
LINE
  5
CA
330
1D
100
AcDbEntity
  8
4
  6
LONGDASH_DASH
370
    25
100
AcDbLine
 10
-28.592732378
 20
0.0
 30
0.0
 11
-103.80000305
 21
0.0
 31
0.0
  0
LINE
  5
CB
330
1D
100
AcDbEntity
  8
4
  6
LONGDASH_DASH
370
    25
100
AcDbLine
 10
55.94999695
 20
-7.0
 30
0.0
 11
55.94999695
 21
7.0
 31
0.0
  0
LINE
  5
CC
330
1D
100
AcDbEntity
  8
SK3
  6
DASH
370
    35
100
AcDbLine
 10
30.0
 20
-18.0
 30
0.0
 11
27.11325073
 21
-13.0
 31
0.0
  0
LINE
  5
CD
330
1D
100
AcDbEntity
  8
SK3
  6
DASH
370
    35
100
AcDbLine
 10
30.0
 20
-18.0
 30
0.0
 11
72.0
 21
-18.0
 31
0.0
  0
LINE
  5
CE
330
1D
100
AcDbEntity
  8
SK3
  6
DASH
370
    35
100
AcDbLine
 10
3.0
 20
-45.18197632
 30
0.0
 11
30.18197632
 21
-18.0
 31
0.0
  0
LINE
  5
CF
330
1D
100
AcDbEntity
  8
4
  6
LONGDASH_DASH
370
    25
100
AcDbLine
 10
2.0
 20
-43.0
 30
0.0
 11
28.90193176
 21
-16.0980835
 31
0.0
  0
LINE
  5
D0
330
1D
100
AcDbEntity
  8
SK3
  6
DASH
370
    35
100
AcDbLine
 10
3.0
 20
-38.81802368
 30
0.0
 11
27.73724365
 21
-14.08079529
 31
0.0
  0
LINE
  5
D1
330
1D
100
AcDbEntity
  8
SK3
  6
DASH
370
    35
100
AcDbLine
 10
-90.6000061
 20
-12.5
 30
0.0
 11
-101.80000305
 21
-12.5
 31
0.0
  0
LINE
  5
D2
330
1D
100
AcDbEntity
  8
SK3
  6
DASH
370
    35
100
AcDbLine
 10
-90.31132507
 20
-12.0
 30
0.0
 11
-54.80000305
 21
-12.0
 31
0.0
  0
LINE
  5
D3
330
1D
100
AcDbEntity
  8
SK3
  6
DASH
370
    35
100
AcDbLine
 10
-90.6000061
 20
-12.5
 30
0.0
 11
-89.44529724
 21
-10.5
 31
0.0
  0
LINE
  5
D4
330
1D
100
AcDbEntity
  8
SK3
  6
DASH
370
    35
100
AcDbLine
 10
-54.80000305
 20
-12.0
 30
0.0
 11
-49.20192719
 21
-10.5
 31
0.0
  0
LINE
  5
D5
330
1D
100
AcDbEntity
  8
SK3
  6
DASH
370
    35
100
AcDbLine
 10
-9.44337463
 20
-10.5
 30
0.0
 11
-89.44529724
 21
-10.5
 31
0.0
  0
LINE
  5
D6
330
1D
100
AcDbEntity
  8
SK3
  6
DASH
370
    35
100
AcDbLine
 10
-8.0
 20
-13.0
 30
0.0
 11
-9.44337463
 21
-10.5
 31
0.0
  0
LINE
  5
D7
330
1D
100
AcDbEntity
  8
SK3
  6
DASH
370
    35
100
AcDbLine
 10
27.11325073
 20
-13.0
 30
0.0
 11
-8.0
 21
-13.0
 31
0.0
  0
LINE
  5
D8
330
1D
100
AcDbEntity
  8
1
  6
Continuous
370
    50
100
AcDbLine
 10
0.0
 20
34.92500305
 30
0.0
 11
0.0
 21
-34.92500305
 31
0.0
  0
LINE
  5
D9
330
1D
100
AcDbEntity
  8
SK1
100
AcDbLine
 10
0.0
 20
34.92500305
 30
0.0
 11
-100.08862305
 21
20.32865906
 31
0.0
  0
LINE
  5
DA
330
1D
100
AcDbEntity
  8
SK1
100
AcDbLine
 10
-101.80000305
 20
18.34957886
 30
0.0
 11
-101.80000305
 21
-18.34957886
 31
0.0
  0
LINE
  5
DB
330
1D
100
AcDbEntity
  8
SK1
100
AcDbLine
 10
0.0
 20
-34.92500305
 30
0.0
 11
-100.08862305
 21
-20.3286438
 31
0.0
  0
ARC
  5
DC
330
1D
100
AcDbEntity
  8
SK1
100
AcDbCircle
 10
-99.80000305
 20
18.34957886
 30
0.0
 40
2.0
100
AcDbArc
 50
98.29714966000002
 51
180.0
  0
ARC
  5
DD
330
1D
100
AcDbEntity
  8
SK1
100
AcDbCircle
 10
-99.80000305
 20
-18.34957886
 30
0.0
 40
2.0
100
AcDbArc
 50
180.0
 51
261.70278931
  0
LINE
  5
DE
330
1D
100
AcDbEntity
  8
SK2
100
AcDbLine
 10
-22.0
 20
-34.92500305
 30
0.0
 11
0.0
 21
-34.92500305
 31
0.0
  0
LINE
  5
DF
330
1D
100
AcDbEntity
  8
SK2
100
AcDbLine
 10
-20.0
 20
-34.92500305
 30
0.0
 11
-20.45
 21
-31.42500305
 31
0.0
  0
LINE
  5
E0
330
1D
100
AcDbEntity
  8
SK2
100
AcDbLine
 10
-20.45
 20
-31.42500305
 30
0.0
 11
-19.55
 21
-31.42500305
 31
0.0
  0
LINE
  5
E1
330
1D
100
AcDbEntity
  8
SK2
100
AcDbLine
 10
-19.55
 20
-31.42500305
 30
0.0
 11
-20.0
 21
-34.92500305
 31
0.0
  0
LINE
  5
E2
330
1D
100
AcDbEntity
  8
SK2
100
AcDbLine
 10
-22.0
 20
34.92500305
 30
0.0
 11
0.0
 21
34.92500305
 31
0.0
  0
LINE
  5
E3
330
1D
100
AcDbEntity
  8
SK2
100
AcDbLine
 10
-20.0
 20
34.92500305
 30
0.0
 11
-19.55
 21
31.42500305
 31
0.0
  0
LINE
  5
E4
330
1D
100
AcDbEntity
  8
SK2
100
AcDbLine
 10
-19.55
 20
31.42500305
 30
0.0
 11
-20.45
 21
31.42500305
 31
0.0
  0
LINE
  5
E5
330
1D
100
AcDbEntity
  8
SK2
100
AcDbLine
 10
-20.45
 20
31.42500305
 30
0.0
 11
-20.0
 21
34.92500305
 31
0.0
  0
LINE
  5
E6
330
1D
100
AcDbEntity
  8
SK2
100
AcDbLine
 10
-20.0
 20
-31.42500305
 30
0.0
 11
-20.0
 21
31.42500305
 31
0.0
  0
TEXT
  5
E7
330
1D
100
AcDbEntity
  8
SK2
100
AcDbText
 10
-21.5
 20
-2.430313281
 30
0.0
 40
3.5
  1
69.85
 50
90.0
  7
BMG_Text
100
AcDbText
  0
CIRCLE
  5
E8
330
1D
100
AcDbEntity
  8
SK2
100
AcDbCircle
 10
-22.75
 20
-4.680313281
 30
0.0
 40
1.25
  0
LINE
  5
E9
330
1D
100
AcDbEntity
  8
SK2
100
AcDbLine
 10
-21.5
 20
-5.930313281
 30
0.0
 11
-24.0
 21
-3.430313281
 31
0.0
  0
LINE
  5
EA
330
1D
100
AcDbEntity
  8
2
  6
Continuous
370
    25
100
AcDbLine
 10
0.0
 20
-65.999999998
 30
0.0
 11
0.0
 21
-34.92500305
 31
0.0
  0
LINE
  5
EB
330
1D
100
AcDbEntity
  8
2
  6
Continuous
370
    25
100
AcDbLine
 10
0.0
 20
-63.999999998
 30
0.0
 11
3.5
 21
-63.549999998
 31
0.0
  0
LINE
  5
EC
330
1D
100
AcDbEntity
  8
2
  6
Continuous
370
    25
100
AcDbLine
 10
3.5
 20
-63.549999998
 30
0.0
 11
3.5
 21
-64.449999998
 31
0.0
  0
LINE
  5
ED
330
1D
100
AcDbEntity
  8
2
  6
Continuous
370
    25
100
AcDbLine
 10
3.5
 20
-64.449999998
 30
0.0
 11
0.0
 21
-63.999999998
 31
0.0
  0
LINE
  5
EE
330
1D
100
AcDbEntity
  8
2
  6
Continuous
370
    25
100
AcDbLine
 10
72.0
 20
-65.999999999
 30
0.0
 11
72.0
 21
-31.37422943
 31
0.0
  0
LINE
  5
EF
330
1D
100
AcDbEntity
  8
2
  6
Continuous
370
    25
100
AcDbLine
 10
72.0
 20
-63.999999999
 30
0.0
 11
68.5
 21
-64.449999999
 31
0.0
  0
LINE
  5
F0
330
1D
100
AcDbEntity
  8
2
  6
Continuous
370
    25
100
AcDbLine
 10
68.5
 20
-64.449999999
 30
0.0
 11
68.5
 21
-63.549999999
 31
0.0
  0
LINE
  5
F1
330
1D
100
AcDbEntity
  8
2
  6
Continuous
370
    25
100
AcDbLine
 10
68.5
 20
-63.549999999
 30
0.0
 11
72.0
 21
-63.999999999
 31
0.0
  0
LINE
  5
F2
330
1D
100
AcDbEntity
  8
2
  6
Continuous
370
    25
100
AcDbLine
 10
3.5
 20
-63.999999998
 30
0.0
 11
68.5
 21
-63.999999999
 31
0.0
  0
TEXT
  5
F3
330
1D
100
AcDbEntity
  8
2
  6
Continuous
370
    25
100
AcDbText
 10
34.335311695
 20
-62.499999999
 30
0.0
 40
3.5
  1
72
  7
BMG_Text
100
AcDbText
  0
LINE
  5
F4
330
1D
100
AcDbEntity
  8
2
  6
Continuous
370
    25
100
AcDbLine
 10
94.0
 20
-32.5
 30
0.0
 11
71.0
 21
-32.5
 31
0.0
  0
LINE
  5
F5
330
1D
100
AcDbEntity
  8
2
  6
Continuous
370
    25
100
AcDbLine
 10
92.0
 20
-32.5
 30
0.0
 11
91.55
 21
-29.0
 31
0.0
  0
LINE
  5
F6
330
1D
100
AcDbEntity
  8
2
  6
Continuous
370
    25
100
AcDbLine
 10
91.55
 20
-29.0
 30
0.0
 11
92.45
 21
-29.0
 31
0.0
  0
LINE
  5
F7
330
1D
100
AcDbEntity
  8
2
  6
Continuous
370
    25
100
AcDbLine
 10
92.45
 20
-29.0
 30
0.0
 11
92.0
 21
-32.5
 31
0.0
  0
LINE
  5
F8
330
1D
100
AcDbEntity
  8
2
  6
Continuous
370
    25
100
AcDbLine
 10
94.0
 20
32.5
 30
0.0
 11
71.0
 21
32.5
 31
0.0
  0
LINE
  5
F9
330
1D
100
AcDbEntity
  8
2
  6
Continuous
370
    25
100
AcDbLine
 10
92.0
 20
32.5
 30
0.0
 11
92.45
 21
29.0
 31
0.0
  0
LINE
  5
FA
330
1D
100
AcDbEntity
  8
2
  6
Continuous
370
    25
100
AcDbLine
 10
92.45
 20
29.0
 30
0.0
 11
91.55
 21
29.0
 31
0.0
  0
LINE
  5
FB
330
1D
100
AcDbEntity
  8
2
  6
Continuous
370
    25
100
AcDbLine
 10
91.55
 20
29.0
 30
0.0
 11
92.0
 21
32.5
 31
0.0
  0
LINE
  5
FC
330
1D
100
AcDbEntity
  8
2
  6
Continuous
370
    25
100
AcDbLine
 10
92.0
 20
-29.0
 30
0.0
 11
92.0
 21
29.0
 31
0.0
  0
TEXT
  5
FD
330
1D
100
AcDbEntity
  8
2
  6
Continuous
370
    25
100
AcDbText
 10
90.5
 20
0.249374274
 30
0.0
 40
3.5
  1
65
 50
90.0
  7
BMG_Text
100
AcDbText
  0
CIRCLE
  5
FE
330
1D
100
AcDbEntity
  8
2
  6
Continuous
370
    25
100
AcDbCircle
 10
89.25
 20
-2.000625726
 30
0.0
 40
1.25
  0
LINE
  5
FF
330
1D
100
AcDbEntity
  8
2
  6
Continuous
370
    25
100
AcDbLine
 10
90.5
 20
-3.250625726
 30
0.0
 11
88.0
 21
-0.750625726
 31
0.0
  0
LINE
  5
100
330
1D
100
AcDbEntity
  8
2
  6
Continuous
370
    25
100
AcDbLine
 10
86.0
 20
-18.0
 30
0.0
 11
72.0
 21
-18.0
 31
0.0
  0
LINE
  5
101
330
1D
100
AcDbEntity
  8
2
  6
Continuous
370
    25
100
AcDbLine
 10
84.0
 20
-18.0
 30
0.0
 11
83.55
 21
-14.5
 31
0.0
  0
LINE
  5
102
330
1D
100
AcDbEntity
  8
2
  6
Continuous
370
    25
100
AcDbLine
 10
83.55
 20
-14.5
 30
0.0
 11
84.45
 21
-14.5
 31
0.0
  0
LINE
  5
103
330
1D
100
AcDbEntity
  8
2
  6
Continuous
370
    25
100
AcDbLine
 10
84.45
 20
-14.5
 30
0.0
 11
84.0
 21
-18.0
 31
0.0
  0
LINE
  5
104
330
1D
100
AcDbEntity
  8
2
  6
Continuous
370
    25
100
AcDbLine
 10
86.0
 20
18.0
 30
0.0
 11
72.0
 21
18.0
 31
0.0
  0
LINE
  5
105
330
1D
100
AcDbEntity
  8
2
  6
Continuous
370
    25
100
AcDbLine
 10
84.0
 20
18.0
 30
0.0
 11
84.45
 21
14.5
 31
0.0
  0
LINE
  5
106
330
1D
100
AcDbEntity
  8
2
  6
Continuous
370
    25
100
AcDbLine
 10
84.45
 20
14.5
 30
0.0
 11
83.55
 21
14.5
 31
0.0
  0
LINE
  5
107
330
1D
100
AcDbEntity
  8
2
  6
Continuous
370
    25
100
AcDbLine
 10
83.55
 20
14.5
 30
0.0
 11
84.0
 21
18.0
 31
0.0
  0
LINE
  5
108
330
1D
100
AcDbEntity
  8
2
  6
Continuous
370
    25
100
AcDbLine
 10
84.0
 20
-14.5
 30
0.0
 11
84.0
 21
14.5
 31
0.0
  0
TEXT
  5
109
330
1D
100
AcDbEntity
  8
2
  6
Continuous
370
    25
100
AcDbText
 10
82.5
 20
0.331405848
 30
0.0
 40
3.5
  1
36
 50
90.0
  7
BMG_Text
100
AcDbText
  0
CIRCLE
  5
10A
330
1D
100
AcDbEntity
  8
2
  6
Continuous
370
    25
100
AcDbCircle
 10
81.25
 20
-1.918594152
 30
0.0
 40
1.25
  0
LINE
  5
10B
330
1D
100
AcDbEntity
  8
2
  6
Continuous
370
    25
100
AcDbLine
 10
82.5
 20
-3.168594152
 30
0.0
 11
80.0
 21
-0.668594152
 31
0.0
  0
TEXT
  5
10C
330
1D
100
AcDbEntity
  8
SK6
  6
Continuous
370
    35
100
AcDbText
 10
43.6660101885837
 20
-28.275512017
 30
0.0
 40
3.5
  1
336.304
  7
BMG_Text
100
AcDbText
  0
LINE
  5
10D
330
1D
100
AcDbEntity
  8
1
  6
Continuous
370
    50
100
AcDbLine
 10
71.35002136
 20
10.38989258
 30
0.0
 11
67.65003967
 21
10.38989258
 31
0.0
  0
LINE
  5
10E
330
1D
100
AcDbEntity
  8
1
  6
Continuous
370
    50
100
AcDbLine
 10
71.34997559
 20
11.38990784
 30
0.0
 11
67.64996338
 21
11.38990784
 31
0.0
  0
LINE
  5
10F
330
1D
100
AcDbEntity
  8
1
  6
Continuous
370
    50
100
AcDbLine
 10
71.34997559
 20
12.38990784
 30
0.0
 11
67.64996338
 21
12.38990784
 31
0.0
  0
LINE
  5
110
330
1D
100
AcDbEntity
  8
1
  6
Continuous
370
    50
100
AcDbLine
 10
71.34997559
 20
14.38989258
 30
0.0
 11
67.64996338
 21
14.38989258
 31
0.0
  0
LINE
  5
111
330
1D
100
AcDbEntity
  8
1
  6
Continuous
370
    50
100
AcDbLine
 10
71.34997559
 20
13.38990784
 30
0.0
 11
67.64996338
 21
13.38990784
 31
0.0
  0
LINE
  5
112
330
1D
100
AcDbEntity
  8
1
  6
Continuous
370
    50
100
AcDbLine
 10
71.34997559
 20
15.38989258
 30
0.0
 11
67.64996338
 21
15.38989258
 31
0.0
  0
LINE
  5
113
330
1D
100
AcDbEntity
  8
1
  6
Continuous
370
    50
100
AcDbLine
 10
71.34997559
 20
16.38989258
 30
0.0
 11
67.64996338
 21
16.38989258
 31
0.0
  0
LINE
  5
114
330
1D
100
AcDbEntity
  8
1
  6
Continuous
370
    50
100
AcDbLine
 10
71.34997559
 20
17.38989258
 30
0.0
 11
67.64996338
 21
17.38989258
 31
0.0
  0
LINE
  5
115
330
1D
100
AcDbEntity
  8
1
  6
Continuous
370
    50
100
AcDbLine
 10
71.34997559
 20
18.3899231
 30
0.0
 11
67.64996338
 21
18.3899231
 31
0.0
  0
LINE
  5
116
330
1D
100
AcDbEntity
  8
1
  6
Continuous
370
    50
100
AcDbLine
 10
71.34997559
 20
19.3899231
 30
0.0
 11
67.64996338
 21
19.3899231
 31
0.0
  0
LINE
  5
117
330
1D
100
AcDbEntity
  8
1
  6
Continuous
370
    50
100
AcDbLine
 10
71.34997559
 20
20.38987732
 30
0.0
 11
67.64996338
 21
20.38987732
 31
0.0
  0
LINE
  5
118
330
1D
100
AcDbEntity
  8
1
  6
Continuous
370
    50
100
AcDbLine
 10
71.34997559
 20
21.38990784
 30
0.0
 11
67.64996338
 21
21.38990784
 31
0.0
  0
LINE
  5
119
330
1D
100
AcDbEntity
  8
1
  6
Continuous
370
    50
100
AcDbLine
 10
71.34997559
 20
22.38990784
 30
0.0
 11
67.64996338
 21
22.38990784
 31
0.0
  0
LINE
  5
11A
330
1D
100
AcDbEntity
  8
1
  6
Continuous
370
    50
100
AcDbLine
 10
71.34997559
 20
23.38989258
 30
0.0
 11
67.64996338
 21
23.38989258
 31
0.0
  0
LINE
  5
11B
330
1D
100
AcDbEntity
  8
1
  6
Continuous
370
    50
100
AcDbLine
 10
71.34997559
 20
24.3899231
 30
0.0
 11
67.64996338
 21
24.3899231
 31
0.0
  0
LINE
  5
11C
330
1D
100
AcDbEntity
  8
1
  6
Continuous
370
    50
100
AcDbLine
 10
71.34997559
 20
25.38989258
 30
0.0
 11
67.64996338
 21
25.38989258
 31
0.0
  0
LINE
  5
11D
330
1D
100
AcDbEntity
  8
1
  6
Continuous
370
    50
100
AcDbLine
 10
71.34997559
 20
26.38989258
 30
0.0
 11
67.64996338
 21
26.38989258
 31
0.0
  0
LINE
  5
11E
330
1D
100
AcDbEntity
  8
1
  6
Continuous
370
    50
100
AcDbLine
 10
71.34997559
 20
27.3899231
 30
0.0
 11
67.64996338
 21
27.3899231
 31
0.0
  0
LINE
  5
11F
330
1D
100
AcDbEntity
  8
1
  6
Continuous
370
    50
100
AcDbLine
 10
71.34997559
 20
28.38989258
 30
0.0
 11
67.64996338
 21
28.38989258
 31
0.0
  0
LINE
  5
120
330
1D
100
AcDbEntity
  8
1
  6
Continuous
370
    50
100
AcDbLine
 10
71.34997559
 20
29.3899231
 30
0.0
 11
67.64996338
 21
29.3899231
 31
0.0
  0
LINE
  5
121
330
1D
100
AcDbEntity
  8
1
  6
Continuous
370
    50
100
AcDbLine
 10
71.34997559
 20
32.5
 30
0.0
 11
71.34997559
 21
0.13998413
 31
0.0
  0
LINE
  5
122
330
1D
100
AcDbEntity
  8
1
  6
Continuous
370
    50
100
AcDbLine
 10
67.65000916
 20
32.5
 30
0.0
 11
67.65000916
 21
0.13993835
 31
0.0
  0
LINE
  5
123
330
1D
100
AcDbEntity
  8
1
  6
Continuous
370
    50
100
AcDbLine
 10
71.34997559
 20
9.38986206
 30
0.0
 11
67.64996338
 21
9.38986206
 31
0.0
  0
LINE
  5
124
330
1D
100
AcDbEntity
  8
1
  6
Continuous
370
    50
100
AcDbLine
 10
71.35002136
 20
8.3898468
 30
0.0
 11
67.65003967
 21
8.3898468
 31
0.0
  0
LINE
  5
125
330
1D
100
AcDbEntity
  8
1
  6
Continuous
370
    50
100
AcDbLine
 10
71.34997559
 20
7.38983154
 30
0.0
 11
67.64996338
 21
7.38983154
 31
0.0
  0
LINE
  5
126
330
1D
100
AcDbEntity
  8
1
  6
Continuous
370
    50
100
AcDbLine
 10
71.35002136
 20
6.38980103
 30
0.0
 11
67.65003967
 21
6.38980103
 31
0.0
  0
LINE
  5
127
330
1D
100
AcDbEntity
  8
1
  6
Continuous
370
    50
100
AcDbLine
 10
71.34997559
 20
5.38977051
 30
0.0
 11
67.64996338
 21
5.38977051
 31
0.0
  0
LINE
  5
128
330
1D
100
AcDbEntity
  8
1
  6
Continuous
370
    50
100
AcDbLine
 10
71.35002136
 20
4.38977051
 30
0.0
 11
67.65003967
 21
4.38977051
 31
0.0
  0
LINE
  5
129
330
1D
100
AcDbEntity
  8
1
  6
Continuous
370
    50
100
AcDbLine
 10
71.34997559
 20
3.38973999
 30
0.0
 11
67.64996338
 21
3.38973999
 31
0.0
  0
LINE
  5
12A
330
1D
100
AcDbEntity
  8
1
  6
Continuous
370
    50
100
AcDbLine
 10
71.35002136
 20
2.38970947
 30
0.0
 11
67.65003967
 21
2.38970947
 31
0.0
  0
LINE
  5
12B
330
1D
100
AcDbEntity
  8
1
  6
Continuous
370
    50
100
AcDbLine
 10
71.34997559
 20
1.38969421
 30
0.0
 11
67.64996338
 21
1.38969421
 31
0.0
  0
LINE
  5
12C
330
1D
100
AcDbEntity
  8
1
  6
Continuous
370
    50
100
AcDbLine
 10
71.35002136
 20
-19.39001465
 30
0.0
 11
67.65003967
 21
-19.39001465
 31
0.0
  0
LINE
  5
12D
330
1D
100
AcDbEntity
  8
1
  6
Continuous
370
    50
100
AcDbLine
 10
71.35002136
 20
-20.39001465
 30
0.0
 11
67.65003967
 21
-20.39001465
 31
0.0
  0
LINE
  5
12E
330
1D
100
AcDbEntity
  8
1
  6
Continuous
370
    50
100
AcDbLine
 10
71.35002136
 20
-21.39002991
 30
0.0
 11
67.65003967
 21
-21.39002991
 31
0.0
  0
LINE
  5
12F
330
1D
100
AcDbEntity
  8
1
  6
Continuous
370
    50
100
AcDbLine
 10
71.35002136
 20
-22.39003754
 30
0.0
 11
67.65003967
 21
-22.39003754
 31
0.0
  0
LINE
  5
130
330
1D
100
AcDbEntity
  8
1
  6
Continuous
370
    50
100
AcDbLine
 10
71.35002136
 20
-23.39002991
 30
0.0
 11
67.65003967
 21
-23.39002991
 31
0.0
  0
LINE
  5
131
330
1D
100
AcDbEntity
  8
1
  6
Continuous
370
    50
100
AcDbLine
 10
71.35002136
 20
-24.39001465
 30
0.0
 11
67.65003967
 21
-24.39001465
 31
0.0
  0
LINE
  5
132
330
1D
100
AcDbEntity
  8
1
  6
Continuous
370
    50
100
AcDbLine
 10
71.35002136
 20
-25.39002991
 30
0.0
 11
67.65003967
 21
-25.39002991
 31
0.0
  0
LINE
  5
133
330
1D
100
AcDbEntity
  8
1
  6
Continuous
370
    50
100
AcDbLine
 10
71.35002136
 20
-26.39002228
 30
0.0
 11
67.65003967
 21
-26.39002228
 31
0.0
  0
LINE
  5
134
330
1D
100
AcDbEntity
  8
1
  6
Continuous
370
    50
100
AcDbLine
 10
71.35002136
 20
-27.39002991
 30
0.0
 11
67.65003967
 21
-27.39002991
 31
0.0
  0
LINE
  5
135
330
1D
100
AcDbEntity
  8
1
  6
Continuous
370
    50
100
AcDbLine
 10
71.35002136
 20
-28.39003754
 30
0.0
 11
67.65003967
 21
-28.39003754
 31
0.0
  0
LINE
  5
136
330
1D
100
AcDbEntity
  8
1
  6
Continuous
370
    50
100
AcDbLine
 10
71.35002136
 20
-29.39006042
 30
0.0
 11
67.65003967
 21
-29.39006042
 31
0.0
  0
LINE
  5
137
330
1D
100
AcDbEntity
  8
1
  6
Continuous
370
    50
100
AcDbLine
 10
71.35002136
 20
-30.39006042
 30
0.0
 11
67.65003967
 21
-30.39006042
 31
0.0
  0
ARC
  5
138
330
1D
100
AcDbEntity
  8
1
  6
Continuous
370
    50
100
AcDbCircle
 10
71.918986746
 20
-16.127383181
 30
0.0
 40
4.953579154
100
AcDbArc
 50
186.775190766
 51
210.48022457
  0
LINE
  5
139
330
1D
100
AcDbEntity
  8
1
  6
Continuous
370
    50
100
AcDbLine
 10
71.35002136
 20
-18.64006042
 30
0.0
 11
71.35002136
 21
-32.50003815
 31
0.0
  0
LINE
  5
13A
330
1D
100
AcDbEntity
  8
1
  6
Continuous
370
    50
100
AcDbLine
 10
67.65000916
 20
-18.64006042
 30
0.0
 11
67.65000916
 21
-32.50003815
 31
0.0
  0
ARC
  5
13B
330
1D
100
AcDbEntity
  8
1
  6
Continuous
370
    50
100
AcDbCircle
 10
66.696800252
 20
-15.935030275
 30
0.0
 40
5.382317212
100
AcDbArc
 50
329.829578803
 51
331.697376653
  0
ARC
  5
13C
330
1D
100
AcDbEntity
  8
1
  6
Continuous
370
    50
100
AcDbCircle
 10
67.116838035
 20
-16.136791809
 30
0.0
 40
4.916878727
100
AcDbArc
 50
331.446724685
 51
353.286263437
  0
LINE
  5
13D
330
1D
100
AcDbEntity
  8
1
  6
Continuous
370
    50
100
AcDbLine
 10
71.35002136
 20
-18.64006042
 30
0.0
 11
67.65003967
 21
-18.64006042
 31
0.0
  0
LINE
  5
13E
330
1D
100
AcDbEntity
  8
6
100
AcDbLine
 10
-68.11978149
 20
-50.07142639
 30
0.0
 11
-68.11978149
 21
-52.14141846
 31
0.0
  0
ARC
  5
13F
330
1D
100
AcDbEntity
  8
6
100
AcDbCircle
 10
-70.99977112
 20
-53.22142792
 30
0.0
 40
1.08000004
100
AcDbArc
 50
90.00000763
 51
206.54360962
  0
LINE
  5
140
330
1D
100
AcDbEntity
  8
6
100
AcDbLine
 10
-70.99977112
 20
-52.14144897
 30
0.0
 11
-68.11976624
 21
-52.14144897
 31
0.0
  0
ARC
  5
141
330
1D
100
AcDbEntity
  8
6
100
AcDbCircle
 10
-72.16977692
 20
-52.77142334
 30
0.0
 40
2.70000005
100
AcDbArc
 50
90.00000763
 51
206.5436554
  0
ARC
  5
142
330
1D
100
AcDbEntity
  8
6
100
AcDbCircle
 10
-71.44976044
 20
-62.6714325
 30
0.0
 40
1.08000004
100
AcDbArc
 50
270.0
 51
26.54360962
  0
LINE
  5
143
330
1D
100
AcDbEntity
  8
6
100
AcDbLine
 10
-71.44976044
 20
-63.75143433
 30
0.0
 11
-74.86975861
 21
-63.75143433
 31
0.0
  0
LINE
  5
144
330
1D
100
AcDbEntity
  8
6
100
AcDbLine
 10
-74.58517456
 20
-53.97799683
 30
0.0
 11
-70.48361206
 21
-62.18878937
 31
0.0
  0
ARC
  5
145
330
1D
100
AcDbEntity
  8
6
100
AcDbCircle
 10
-70.2797699
 20
-63.12143707
 30
0.0
 40
2.70000005
100
AcDbArc
 50
270.0
 51
26.54364014
  0
LINE
  5
146
330
1D
100
AcDbEntity
  8
6
100
AcDbLine
 10
-71.96593475
 20
-53.70405579
 30
0.0
 11
-67.86436462
 21
-61.91485596
 31
0.0
  0
LINE
  5
147
330
1D
100
AcDbEntity
  8
6
100
AcDbLine
 10
-74.86978149
 20
-63.75143433
 30
0.0
 11
-74.86978149
 21
-65.82144165
 31
0.0
  0
LINE
  5
148
330
1D
100
AcDbEntity
  8
6
100
AcDbLine
 10
-74.86978149
 20
-65.82144165
 30
0.0
 11
-70.27977753
 21
-65.82144165
 31
0.0
  0
LINE
  5
149
330
1D
100
AcDbEntity
  8
6
100
AcDbLine
 10
-65.41977692
 20
-65.82144165
 30
0.0
 11
-65.41977692
 21
-50.07144165
 31
0.0
  0
LINE
  5
14A
330
1D
100
AcDbEntity
  8
6
100
AcDbLine
 10
-57.13977051
 20
-65.82144165
 30
0.0
 11
-57.13977051
 21
-50.07144165
 31
0.0
  0
LINE
  5
14B
330
1D
100
AcDbEntity
  8
6
100
AcDbLine
 10
-57.13977051
 20
-65.82144165
 30
0.0
 11
-54.43977737
 21
-65.82144165
 31
0.0
  0
LINE
  5
14C
330
1D
100
AcDbEntity
  8
6
100
AcDbLine
 10
-54.43977737
 20
-65.82144165
 30
0.0
 11
-54.43977737
 21
-58.98144531
 31
0.0
  0
ARC
  5
14D
330
1D
100
AcDbEntity
  8
6
100
AcDbCircle
 10
-53.08976364
 20
-60.06143188
 30
0.0
 40
1.08000004
100
AcDbArc
 50
0.0
 51
90.00000763
  0
LINE
  5
14E
330
1D
100
AcDbEntity
  8
6
100
AcDbLine
 10
-53.08976364
 20
-58.98143005
 30
0.0
 11
-54.43976593
 21
-58.98143005
 31
0.0
  0
LINE
  5
14F
330
1D
100
AcDbEntity
  8
6
100
AcDbLine
 10
-52.0097847
 20
-63.30143738
 30
0.0
 11
-52.0097847
 21
-64.29142761
 31
0.0
  0
ARC
  5
150
330
1D
100
AcDbEntity
  8
6
100
AcDbCircle
 10
-46.87978745
 20
-64.29143524
 30
0.0
 40
2.51999998
100
AcDbArc
 50
180.0
 51
217.38319397
  0
ARC
  5
151
330
1D
100
AcDbEntity
  8
6
100
AcDbCircle
 10
-49.48979568
 20
-64.29143524
 30
0.0
 40
2.51999998
100
AcDbArc
 50
180.0
 51
217.38319397
  0
LINE
  5
152
330
1D
100
AcDbEntity
  8
6
100
AcDbLine
 10
-48.97217941
 20
-65.82144165
 30
0.0
 11
-51.49217987
 21
-65.82144165
 31
0.0
  0
LINE
  5
153
330
1D
100
AcDbEntity
  8
6
100
AcDbLine
 10
-52.0097847
 20
-60.06144714
 30
0.0
 11
-52.0097847
 21
-64.29143524
 31
0.0
  0
ARC
  5
154
330
1D
100
AcDbEntity
  8
6
100
AcDbCircle
 10
-51.91976547
 20
-60.24143982
 30
0.0
 40
2.51999998
100
AcDbArc
 50
358.70883179
 51
93.06652832
  0
ARC
  5
155
330
1D
100
AcDbEntity
  8
6
100
AcDbCircle
 10
-52.18977737
 20
-55.2014389
 30
0.0
 40
2.51999998
100
AcDbArc
 50
273.06652832
 51
0.0
  0
ARC
  5
156
330
1D
100
AcDbEntity
  8
6
100
AcDbCircle
 10
-52.18977737
 20
-52.59144592
 30
0.0
 40
2.51999998
100
AcDbArc
 50
0.0
 51
90.00000763
  0
LINE
  5
157
330
1D
100
AcDbEntity
  8
6
100
AcDbLine
 10
-49.66976547
 20
-52.59144592
 30
0.0
 11
-49.66976547
 21
-55.20144653
 31
0.0
  0
ARC
  5
158
330
1D
100
AcDbEntity
  8
6
100
AcDbCircle
 10
-52.81977463
 20
-53.04144287
 30
0.0
 40
0.90000004
100
AcDbArc
 50
0.0
 51
90.00000763
  0
LINE
  5
159
330
1D
100
AcDbEntity
  8
6
100
AcDbLine
 10
-52.81977463
 20
-52.14144897
 30
0.0
 11
-54.43977737
 21
-52.14144897
 31
0.0
  0
ARC
  5
15A
330
1D
100
AcDbEntity
  8
6
100
AcDbCircle
 10
-52.81977463
 20
-55.9214325
 30
0.0
 40
0.90000004
100
AcDbArc
 50
270.0
 51
0.0
  0
LINE
  5
15B
330
1D
100
AcDbEntity
  8
6
100
AcDbLine
 10
-51.91976547
 20
-53.04144287
 30
0.0
 11
-51.91976547
 21
-55.92144012
 31
0.0
  0
LINE
  5
15C
330
1D
100
AcDbEntity
  8
6
100
AcDbLine
 10
-54.43977737
 20
-52.14144897
 30
0.0
 11
-54.43977737
 21
-56.82144165
 31
0.0
  0
LINE
  5
15D
330
1D
100
AcDbEntity
  8
6
100
AcDbLine
 10
-52.81977463
 20
-56.82144165
 30
0.0
 11
-54.43977737
 21
-56.82144165
 31
0.0
  0
LINE
  5
15E
330
1D
100
AcDbEntity
  8
6
100
AcDbLine
 10
-49.40041733
 20
-60.2982254
 30
0.0
 11
-49.3997879
 21
-64.2918396
 31
0.0
  0
LINE
  5
15F
330
1D
100
AcDbEntity
  8
6
100
AcDbLine
 10
-48.97217941
 20
-65.82144165
 30
0.0
 11
-48.88218307
 21
-65.82144165
 31
0.0
  0
LINE
  5
160
330
1D
100
AcDbEntity
  8
6
100
AcDbLine
 10
-72.16977692
 20
-50.07142639
 30
0.0
 11
-68.11977386
 21
-50.07142639
 31
0.0
  0
LINE
  5
161
330
1D
100
AcDbEntity
  8
6
100
AcDbLine
 10
-52.18977737
 20
-50.07142639
 30
0.0
 11
-57.13978195
 21
-50.07142639
 31
0.0
  0
LINE
  5
162
330
1D
100
AcDbEntity
  8
6
100
AcDbLine
 10
-99.16977692
 20
-65.82144165
 30
0.0
 11
-101.95977783
 21
-65.82144165
 31
0.0
  0
LINE
  5
163
330
1D
100
AcDbEntity
  8
6
100
AcDbLine
 10
-99.16977692
 20
-62.40144348
 30
0.0
 11
-99.16977692
 21
-65.82144165
 31
0.0
  0
LINE
  5
164
330
1D
100
AcDbEntity
  8
6
100
AcDbLine
 10
-98.08977509
 20
-60.33143616
 30
0.0
 11
-99.16977692
 21
-62.40144348
 31
0.0
  0
LINE
  5
165
330
1D
100
AcDbEntity
  8
6
100
AcDbLine
 10
-95.65978241
 20
-65.82144165
 30
0.0
 11
-98.08977509
 21
-60.33143616
 31
0.0
  0
LINE
  5
166
330
1D
100
AcDbEntity
  8
6
100
AcDbLine
 10
-92.86978149
 20
-65.82144165
 30
0.0
 11
-95.65977478
 21
-65.82144165
 31
0.0
  0
LINE
  5
167
330
1D
100
AcDbEntity
  8
6
100
AcDbLine
 10
-96.4697876
 20
-56.82144165
 30
0.0
 11
-92.86978149
 21
-65.82144165
 31
0.0
  0
LINE
  5
168
330
1D
100
AcDbEntity
  8
6
100
AcDbLine
 10
-93.40978241
 20
-50.07144165
 30
0.0
 11
-96.46977234
 21
-56.82144165
 31
0.0
  0
LINE
  5
169
330
1D
100
AcDbEntity
  8
6
100
AcDbLine
 10
-99.16977692
 20
-57.18144989
 30
0.0
 11
-96.19978333
 21
-50.07145691
 31
0.0
  0
LINE
  5
16A
330
1D
100
AcDbEntity
  8
6
100
AcDbLine
 10
-99.16977692
 20
-50.07144165
 30
0.0
 11
-99.16977692
 21
-57.18144989
 31
0.0
  0
LINE
  5
16B
330
1D
100
AcDbEntity
  8
6
100
AcDbLine
 10
-101.95977783
 20
-65.82144165
 30
0.0
 11
-101.95977783
 21
-50.07144165
 31
0.0
  0
LINE
  5
16C
330
1D
100
AcDbEntity
  8
6
100
AcDbLine
 10
-96.19978333
 20
-50.07144165
 30
0.0
 11
-93.40978241
 21
-50.07144165
 31
0.0
  0
LINE
  5
16D
330
1D
100
AcDbEntity
  8
6
100
AcDbLine
 10
-101.95977783
 20
-50.07144165
 30
0.0
 11
-99.16977692
 21
-50.07144165
 31
0.0
  0
LINE
  5
16E
330
1D
100
AcDbEntity
  8
6
100
AcDbLine
 10
-79.90977478
 20
-50.07144165
 30
0.0
 11
-79.90977478
 21
-65.82144165
 31
0.0
  0
LINE
  5
16F
330
1D
100
AcDbEntity
  8
6
100
AcDbLine
 10
-77.0297699
 20
-65.82144165
 30
0.0
 11
-77.0297699
 21
-50.07144165
 31
0.0
  0
LINE
  5
170
330
1D
100
AcDbEntity
  8
6
100
AcDbLine
 10
-79.90977478
 20
-65.82144165
 30
0.0
 11
-77.0297699
 21
-65.82144165
 31
0.0
  0
LINE
  5
171
330
1D
100
AcDbEntity
  8
6
100
AcDbLine
 10
-77.0297699
 20
-50.07144165
 30
0.0
 11
-79.90978241
 21
-50.07144165
 31
0.0
  0
LINE
  5
172
330
1D
100
AcDbEntity
  8
6
100
AcDbLine
 10
-59.56977463
 20
-65.82144165
 30
0.0
 11
-59.56977463
 21
-63.75143433
 31
0.0
  0
LINE
  5
173
330
1D
100
AcDbEntity
  8
6
100
AcDbLine
 10
-65.41977692
 20
-65.82144165
 30
0.0
 11
-59.56977463
 21
-65.82144165
 31
0.0
  0
LINE
  5
174
330
1D
100
AcDbEntity
  8
6
100
AcDbLine
 10
-59.56978607
 20
-52.14143372
 30
0.0
 11
-59.56978607
 21
-50.07144165
 31
0.0
  0
LINE
  5
175
330
1D
100
AcDbEntity
  8
6
100
AcDbLine
 10
-62.53980255
 20
-52.14143372
 30
0.0
 11
-59.56979752
 21
-52.14143372
 31
0.0
  0
LINE
  5
176
330
1D
100
AcDbEntity
  8
6
100
AcDbLine
 10
-62.53980255
 20
-56.82144165
 30
0.0
 11
-62.53980255
 21
-52.14144897
 31
0.0
  0
LINE
  5
177
330
1D
100
AcDbEntity
  8
6
100
AcDbLine
 10
-59.56978607
 20
-56.82144165
 30
0.0
 11
-62.53979111
 21
-56.82144165
 31
0.0
  0
LINE
  5
178
330
1D
100
AcDbEntity
  8
6
100
AcDbLine
 10
-59.56978607
 20
-58.98142242
 30
0.0
 11
-59.56978607
 21
-56.82141876
 31
0.0
  0
LINE
  5
179
330
1D
100
AcDbEntity
  8
6
100
AcDbLine
 10
-62.53980255
 20
-58.98142242
 30
0.0
 11
-59.56979752
 21
-58.98142242
 31
0.0
  0
LINE
  5
17A
330
1D
100
AcDbEntity
  8
6
100
AcDbLine
 10
-62.53980255
 20
-63.75143433
 30
0.0
 11
-62.53980255
 21
-58.98142242
 31
0.0
  0
LINE
  5
17B
330
1D
100
AcDbEntity
  8
6
100
AcDbLine
 10
-59.56978607
 20
-63.75143433
 30
0.0
 11
-62.53979111
 21
-63.75143433
 31
0.0
  0
LINE
  5
17C
330
1D
100
AcDbEntity
  8
6
100
AcDbLine
 10
-59.56978607
 20
-50.07144165
 30
0.0
 11
-65.41978455
 21
-50.07144165
 31
0.0
  0
LINE
  5
17D
330
1D
100
AcDbEntity
  8
6
100
AcDbLine
 10
-85.48977661
 20
-65.82144165
 30
0.0
 11
-91.78977966
 21
-65.82144165
 31
0.0
  0
LINE
  5
17E
330
1D
100
AcDbEntity
  8
6
100
AcDbLine
 10
-85.93976593
 20
-63.30142975
 30
0.0
 11
-85.48977661
 21
-65.82142639
 31
0.0
  0
LINE
  5
17F
330
1D
100
AcDbEntity
  8
6
100
AcDbLine
 10
-88.81978607
 20
-63.30142975
 30
0.0
 11
-85.93978882
 21
-63.30142975
 31
0.0
  0
LINE
  5
180
330
1D
100
AcDbEntity
  8
6
100
AcDbLine
 10
-87.28977966
 20
-53.9414444
 30
0.0
 11
-88.81977844
 21
-63.30145264
 31
0.0
  0
LINE
  5
181
330
1D
100
AcDbEntity
  8
6
100
AcDbLine
 10
-84.2297821
 20
-65.82144165
 30
0.0
 11
-87.28977966
 21
-53.9414444
 31
0.0
  0
LINE
  5
182
330
1D
100
AcDbEntity
  8
6
100
AcDbLine
 10
-81.25977325
 20
-65.82144165
 30
0.0
 11
-84.22976685
 21
-65.82144165
 31
0.0
  0
LINE
  5
183
330
1D
100
AcDbEntity
  8
6
100
AcDbLine
 10
-85.66977692
 20
-49.62143707
 30
0.0
 11
-81.25978088
 21
-65.82144165
 31
0.0
  0
LINE
  5
184
330
1D
100
AcDbEntity
  8
6
100
AcDbLine
 10
-88.7297821
 20
-49.62143707
 30
0.0
 11
-85.66978455
 21
-49.62143707
 31
0.0
  0
LINE
  5
185
330
1D
100
AcDbEntity
  8
6
100
AcDbLine
 10
-91.78977966
 20
-65.82144165
 30
0.0
 11
-88.7297821
 21
-49.62143707
 31
0.0
  0
POINT
  5
186
330
1D
100
AcDbEntity
  8
200
370
    50
100
AcDbPoint
 10
0.0
 20
0.0
 30
0.0
  0
POINT
  5
187
330
1D
100
AcDbEntity
  8
200
370
    50
100
AcDbPoint
 10
0.0
 20
0.0
 30
0.0
  0
POINT
  5
188
330
1D
100
AcDbEntity
  8
200
370
    50
100
AcDbPoint
 10
0.0
 20
0.0
 30
0.0
  0
POINT
  5
189
330
1D
100
AcDbEntity
  8
200
370
    50
100
AcDbPoint
 10
0.0
 20
0.0
 30
0.0
  0
POINT
  5
18A
330
1D
100
AcDbEntity
  8
200
370
    50
100
AcDbPoint
 10
0.0
 20
0.0
 30
0.0
  0
POINT
  5
18B
330
1D
100
AcDbEntity
  8
200
370
    50
100
AcDbPoint
 10
0.0
 20
0.0
 30
0.0
  0
POINT
  5
18C
330
1D
100
AcDbEntity
  8
200
370
    50
100
AcDbPoint
 10
0.0
 20
0.0
 30
0.0
  0
POINT
  5
18D
330
1D
100
AcDbEntity
  8
200
370
    50
100
AcDbPoint
 10
0.0
 20
0.0
 30
0.0
  0
POINT
  5
18E
330
1D
100
AcDbEntity
  8
200
370
    50
100
AcDbPoint
 10
0.0
 20
0.0
 30
0.0
  0
POINT
  5
18F
330
1D
100
AcDbEntity
  8
200
370
    50
100
AcDbPoint
 10
0.0
 20
0.0
 30
0.0
  0
POINT
  5
190
330
1D
100
AcDbEntity
  8
200
370
    50
100
AcDbPoint
 10
0.0
 20
0.0
 30
0.0
  0
POINT
  5
191
330
1D
100
AcDbEntity
  8
200
370
    50
100
AcDbPoint
 10
0.0
 20
0.0
 30
0.0
  0
POINT
  5
192
330
1D
100
AcDbEntity
  8
200
370
    50
100
AcDbPoint
 10
0.0
 20
0.0
 30
0.0
  0
LINE
  5
233
330
1D
100
AcDbEntity
  8
NOCUT
100
AcDbLine
 10
0.0
 20
0.0
 30
0.0
 11
0.0
 21
34.92500305
 31
0.0
  0
LINE
  5
234
330
1D
100
AcDbEntity
  8
NOCUT
100
AcDbLine
 10
0.0
 20
34.92500305
 30
0.0
 11
1.5
 21
34.92500305
 31
0.0
  0
LINE
  5
235
330
1D
100
AcDbEntity
  8
NOCUT
100
AcDbLine
 10
3.0
 20
36.42500305
 30
0.0
 11
3.0
 21
49.0
 31
0.0
  0
LINE
  5
236
330
1D
100
AcDbEntity
  8
NOCUT
100
AcDbLine
 10
3.0
 20
49.0
 30
0.0
 11
4.0
 21
50.0
 31
0.0
  0
LINE
  5
237
330
1D
100
AcDbEntity
  8
NOCUT
100
AcDbLine
 10
4.0
 20
50.0
 30
0.0
 11
15.70022583
 21
50.0
 31
0.0
  0
LINE
  5
238
330
1D
100
AcDbEntity
  8
NOCUT
100
AcDbLine
 10
15.70022583
 20
50.0
 30
0.0
 11
19.6499939
 21
43.15878296
 31
0.0
  0
LINE
  5
239
330
1D
100
AcDbEntity
  8
NOCUT
100
AcDbLine
 10
19.6499939
 20
43.15878296
 30
0.0
 11
19.6499939
 21
42.7250061
 31
0.0
  0
LINE
  5
23A
330
1D
100
AcDbEntity
  8
NOCUT
100
AcDbLine
 10
19.94999695
 20
42.42500305
 30
0.0
 11
26.44999695
 21
42.42500305
 31
0.0
  0
LINE
  5
23B
330
1D
100
AcDbEntity
  8
NOCUT
100
AcDbLine
 10
26.75
 20
42.7250061
 30
0.0
 11
26.75
 21
43.15878296
 31
0.0
  0
LINE
  5
23C
330
1D
100
AcDbEntity
  8
NOCUT
100
AcDbLine
 10
26.75
 20
43.15878296
 30
0.0
 11
30.69978333
 21
50.0
 31
0.0
  0
LINE
  5
23D
330
1D
100
AcDbEntity
  8
NOCUT
100
AcDbLine
 10
30.69978333
 20
50.0
 30
0.0
 11
36.99998474
 21
50.0
 31
0.0
  0
LINE
  5
23E
330
1D
100
AcDbEntity
  8
NOCUT
100
AcDbLine
 10
36.99998474
 20
50.0
 30
0.0
 11
38.0
 21
49.0
 31
0.0
  0
LINE
  5
23F
330
1D
100
AcDbEntity
  8
NOCUT
100
AcDbLine
 10
38.0
 20
49.0
 30
0.0
 11
38.0
 21
36.0
 31
0.0
  0
LINE
  5
240
330
1D
100
AcDbEntity
  8
NOCUT
100
AcDbLine
 10
43.0
 20
31.0
 30
0.0
 11
67.0
 21
31.0
 31
0.0
  0
LINE
  5
241
330
1D
100
AcDbEntity
  8
NOCUT
100
AcDbLine
 10
67.0
 20
31.0
 30
0.0
 11
67.0
 21
31.374134339
 31
0.0
  0
LINE
  5
242
330
1D
100
AcDbEntity
  8
NOCUT
100
AcDbLine
 10
67.0
 20
31.374134339
 30
0.0
 11
67.65000916
 21
32.5
 31
0.0
  0
LINE
  5
243
330
1D
100
AcDbEntity
  8
NOCUT
100
AcDbLine
 10
67.65000916
 20
32.5
 30
0.0
 11
71.35002136
 21
32.5
 31
0.0
  0
LINE
  5
244
330
1D
100
AcDbEntity
  8
NOCUT
100
AcDbLine
 10
71.35002136
 20
32.5
 30
0.0
 11
72.0
 21
31.37419128
 31
0.0
  0
LINE
  5
245
330
1D
100
AcDbEntity
  8
NOCUT
100
AcDbLine
 10
0.0
 20
0.0
 30
0.0
 11
72.0694974443139
 21
0.0
 31
0.0
  0
LINE
  5
246
330
1D
100
AcDbEntity
  8
NOCUT
100
AcDbLine
 10
72.00000763
 20
-0.0000076299999989
 30
0.0
 11
72.00000763
 21
31.35549810554496
 31
0.0
  0
ARC
  5
24B
330
1D
100
AcDbEntity
  8
NOCUT
100
AcDbCircle
 10
43.0
 20
36.0
 30
0.0
 40
5.0
100
AcDbArc
 50
180.0
 51
270.0
  0
ARC
  5
24F
330
1D
100
AcDbEntity
  8
1
100
AcDbCircle
 10
1.500000000000002
 20
36.42500305
 30
0.0
 40
1.499999999999998
100
AcDbArc
 50
269.9999999999999
 51
0.0
  0
ARC
  5
251
330
1D
100
AcDbEntity
  8
NOCUT
100
AcDbCircle
 10
1.500000000000002
 20
36.42500305
 30
0.0
 40
1.499999999999998
100
AcDbArc
 50
269.9999999999999
 51
0.0
  0
ARC
  5
252
330
1D
100
AcDbEntity
  8
NOCUT
100
AcDbCircle
 10
19.94999695
 20
42.72500610000001
 30
0.0
 40
0.3000030500000047
100
AcDbArc
 50
180.0000000000014
 51
269.9999999999993
  0
ARC
  5
253
330
1D
100
AcDbEntity
  8
NOCUT
100
AcDbCircle
 10
26.44999695
 20
42.72500610000001
 30
0.0
 40
0.3000030500000047
100
AcDbArc
 50
270.0000000000007
 51
359.9999999999986
  0
LWPOLYLINE
  5
25A
330
1D
100
AcDbEntity
  8
INFTOTAL
100
AcDbPolyline
 90
        4
 70
     1
 43
0.0
 10
-192.368254408691
 20
83.7065169879084
 10
-192.368254408691
 20
-113.2373934673366
 10
204.415800479082
 20
-113.2373934673366
 10
204.415800479082
 20
83.7065169879084
  0
ENDSEC
  0
SECTION
  2
OBJECTS
  0
DICTIONARY
  5
C
330
0
100
AcDbDictionary
281
     1
  3
ACAD_DETAILVIEWSTYLE
350
25E
  3
ACAD_GROUP
350
D
  3
ACAD_LAYOUT
350
1A
  3
ACAD_MATERIAL
350
1D0
  3
ACAD_MLEADERSTYLE
350
1DD
  3
ACAD_MLINESTYLE
350
17
  3
ACAD_PLOTSETTINGS
350
19
  3
ACAD_PLOTSTYLENAME
350
E
  3
ACAD_SCALELIST
350
199
  3
ACAD_SECTIONVIEWSTYLE
350
25F
  3
ACAD_TABLESTYLE
350
226
  3
ACAD_VISUALSTYLE
350
1BF
  3
ACDB_RECOMPOSE_DATA
350
262
  3
AcDbVariableDictionary
350
1DB
  3
APPDATA
350
229
  0
DICTIONARY
  5
22A
330
2
100
AcDbDictionary
280
     1
281
     1
  3
ACAD_LAYERSTATES
360
22B
  0
DICTIONARY
  5
25E
102
{ACAD_REACTORS
330
C
102
}
330
C
100
AcDbDictionary
281
     1
  0
DICTIONARY
  5
D
102
{ACAD_REACTORS
330
C
102
}
330
C
100
AcDbDictionary
281
     1
  0
DICTIONARY
  5
1A
102
{ACAD_REACTORS
330
C
102
}
330
C
100
AcDbDictionary
281
     1
  3
Layout1
350
1C
  3
Model
350
1E
  0
DICTIONARY
  5
1D0
102
{ACAD_REACTORS
330
C
102
}
330
C
100
AcDbDictionary
281
     1
  3
ByBlock
350
1D2
  3
ByLayer
350
1D1
  3
Global
350
1D3
  0
DICTIONARY
  5
1DD
102
{ACAD_REACTORS
330
C
102
}
330
C
100
AcDbDictionary
281
     1
  3
Standard
350
228
  0
DICTIONARY
  5
17
102
{ACAD_REACTORS
330
C
102
}
330
C
100
AcDbDictionary
281
     1
  3
Standard
350
18
  0
DICTIONARY
  5
19
102
{ACAD_REACTORS
330
C
102
}
330
C
100
AcDbDictionary
281
     1
  0
ACDBDICTIONARYWDFLT
  5
E
102
{ACAD_REACTORS
330
C
102
}
330
C
100
AcDbDictionary
281
     1
  3
Normal
350
F
100
AcDbDictionaryWithDefault
340
F
  0
DICTIONARY
  5
199
102
{ACAD_REACTORS
330
C
102
}
330
C
100
AcDbDictionary
281
     1
  3
A0
350
19A
  3
A1
350
19B
  3
A2
350
19C
  3
A3
350
19D
  3
A4
350
19E
  3
A5
350
19F
  3
A6
350
1A0
  3
A7
350
1A1
  3
A8
350
1A2
  3
A9
350
1A3
  3
B0
350
1A4
  3
B1
350
1A5
  3
B2
350
1A6
  3
B3
350
1A7
  3
B4
350
1A8
  3
B5
350
1A9
  3
B6
350
1AA
  3
B7
350
1AB
  3
B8
350
1AC
  3
B9
350
1AD
  3
C0
350
1AE
  3
C1
350
1AF
  3
C2
350
1B0
  3
C3
350
1B1
  3
C4
350
1B2
  3
C5
350
1B3
  3
C6
350
1B4
  3
C7
350
1B5
  3
C8
350
1B6
  3
C9
350
1B7
  3
D0
350
1B8
  3
D1
350
1B9
  3
D2
350
1BA
  0
DICTIONARY
  5
25F
102
{ACAD_REACTORS
330
C
102
}
330
C
100
AcDbDictionary
281
     1
  0
DICTIONARY
  5
226
102
{ACAD_REACTORS
330
C
102
}
330
C
100
AcDbDictionary
281
     1
  3
Standard
350
227
  0
DICTIONARY
  5
1BF
102
{ACAD_REACTORS
330
C
102
}
330
C
100
AcDbDictionary
281
     1
  3
2dWireframe
350
1C4
  3
3D Hidden
350
1C6
  3
3dWireframe
350
1C5
  3
Basic
350
1C7
  3
Brighten
350
1CB
  3
ColorChange
350
1CF
  3
Conceptual
350
1C9
  3
Dim
350
1CA
  3
EdgeColorOff
350
220
  3
Facepattern
350
1CE
  3
Flat
350
1C0
  3
FlatWithEdges
350
1C1
  3
Gouraud
350
1C2
  3
GouraudWithEdges
350
1C3
  3
Hidden
350
21D
  3
JitterOff
350
21E
  3
Linepattern
350
1CD
  3
OverhangOff
350
21F
  3
Realistic
350
1C8
  3
Shaded
350
225
  3
Shaded with edges
350
224
  3
Shades of Gray
350
221
  3
Sketchy
350
222
  3
Thicken
350
1CC
  3
Wireframe
350
21C
  3
X-Ray
350
223
  0
XRECORD
  5
262
102
{ACAD_REACTORS
330
C
102
}
330
C
100
AcDbXrecord
280
     1
 90
        1
330
227
  0
DICTIONARY
  5
1DB
102
{ACAD_REACTORS
330
C
102
}
330
C
100
AcDbDictionary
281
     1
  3
CANNOSCALE
350
25B
  3
CMLEADERSTYLE
350
25D
  3
CTABLESTYLE
350
25C
  3
DIMASSOC
350
1DF
  3
HIDETEXT
350
1E0
  3
MSLTSCALE
350
1DE
  0
DICTIONARY
  5
229
102
{ACAD_REACTORS
330
C
102
}
330
C
100
AcDbDictionary
281
     1
  0
DICTIONARY
  5
22B
102
{ACAD_REACTORS
330
22A
102
}
330
22A
100
AcDbDictionary
281
     1
  0
LAYOUT
  5
1C
102
{ACAD_REACTORS
330
1A
102
}
330
1A
100
AcDbPlotSettings
  1

  2
none_device
  4

  6

 40
0.0
 41
0.0
 42
0.0
 43
0.0
 44
0.0
 45
0.0
 46
0.0
 47
0.0
 48
0.0
 49
0.0
140
0.0
141
0.0
142
1.0
143
1.0
 70
   688
 72
     0
 73
     0
 74
     5
  7

 75
    16
 76
     0
 77
     2
 78
   300
147
1.0
148
0.0
149
0.0
100
AcDbLayout
  1
Layout1
 70
     1
 71
     1
 10
0.0
 20
0.0
 11
12.0
 21
9.0
 12
0.0
 22
0.0
 32
0.0
 14
1.000000000000000E+20
 24
1.000000000000000E+20
 34
1.000000000000000E+20
 15
-1.000000000000000E+20
 25
-1.000000000000000E+20
 35
-1.000000000000000E+20
146
0.0
 13
0.0
 23
0.0
 33
0.0
 16
1.0
 26
0.0
 36
0.0
 17
0.0
 27
1.0
 37
0.0
 76
     0
330
1B
  0
LAYOUT
  5
1E
102
{ACAD_REACTORS
330
1A
102
}
330
1A
100
AcDbPlotSettings
  1

  2
none_device
  4

  6

 40
0.0
 41
0.0
 42
0.0
 43
0.0
 44
0.0
 45
0.0
 46
0.0
 47
0.0
 48
0.0
 49
0.0
140
0.0
141
0.0
142
1.0
143
1.0
 70
  1712
 72
     0
 73
     0
 74
     0
  7

 75
     0
 76
     0
 77
     2
 78
   300
147
1.0
148
0.0
149
0.0
100
AcDbLayout
  1
Model
 70
     1
 71
     0
 10
0.0
 20
0.0
 11
12.0
 21
9.0
 12
0.0
 22
0.0
 32
0.0
 14
-192.368254408691
 24
-113.2373934673366
 34
0.0
 15
204.415800479082
 25
83.7065169879084
 35
0.0
146
0.0
 13
0.0
 23
0.0
 33
0.0
 16
1.0
 26
0.0
 36
0.0
 17
0.0
 27
1.0
 37
0.0
 76
     0
330
1D
331
193
  0
MATERIAL
  5
1D2
102
{ACAD_REACTORS
330
1D0
102
}
330
1D0
100
AcDbMaterial
  1
ByBlock
 72
     1
 94
      127
  0
MATERIAL
  5
1D1
102
{ACAD_REACTORS
330
1D0
102
}
330
1D0
100
AcDbMaterial
  1
ByLayer
 72
     1
 94
      127
  0
MATERIAL
  5
1D3
102
{ACAD_REACTORS
330
1D0
102
}
330
1D0
100
AcDbMaterial
  1
Global
 72
     1
 94
      127
  0
MLEADERSTYLE
  5
228
102
{ACAD_REACTORS
330
1DD
102
}
330
1DD
100
AcDbMLeaderStyle
179
     2
170
     2
171
     1
172
     0
 90
        2
 40
0.0
 41
0.0
173
     1
 91
-1056964608
340
14
 92
       -2
290
     1
 42
0.09
291
     1
 43
0.36
  3
Standard
341
0
 44
0.18
300

342
11
174
     1
178
     1
175
     1
176
     0
 93
-1056964608
 45
0.18
292
     0
297
     0
 46
0.18
343
0
 94
-1056964608
 47
1.0
 49
1.0
140
1.0
293
     1
141
0.0
294
     1
177
     0
142
1.0
295
     0
296
     0
143
0.125
271
     0
272
     9
273
     9
298
     0
  0
MLINESTYLE
  5
18
102
{ACAD_REACTORS
330
17
102
}
330
17
100
AcDbMlineStyle
  2
Standard
 70
     0
  3

 62
   256
 51
90.0
 52
90.0
 71
     2
 49
0.5
 62
   256
  6
BYLAYER
 49
-0.5
 62
   256
  6
BYLAYER
  0
ACDBPLACEHOLDER
  5
F
102
{ACAD_REACTORS
330
E
102
}
330
E
  0
SCALE
  5
19A
102
{ACAD_REACTORS
330
199
102
}
330
199
100
AcDbScale
 70
     0
300
1:1
140
1.0
141
1.0
290
     1
  0
SCALE
  5
19B
102
{ACAD_REACTORS
330
199
102
}
330
199
100
AcDbScale
 70
     0
300
1:2
140
1.0
141
2.0
290
     0
  0
SCALE
  5
19C
102
{ACAD_REACTORS
330
199
102
}
330
199
100
AcDbScale
 70
     0
300
1:4
140
1.0
141
4.0
290
     0
  0
SCALE
  5
19D
102
{ACAD_REACTORS
330
199
102
}
330
199
100
AcDbScale
 70
     0
300
1:5
140
1.0
141
5.0
290
     0
  0
SCALE
  5
19E
102
{ACAD_REACTORS
330
199
102
}
330
199
100
AcDbScale
 70
     0
300
1:8
140
1.0
141
8.0
290
     0
  0
SCALE
  5
19F
102
{ACAD_REACTORS
330
199
102
}
330
199
100
AcDbScale
 70
     0
300
1:10
140
1.0
141
10.0
290
     0
  0
SCALE
  5
1A0
102
{ACAD_REACTORS
330
199
102
}
330
199
100
AcDbScale
 70
     0
300
1:16
140
1.0
141
16.0
290
     0
  0
SCALE
  5
1A1
102
{ACAD_REACTORS
330
199
102
}
330
199
100
AcDbScale
 70
     0
300
1:20
140
1.0
141
20.0
290
     0
  0
SCALE
  5
1A2
102
{ACAD_REACTORS
330
199
102
}
330
199
100
AcDbScale
 70
     0
300
1:30
140
1.0
141
30.0
290
     0
  0
SCALE
  5
1A3
102
{ACAD_REACTORS
330
199
102
}
330
199
100
AcDbScale
 70
     0
300
1:40
140
1.0
141
40.0
290
     0
  0
SCALE
  5
1A4
102
{ACAD_REACTORS
330
199
102
}
330
199
100
AcDbScale
 70
     0
300
1:50
140
1.0
141
50.0
290
     0
  0
SCALE
  5
1A5
102
{ACAD_REACTORS
330
199
102
}
330
199
100
AcDbScale
 70
     0
300
1:100
140
1.0
141
100.0
290
     0
  0
SCALE
  5
1A6
102
{ACAD_REACTORS
330
199
102
}
330
199
100
AcDbScale
 70
     0
300
2:1
140
2.0
141
1.0
290
     0
  0
SCALE
  5
1A7
102
{ACAD_REACTORS
330
199
102
}
330
199
100
AcDbScale
 70
     0
300
4:1
140
4.0
141
1.0
290
     0
  0
SCALE
  5
1A8
102
{ACAD_REACTORS
330
199
102
}
330
199
100
AcDbScale
 70
     0
300
8:1
140
8.0
141
1.0
290
     0
  0
SCALE
  5
1A9
102
{ACAD_REACTORS
330
199
102
}
330
199
100
AcDbScale
 70
     0
300
10:1
140
10.0
141
1.0
290
     0
  0
SCALE
  5
1AA
102
{ACAD_REACTORS
330
199
102
}
330
199
100
AcDbScale
 70
     0
300
100:1
140
100.0
141
1.0
290
     0
  0
SCALE
  5
1AB
102
{ACAD_REACTORS
330
199
102
}
330
199
100
AcDbScale
 70
     0
300
1/128" = 1'-0"
140
0.0078125
141
12.0
290
     0
  0
SCALE
  5
1AC
102
{ACAD_REACTORS
330
199
102
}
330
199
100
AcDbScale
 70
     0
300
1/64" = 1'-0"
140
0.015625
141
12.0
290
     0
  0
SCALE
  5
1AD
102
{ACAD_REACTORS
330
199
102
}
330
199
100
AcDbScale
 70
     0
300
1/32" = 1'-0"
140
0.03125
141
12.0
290
     0
  0
SCALE
  5
1AE
102
{ACAD_REACTORS
330
199
102
}
330
199
100
AcDbScale
 70
     0
300
1/16" = 1'-0"
140
0.0625
141
12.0
290
     0
  0
SCALE
  5
1AF
102
{ACAD_REACTORS
330
199
102
}
330
199
100
AcDbScale
 70
     0
300
3/32" = 1'-0"
140
0.09375
141
12.0
290
     0
  0
SCALE
  5
1B0
102
{ACAD_REACTORS
330
199
102
}
330
199
100
AcDbScale
 70
     0
300
1/8" = 1'-0"
140
0.125
141
12.0
290
     0
  0
SCALE
  5
1B1
102
{ACAD_REACTORS
330
199
102
}
330
199
100
AcDbScale
 70
     0
300
3/16" = 1'-0"
140
0.1875
141
12.0
290
     0
  0
SCALE
  5
1B2
102
{ACAD_REACTORS
330
199
102
}
330
199
100
AcDbScale
 70
     0
300
1/4" = 1'-0"
140
0.25
141
12.0
290
     0
  0
SCALE
  5
1B3
102
{ACAD_REACTORS
330
199
102
}
330
199
100
AcDbScale
 70
     0
300
3/8" = 1'-0"
140
0.375
141
12.0
290
     0
  0
SCALE
  5
1B4
102
{ACAD_REACTORS
330
199
102
}
330
199
100
AcDbScale
 70
     0
300
1/2" = 1'-0"
140
0.5
141
12.0
290
     0
  0
SCALE
  5
1B5
102
{ACAD_REACTORS
330
199
102
}
330
199
100
AcDbScale
 70
     0
300
3/4" = 1'-0"
140
0.75
141
12.0
290
     0
  0
SCALE
  5
1B6
102
{ACAD_REACTORS
330
199
102
}
330
199
100
AcDbScale
 70
     0
300
1" = 1'-0"
140
1.0
141
12.0
290
     0
  0
SCALE
  5
1B7
102
{ACAD_REACTORS
330
199
102
}
330
199
100
AcDbScale
 70
     0
300
1-1/2" = 1'-0"
140
1.5
141
12.0
290
     0
  0
SCALE
  5
1B8
102
{ACAD_REACTORS
330
199
102
}
330
199
100
AcDbScale
 70
     0
300
3" = 1'-0"
140
3.0
141
12.0
290
     0
  0
SCALE
  5
1B9
102
{ACAD_REACTORS
330
199
102
}
330
199
100
AcDbScale
 70
     0
300
6" = 1'-0"
140
6.0
141
12.0
290
     0
  0
SCALE
  5
1BA
102
{ACAD_REACTORS
330
199
102
}
330
199
100
AcDbScale
 70
     0
300
1'-0" = 1'-0"
140
12.0
141
12.0
290
     0
  0
TABLESTYLE
  5
227
102
{ACAD_REACTORS
330
226
102
}
102
{ACAD_XDICTIONARY
360
260
102
}
330
226
100
AcDbTableStyle
  3
Standard
 70
     0
 71
     0
 40
0.06
 41
0.06
280
     0
281
     0
  7
Standard
140
0.18
170
     2
 62
     0
 63
   257
283
     0
 90
        4
 91
        0
  1

274
    -2
284
     1
 64
     0
275
    -2
285
     1
 65
     0
276
    -2
286
     1
 66
     0
277
    -2
287
     1
 67
     0
278
    -2
288
     1
 68
     0
279
    -2
289
     1
 69
     0
  7
Standard
140
0.25
170
     5
 62
     0
 63
   257
283
     0
 90
        4
 91
        0
  1

274
    -2
284
     1
 64
     0
275
    -2
285
     1
 65
     0
276
    -2
286
     1
 66
     0
277
    -2
287
     1
 67
     0
278
    -2
288
     1
 68
     0
279
    -2
289
     1
 69
     0
  7
Standard
140
0.18
170
     5
 62
     0
 63
   257
283
     0
 90
        4
 91
        0
  1

274
    -2
284
     1
 64
     0
275
    -2
285
     1
 65
     0
276
    -2
286
     1
 66
     0
277
    -2
287
     1
 67
     0
278
    -2
288
     1
 68
     0
279
    -2
289
     1
 69
     0
  0
VISUALSTYLE
  5
1C4
102
{ACAD_REACTORS
330
1BF
102
}
330
1BF
100
AcDbVisualStyle
  2
2dWireframe
 70
     4
177
     3
291
     0
 70
    58
 90
        0
176
     1
 90
        2
176
     1
 90
        0
176
     1
 90
        0
176
     1
 40
-0.6
176
     1
 40
-30.0
176
     1
 62
     7
176
     1
 90
        1
176
     1
 90
        4
176
     1
 62
     7
176
     1
 62
   257
176
     1
 90
        1
176
     1
 90
        1
176
     1
 40
1.0
176
     1
 90
        0
176
     1
 62
   257
176
     1
 40
1.0
176
     1
 90
        1
176
     1
 90
        6
176
     1
 90
        2
176
     1
 62
     7
176
     1
 90
        5
176
     1
 90
        0
176
     1
 90
        0
176
     1
290
     0
176
     1
 90
        1
176
     1
 40
0.0
176
     1
 90
        0
176
     1
290
     1
176
     1
290
     1
176
     1
290
     0
176
     1
290
     0
176
     1
290
     0
176
     1
290
     0
176
     1
290
     0
176
     1
290
     0
176
     1
290
     0
176
     1
 90
       50
176
     1
 40
0.0
176
     1
 40
1.0
176
     1
 90
        0
176
     1
 62
    18
420
        0
176
     1
 90
       50
176
     1
 90
        3
176
     1
 62
     5
420
      255
176
     1
290
     0
176
     1
 90
       50
176
     1
 90
       50
176
     1
 90
       50
176
     1
290
     0
176
     1
 90
       50
176
     1
 62
   256
176
     0
 40
1.0
176
     0
 90
        2
176
     1
  1
strokes_ogs.tif
176
     1
290
     0
176
     1
 40
1.0
176
     1
 40
1.0
176
     1
  0
VISUALSTYLE
  5
1C6
102
{ACAD_REACTORS
330
1BF
102
}
330
1BF
100
AcDbVisualStyle
  2
3D Hidden
 70
     6
177
     3
291
     0
 70
    58
 90
        1
176
     1
 90
        2
176
     1
 90
        2
176
     1
 90
        0
176
     1
 40
-0.6
176
     1
 40
-30.0
176
     1
 62
     7
176
     1
 90
        2
176
     1
 90
        2
176
     1
 62
     7
176
     1
 62
   257
176
     1
 90
        2
176
     1
 90
        1
176
     1
 40
40.0
176
     1
 90
        0
176
     1
 62
   257
176
     1
 40
1.0
176
     1
 90
        1
176
     1
 90
        6
176
     1
 90
        2
176
     1
 62
     7
176
     1
 90
        3
176
     1
 90
        0
176
     1
 90
        0
176
     1
290
     0
176
     1
 90
        1
176
     1
 40
0.0
176
     1
 90
        0
176
     1
290
     0
176
     1
290
     1
176
     1
290
     1
176
     1
290
     0
176
     1
290
     0
176
     1
290
     0
176
     1
290
     0
176
     1
290
     0
176
     1
290
     0
176
     1
 90
       50
176
     1
 40
0.0
176
     1
 40
1.0
176
     1
 90
        0
176
     1
 62
    18
420
        0
176
     1
 90
       50
176
     1
 90
        3
176
     1
 62
     5
420
      255
176
     1
290
     0
176
     1
 90
       50
176
     1
 90
       50
176
     1
 90
       50
176
     1
290
     0
176
     1
 90
       50
176
     1
 62
   256
176
     0
 40
1.0
176
     0
 90
        2
176
     1
  1
strokes_ogs.tif
176
     1
290
     0
176
     1
 40
1.0
176
     1
 40
1.0
176
     1
  0
VISUALSTYLE
  5
1C5
102
{ACAD_REACTORS
330
1BF
102
}
330
1BF
100
AcDbVisualStyle
  2
3dWireframe
 70
     5
177
     3
291
     0
 70
    58
 90
        0
176
     1
 90
        2
176
     1
 90
        0
176
     1
 90
        0
176
     1
 40
-0.6
176
     1
 40
-30.0
176
     1
 62
     7
176
     1
 90
        1
176
     1
 90
        4
176
     1
 62
     7
176
     1
 62
   257
176
     1
 90
        1
176
     1
 90
        1
176
     1
 40
1.0
176
     1
 90
        0
176
     1
 62
   257
176
     1
 40
1.0
176
     1
 90
        1
176
     1
 90
        6
176
     1
 90
        2
176
     1
 62
     7
176
     1
 90
        5
176
     1
 90
        0
176
     1
 90
        0
176
     1
290
     0
176
     1
 90
        1
176
     1
 40
0.0
176
     1
 90
        0
176
     1
290
     0
176
     1
290
     1
176
     1
290
     1
176
     1
290
     0
176
     1
290
     0
176
     1
290
     0
176
     1
290
     0
176
     1
290
     0
176
     1
290
     0
176
     1
 90
       50
176
     1
 40
0.0
176
     1
 40
1.0
176
     1
 90
        0
176
     1
 62
    18
420
        0
176
     1
 90
       50
176
     1
 90
        3
176
     1
 62
     5
420
      255
176
     1
290
     0
176
     1
 90
       50
176
     1
 90
       50
176
     1
 90
       50
176
     1
290
     0
176
     1
 90
       50
176
     1
 62
   256
176
     0
 40
1.0
176
     0
 90
        2
176
     1
  1
strokes_ogs.tif
176
     1
290
     0
176
     1
 40
1.0
176
     1
 40
1.0
176
     1
  0
VISUALSTYLE
  5
1C7
102
{ACAD_REACTORS
330
1BF
102
}
330
1BF
100
AcDbVisualStyle
  2
Basic
 70
     7
177
     3
291
     1
 70
    58
 90
        1
176
     1
 90
        0
176
     1
 90
        1
176
     1
 90
        0
176
     1
 40
-0.6
176
     1
 40
-30.0
176
     1
 62
     7
176
     1
 90
        0
176
     1
 90
        4
176
     1
 62
     7
176
     1
 62
   257
176
     1
 90
        1
176
     1
 90
        1
176
     1
 40
1.0
176
     1
 90
        8
176
     1
 62
     7
176
     1
 40
1.0
176
     1
 90
        1
176
     1
 90
        6
176
     1
 90
        2
176
     1
 62
     7
176
     1
 90
        5
176
     1
 90
        0
176
     1
 90
        0
176
     1
290
     0
176
     1
 90
        1
176
     1
 40
0.0
176
     1
 90
        0
176
     1
290
     0
176
     1
290
     1
176
     1
290
     1
176
     1
290
     0
176
     1
290
     0
176
     1
290
     0
176
     1
290
     0
176
     1
290
     0
176
     1
290
     0
176
     1
 90
       50
176
     1
 40
0.0
176
     1
 40
1.0
176
     1
 90
        0
176
     1
 62
    18
420
        0
176
     1
 90
       50
176
     1
 90
        3
176
     1
 62
     5
420
      255
176
     1
290
     0
176
     1
 90
       50
176
     1
 90
       50
176
     1
 90
       50
176
     1
290
     0
176
     1
 90
       50
176
     1
 62
   256
176
     0
 40
1.0
176
     0
 90
        2
176
     1
  1
strokes_ogs.tif
176
     1
290
     0
176
     1
 40
1.0
176
     1
 40
1.0
176
     1
  0
VISUALSTYLE
  5
1CB
102
{ACAD_REACTORS
330
1BF
102
}
330
1BF
100
AcDbVisualStyle
  2
Brighten
 70
    12
177
     3
291
     1
 70
    58
 90
        2
176
     1
 90
        2
176
     1
 90
        0
176
     1
 90
        0
176
     1
 40
-0.6
176
     1
 40
-30.0
176
     1
 62
     7
176
     1
 90
        1
176
     1
 90
        4
176
     1
 62
     7
176
     1
 62
   257
176
     1
 90
        1
176
     1
 90
        1
176
     1
 40
1.0
176
     1
 90
        8
176
     1
 62
     7
176
     1
 40
1.0
176
     1
 90
        1
176
     1
 90
        6
176
     1
 90
        2
176
     1
 62
     7
176
     1
 90
        5
176
     1
 90
        0
176
     1
 90
        0
176
     1
290
     0
176
     1
 90
        1
176
     1
 40
50.0
176
     1
 90
        0
176
     1
290
     0
176
     1
290
     1
176
     1
290
     1
176
     1
290
     0
176
     1
290
     0
176
     1
290
     0
176
     1
290
     0
176
     1
290
     0
176
     1
290
     0
176
     1
 90
       50
176
     1
 40
0.0
176
     1
 40
1.0
176
     1
 90
        0
176
     1
 62
    18
420
        0
176
     1
 90
       50
176
     1
 90
        3
176
     1
 62
     5
420
      255
176
     1
290
     0
176
     1
 90
       50
176
     1
 90
       50
176
     1
 90
       50
176
     1
290
     0
176
     1
 90
       50
176
     1
 62
   256
176
     0
 40
1.0
176
     0
 90
        2
176
     1
  1
strokes_ogs.tif
176
     1
290
     0
176
     1
 40
1.0
176
     1
 40
1.0
176
     1
  0
VISUALSTYLE
  5
1CF
102
{ACAD_REACTORS
330
1BF
102
}
330
1BF
100
AcDbVisualStyle
  2
ColorChange
 70
    16
177
     3
291
     1
 70
    58
 90
        2
176
     1
 90
        2
176
     1
 90
        3
176
     1
 90
        0
176
     1
 40
-0.6
176
     1
 40
-30.0
176
     1
 62
     8
176
     1
 90
        1
176
     1
 90
        4
176
     1
 62
     7
176
     1
 62
   257
176
     1
 90
        1
176
     1
 90
        1
176
     1
 40
1.0
176
     1
 90
        8
176
     1
 62
     8
176
     1
 40
1.0
176
     1
 90
        1
176
     1
 90
        6
176
     1
 90
        2
176
     1
 62
     7
176
     1
 90
        5
176
     1
 90
        0
176
     1
 90
        0
176
     1
290
     0
176
     1
 90
        1
176
     1
 40
0.0
176
     1
 90
        0
176
     1
290
     0
176
     1
290
     1
176
     1
290
     1
176
     1
290
     0
176
     1
290
     0
176
     1
290
     0
176
     1
290
     0
176
     1
290
     0
176
     1
290
     0
176
     1
 90
       50
176
     1
 40
0.0
176
     1
 40
1.0
176
     1
 90
        0
176
     1
 62
    18
420
        0
176
     1
 90
       50
176
     1
 90
        3
176
     1
 62
     5
420
      255
176
     1
290
     0
176
     1
 90
       50
176
     1
 90
       50
176
     1
 90
       50
176
     1
290
     0
176
     1
 90
       50
176
     1
 62
   256
176
     0
 40
1.0
176
     0
 90
        2
176
     1
  1
strokes_ogs.tif
176
     1
290
     0
176
     1
 40
1.0
176
     1
 40
1.0
176
     1
  0
VISUALSTYLE
  5
1C9
102
{ACAD_REACTORS
330
1BF
102
}
330
1BF
100
AcDbVisualStyle
  2
Conceptual
 70
     9
177
     3
291
     0
 70
    58
 90
        3
176
     1
 90
        2
176
     1
 90
        0
176
     1
 90
        0
176
     1
 40
-0.6
176
     1
 40
-30.0
176
     1
 62
     7
176
     1
 90
        2
176
     1
 90
        2
176
     1
 62
     7
176
     1
 62
   257
176
     1
 90
        1
176
     1
 90
        1
176
     1
 40
40.0
176
     1
 90
        8
176
     1
 62
     7
176
     1
 40
1.0
176
     1
 90
        1
176
     1
 90
        6
176
     1
 90
        2
176
     1
 62
     7
176
     1
 90
        3
176
     1
 90
        0
176
     1
 90
        0
176
     1
290
     0
176
     1
 90
        1
176
     1
 40
0.0
176
     1
 90
        0
176
     1
290
     0
176
     1
290
     1
176
     1
290
     1
176
     1
290
     0
176
     1
290
     0
176
     1
290
     0
176
     1
290
     0
176
     1
290
     0
176
     1
290
     0
176
     1
 90
       50
176
     1
 40
0.0
176
     1
 40
1.0
176
     1
 90
        0
176
     1
 62
    18
420
        0
176
     1
 90
       50
176
     1
 90
        3
176
     1
 62
     5
420
      255
176
     1
290
     0
176
     1
 90
       50
176
     1
 90
       50
176
     1
 90
       50
176
     1
290
     0
176
     1
 90
       50
176
     1
 62
   256
176
     0
 40
1.0
176
     0
 90
        2
176
     1
  1
strokes_ogs.tif
176
     1
290
     0
176
     1
 40
1.0
176
     1
 40
1.0
176
     1
  0
VISUALSTYLE
  5
1CA
102
{ACAD_REACTORS
330
1BF
102
}
330
1BF
100
AcDbVisualStyle
  2
Dim
 70
    11
177
     3
291
     1
 70
    58
 90
        2
176
     1
 90
        2
176
     1
 90
        0
176
     1
 90
        0
176
     1
 40
-0.6
176
     1
 40
-30.0
176
     1
 62
     7
176
     1
 90
        1
176
     1
 90
        4
176
     1
 62
     7
176
     1
 62
   257
176
     1
 90
        1
176
     1
 90
        1
176
     1
 40
1.0
176
     1
 90
        8
176
     1
 62
     7
176
     1
 40
1.0
176
     1
 90
        1
176
     1
 90
        6
176
     1
 90
        2
176
     1
 62
     7
176
     1
 90
        5
176
     1
 90
        0
176
     1
 90
        0
176
     1
290
     0
176
     1
 90
        1
176
     1
 40
-50.0
176
     1
 90
        0
176
     1
290
     0
176
     1
290
     1
176
     1
290
     1
176
     1
290
     0
176
     1
290
     0
176
     1
290
     0
176
     1
290
     0
176
     1
290
     0
176
     1
290
     0
176
     1
 90
       50
176
     1
 40
0.0
176
     1
 40
1.0
176
     1
 90
        0
176
     1
 62
    18
420
        0
176
     1
 90
       50
176
     1
 90
        3
176
     1
 62
     5
420
      255
176
     1
290
     0
176
     1
 90
       50
176
     1
 90
       50
176
     1
 90
       50
176
     1
290
     0
176
     1
 90
       50
176
     1
 62
   256
176
     0
 40
1.0
176
     0
 90
        2
176
     1
  1
strokes_ogs.tif
176
     1
290
     0
176
     1
 40
1.0
176
     1
 40
1.0
176
     1
  0
VISUALSTYLE
  5
220
102
{ACAD_REACTORS
330
1BF
102
}
330
1BF
100
AcDbVisualStyle
  2
EdgeColorOff
 70
    22
177
     3
291
     1
 70
    58
 90
        2
176
     0
 90
        2
176
     0
 90
        0
176
     0
 90
        0
176
     0
 40
0.6
176
     0
 40
30.0
176
     0
 62
     7
420
 16777215
176
     0
 90
        1
176
     0
 90
        4
176
     0
 62
     7
176
     0
 62
   257
176
     0
 90
        1
176
     0
 90
        1
176
     0
 40
1.0
176
     0
 90
        8
176
     2
 62
     7
176
     0
 40
1.0
176
     0
 90
        1
176
     0
 90
        6
176
     0
 90
        2
176
     0
 62
     7
176
     0
 90
        5
176
     0
 90
        0
176
     0
 90
        0
176
     0
290
     0
176
     0
 90
        1
176
     0
 40
0.0
176
     0
 90
        0
176
     0
290
     0
176
     0
290
     1
176
     0
290
     1
176
     0
290
     0
176
     0
290
     0
176
     0
290
     0
176
     0
290
     0
176
     0
290
     0
176
     0
290
     0
176
     0
 90
       50
176
     0
 40
0.0
176
     0
 40
1.0
176
     0
 90
        0
176
     0
 62
    18
420
        0
176
     0
 90
       50
176
     0
 90
        3
176
     0
 62
     5
420
      255
176
     0
290
     0
176
     0
 90
       50
176
     0
 90
       50
176
     0
 90
       50
176
     0
290
     0
176
     0
 90
       50
176
     0
 62
   256
176
     0
 40
1.0
176
     0
 90
        2
176
     0
  1
strokes_ogs.tif
176
     0
290
     0
176
     0
 40
1.0
176
     0
 40
1.0
176
     0
  0
VISUALSTYLE
  5
1CE
102
{ACAD_REACTORS
330
1BF
102
}
330
1BF
100
AcDbVisualStyle
  2
Facepattern
 70
    15
177
     3
291
     1
 70
    58
 90
        2
176
     1
 90
        2
176
     1
 90
        0
176
     1
 90
        0
176
     1
 40
-0.6
176
     1
 40
-30.0
176
     1
 62
     7
176
     1
 90
        1
176
     1
 90
        4
176
     1
 62
     7
176
     1
 62
   257
176
     1
 90
        1
176
     1
 90
        1
176
     1
 40
1.0
176
     1
 90
        8
176
     1
 62
     7
176
     1
 40
1.0
176
     1
 90
        1
176
     1
 90
        6
176
     1
 90
        2
176
     1
 62
     7
176
     1
 90
        5
176
     1
 90
        0
176
     1
 90
        0
176
     1
290
     0
176
     1
 90
        1
176
     1
 40
0.0
176
     1
 90
        0
176
     1
290
     0
176
     1
290
     1
176
     1
290
     1
176
     1
290
     0
176
     1
290
     0
176
     1
290
     0
176
     1
290
     0
176
     1
290
     0
176
     1
290
     0
176
     1
 90
       50
176
     1
 40
0.0
176
     1
 40
1.0
176
     1
 90
        0
176
     1
 62
    18
420
        0
176
     1
 90
       50
176
     1
 90
        3
176
     1
 62
     5
420
      255
176
     1
290
     0
176
     1
 90
       50
176
     1
 90
       50
176
     1
 90
       50
176
     1
290
     0
176
     1
 90
       50
176
     1
 62
   256
176
     0
 40
1.0
176
     0
 90
        2
176
     1
  1
strokes_ogs.tif
176
     1
290
     0
176
     1
 40
1.0
176
     1
 40
1.0
176
     1
  0
VISUALSTYLE
  5
1C0
102
{ACAD_REACTORS
330
1BF
102
}
330
1BF
100
AcDbVisualStyle
  2
Flat
 70
     0
177
     3
291
     1
 70
    58
 90
        2
176
     1
 90
        1
176
     1
 90
        1
176
     1
 90
        2
176
     1
 40
-0.6
176
     1
 40
30.0
176
     1
 62
     7
176
     1
 90
        0
176
     1
 90
        4
176
     1
 62
     7
176
     1
 62
   257
176
     1
 90
        1
176
     1
 90
        1
176
     1
 40
1.0
176
     1
 90
        8
176
     1
 62
     7
176
     1
 40
1.0
176
     1
 90
        1
176
     1
 90
        6
176
     1
 90
        2
176
     1
 62
     7
176
     1
 90
        5
176
     1
 90
        0
176
     1
 90
        0
176
     1
290
     0
176
     1
 90
       13
176
     1
 40
0.0
176
     1
 90
        0
176
     1
290
     0
176
     1
290
     1
176
     1
290
     1
176
     1
290
     0
176
     1
290
     0
176
     1
290
     0
176
     1
290
     0
176
     1
290
     0
176
     1
290
     0
176
     1
 90
       50
176
     1
 40
0.0
176
     1
 40
1.0
176
     1
 90
        0
176
     1
 62
    18
420
        0
176
     1
 90
       50
176
     1
 90
        3
176
     1
 62
     5
420
      255
176
     1
290
     0
176
     1
 90
       50
176
     1
 90
       50
176
     1
 90
       50
176
     1
290
     0
176
     1
 90
       50
176
     1
 62
   256
176
     0
 40
1.0
176
     0
 90
        2
176
     1
  1
strokes_ogs.tif
176
     1
290
     0
176
     1
 40
1.0
176
     1
 40
1.0
176
     1
  0
VISUALSTYLE
  5
1C1
102
{ACAD_REACTORS
330
1BF
102
}
330
1BF
100
AcDbVisualStyle
  2
FlatWithEdges
 70
     1
177
     3
291
     1
 70
    58
 90
        2
176
     1
 90
        1
176
     1
 90
        1
176
     1
 90
        2
176
     1
 40
-0.6
176
     1
 40
30.0
176
     1
 62
     7
176
     1
 90
        1
176
     1
 90
        4
176
     1
 62
     7
176
     1
 62
   257
176
     1
 90
        1
176
     1
 90
        1
176
     1
 40
1.0
176
     1
 90
        0
176
     1
 62
   257
176
     1
 40
1.0
176
     1
 90
        1
176
     1
 90
        6
176
     1
 90
        2
176
     1
 62
     7
176
     1
 90
        5
176
     1
 90
        0
176
     1
 90
        0
176
     1
290
     0
176
     1
 90
       13
176
     1
 40
0.0
176
     1
 90
        0
176
     1
290
     0
176
     1
290
     1
176
     1
290
     1
176
     1
290
     0
176
     1
290
     0
176
     1
290
     0
176
     1
290
     0
176
     1
290
     0
176
     1
290
     0
176
     1
 90
       50
176
     1
 40
0.0
176
     1
 40
1.0
176
     1
 90
        0
176
     1
 62
    18
420
        0
176
     1
 90
       50
176
     1
 90
        3
176
     1
 62
     5
420
      255
176
     1
290
     0
176
     1
 90
       50
176
     1
 90
       50
176
     1
 90
       50
176
     1
290
     0
176
     1
 90
       50
176
     1
 62
   256
176
     0
 40
1.0
176
     0
 90
        2
176
     1
  1
strokes_ogs.tif
176
     1
290
     0
176
     1
 40
1.0
176
     1
 40
1.0
176
     1
  0
VISUALSTYLE
  5
1C2
102
{ACAD_REACTORS
330
1BF
102
}
330
1BF
100
AcDbVisualStyle
  2
Gouraud
 70
     2
177
     3
291
     1
 70
    58
 90
        2
176
     1
 90
        2
176
     1
 90
        1
176
     1
 90
        2
176
     1
 40
-0.6
176
     1
 40
30.0
176
     1
 62
     7
176
     1
 90
        0
176
     1
 90
        4
176
     1
 62
     7
176
     1
 62
   257
176
     1
 90
        1
176
     1
 90
        1
176
     1
 40
1.0
176
     1
 90
        0
176
     1
 62
     7
176
     1
 40
1.0
176
     1
 90
        1
176
     1
 90
        6
176
     1
 90
        2
176
     1
 62
     7
176
     1
 90
        5
176
     1
 90
        0
176
     1
 90
        0
176
     1
290
     0
176
     1
 90
       13
176
     1
 40
0.0
176
     1
 90
        0
176
     1
290
     0
176
     1
290
     1
176
     1
290
     1
176
     1
290
     0
176
     1
290
     0
176
     1
290
     0
176
     1
290
     0
176
     1
290
     0
176
     1
290
     0
176
     1
 90
       50
176
     1
 40
0.0
176
     1
 40
1.0
176
     1
 90
        0
176
     1
 62
    18
420
        0
176
     1
 90
       50
176
     1
 90
        3
176
     1
 62
     5
420
      255
176
     1
290
     0
176
     1
 90
       50
176
     1
 90
       50
176
     1
 90
       50
176
     1
290
     0
176
     1
 90
       50
176
     1
 62
   256
176
     0
 40
1.0
176
     0
 90
        2
176
     1
  1
strokes_ogs.tif
176
     1
290
     0
176
     1
 40
1.0
176
     1
 40
1.0
176
     1
  0
VISUALSTYLE
  5
1C3
102
{ACAD_REACTORS
330
1BF
102
}
330
1BF
100
AcDbVisualStyle
  2
GouraudWithEdges
 70
     3
177
     3
291
     1
 70
    58
 90
        2
176
     1
 90
        2
176
     1
 90
        1
176
     1
 90
        2
176
     1
 40
-0.6
176
     1
 40
30.0
176
     1
 62
     7
176
     1
 90
        1
176
     1
 90
        4
176
     1
 62
     7
176
     1
 62
   257
176
     1
 90
        1
176
     1
 90
        1
176
     1
 40
1.0
176
     1
 90
        0
176
     1
 62
   257
176
     1
 40
1.0
176
     1
 90
        1
176
     1
 90
        6
176
     1
 90
        2
176
     1
 62
     7
176
     1
 90
        5
176
     1
 90
        0
176
     1
 90
        0
176
     1
290
     0
176
     1
 90
       13
176
     1
 40
0.0
176
     1
 90
        0
176
     1
290
     0
176
     1
290
     1
176
     1
290
     1
176
     1
290
     0
176
     1
290
     0
176
     1
290
     0
176
     1
290
     0
176
     1
290
     0
176
     1
290
     0
176
     1
 90
       50
176
     1
 40
0.0
176
     1
 40
1.0
176
     1
 90
        0
176
     1
 62
    18
420
        0
176
     1
 90
       50
176
     1
 90
        3
176
     1
 62
     5
420
      255
176
     1
290
     0
176
     1
 90
       50
176
     1
 90
       50
176
     1
 90
       50
176
     1
290
     0
176
     1
 90
       50
176
     1
 62
   256
176
     0
 40
1.0
176
     0
 90
        2
176
     1
  1
strokes_ogs.tif
176
     1
290
     0
176
     1
 40
1.0
176
     1
 40
1.0
176
     1
  0
VISUALSTYLE
  5
21D
102
{ACAD_REACTORS
330
1BF
102
}
330
1BF
100
AcDbVisualStyle
  2
Hidden
 70
     6
177
     3
291
     0
 70
    58
 90
        1
176
     1
 90
        2
176
     1
 90
        2
176
     1
 90
        0
176
     1
 40
0.6
176
     1
 40
30.0
176
     1
 62
     7
420
 16777215
176
     1
 90
        2
176
     1
 90
        2
176
     1
 62
     7
176
     1
 62
   257
176
     1
 90
        2
176
     1
 90
        1
176
     1
 40
40.0
176
     1
 90
        0
176
     1
 62
   257
176
     1
 40
1.0
176
     1
 90
        1
176
     1
 90
        6
176
     1
 90
        2
176
     1
 62
     7
176
     1
 90
        3
176
     1
 90
        0
176
     1
 90
        0
176
     1
290
     0
176
     1
 90
        1
176
     1
 40
0.0
176
     1
 90
        0
176
     1
290
     0
176
     1
290
     1
176
     1
290
     1
176
     1
290
     0
176
     1
290
     0
176
     1
290
     0
176
     1
290
     0
176
     1
290
     0
176
     1
290
     0
176
     1
 90
       50
176
     1
 40
0.0
176
     1
 40
1.0
176
     1
 90
        0
176
     1
 62
    18
420
        0
176
     1
 90
       50
176
     1
 90
        3
176
     1
 62
     5
420
      255
176
     1
290
     0
176
     1
 90
       50
176
     1
 90
       50
176
     1
 90
       50
176
     1
290
     0
176
     1
 90
       50
176
     1
 62
   256
176
     0
 40
1.0
176
     0
 90
        2
176
     1
  1
strokes_ogs.tif
176
     1
290
     0
176
     1
 40
1.0
176
     1
 40
1.0
176
     1
  0
VISUALSTYLE
  5
21E
102
{ACAD_REACTORS
330
1BF
102
}
330
1BF
100
AcDbVisualStyle
  2
JitterOff
 70
    20
177
     3
291
     1
 70
    58
 90
        2
176
     0
 90
        2
176
     0
 90
        0
176
     0
 90
        0
176
     0
 40
0.6
176
     0
 40
30.0
176
     0
 62
     7
420
 16777215
176
     0
 90
        1
176
     0
 90
        4
176
     0
 62
     7
176
     0
 62
   257
176
     0
 90
        1
176
     0
 90
        1
176
     0
 40
1.0
176
     0
 90
       10
176
     2
 62
     7
176
     0
 40
1.0
176
     0
 90
        1
176
     0
 90
        6
176
     0
 90
        2
176
     0
 62
     7
176
     0
 90
        5
176
     0
 90
        0
176
     0
 90
        0
176
     0
290
     0
176
     0
 90
        1
176
     0
 40
0.0
176
     0
 90
        0
176
     0
290
     0
176
     0
290
     1
176
     0
290
     1
176
     0
290
     0
176
     0
290
     0
176
     0
290
     0
176
     0
290
     0
176
     0
290
     0
176
     0
290
     0
176
     0
 90
       50
176
     0
 40
0.0
176
     0
 40
1.0
176
     0
 90
        0
176
     0
 62
    18
420
        0
176
     0
 90
       50
176
     0
 90
        3
176
     0
 62
     5
420
      255
176
     0
290
     0
176
     0
 90
       50
176
     0
 90
       50
176
     0
 90
       50
176
     0
290
     0
176
     0
 90
       50
176
     0
 62
   256
176
     0
 40
1.0
176
     0
 90
        2
176
     0
  1
strokes_ogs.tif
176
     0
290
     0
176
     0
 40
1.0
176
     0
 40
1.0
176
     0
  0
VISUALSTYLE
  5
1CD
102
{ACAD_REACTORS
330
1BF
102
}
330
1BF
100
AcDbVisualStyle
  2
Linepattern
 70
    14
177
     3
291
     1
 70
    58
 90
        2
176
     1
 90
        2
176
     1
 90
        0
176
     1
 90
        0
176
     1
 40
-0.6
176
     1
 40
-30.0
176
     1
 62
     7
176
     1
 90
        1
176
     1
 90
        4
176
     1
 62
     7
176
     1
 62
   257
176
     1
 90
        7
176
     1
 90
        7
176
     1
 40
1.0
176
     1
 90
        8
176
     1
 62
     7
176
     1
 40
1.0
176
     1
 90
        1
176
     1
 90
        6
176
     1
 90
        2
176
     1
 62
     7
176
     1
 90
        5
176
     1
 90
        0
176
     1
 90
        0
176
     1
290
     0
176
     1
 90
        1
176
     1
 40
0.0
176
     1
 90
        0
176
     1
290
     0
176
     1
290
     1
176
     1
290
     1
176
     1
290
     0
176
     1
290
     0
176
     1
290
     0
176
     1
290
     0
176
     1
290
     0
176
     1
290
     0
176
     1
 90
       50
176
     1
 40
0.0
176
     1
 40
1.0
176
     1
 90
        0
176
     1
 62
    18
420
        0
176
     1
 90
       50
176
     1
 90
        3
176
     1
 62
     5
420
      255
176
     1
290
     0
176
     1
 90
       50
176
     1
 90
       50
176
     1
 90
       50
176
     1
290
     0
176
     1
 90
       50
176
     1
 62
   256
176
     0
 40
1.0
176
     0
 90
        2
176
     1
  1
strokes_ogs.tif
176
     1
290
     0
176
     1
 40
1.0
176
     1
 40
1.0
176
     1
  0
VISUALSTYLE
  5
21F
102
{ACAD_REACTORS
330
1BF
102
}
330
1BF
100
AcDbVisualStyle
  2
OverhangOff
 70
    21
177
     3
291
     1
 70
    58
 90
        2
176
     0
 90
        2
176
     0
 90
        0
176
     0
 90
        0
176
     0
 40
0.6
176
     0
 40
30.0
176
     0
 62
     7
420
 16777215
176
     0
 90
        1
176
     0
 90
        4
176
     0
 62
     7
176
     0
 62
   257
176
     0
 90
        1
176
     0
 90
        1
176
     0
 40
1.0
176
     0
 90
        9
176
     2
 62
     7
176
     0
 40
1.0
176
     0
 90
        1
176
     0
 90
        6
176
     0
 90
        2
176
     0
 62
     7
176
     0
 90
        5
176
     0
 90
        0
176
     0
 90
        0
176
     0
290
     0
176
     0
 90
        1
176
     0
 40
0.0
176
     0
 90
        0
176
     0
290
     0
176
     0
290
     1
176
     0
290
     1
176
     0
290
     0
176
     0
290
     0
176
     0
290
     0
176
     0
290
     0
176
     0
290
     0
176
     0
290
     0
176
     0
 90
       50
176
     0
 40
0.0
176
     0
 40
1.0
176
     0
 90
        0
176
     0
 62
    18
420
        0
176
     0
 90
       50
176
     0
 90
        3
176
     0
 62
     5
420
      255
176
     0
290
     0
176
     0
 90
       50
176
     0
 90
       50
176
     0
 90
       50
176
     0
290
     0
176
     0
 90
       50
176
     0
 62
   256
176
     0
 40
1.0
176
     0
 90
        2
176
     0
  1
strokes_ogs.tif
176
     0
290
     0
176
     0
 40
1.0
176
     0
 40
1.0
176
     0
  0
VISUALSTYLE
  5
1C8
102
{ACAD_REACTORS
330
1BF
102
}
330
1BF
100
AcDbVisualStyle
  2
Realistic
 70
     8
177
     3
291
     0
 70
    58
 90
        2
176
     1
 90
        2
176
     1
 90
        0
176
     1
 90
        0
176
     1
 40
-0.6
176
     1
 40
-30.0
176
     1
 62
     7
176
     1
 90
        1
176
     1
 90
        0
176
     1
 62
     7
176
     1
 62
   257
176
     1
 90
        1
176
     1
 90
        1
176
     1
 40
1.0
176
     1
 90
        8
176
     1
 62
     8
176
     1
 40
1.0
176
     1
 90
        1
176
     1
 90
        6
176
     1
 90
        2
176
     1
 62
     7
176
     1
 90
        5
176
     1
 90
        0
176
     1
 90
        0
176
     1
290
     0
176
     1
 90
       13
176
     1
 40
0.0
176
     1
 90
        0
176
     1
290
     0
176
     1
290
     1
176
     1
290
     1
176
     1
290
     0
176
     1
290
     0
176
     1
290
     0
176
     1
290
     0
176
     1
290
     0
176
     1
290
     0
176
     1
 90
       50
176
     1
 40
0.0
176
     1
 40
1.0
176
     1
 90
        0
176
     1
 62
    18
420
        0
176
     1
 90
       50
176
     1
 90
        3
176
     1
 62
     5
420
      255
176
     1
290
     0
176
     1
 90
       50
176
     1
 90
       50
176
     1
 90
       50
176
     1
290
     0
176
     1
 90
       50
176
     1
 62
   256
176
     0
 40
1.0
176
     0
 90
        2
176
     1
  1
strokes_ogs.tif
176
     1
290
     0
176
     1
 40
1.0
176
     1
 40
1.0
176
     1
  0
VISUALSTYLE
  5
225
102
{ACAD_REACTORS
330
1BF
102
}
330
1BF
100
AcDbVisualStyle
  2
Shaded
 70
    27
177
     3
291
     0
 70
    58
 90
        2
176
     1
 90
        2
176
     1
 90
        1
176
     1
 90
        2
176
     1
 40
0.6
176
     1
 40
30.0
176
     1
 62
     7
420
 16777215
176
     1
 90
        0
176
     1
 90
        4
176
     1
 62
     7
176
     1
 62
   257
176
     1
 90
        1
176
     1
 90
        1
176
     1
 40
1.0
176
     1
 90
        8
176
     1
 62
   257
176
     1
 40
1.0
176
     1
 90
        1
176
     1
 90
        6
176
     1
 90
        2
176
     1
 62
     8
420
  7895160
176
     1
 90
        3
176
     1
 90
        0
176
     1
 90
        0
176
     1
290
     0
176
     1
 90
        5
176
     1
 40
0.0
176
     1
 90
        0
176
     1
290
     0
176
     1
290
     1
176
     1
290
     1
176
     1
290
     0
176
     1
290
     0
176
     1
290
     0
176
     1
290
     0
176
     1
290
     0
176
     1
290
     0
176
     1
 90
       50
176
     1
 40
0.0
176
     1
 40
1.0
176
     1
 90
        0
176
     1
 62
    18
420
        0
176
     1
 90
       50
176
     1
 90
        3
176
     1
 62
     5
420
      255
176
     1
290
     0
176
     1
 90
       50
176
     1
 90
       50
176
     1
 90
       50
176
     1
290
     0
176
     1
 90
       50
176
     1
 62
   256
176
     0
 40
1.0
176
     0
 90
        2
176
     1
  1
strokes_ogs.tif
176
     1
290
     0
176
     1
 40
1.0
176
     1
 40
1.0
176
     1
  0
VISUALSTYLE
  5
224
102
{ACAD_REACTORS
330
1BF
102
}
330
1BF
100
AcDbVisualStyle
  2
Shaded with edges
 70
    26
177
     3
291
     0
 70
    58
 90
        2
176
     1
 90
        2
176
     1
 90
        1
176
     1
 90
        2
176
     1
 40
0.6
176
     1
 40
30.0
176
     1
 62
     7
420
 16777215
176
     1
 90
        1
176
     1
 90
       10
176
     1
 62
     7
176
     1
 62
   257
176
     1
 90
        2
176
     1
 90
        1
176
     1
 40
1.0
176
     1
 90
        8
176
     1
 62
   257
176
     1
 40
1.0
176
     1
 90
        1
176
     1
 90
        6
176
     1
 90
        2
176
     1
 62
     7
176
     1
 90
        3
176
     1
 90
        0
176
     1
 90
        0
176
     1
290
     0
176
     1
 90
        5
176
     1
 40
0.0
176
     1
 90
        0
176
     1
290
     0
176
     1
290
     1
176
     1
290
     1
176
     1
290
     0
176
     1
290
     0
176
     1
290
     0
176
     1
290
     0
176
     1
290
     0
176
     1
290
     0
176
     1
 90
       50
176
     1
 40
0.0
176
     1
 40
1.0
176
     1
 90
        0
176
     1
 62
    18
420
        0
176
     1
 90
       50
176
     1
 90
        3
176
     1
 62
     5
420
      255
176
     1
290
     0
176
     1
 90
       50
176
     1
 90
       50
176
     1
 90
       50
176
     1
290
     0
176
     1
 90
       50
176
     1
 62
   256
176
     0
 40
1.0
176
     0
 90
        2
176
     1
  1
strokes_ogs.tif
176
     1
290
     0
176
     1
 40
1.0
176
     1
 40
1.0
176
     1
  0
VISUALSTYLE
  5
221
102
{ACAD_REACTORS
330
1BF
102
}
330
1BF
100
AcDbVisualStyle
  2
Shades of Gray
 70
    23
177
     3
291
     0
 70
    58
 90
        2
176
     1
 90
        2
176
     1
 90
        3
176
     1
 90
        0
176
     1
 40
0.6
176
     1
 40
30.0
176
     1
 62
     7
420
 16777215
176
     1
 90
        2
176
     1
 90
        2
176
     1
 62
     7
176
     1
 62
     7
176
     1
 90
        1
176
     1
 90
        1
176
     1
 40
40.0
176
     1
 90
        8
176
     1
 62
     7
176
     1
 40
1.0
176
     1
 90
        1
176
     1
 90
        6
176
     1
 90
        2
176
     1
 62
     7
176
     1
 90
        3
176
     1
 90
        0
176
     1
 90
        0
176
     1
290
     0
176
     1
 90
        1
176
     1
 40
0.0
176
     1
 90
        0
176
     1
290
     0
176
     1
290
     1
176
     1
290
     1
176
     1
290
     0
176
     1
290
     0
176
     1
290
     0
176
     1
290
     0
176
     1
290
     0
176
     1
290
     0
176
     1
 90
       50
176
     1
 40
0.0
176
     1
 40
1.0
176
     1
 90
        0
176
     1
 62
    18
420
        0
176
     1
 90
       50
176
     1
 90
        3
176
     1
 62
     5
420
      255
176
     1
290
     0
176
     1
 90
       50
176
     1
 90
       50
176
     1
 90
       50
176
     1
290
     0
176
     1
 90
       50
176
     1
 62
   256
176
     0
 40
1.0
176
     0
 90
        2
176
     1
  1
strokes_ogs.tif
176
     1
290
     0
176
     1
 40
1.0
176
     1
 40
1.0
176
     1
  0
VISUALSTYLE
  5
222
102
{ACAD_REACTORS
330
1BF
102
}
330
1BF
100
AcDbVisualStyle
  2
Sketchy
 70
    24
177
     3
291
     0
 70
    58
 90
        1
176
     1
 90
        2
176
     1
 90
        2
176
     1
 90
        0
176
     1
 40
0.6
176
     1
 40
30.0
176
     1
 62
     7
420
 16777215
176
     1
 90
        2
176
     1
 90
        2
176
     1
 62
     7
176
     1
 62
     7
176
     1
 90
        1
176
     1
 90
        1
176
     1
 40
40.0
176
     1
 90
       11
176
     1
 62
     7
176
     1
 40
1.0
176
     1
 90
        1
176
     1
 90
        6
176
     1
 90
        2
176
     1
 62
     7
176
     1
 90
        6
176
     1
 90
        0
176
     1
 90
        0
176
     1
290
     0
176
     1
 90
        1
176
     1
 40
0.0
176
     1
 90
        0
176
     1
290
     0
176
     1
290
     1
176
     1
290
     1
176
     1
290
     0
176
     1
290
     0
176
     1
290
     0
176
     1
290
     0
176
     1
290
     0
176
     1
290
     0
176
     1
 90
       50
176
     1
 40
0.0
176
     1
 40
1.0
176
     1
 90
        0
176
     1
 62
    18
420
        0
176
     1
 90
       50
176
     1
 90
        3
176
     1
 62
     5
420
      255
176
     1
290
     0
176
     1
 90
       50
176
     1
 90
       50
176
     1
 90
       50
176
     1
290
     0
176
     1
 90
       50
176
     1
 62
   256
176
     0
 40
1.0
176
     0
 90
        2
176
     1
  1
strokes_ogs.tif
176
     1
290
     0
176
     1
 40
1.0
176
     1
 40
1.0
176
     1
  0
VISUALSTYLE
  5
1CC
102
{ACAD_REACTORS
330
1BF
102
}
330
1BF
100
AcDbVisualStyle
  2
Thicken
 70
    13
177
     3
291
     1
 70
    58
 90
        2
176
     1
 90
        2
176
     1
 90
        0
176
     1
 90
        0
176
     1
 40
-0.6
176
     1
 40
-30.0
176
     1
 62
     7
176
     1
 90
        1
176
     1
 90
        4
176
     1
 62
     7
176
     1
 62
   257
176
     1
 90
        1
176
     1
 90
        1
176
     1
 40
1.0
176
     1
 90
       12
176
     1
 62
     7
176
     1
 40
1.0
176
     1
 90
        1
176
     1
 90
        6
176
     1
 90
        2
176
     1
 62
     7
176
     1
 90
        5
176
     1
 90
        0
176
     1
 90
        0
176
     1
290
     0
176
     1
 90
        1
176
     1
 40
0.0
176
     1
 90
        0
176
     1
290
     0
176
     1
290
     1
176
     1
290
     1
176
     1
290
     0
176
     1
290
     0
176
     1
290
     0
176
     1
290
     0
176
     1
290
     0
176
     1
290
     0
176
     1
 90
       50
176
     1
 40
0.0
176
     1
 40
1.0
176
     1
 90
        0
176
     1
 62
    18
420
        0
176
     1
 90
       50
176
     1
 90
        3
176
     1
 62
     5
420
      255
176
     1
290
     0
176
     1
 90
       50
176
     1
 90
       50
176
     1
 90
       50
176
     1
290
     0
176
     1
 90
       50
176
     1
 62
   256
176
     0
 40
1.0
176
     0
 90
        2
176
     1
  1
strokes_ogs.tif
176
     1
290
     0
176
     1
 40
1.0
176
     1
 40
1.0
176
     1
  0
VISUALSTYLE
  5
21C
102
{ACAD_REACTORS
330
1BF
102
}
330
1BF
100
AcDbVisualStyle
  2
Wireframe
 70
     5
177
     3
291
     0
 70
    58
 90
        0
176
     1
 90
        2
176
     1
 90
        0
176
     1
 90
        0
176
     1
 40
0.6
176
     1
 40
30.0
176
     1
 62
     7
420
 16777215
176
     1
 90
        1
176
     1
 90
        4
176
     1
 62
     7
176
     1
 62
   257
176
     1
 90
        1
176
     1
 90
        1
176
     1
 40
1.0
176
     1
 90
        0
176
     1
 62
   257
176
     1
 40
1.0
176
     1
 90
        1
176
     1
 90
        6
176
     1
 90
        2
176
     1
 62
     7
176
     1
 90
        3
176
     1
 90
        0
176
     1
 90
        0
176
     1
290
     0
176
     1
 90
        1
176
     1
 40
0.0
176
     1
 90
        0
176
     1
290
     0
176
     1
290
     1
176
     1
290
     1
176
     1
290
     0
176
     1
290
     0
176
     1
290
     0
176
     1
290
     0
176
     1
290
     0
176
     1
290
     0
176
     1
 90
       50
176
     1
 40
0.0
176
     1
 40
1.0
176
     1
 90
        0
176
     1
 62
    18
420
        0
176
     1
 90
       50
176
     1
 90
        3
176
     1
 62
     5
420
      255
176
     1
290
     0
176
     1
 90
       50
176
     1
 90
       50
176
     1
 90
       50
176
     1
290
     0
176
     1
 90
       50
176
     1
 62
   256
176
     0
 40
1.0
176
     0
 90
        2
176
     1
  1
strokes_ogs.tif
176
     1
290
     0
176
     1
 40
1.0
176
     1
 40
1.0
176
     1
  0
VISUALSTYLE
  5
223
102
{ACAD_REACTORS
330
1BF
102
}
330
1BF
100
AcDbVisualStyle
  2
X-Ray
 70
    25
177
     3
291
     0
 70
    58
 90
        2
176
     1
 90
        2
176
     1
 90
        1
176
     1
 90
        1
176
     1
 40
0.5
176
     1
 40
30.0
176
     1
 62
     7
420
 16777215
176
     1
 90
        1
176
     1
 90
        0
176
     1
 62
     7
176
     1
 62
   257
176
     1
 90
        1
176
     1
 90
        1
176
     1
 40
1.0
176
     1
 90
        8
176
     1
 62
     7
176
     1
 40
1.0
176
     1
 90
        1
176
     1
 90
        6
176
     1
 90
        2
176
     1
 62
     7
176
     1
 90
        3
176
     1
 90
        0
176
     1
 90
        0
176
     1
290
     0
176
     1
 90
       13
176
     1
 40
0.0
176
     1
 90
        0
176
     1
290
     0
176
     1
290
     1
176
     1
290
     1
176
     1
290
     0
176
     1
290
     0
176
     1
290
     0
176
     1
290
     0
176
     1
290
     0
176
     1
290
     0
176
     1
 90
       50
176
     1
 40
0.0
176
     1
 40
1.0
176
     1
 90
        0
176
     1
 62
    18
420
        0
176
     1
 90
       50
176
     1
 90
        3
176
     1
 62
     5
420
      255
176
     1
290
     0
176
     1
 90
       50
176
     1
 90
       50
176
     1
 90
       50
176
     1
290
     0
176
     1
 90
       50
176
     1
 62
   256
176
     0
 40
1.0
176
     0
 90
        2
176
     1
  1
strokes_ogs.tif
176
     1
290
     0
176
     1
 40
1.0
176
     1
 40
1.0
176
     1
  0
DICTIONARYVAR
  5
25B
102
{ACAD_REACTORS
330
1DB
102
}
330
1DB
100
DictionaryVariables
280
     0
  1
1:1
  0
DICTIONARYVAR
  5
25D
102
{ACAD_REACTORS
330
1DB
102
}
330
1DB
100
DictionaryVariables
280
     0
  1
Standard
  0
DICTIONARYVAR
  5
25C
102
{ACAD_REACTORS
330
1DB
102
}
330
1DB
100
DictionaryVariables
280
     0
  1
Standard
  0
DICTIONARYVAR
  5
1DF
102
{ACAD_REACTORS
330
1DB
102
}
330
1DB
100
DictionaryVariables
280
     0
  1
2
  0
DICTIONARYVAR
  5
1E0
102
{ACAD_REACTORS
330
1DB
102
}
330
1DB
100
DictionaryVariables
280
     0
  1
1
  0
DICTIONARYVAR
  5
1DE
102
{ACAD_REACTORS
330
1DB
102
}
330
1DB
100
DictionaryVariables
280
     0
  1
0
  0
DICTIONARY
  5
260
330
227
100
AcDbDictionary
280
     1
281
     1
  3
ACAD_ROUNDTRIP_2008_TABLESTYLE_CELLSTYLEMAP
360
261
  0
CELLSTYLEMAP
  5
261
102
{ACAD_REACTORS
330
260
102
}
330
260
100
AcDbCellStyleMap
 90
        3
300
CELLSTYLE
  1
TABLEFORMAT_BEGIN
 90
        5
170
     1
 91
        0
 92
    32768
 62
   257
 93
        1
300
CONTENTFORMAT
  1
CONTENTFORMAT_BEGIN
 90
        0
 91
        0
 92
        4
 93
        0
300

 40
0.0
140
1.0
 94
        5
 62
     0
340
11
144
0.25
309
CONTENTFORMAT_END
171
     1
301
MARGIN
  1
CELLMARGIN_BEGIN
 40
0.06
 40
0.06
 40
0.06
 40
0.06
 40
0.06
 40
0.06
309
CELLMARGIN_END
 94
        6
 95
        1
302
GRIDFORMAT
  1
GRIDFORMAT_BEGIN
 90
        0
 91
        1
 62
     0
 92
       -2
340
14
 93
        0
 40
0.045
309
GRIDFORMAT_END
 95
        2
302
GRIDFORMAT
  1
GRIDFORMAT_BEGIN
 90
        0
 91
        1
 62
     0
 92
       -2
340
14
 93
        0
 40
0.045
309
GRIDFORMAT_END
 95
        4
302
GRIDFORMAT
  1
GRIDFORMAT_BEGIN
 90
        0
 91
        1
 62
     0
 92
       -2
340
14
 93
        0
 40
0.045
309
GRIDFORMAT_END
 95
        8
302
GRIDFORMAT
  1
GRIDFORMAT_BEGIN
 90
        0
 91
        1
 62
     0
 92
       -2
340
14
 93
        0
 40
0.045
309
GRIDFORMAT_END
 95
       16
302
GRIDFORMAT
  1
GRIDFORMAT_BEGIN
 90
        0
 91
        1
 62
     0
 92
       -2
340
14
 93
        0
 40
0.045
309
GRIDFORMAT_END
 95
       32
302
GRIDFORMAT
  1
GRIDFORMAT_BEGIN
 90
        0
 91
        1
 62
     0
 92
       -2
340
14
 93
        0
 40
0.045
309
GRIDFORMAT_END
309
TABLEFORMAT_END
  1
CELLSTYLE_BEGIN
 90
        1
 91
        1
300
_TITLE
309
CELLSTYLE_END
300
CELLSTYLE
  1
TABLEFORMAT_BEGIN
 90
        5
170
     1
 91
        0
 92
        0
 62
   257
 93
        1
300
CONTENTFORMAT
  1
CONTENTFORMAT_BEGIN
 90
        0
 91
        0
 92
        4
 93
        0
300

 40
0.0
140
1.0
 94
        5
 62
     0
340
11
144
0.18
309
CONTENTFORMAT_END
171
     1
301
MARGIN
  1
CELLMARGIN_BEGIN
 40
0.06
 40
0.06
 40
0.06
 40
0.06
 40
0.06
 40
0.06
309
CELLMARGIN_END
 94
        6
 95
        1
302
GRIDFORMAT
  1
GRIDFORMAT_BEGIN
 90
        0
 91
        1
 62
     0
 92
       -2
340
14
 93
        0
 40
0.045
309
GRIDFORMAT_END
 95
        2
302
GRIDFORMAT
  1
GRIDFORMAT_BEGIN
 90
        0
 91
        1
 62
     0
 92
       -2
340
14
 93
        0
 40
0.045
309
GRIDFORMAT_END
 95
        4
302
GRIDFORMAT
  1
GRIDFORMAT_BEGIN
 90
        0
 91
        1
 62
     0
 92
       -2
340
14
 93
        0
 40
0.045
309
GRIDFORMAT_END
 95
        8
302
GRIDFORMAT
  1
GRIDFORMAT_BEGIN
 90
        0
 91
        1
 62
     0
 92
       -2
340
14
 93
        0
 40
0.045
309
GRIDFORMAT_END
 95
       16
302
GRIDFORMAT
  1
GRIDFORMAT_BEGIN
 90
        0
 91
        1
 62
     0
 92
       -2
340
14
 93
        0
 40
0.045
309
GRIDFORMAT_END
 95
       32
302
GRIDFORMAT
  1
GRIDFORMAT_BEGIN
 90
        0
 91
        1
 62
     0
 92
       -2
340
14
 93
        0
 40
0.045
309
GRIDFORMAT_END
309
TABLEFORMAT_END
  1
CELLSTYLE_BEGIN
 90
        2
 91
        1
300
_HEADER
309
CELLSTYLE_END
300
CELLSTYLE
  1
TABLEFORMAT_BEGIN
 90
        5
170
     1
 91
        0
 92
        0
 62
   257
 93
        1
300
CONTENTFORMAT
  1
CONTENTFORMAT_BEGIN
 90
        0
 91
        0
 92
        4
 93
        0
300

 40
0.0
140
1.0
 94
        2
 62
     0
340
11
144
0.18
309
CONTENTFORMAT_END
171
     1
301
MARGIN
  1
CELLMARGIN_BEGIN
 40
0.06
 40
0.06
 40
0.06
 40
0.06
 40
0.06
 40
0.06
309
CELLMARGIN_END
 94
        6
 95
        1
302
GRIDFORMAT
  1
GRIDFORMAT_BEGIN
 90
        0
 91
        1
 62
     0
 92
       -2
340
14
 93
        0
 40
0.045
309
GRIDFORMAT_END
 95
        2
302
GRIDFORMAT
  1
GRIDFORMAT_BEGIN
 90
        0
 91
        1
 62
     0
 92
       -2
340
14
 93
        0
 40
0.045
309
GRIDFORMAT_END
 95
        4
302
GRIDFORMAT
  1
GRIDFORMAT_BEGIN
 90
        0
 91
        1
 62
     0
 92
       -2
340
14
 93
        0
 40
0.045
309
GRIDFORMAT_END
 95
        8
302
GRIDFORMAT
  1
GRIDFORMAT_BEGIN
 90
        0
 91
        1
 62
     0
 92
       -2
340
14
 93
        0
 40
0.045
309
GRIDFORMAT_END
 95
       16
302
GRIDFORMAT
  1
GRIDFORMAT_BEGIN
 90
        0
 91
        1
 62
     0
 92
       -2
340
14
 93
        0
 40
0.045
309
GRIDFORMAT_END
 95
       32
302
GRIDFORMAT
  1
GRIDFORMAT_BEGIN
 90
        0
 91
        1
 62
     0
 92
       -2
340
14
 93
        0
 40
0.045
309
GRIDFORMAT_END
309
TABLEFORMAT_END
  1
CELLSTYLE_BEGIN
 90
        3
 91
        2
300
_DATA
309
CELLSTYLE_END
  0
ENDSEC
  0
EOF
