  0
SECTION
  2
HEADER
  9
$ACADVER
  1
AC1027
  9
$ACADMAINTVER
 70
   105
  9
$DWGCODEPAGE
  3
ANSI_1252
  9
$REQUIREDVERSIONS
160
                 0
  9
$LASTSAVEDBY
  1
christoph.stuessi
  9
$INSBASE
 10
0.0
 20
0.0
 30
0.0
  9
$EXTMIN
 10
-116.2733372164978
 20
-82.91947747367385
 30
0.0
  9
$EXTMAX
 10
141.4497809924177
 20
52.9115790737178
 30
0.0
  9
$LIMMIN
 10
-71.832500136
 20
-57.741174589
  9
$LIMMAX
 10
89.582513752
 20
42.658964049
  9
$ORTHOMODE
 70
     0
  9
$REGENMODE
 70
     1
  9
$FILLMODE
 70
     1
  9
$QTEXTMODE
 70
     0
  9
$MIRRTEXT
 70
     1
  9
$LTSCALE
 40
1.0
  9
$ATTMODE
 70
     1
  9
$TEXTSIZE
 40
0.2
  9
$TRACEWID
 40
0.05
  9
$TEXTSTYLE
  7
Standard
  9
$CLAYER
  8
INFTOTAL
  9
$CELTYPE
  6
ByLayer
  9
$CECOLOR
 62
   256
  9
$CELTSCALE
 40
1.0
  9
$DISPSILH
 70
     0
  9
$DIMSCALE
 40
1.0
  9
$DIMASZ
 40
0.18
  9
$DIMEXO
 40
0.0625
  9
$DIMDLI
 40
0.38
  9
$DIMRND
 40
0.0
  9
$DIMDLE
 40
0.0
  9
$DIMEXE
 40
0.18
  9
$DIMTP
 40
0.0
  9
$DIMTM
 40
0.0
  9
$DIMTXT
 40
0.18
  9
$DIMCEN
 40
0.09
  9
$DIMTSZ
 40
0.0
  9
$DIMTOL
 70
     0
  9
$DIMLIM
 70
     0
  9
$DIMTIH
 70
     1
  9
$DIMTOH
 70
     1
  9
$DIMSE1
 70
     0
  9
$DIMSE2
 70
     0
  9
$DIMTAD
 70
     0
  9
$DIMZIN
 70
     0
  9
$DIMBLK
  1

  9
$DIMASO
 70
     1
  9
$DIMSHO
 70
     1
  9
$DIMPOST
  1

  9
$DIMAPOST
  1

  9
$DIMALT
 70
     0
  9
$DIMALTD
 70
     2
  9
$DIMALTF
 40
25.4
  9
$DIMLFAC
 40
1.0
  9
$DIMTOFL
 70
     0
  9
$DIMTVP
 40
0.0
  9
$DIMTIX
 70
     0
  9
$DIMSOXD
 70
     0
  9
$DIMSAH
 70
     0
  9
$DIMBLK1
  1

  9
$DIMBLK2
  1

  9
$DIMSTYLE
  2
Standard
  9
$DIMCLRD
 70
     0
  9
$DIMCLRE
 70
     0
  9
$DIMCLRT
 70
     0
  9
$DIMTFAC
 40
1.0
  9
$DIMGAP
 40
0.09
  9
$DIMJUST
 70
     0
  9
$DIMSD1
 70
     0
  9
$DIMSD2
 70
     0
  9
$DIMTOLJ
 70
     1
  9
$DIMTZIN
 70
     0
  9
$DIMALTZ
 70
     0
  9
$DIMALTTZ
 70
     0
  9
$DIMUPT
 70
     0
  9
$DIMDEC
 70
     4
  9
$DIMTDEC
 70
     4
  9
$DIMALTU
 70
     2
  9
$DIMALTTD
 70
     2
  9
$DIMTXSTY
  7
Standard
  9
$DIMAUNIT
 70
     0
  9
$DIMADEC
 70
     0
  9
$DIMALTRND
 40
0.0
  9
$DIMAZIN
 70
     0
  9
$DIMDSEP
 70
    46
  9
$DIMATFIT
 70
     3
  9
$DIMFRAC
 70
     0
  9
$DIMLDRBLK
  1

  9
$DIMLUNIT
 70
     2
  9
$DIMLWD
 70
    -2
  9
$DIMLWE
 70
    -2
  9
$DIMTMOVE
 70
     2
  9
$DIMFXL
 40
1.0
  9
$DIMFXLON
 70
     0
  9
$DIMJOGANG
 40
0.7853981633974483
  9
$DIMTFILL
 70
     0
  9
$DIMTFILLCLR
 70
     0
  9
$DIMARCSYM
 70
     0
  9
$DIMLTYPE
  6

  9
$DIMLTEX1
  6

  9
$DIMLTEX2
  6

  9
$DIMTXTDIRECTION
 70
     0
  9
$LUNITS
 70
     2
  9
$LUPREC
 70
     4
  9
$SKETCHINC
 40
0.1
  9
$FILLETRAD
 40
0.5
  9
$AUNITS
 70
     2
  9
$AUPREC
 70
     0
  9
$MENU
  1
.
  9
$ELEVATION
 40
0.0
  9
$PELEVATION
 40
0.0
  9
$THICKNESS
 40
0.0
  9
$LIMCHECK
 70
     0
  9
$CHAMFERA
 40
0.5
  9
$CHAMFERB
 40
0.5
  9
$CHAMFERC
 40
1.0
  9
$CHAMFERD
 40
0.0
  9
$SKPOLY
 70
     0
  9
$TDCREATE
 40
2458327.54946147
  9
$TDUCREATE
 40
2458327.466128136
  9
$TDUPDATE
 40
2458362.479693056
  9
$TDUUPDATE
 40
2458362.396359722
  9
$TDINDWG
 40
0.0020526157
  9
$TDUSRTIMER
 40
0.0033415741
  9
$USRTIMER
 70
     1
  9
$ANGBASE
 50
0.0
  9
$ANGDIR
 70
     0
  9
$PDMODE
 70
     0
  9
$PDSIZE
 40
0.0
  9
$PLINEWID
 40
0.0
  9
$SPLFRAME
 70
     0
  9
$SPLINETYPE
 70
     6
  9
$SPLINESEGS
 70
     8
  9
$HANDSEED
  5
2AF
  9
$SURFTAB1
 70
     6
  9
$SURFTAB2
 70
     6
  9
$SURFTYPE
 70
     6
  9
$SURFU
 70
     6
  9
$SURFV
 70
     6
  9
$UCSBASE
  2

  9
$UCSNAME
  2

  9
$UCSORG
 10
0.0
 20
0.0
 30
0.0
  9
$UCSXDIR
 10
1.0
 20
0.0
 30
0.0
  9
$UCSYDIR
 10
0.0
 20
1.0
 30
0.0
  9
$UCSORTHOREF
  2

  9
$UCSORTHOVIEW
 70
     0
  9
$UCSORGTOP
 10
0.0
 20
0.0
 30
0.0
  9
$UCSORGBOTTOM
 10
0.0
 20
0.0
 30
0.0
  9
$UCSORGLEFT
 10
0.0
 20
0.0
 30
0.0
  9
$UCSORGRIGHT
 10
0.0
 20
0.0
 30
0.0
  9
$UCSORGFRONT
 10
0.0
 20
0.0
 30
0.0
  9
$UCSORGBACK
 10
0.0
 20
0.0
 30
0.0
  9
$PUCSBASE
  2

  9
$PUCSNAME
  2

  9
$PUCSORG
 10
0.0
 20
0.0
 30
0.0
  9
$PUCSXDIR
 10
1.0
 20
0.0
 30
0.0
  9
$PUCSYDIR
 10
0.0
 20
1.0
 30
0.0
  9
$PUCSORTHOREF
  2

  9
$PUCSORTHOVIEW
 70
     0
  9
$PUCSORGTOP
 10
0.0
 20
0.0
 30
0.0
  9
$PUCSORGBOTTOM
 10
0.0
 20
0.0
 30
0.0
  9
$PUCSORGLEFT
 10
0.0
 20
0.0
 30
0.0
  9
$PUCSORGRIGHT
 10
0.0
 20
0.0
 30
0.0
  9
$PUCSORGFRONT
 10
0.0
 20
0.0
 30
0.0
  9
$PUCSORGBACK
 10
0.0
 20
0.0
 30
0.0
  9
$USERI1
 70
     0
  9
$USERI2
 70
     0
  9
$USERI3
 70
     0
  9
$USERI4
 70
     0
  9
$USERI5
 70
     0
  9
$USERR1
 40
0.0
  9
$USERR2
 40
0.0
  9
$USERR3
 40
0.0
  9
$USERR4
 40
0.0
  9
$USERR5
 40
0.0
  9
$WORLDVIEW
 70
     1
  9
$SHADEDGE
 70
     3
  9
$SHADEDIF
 70
    70
  9
$TILEMODE
 70
     1
  9
$MAXACTVP
 70
    64
  9
$PINSBASE
 10
0.0
 20
0.0
 30
0.0
  9
$PLIMCHECK
 70
     0
  9
$PEXTMIN
 10
1.000000000000000E+20
 20
1.000000000000000E+20
 30
1.000000000000000E+20
  9
$PEXTMAX
 10
-1.000000000000000E+20
 20
-1.000000000000000E+20
 30
-1.000000000000000E+20
  9
$PLIMMIN
 10
0.0
 20
0.0
  9
$PLIMMAX
 10
0.0
 20
0.0
  9
$UNITMODE
 70
     0
  9
$VISRETAIN
 70
     1
  9
$PLINEGEN
 70
     0
  9
$PSLTSCALE
 70
     1
  9
$TREEDEPTH
 70
  3020
  9
$CMLSTYLE
  2
Standard
  9
$CMLJUST
 70
     0
  9
$CMLSCALE
 40
1.0
  9
$PROXYGRAPHICS
 70
     1
  9
$MEASUREMENT
 70
     0
  9
$CELWEIGHT
370
    -1
  9
$ENDCAPS
280
     0
  9
$JOINSTYLE
280
     0
  9
$LWDISPLAY
290
     0
  9
$INSUNITS
 70
     0
  9
$HYPERLINKBASE
  1

  9
$STYLESHEET
  1

  9
$XEDIT
290
     1
  9
$CEPSNTYPE
380
     0
  9
$PSTYLEMODE
290
     1
  9
$FINGERPRINTGUID
  2
{FDCDD681-6C4B-4C52-B9AA-54BA15BE37B0}
  9
$VERSIONGUID
  2
{FAEB1C32-E019-11D5-929B-00C0DF256EC4}
  9
$EXTNAMES
290
     1
  9
$PSVPSCALE
 40
0.0
  9
$OLESTARTUP
290
     0
  9
$SORTENTS
280
   127
  9
$INDEXCTL
280
     0
  9
$HIDETEXT
280
     1
  9
$XCLIPFRAME
280
     2
  9
$HALOGAP
280
     0
  9
$OBSCOLOR
 70
   257
  9
$OBSLTYPE
280
     0
  9
$INTERSECTIONDISPLAY
280
     0
  9
$INTERSECTIONCOLOR
 70
   257
  9
$DIMASSOC
280
     2
  9
$PROJECTNAME
  1

  9
$CAMERADISPLAY
290
     0
  9
$LENSLENGTH
 40
50.0
  9
$CAMERAHEIGHT
 40
0.0
  9
$STEPSPERSEC
 40
2.0
  9
$STEPSIZE
 40
6.0
  9
$3DDWFPREC
 40
2.0
  9
$PSOLWIDTH
 40
0.25
  9
$PSOLHEIGHT
 40
4.0
  9
$LOFTANG1
 40
1.570796326794897
  9
$LOFTANG2
 40
1.570796326794897
  9
$LOFTMAG1
 40
0.0
  9
$LOFTMAG2
 40
0.0
  9
$LOFTPARAM
 70
     7
  9
$LOFTNORMALS
280
     1
  9
$LATITUDE
 40
37.795
  9
$LONGITUDE
 40
-122.394
  9
$NORTHDIRECTION
 40
0.0
  9
$TIMEZONE
 70
 -8000
  9
$LIGHTGLYPHDISPLAY
280
     1
  9
$TILEMODELIGHTSYNCH
280
     1
  9
$SOLIDHIST
280
     0
  9
$SHOWHIST
280
     1
  9
$DWFFRAME
280
     2
  9
$DGNFRAME
280
     2
  9
$REALWORLDSCALE
290
     1
  9
$INTERFERECOLOR
 62
   256
  9
$CSHADOW
280
     0
  9
$SHADOWPLANELOCATION
 40
0.0
  0
ENDSEC
  0
SECTION
  2
CLASSES
  0
CLASS
  1
ACDBDICTIONARYWDFLT
  2
AcDbDictionaryWithDefault
  3
ObjectDBX Classes
 90
        0
 91
        5
280
     0
281
     0
  0
CLASS
  1
SCALE
  2
AcDbScale
  3
ObjectDBX Classes
 90
     1153
 91
        5
280
     0
281
     0
  0
CLASS
  1
VISUALSTYLE
  2
AcDbVisualStyle
  3
ObjectDBX Classes
 90
     4095
 91
        5
280
     0
281
     0
  0
CLASS
  1
MATERIAL
  2
AcDbMaterial
  3
ObjectDBX Classes
 90
     1153
 91
        5
280
     0
281
     0
  0
CLASS
  1
DICTIONARYVAR
  2
AcDbDictionaryVar
  3
ObjectDBX Classes
 90
        0
 91
        5
280
     0
281
     0
  0
CLASS
  1
ACDBPLACEHOLDER
  2
AcDbPlaceHolder
  3
ObjectDBX Classes
 90
        0
 91
        1
280
     0
281
     0
  0
CLASS
  1
LAYOUT
  2
AcDbLayout
  3
ObjectDBX Classes
 90
        0
 91
        1
280
     0
281
     0
  0
CLASS
  1
TABLESTYLE
  2
AcDbTableStyle
  3
ObjectDBX Classes
 90
     4095
 91
        5
280
     0
281
     0
  0
CLASS
  1
MLEADERSTYLE
  2
AcDbMLeaderStyle
  3
ACDB_MLEADERSTYLE_CLASS
 90
     4095
 91
        5
280
     0
281
     0
  0
CLASS
  1
CELLSTYLEMAP
  2
AcDbCellStyleMap
  3
ObjectDBX Classes
 90
     1152
 91
        5
280
     0
281
     0
  0
ENDSEC
  0
SECTION
  2
TABLES
  0
TABLE
  2
VPORT
  5
8
330
0
100
AcDbSymbolTable
 70
     1
  0
VPORT
  5
1D7
330
8
100
AcDbSymbolTableRecord
100
AcDbViewportTableRecord
  2
*Active
 70
     0
 10
0.0
 20
0.0
 11
1.0
 21
1.0
 12
40.61449883933224
 22
-37.8401748640591
 13
0.0
 23
0.0
 14
0.5
 24
0.5
 15
0.5
 25
0.5
 16
0.0
 26
0.0
 36
1.0
 17
0.0
 27
0.0
 37
0.0
 40
204.6363078989087
 41
2.246376811594203
 42
50.0
 43
0.0
 44
0.0
 50
0.0
 51
0.0
 71
    16
 72
   100
 73
     1
 74
     3
 75
     0
 76
     0
 77
     0
 78
     0
281
     0
 65
     1
110
0.0
120
0.0
130
0.0
111
1.0
121
0.0
131
0.0
112
0.0
122
1.0
132
0.0
 79
     0
146
0.0
348
208
 60
     3
 61
     5
292
     1
282
     1
141
0.0
142
0.0
 63
   256
  0
ENDTAB
  0
TABLE
  2
LTYPE
  5
5
330
0
100
AcDbSymbolTable
 70
     8
  0
LTYPE
  5
14
330
5
100
AcDbSymbolTableRecord
100
AcDbLinetypeTableRecord
  2
ByBlock
 70
     0
  3

 72
    65
 73
     0
 40
0.0
  0
LTYPE
  5
15
330
5
100
AcDbSymbolTableRecord
100
AcDbLinetypeTableRecord
  2
ByLayer
 70
     0
  3

 72
    65
 73
     0
 40
0.0
  0
LTYPE
  5
16
330
5
100
AcDbSymbolTableRecord
100
AcDbLinetypeTableRecord
  2
Continuous
 70
     0
  3
Solid line
 72
    65
 73
     0
 40
0.0
  0
LTYPE
  5
20
330
5
100
AcDbSymbolTableRecord
100
AcDbLinetypeTableRecord
  2
PUNKT
 70
     0
  3
..............
 72
    65
 73
     2
 40
1.5
 49
0.7
 74
     0
 49
-0.8
 74
     0
  0
LTYPE
  5
21
330
5
100
AcDbSymbolTableRecord
100
AcDbLinetypeTableRecord
  2
GESTRICHELT
 70
     0
  3
-- -- -- -- --
 72
    65
 73
     7
 40
2.8
 49
0.9
 74
     0
 49
0.0
 74
     0
 49
0.9
 74
     0
 49
0.0
 74
     0
 49
0.2
 74
     0
 49
0.0
 74
     0
 49
-0.8
 74
     0
  0
LTYPE
  5
22
330
5
100
AcDbSymbolTableRecord
100
AcDbLinetypeTableRecord
  2
STRICHPUNKT
 70
     0
  3
--.--.--.--.--
 72
    65
 73
     4
 40
8.8
 49
5.5
 74
     0
 49
-1.3
 74
     0
 49
0.7
 74
     0
 49
-1.3
 74
     0
  0
LTYPE
  5
25
330
5
100
AcDbSymbolTableRecord
100
AcDbLinetypeTableRecord
  2
PHANTOM
 70
     0
  3
--..--..--..--
 72
    65
 73
     6
 40
14.2
 49
7.0
 74
     0
 49
-1.8
 74
     0
 49
0.9
 74
     0
 49
-1.8
 74
     0
 49
0.9
 74
     0
 49
-1.8
 74
     0
  0
LTYPE
  5
24F
330
5
100
AcDbSymbolTableRecord
100
AcDbLinetypeTableRecord
  2
DASH
 70
     0
  3
DASH _ _ _ _ _
 72
    65
 73
     2
 40
0.75
 49
0.4
 74
     0
 49
-0.35
 74
     0
  0
LTYPE
  5
250
330
5
100
AcDbSymbolTableRecord
100
AcDbLinetypeTableRecord
  2
LONGDASH_DASH
 70
     0
  3
LONGDASH_DASH __ . __ . __
 72
    65
 73
     4
 40
0.85
 49
0.4
 74
     0
 49
-0.2
 74
     0
 49
0.05
 74
     0
 49
-0.2
 74
     0
  0
LTYPE
  5
251
330
5
100
AcDbSymbolTableRecord
100
AcDbLinetypeTableRecord
  2
LONGDASH_DASH_DASH
 70
     0
  3
LONGDASH_DASH_DASH __ . . __ . . __
 72
    65
 73
     6
 40
1.1
 49
0.4
 74
     0
 49
-0.2
 74
     0
 49
0.05
 74
     0
 49
-0.2
 74
     0
 49
0.05
 74
     0
 49
-0.2
 74
     0
  0
ENDTAB
  0
TABLE
  2
LAYER
  5
2
102
{ACAD_XDICTIONARY
360
26E
102
}
330
0
100
AcDbSymbolTable
 70
    15
  0
LAYER
  5
219
330
2
100
AcDbSymbolTableRecord
100
AcDbLayerTableRecord
  2
200
 70
     0
 62
     2
  6
Continuous
370
    50
390
F
347
217
348
0
  0
LAYER
  5
252
330
2
100
AcDbSymbolTableRecord
100
AcDbLayerTableRecord
  2
0
 70
     0
 62
    -1
  6
Continuous
370
    -3
390
F
347
217
348
0
  0
LAYER
  5
253
330
2
100
AcDbSymbolTableRecord
100
AcDbLayerTableRecord
  2
1
 70
     0
 62
     4
  6
Continuous
370
    50
390
F
347
217
348
0
  0
LAYER
  5
254
330
2
100
AcDbSymbolTableRecord
100
AcDbLayerTableRecord
  2
2
 70
     0
 62
     7
  6
Continuous
370
    25
390
F
347
217
348
0
  0
LAYER
  5
255
330
2
100
AcDbSymbolTableRecord
100
AcDbLayerTableRecord
  2
3
 70
     0
 62
     1
  6
DASH
370
    35
390
F
347
217
348
0
  0
LAYER
  5
256
330
2
100
AcDbSymbolTableRecord
100
AcDbLayerTableRecord
  2
4
 70
     0
 62
     2
  6
LONGDASH_DASH
370
    25
390
F
347
217
348
0
  0
LAYER
  5
257
330
2
100
AcDbSymbolTableRecord
100
AcDbLayerTableRecord
  2
6
 70
     0
 62
     5
  6
Continuous
370
    -3
390
F
347
217
348
0
  0
LAYER
  5
258
330
2
100
AcDbSymbolTableRecord
100
AcDbLayerTableRecord
  2
CUT
 70
     0
 62
     1
  6
Continuous
370
    25
390
F
347
217
348
0
  0
LAYER
  5
259
330
2
100
AcDbSymbolTableRecord
100
AcDbLayerTableRecord
  2
NOCUT
 70
     0
 62
     7
  6
Continuous
370
    25
390
F
347
217
348
0
  0
LAYER
  5
25A
330
2
100
AcDbSymbolTableRecord
100
AcDbLayerTableRecord
  2
SK1
 70
     0
 62
     4
  6
Continuous
370
    50
390
F
347
217
348
0
  0
LAYER
  5
25B
330
2
100
AcDbSymbolTableRecord
100
AcDbLayerTableRecord
  2
SK2
 70
     0
 62
     7
  6
Continuous
370
    25
390
F
347
217
348
0
  0
LAYER
  5
25C
330
2
100
AcDbSymbolTableRecord
100
AcDbLayerTableRecord
  2
SK3
 70
     0
 62
     1
  6
DASH
370
    35
390
F
347
217
348
0
  0
LAYER
  5
25D
330
2
100
AcDbSymbolTableRecord
100
AcDbLayerTableRecord
  2
SK4
 70
     0
 62
     2
  6
LONGDASH_DASH
370
    25
390
F
347
217
348
0
  0
LAYER
  5
25E
330
2
100
AcDbSymbolTableRecord
100
AcDbLayerTableRecord
  2
SK6
 70
     0
 62
     5
  6
Continuous
370
    -3
390
F
347
217
348
0
  0
LAYER
  5
25F
330
2
100
AcDbSymbolTableRecord
100
AcDbLayerTableRecord
  2
INFTOTAL
 70
     0
 62
     9
  6
Continuous
370
    18
390
F
347
217
348
0
  0
ENDTAB
  0
TABLE
  2
STYLE
  5
3
330
0
100
AcDbSymbolTable
 70
     2
  0
STYLE
  5
11
330
3
100
AcDbSymbolTableRecord
100
AcDbTextStyleTableRecord
  2
Standard
 70
     0
 40
0.0
 41
1.0
 50
0.0
 71
     0
 42
0.2
  3
txt
  4

  0
STYLE
  5
218
330
3
100
AcDbSymbolTableRecord
100
AcDbTextStyleTableRecord
  2
BMG_Text
 70
     0
 40
3.5
 41
1.0
 50
0.0
 71
     0
 42
0.2
  3
monos.ttf
  4

1001
ACAD
1000
Monospac821 BT
1071
       49
  0
ENDTAB
  0
TABLE
  2
VIEW
  5
6
330
0
100
AcDbSymbolTable
 70
     0
  0
ENDTAB
  0
TABLE
  2
UCS
  5
7
330
0
100
AcDbSymbolTable
 70
     0
  0
ENDTAB
  0
TABLE
  2
APPID
  5
9
330
0
100
AcDbSymbolTable
 70
     1
  0
APPID
  5
12
330
9
100
AcDbSymbolTableRecord
100
AcDbRegAppTableRecord
  2
ACAD
 70
     0
  0
ENDTAB
  0
TABLE
  2
DIMSTYLE
  5
A
330
0
100
AcDbSymbolTable
 70
     1
100
AcDbDimStyleTable
  0
DIMSTYLE
105
28
330
A
100
AcDbSymbolTableRecord
100
AcDbDimStyleTableRecord
  2
Standard
 70
     0
178
     0
340
11
  0
ENDTAB
  0
TABLE
  2
BLOCK_RECORD
  5
1
330
0
100
AcDbSymbolTable
 70
     0
  0
BLOCK_RECORD
  5
1D
330
1
100
AcDbSymbolTableRecord
100
AcDbBlockTableRecord
  2
*Model_Space
340
1E
 70
     0
280
     1
281
     0
  0
BLOCK_RECORD
  5
1B
330
1
100
AcDbSymbolTableRecord
100
AcDbBlockTableRecord
  2
*Paper_Space
340
1C
 70
     0
280
     1
281
     0
  0
ENDTAB
  0
ENDSEC
  0
SECTION
  2
BLOCKS
  0
BLOCK
  5
201
330
1D
100
AcDbEntity
  8
0
100
AcDbBlockBegin
  2
*Model_Space
 70
     0
 10
0.0
 20
0.0
 30
0.0
  3
*Model_Space
  1

  0
ENDBLK
  5
202
330
1D
100
AcDbEntity
  8
0
100
AcDbBlockEnd
  0
BLOCK
  5
1FF
330
1B
100
AcDbEntity
 67
     1
  8
0
100
AcDbBlockBegin
  2
*Paper_Space
 70
     0
 10
0.0
 20
0.0
 30
0.0
  3
*Paper_Space
  1

  0
ENDBLK
  5
200
330
1B
100
AcDbEntity
 67
     1
  8
0
100
AcDbBlockEnd
  0
ENDSEC
  0
SECTION
  2
ENTITIES
  0
LINE
  5
29
330
1D
100
AcDbEntity
  8
1
  6
Continuous
370
    50
100
AcDbLine
 10
3.19999695
 20
31.25
 30
0.0
 11
3.19999695
 21
-31.25
 31
0.0
  0
LINE
  5
2A
330
1D
100
AcDbEntity
  8
1
  6
Continuous
370
    50
100
AcDbLine
 10
3.69999695
 20
31.75
 30
0.0
 11
7.57815552
 21
31.75
 31
0.0
  0
LINE
  5
2B
330
1D
100
AcDbEntity
  8
1
  6
Continuous
370
    50
100
AcDbLine
 10
3.19999695
 20
31.25
 30
0.0
 11
3.69999695
 21
31.75
 31
0.0
  0
LINE
  5
2C
330
1D
100
AcDbEntity
  8
1
  6
Continuous
370
    50
100
AcDbLine
 10
0.0
 20
22.2250061
 30
0.0
 11
2.3999939
 21
22.2250061
 31
0.0
  0
ARC
  5
2D
330
1D
100
AcDbEntity
  8
1
  6
Continuous
370
    50
100
AcDbCircle
 10
2.3999939
 20
23.02502441
 30
0.0
 40
0.80000305
100
AcDbArc
 50
270.0
 51
0.0
  0
LINE
  5
2E
330
1D
100
AcDbEntity
  8
1
  6
Continuous
370
    50
100
AcDbLine
 10
13.0249939
 20
28.98422241
 30
0.0
 11
13.0249939
 21
21.00001526
 31
0.0
  0
LINE
  5
2F
330
1D
100
AcDbEntity
  8
1
  6
Continuous
370
    50
100
AcDbLine
 10
9.17498779
 20
28.98422241
 30
0.0
 11
9.17498779
 21
21.00001526
 31
0.0
  0
LINE
  5
30
330
1D
100
AcDbEntity
  8
1
  6
Continuous
370
    50
100
AcDbLine
 10
13.0249939
 20
28.98422241
 30
0.0
 11
14.62182617
 21
31.75001526
 31
0.0
  0
LINE
  5
31
330
1D
100
AcDbEntity
  8
1
  6
Continuous
370
    50
100
AcDbLine
 10
9.17498779
 20
28.98422241
 30
0.0
 11
7.57815552
 21
31.75001526
 31
0.0
  0
LINE
  5
32
330
1D
100
AcDbEntity
  8
1
  6
Continuous
370
    50
100
AcDbLine
 10
14.62182617
 20
31.75
 30
0.0
 11
18.55000305
 21
31.75
 31
0.0
  0
LINE
  5
33
330
1D
100
AcDbEntity
  8
1
  6
Continuous
370
    50
100
AcDbLine
 10
9.67498779
 20
28.0
 30
0.0
 11
12.5249939
 21
28.0
 31
0.0
  0
ARC
  5
34
330
1D
100
AcDbEntity
  8
1
  6
Continuous
370
    50
100
AcDbCircle
 10
9.67498779
 20
28.5
 30
0.0
 40
0.5
100
AcDbArc
 50
180.0
 51
270.0
  0
ARC
  5
35
330
1D
100
AcDbEntity
  8
1
  6
Continuous
370
    50
100
AcDbCircle
 10
12.5249939
 20
28.5
 30
0.0
 40
0.5
100
AcDbArc
 50
270.0
 51
0.0
  0
LINE
  5
36
330
1D
100
AcDbEntity
  8
1
  6
Continuous
370
    50
100
AcDbLine
 10
7.57815552
 20
31.75
 30
0.0
 11
7.57815552
 21
25.80000305
 31
0.0
  0
LINE
  5
37
330
1D
100
AcDbEntity
  8
1
  6
Continuous
370
    50
100
AcDbLine
 10
14.62182617
 20
-31.74999237
 30
0.0
 11
14.62182617
 21
18.5
 31
0.0
  0
LINE
  5
38
330
1D
100
AcDbEntity
  8
1
  6
Continuous
370
    50
100
AcDbLine
 10
9.17498779
 20
21.0
 30
0.0
 11
13.0249939
 21
21.0
 31
0.0
  0
LINE
  5
39
330
1D
100
AcDbEntity
  8
1
  6
Continuous
370
    50
100
AcDbLine
 10
3.19999695
 20
25.80001831
 30
0.0
 11
7.57815552
 21
25.80001831
 31
0.0
  0
LINE
  5
3A
330
1D
100
AcDbEntity
  8
1
  6
Continuous
370
    50
100
AcDbLine
 10
3.19999695
 20
18.5
 30
0.0
 11
19.05000305
 21
18.5
 31
0.0
  0
LINE
  5
3B
330
1D
100
AcDbEntity
  8
1
  6
Continuous
370
    50
100
AcDbLine
 10
7.57815552
 20
18.5
 30
0.0
 11
7.57815552
 21
-31.75
 31
0.0
  0
LINE
  5
3C
330
1D
100
AcDbEntity
  8
1
  6
Continuous
370
    50
100
AcDbLine
 10
9.17498779
 20
18.5
 30
0.0
 11
9.17498779
 21
-28.98420715
 31
0.0
  0
LINE
  5
3D
330
1D
100
AcDbEntity
  8
1
  6
Continuous
370
    50
100
AcDbLine
 10
13.0249939
 20
18.5
 30
0.0
 11
13.0249939
 21
-28.98420715
 31
0.0
  0
LINE
  5
3E
330
1D
100
AcDbEntity
  8
1
  6
Continuous
370
    50
100
AcDbLine
 10
14.62182617
 20
25.80001831
 30
0.0
 11
14.62182617
 21
31.75001526
 31
0.0
  0
LINE
  5
3F
330
1D
100
AcDbEntity
  8
1
  6
Continuous
370
    50
100
AcDbLine
 10
14.62182617
 20
25.80001831
 30
0.0
 11
19.05000305
 21
25.80001831
 31
0.0
  0
LINE
  5
40
330
1D
100
AcDbEntity
  8
1
  6
Continuous
370
    50
100
AcDbLine
 10
7.57815552
 20
25.80001831
 30
0.0
 11
9.17498779
 21
21.00001526
 31
0.0
  0
LINE
  5
41
330
1D
100
AcDbEntity
  8
1
  6
Continuous
370
    50
100
AcDbLine
 10
13.0249939
 20
21.0
 30
0.0
 11
14.62182617
 21
25.80000305
 31
0.0
  0
LINE
  5
42
330
1D
100
AcDbEntity
  8
1
  6
Continuous
370
    50
100
AcDbLine
 10
45.94999695
 20
-1.73204041
 30
0.0
 11
45.94999695
 21
1.73204041
 31
0.0
  0
LINE
  5
43
330
1D
100
AcDbEntity
  8
1
  6
Continuous
370
    50
100
AcDbLine
 10
42.94999695
 20
3.46409607
 30
0.0
 11
45.94999695
 21
1.73204041
 31
0.0
  0
LINE
  5
44
330
1D
100
AcDbEntity
  8
1
  6
Continuous
370
    50
100
AcDbLine
 10
39.94999695
 20
1.73204041
 30
0.0
 11
42.94999695
 21
3.46409607
 31
0.0
  0
LINE
  5
45
330
1D
100
AcDbEntity
  8
1
  6
Continuous
370
    50
100
AcDbLine
 10
39.94999695
 20
-1.73204041
 30
0.0
 11
39.94999695
 21
1.73204041
 31
0.0
  0
CIRCLE
  5
46
330
1D
100
AcDbEntity
  8
1
  6
Continuous
370
    50
100
AcDbCircle
 10
42.94999695
 20
0.0
 30
0.0
 40
6.0
  0
LINE
  5
47
330
1D
100
AcDbEntity
  8
1
  6
Continuous
370
    50
100
AcDbLine
 10
18.55000305
 20
31.75
 30
0.0
 11
19.05000305
 21
31.25
 31
0.0
  0
LINE
  5
48
330
1D
100
AcDbEntity
  8
1
  6
Continuous
370
    50
100
AcDbLine
 10
19.05000305
 20
-31.24999237
 30
0.0
 11
19.05000305
 21
31.25
 31
0.0
  0
ARC
  5
49
330
1D
100
AcDbEntity
  8
1
  6
Continuous
370
    50
100
AcDbCircle
 10
19.8500061
 20
25.80000305
 30
0.0
 40
0.80000305
100
AcDbArc
 50
180.0
 51
270.0
  0
LINE
  5
4A
330
1D
100
AcDbEntity
  8
1
  6
Continuous
370
    50
100
AcDbLine
 10
34.19999695
 20
25.0
 30
0.0
 11
19.8500061
 21
25.0
 31
0.0
  0
ARC
  5
4B
330
1D
100
AcDbEntity
  8
1
  6
Continuous
370
    50
100
AcDbCircle
 10
34.19999695
 20
25.80000305
 30
0.0
 40
0.80000305
100
AcDbArc
 50
270.0
 51
0.0
  0
LINE
  5
4C
330
1D
100
AcDbEntity
  8
1
  6
Continuous
370
    50
100
AcDbLine
 10
35.0
 20
-30.5
 30
0.0
 11
35.0
 21
30.50001526
 31
0.0
  0
LINE
  5
4D
330
1D
100
AcDbEntity
  8
1
  6
Continuous
370
    50
100
AcDbLine
 10
36.0
 20
31.50001526
 30
0.0
 11
54.0
 21
31.50001526
 31
0.0
  0
LINE
  5
4E
330
1D
100
AcDbEntity
  8
1
  6
Continuous
370
    50
100
AcDbLine
 10
35.0
 20
30.50001526
 30
0.0
 11
36.0
 21
31.50001526
 31
0.0
  0
LINE
  5
4F
330
1D
100
AcDbEntity
  8
1
  6
Continuous
370
    50
100
AcDbLine
 10
50.79997253
 20
12.58996582
 30
0.0
 11
53.99998474
 21
12.58996582
 31
0.0
  0
LINE
  5
50
330
1D
100
AcDbEntity
  8
1
  6
Continuous
370
    50
100
AcDbLine
 10
50.79997253
 20
10.90997314
 30
0.0
 11
53.99998474
 21
10.90997314
 31
0.0
  0
LINE
  5
51
330
1D
100
AcDbEntity
  8
1
  6
Continuous
370
    50
100
AcDbLine
 10
50.79997253
 20
9.22998047
 30
0.0
 11
53.99998474
 21
9.22998047
 31
0.0
  0
LINE
  5
52
330
1D
100
AcDbEntity
  8
1
  6
Continuous
370
    50
100
AcDbLine
 10
50.79997253
 20
7.54994202
 30
0.0
 11
53.99998474
 21
7.54994202
 31
0.0
  0
LINE
  5
53
330
1D
100
AcDbEntity
  8
1
  6
Continuous
370
    50
100
AcDbLine
 10
50.79997253
 20
5.86999512
 30
0.0
 11
53.99998474
 21
5.86999512
 31
0.0
  0
LINE
  5
54
330
1D
100
AcDbEntity
  8
1
  6
Continuous
370
    50
100
AcDbLine
 10
50.79997253
 20
4.18994141
 30
0.0
 11
53.99998474
 21
4.18994141
 31
0.0
  0
LINE
  5
55
330
1D
100
AcDbEntity
  8
1
  6
Continuous
370
    50
100
AcDbLine
 10
50.79997253
 20
2.50997925
 30
0.0
 11
53.99998474
 21
2.50997925
 31
0.0
  0
LINE
  5
56
330
1D
100
AcDbEntity
  8
1
  6
Continuous
370
    50
100
AcDbLine
 10
50.79997253
 20
0.82995605
 30
0.0
 11
53.99998474
 21
0.82995605
 31
0.0
  0
LINE
  5
57
330
1D
100
AcDbEntity
  8
1
  6
Continuous
370
    50
100
AcDbLine
 10
54.65000916
 20
32.5
 30
0.0
 11
58.34999084
 21
32.5
 31
0.0
  0
LINE
  5
58
330
1D
100
AcDbEntity
  8
1
  6
Continuous
370
    50
100
AcDbLine
 10
54.65000916
 20
32.5
 30
0.0
 11
54.00001526
 21
31.37416077
 31
0.0
  0
LINE
  5
59
330
1D
100
AcDbEntity
  8
1
  6
Continuous
370
    50
100
AcDbLine
 10
58.35002136
 20
32.5
 30
0.0
 11
59.0
 21
31.37419128
 31
0.0
  0
LINE
  5
5A
330
1D
100
AcDbEntity
  8
1
  6
Continuous
370
    50
100
AcDbLine
 10
59.0
 20
31.37419128
 30
0.0
 11
59.0
 21
-31.37422943
 31
0.0
  0
LINE
  5
5B
330
1D
100
AcDbEntity
  8
1
  6
Continuous
370
    50
100
AcDbLine
 10
58.34997559
 20
30.38989258
 30
0.0
 11
54.64996338
 21
30.38989258
 31
0.0
  0
LINE
  5
5C
330
1D
100
AcDbEntity
  8
1
  6
Continuous
370
    50
100
AcDbLine
 10
58.34997559
 20
31.38990784
 30
0.0
 11
54.64996338
 21
31.38990784
 31
0.0
  0
ARC
  5
5D
330
1D
100
AcDbEntity
  8
1
  6
Continuous
370
    50
100
AcDbCircle
 10
59.30325303
 20
-2.565182654
 30
0.0
 40
5.38245616
100
AcDbArc
 50
149.82872876
 51
151.696511485
  0
ARC
  5
5E
330
1D
100
AcDbEntity
  8
1
  6
Continuous
370
    50
100
AcDbCircle
 10
58.883225945
 20
-2.363280391
 30
0.0
 40
4.91696016
100
AcDbArc
 50
151.447284695
 51
173.284579616
  0
ARC
  5
5F
330
1D
100
AcDbEntity
  8
1
  6
Continuous
370
    50
100
AcDbCircle
 10
54.081059609
 20
-2.37269675
 30
0.0
 40
4.953500567
100
AcDbArc
 50
6.773580455999999
 51
30.480868054
  0
LINE
  5
60
330
1D
100
AcDbEntity
  8
1
  6
Continuous
370
    50
100
AcDbLine
 10
58.35002136
 20
0.1399231
 30
0.0
 11
54.65003967
 21
0.1399231
 31
0.0
  0
LINE
  5
61
330
1D
100
AcDbEntity
  8
1
  6
Continuous
370
    50
100
AcDbLine
 10
54.0
 20
31.50001526
 30
0.0
 11
54.0
 21
-31.5
 31
0.0
  0
LINE
  5
62
330
1D
100
AcDbEntity
  8
1
  6
Continuous
370
    50
100
AcDbLine
 10
58.35002136
 20
10.38989258
 30
0.0
 11
54.65003967
 21
10.38989258
 31
0.0
  0
LINE
  5
63
330
1D
100
AcDbEntity
  8
1
  6
Continuous
370
    50
100
AcDbLine
 10
58.34997559
 20
11.38990784
 30
0.0
 11
54.64996338
 21
11.38990784
 31
0.0
  0
LINE
  5
64
330
1D
100
AcDbEntity
  8
1
  6
Continuous
370
    50
100
AcDbLine
 10
58.34997559
 20
12.38990784
 30
0.0
 11
54.64996338
 21
12.38990784
 31
0.0
  0
LINE
  5
65
330
1D
100
AcDbEntity
  8
1
  6
Continuous
370
    50
100
AcDbLine
 10
58.34997559
 20
14.38989258
 30
0.0
 11
54.64996338
 21
14.38989258
 31
0.0
  0
LINE
  5
66
330
1D
100
AcDbEntity
  8
1
  6
Continuous
370
    50
100
AcDbLine
 10
58.34997559
 20
13.38990784
 30
0.0
 11
54.64996338
 21
13.38990784
 31
0.0
  0
LINE
  5
67
330
1D
100
AcDbEntity
  8
1
  6
Continuous
370
    50
100
AcDbLine
 10
58.34997559
 20
15.38989258
 30
0.0
 11
54.64996338
 21
15.38989258
 31
0.0
  0
LINE
  5
68
330
1D
100
AcDbEntity
  8
1
  6
Continuous
370
    50
100
AcDbLine
 10
58.34997559
 20
16.38989258
 30
0.0
 11
54.64996338
 21
16.38989258
 31
0.0
  0
LINE
  5
69
330
1D
100
AcDbEntity
  8
1
  6
Continuous
370
    50
100
AcDbLine
 10
58.34997559
 20
17.38989258
 30
0.0
 11
54.64996338
 21
17.38989258
 31
0.0
  0
LINE
  5
6A
330
1D
100
AcDbEntity
  8
1
  6
Continuous
370
    50
100
AcDbLine
 10
58.34997559
 20
18.3899231
 30
0.0
 11
54.64996338
 21
18.3899231
 31
0.0
  0
LINE
  5
6B
330
1D
100
AcDbEntity
  8
1
  6
Continuous
370
    50
100
AcDbLine
 10
58.34997559
 20
19.3899231
 30
0.0
 11
54.64996338
 21
19.3899231
 31
0.0
  0
LINE
  5
6C
330
1D
100
AcDbEntity
  8
1
  6
Continuous
370
    50
100
AcDbLine
 10
58.34997559
 20
20.38987732
 30
0.0
 11
54.64996338
 21
20.38987732
 31
0.0
  0
LINE
  5
6D
330
1D
100
AcDbEntity
  8
1
  6
Continuous
370
    50
100
AcDbLine
 10
58.34997559
 20
21.38990784
 30
0.0
 11
54.64996338
 21
21.38990784
 31
0.0
  0
LINE
  5
6E
330
1D
100
AcDbEntity
  8
1
  6
Continuous
370
    50
100
AcDbLine
 10
58.34997559
 20
22.38990784
 30
0.0
 11
54.64996338
 21
22.38990784
 31
0.0
  0
LINE
  5
6F
330
1D
100
AcDbEntity
  8
1
  6
Continuous
370
    50
100
AcDbLine
 10
58.34997559
 20
23.38989258
 30
0.0
 11
54.64996338
 21
23.38989258
 31
0.0
  0
LINE
  5
70
330
1D
100
AcDbEntity
  8
1
  6
Continuous
370
    50
100
AcDbLine
 10
58.34997559
 20
24.3899231
 30
0.0
 11
54.64996338
 21
24.3899231
 31
0.0
  0
LINE
  5
71
330
1D
100
AcDbEntity
  8
1
  6
Continuous
370
    50
100
AcDbLine
 10
58.34997559
 20
25.38989258
 30
0.0
 11
54.64996338
 21
25.38989258
 31
0.0
  0
LINE
  5
72
330
1D
100
AcDbEntity
  8
1
  6
Continuous
370
    50
100
AcDbLine
 10
58.34997559
 20
26.38989258
 30
0.0
 11
54.64996338
 21
26.38989258
 31
0.0
  0
LINE
  5
73
330
1D
100
AcDbEntity
  8
1
  6
Continuous
370
    50
100
AcDbLine
 10
58.34997559
 20
27.3899231
 30
0.0
 11
54.64996338
 21
27.3899231
 31
0.0
  0
LINE
  5
74
330
1D
100
AcDbEntity
  8
1
  6
Continuous
370
    50
100
AcDbLine
 10
58.34997559
 20
28.38989258
 30
0.0
 11
54.64996338
 21
28.38989258
 31
0.0
  0
LINE
  5
75
330
1D
100
AcDbEntity
  8
1
  6
Continuous
370
    50
100
AcDbLine
 10
58.34997559
 20
29.3899231
 30
0.0
 11
54.64996338
 21
29.3899231
 31
0.0
  0
LINE
  5
76
330
1D
100
AcDbEntity
  8
1
  6
Continuous
370
    50
100
AcDbLine
 10
58.34997559
 20
32.5
 30
0.0
 11
58.34997559
 21
0.13998413
 31
0.0
  0
LINE
  5
77
330
1D
100
AcDbEntity
  8
1
  6
Continuous
370
    50
100
AcDbLine
 10
54.65000916
 20
32.5
 30
0.0
 11
54.65000916
 21
0.13993835
 31
0.0
  0
LINE
  5
78
330
1D
100
AcDbEntity
  8
1
  6
Continuous
370
    50
100
AcDbLine
 10
58.34997559
 20
9.38986206
 30
0.0
 11
54.64996338
 21
9.38986206
 31
0.0
  0
LINE
  5
79
330
1D
100
AcDbEntity
  8
1
  6
Continuous
370
    50
100
AcDbLine
 10
58.35002136
 20
8.3898468
 30
0.0
 11
54.65003967
 21
8.3898468
 31
0.0
  0
LINE
  5
7A
330
1D
100
AcDbEntity
  8
1
  6
Continuous
370
    50
100
AcDbLine
 10
58.34997559
 20
7.38983154
 30
0.0
 11
54.64996338
 21
7.38983154
 31
0.0
  0
LINE
  5
7B
330
1D
100
AcDbEntity
  8
1
  6
Continuous
370
    50
100
AcDbLine
 10
58.35002136
 20
6.38980103
 30
0.0
 11
54.65003967
 21
6.38980103
 31
0.0
  0
LINE
  5
7C
330
1D
100
AcDbEntity
  8
1
  6
Continuous
370
    50
100
AcDbLine
 10
58.34997559
 20
5.38977051
 30
0.0
 11
54.64996338
 21
5.38977051
 31
0.0
  0
LINE
  5
7D
330
1D
100
AcDbEntity
  8
1
  6
Continuous
370
    50
100
AcDbLine
 10
58.35002136
 20
4.38977051
 30
0.0
 11
54.65003967
 21
4.38977051
 31
0.0
  0
LINE
  5
7E
330
1D
100
AcDbEntity
  8
1
  6
Continuous
370
    50
100
AcDbLine
 10
58.34997559
 20
3.38973999
 30
0.0
 11
54.64996338
 21
3.38973999
 31
0.0
  0
LINE
  5
7F
330
1D
100
AcDbEntity
  8
1
  6
Continuous
370
    50
100
AcDbLine
 10
58.35002136
 20
2.38970947
 30
0.0
 11
54.65003967
 21
2.38970947
 31
0.0
  0
LINE
  5
80
330
1D
100
AcDbEntity
  8
1
  6
Continuous
370
    50
100
AcDbLine
 10
58.34997559
 20
1.38969421
 30
0.0
 11
54.64996338
 21
1.38969421
 31
0.0
  0
LINE
  5
81
330
1D
100
AcDbEntity
  8
1
  6
Continuous
370
    50
100
AcDbLine
 10
3.69999695
 20
-31.74999237
 30
0.0
 11
7.57815552
 21
-31.74999237
 31
0.0
  0
LINE
  5
82
330
1D
100
AcDbEntity
  8
1
  6
Continuous
370
    50
100
AcDbLine
 10
19.05000305
 20
-31.24999237
 30
0.0
 11
18.55000305
 21
-31.74999237
 31
0.0
  0
LINE
  5
83
330
1D
100
AcDbEntity
  8
1
  6
Continuous
370
    50
100
AcDbLine
 10
3.69999695
 20
-31.74999237
 30
0.0
 11
3.19999695
 21
-31.24999237
 31
0.0
  0
LINE
  5
84
330
1D
100
AcDbEntity
  8
1
  6
Continuous
370
    50
100
AcDbLine
 10
0.0
 20
-22.22499084
 30
0.0
 11
2.3999939
 21
-22.22499084
 31
0.0
  0
ARC
  5
85
330
1D
100
AcDbEntity
  8
1
  6
Continuous
370
    50
100
AcDbCircle
 10
2.3999939
 20
-23.0249939
 30
0.0
 40
0.80000305
100
AcDbArc
 50
0.0
 51
90.0
  0
LINE
  5
86
330
1D
100
AcDbEntity
  8
1
  6
Continuous
370
    50
100
AcDbLine
 10
9.17498779
 20
-28.98419952
 30
0.0
 11
7.57815552
 21
-31.74999237
 31
0.0
  0
ARC
  5
87
330
1D
100
AcDbEntity
  8
1
  6
Continuous
370
    50
100
AcDbCircle
 10
9.67498779
 20
-28.49999237
 30
0.0
 40
0.5
100
AcDbArc
 50
90.0
 51
180.0
  0
LINE
  5
88
330
1D
100
AcDbEntity
  8
1
  6
Continuous
370
    50
100
AcDbLine
 10
9.67498779
 20
-27.99999237
 30
0.0
 11
12.5249939
 21
-27.99999237
 31
0.0
  0
ARC
  5
89
330
1D
100
AcDbEntity
  8
1
  6
Continuous
370
    50
100
AcDbCircle
 10
12.5249939
 20
-28.49999237
 30
0.0
 40
0.5
100
AcDbArc
 50
0.0
 51
90.0
  0
LINE
  5
8A
330
1D
100
AcDbEntity
  8
1
  6
Continuous
370
    50
100
AcDbLine
 10
13.0249939
 20
-28.98419952
 30
0.0
 11
14.62182617
 21
-31.74999237
 31
0.0
  0
LINE
  5
8B
330
1D
100
AcDbEntity
  8
1
  6
Continuous
370
    50
100
AcDbLine
 10
14.62182617
 20
-31.74999237
 30
0.0
 11
18.55000305
 21
-31.74999237
 31
0.0
  0
LINE
  5
8C
330
1D
100
AcDbEntity
  8
1
  6
Continuous
370
    50
100
AcDbLine
 10
34.19999695
 20
-25.0
 30
0.0
 11
19.8500061
 21
-25.0
 31
0.0
  0
LINE
  5
8D
330
1D
100
AcDbEntity
  8
1
  6
Continuous
370
    50
100
AcDbLine
 10
39.94999695
 20
-1.73204041
 30
0.0
 11
42.94999695
 21
-3.46409607
 31
0.0
  0
LINE
  5
8E
330
1D
100
AcDbEntity
  8
1
  6
Continuous
370
    50
100
AcDbLine
 10
45.94999695
 20
-1.73204041
 30
0.0
 11
42.94999695
 21
-3.46409607
 31
0.0
  0
ARC
  5
8F
330
1D
100
AcDbEntity
  8
1
  6
Continuous
370
    50
100
AcDbCircle
 10
19.8500061
 20
-25.80000305
 30
0.0
 40
0.80000305
100
AcDbArc
 50
90.0
 51
180.0
  0
ARC
  5
90
330
1D
100
AcDbEntity
  8
1
  6
Continuous
370
    50
100
AcDbCircle
 10
34.19999695
 20
-25.80000305
 30
0.0
 40
0.80000305
100
AcDbArc
 50
0.0
 51
90.0
  0
LINE
  5
91
330
1D
100
AcDbEntity
  8
1
  6
Continuous
370
    50
100
AcDbLine
 10
36.0
 20
-31.5
 30
0.0
 11
54.0
 21
-31.5
 31
0.0
  0
LINE
  5
92
330
1D
100
AcDbEntity
  8
1
  6
Continuous
370
    50
100
AcDbLine
 10
35.0
 20
-30.5
 30
0.0
 11
36.0
 21
-31.5
 31
0.0
  0
LINE
  5
93
330
1D
100
AcDbEntity
  8
1
  6
Continuous
370
    50
100
AcDbLine
 10
54.65000916
 20
-32.50005341
 30
0.0
 11
58.34999084
 21
-32.50005341
 31
0.0
  0
LINE
  5
94
330
1D
100
AcDbEntity
  8
1
  6
Continuous
370
    50
100
AcDbLine
 10
54.65000916
 20
-32.50005341
 30
0.0
 11
53.99998474
 21
-31.37420654
 31
0.0
  0
LINE
  5
95
330
1D
100
AcDbEntity
  8
1
  6
Continuous
370
    50
100
AcDbLine
 10
58.35002136
 20
-32.50005341
 30
0.0
 11
59.00001526
 21
-31.37420654
 31
0.0
  0
LINE
  5
96
330
1D
100
AcDbEntity
  8
1
  6
Continuous
370
    50
100
AcDbLine
 10
48.50003052
 20
-10.65003967
 30
0.0
 11
48.50003052
 21
-7.85003662
 31
0.0
  0
LINE
  5
97
330
1D
100
AcDbEntity
  8
1
  6
Continuous
370
    50
100
AcDbLine
 10
50.79997253
 20
-9.25004578
 30
0.0
 11
48.49995422
 21
-7.8500061
 31
0.0
  0
LINE
  5
98
330
1D
100
AcDbEntity
  8
1
  6
Continuous
370
    50
100
AcDbLine
 10
48.50003052
 20
-10.65003967
 30
0.0
 11
50.80001831
 21
-9.25004578
 31
0.0
  0
LINE
  5
99
330
1D
100
AcDbEntity
  8
1
  6
Continuous
370
    50
100
AcDbLine
 10
50.79997253
 20
-7.5700531
 30
0.0
 11
53.99998474
 21
-7.5700531
 31
0.0
  0
LINE
  5
9A
330
1D
100
AcDbEntity
  8
1
  6
Continuous
370
    50
100
AcDbLine
 10
50.79997253
 20
-9.25004578
 30
0.0
 11
53.99998474
 21
-9.25004578
 31
0.0
  0
LINE
  5
9B
330
1D
100
AcDbEntity
  8
1
  6
Continuous
370
    50
100
AcDbLine
 10
50.79997253
 20
-10.93005371
 30
0.0
 11
53.99998474
 21
-10.93005371
 31
0.0
  0
LINE
  5
9C
330
1D
100
AcDbEntity
  8
1
  6
Continuous
370
    50
100
AcDbLine
 10
50.79997253
 20
-12.61001587
 30
0.0
 11
53.99998474
 21
-12.61001587
 31
0.0
  0
LINE
  5
9D
330
1D
100
AcDbEntity
  8
1
  6
Continuous
370
    50
100
AcDbLine
 10
50.79997253
 20
-0.85002136
 30
0.0
 11
53.99998474
 21
-0.85002136
 31
0.0
  0
LINE
  5
9E
330
1D
100
AcDbEntity
  8
1
  6
Continuous
370
    50
100
AcDbLine
 10
50.79997253
 20
-2.53005981
 30
0.0
 11
53.99998474
 21
-2.53005981
 31
0.0
  0
LINE
  5
9F
330
1D
100
AcDbEntity
  8
1
  6
Continuous
370
    50
100
AcDbLine
 10
50.79997253
 20
-4.21005249
 30
0.0
 11
53.99998474
 21
-4.21005249
 31
0.0
  0
LINE
  5
A0
330
1D
100
AcDbEntity
  8
1
  6
Continuous
370
    50
100
AcDbLine
 10
50.79997253
 20
-5.89004517
 30
0.0
 11
53.99998474
 21
-5.89004517
 31
0.0
  0
LINE
  5
A1
330
1D
100
AcDbEntity
  8
1
  6
Continuous
370
    50
100
AcDbLine
 10
58.35002136
 20
-31.39006805
 30
0.0
 11
54.65003967
 21
-31.39006805
 31
0.0
  0
LINE
  5
A2
330
1D
100
AcDbEntity
  8
1
  6
Continuous
370
    50
100
AcDbLine
 10
48.50003052
 20
-10.58825684
 30
0.0
 11
48.53842163
 21
-10.62664795
 31
0.0
  0
LINE
  5
A3
330
1D
100
AcDbEntity
  8
1
  6
Continuous
370
    50
100
AcDbLine
 10
48.50003052
 20
-10.48222351
 30
0.0
 11
48.60437012
 21
-10.58654785
 31
0.0
  0
LINE
  5
A4
330
1D
100
AcDbEntity
  8
1
  6
Continuous
370
    50
100
AcDbLine
 10
48.50003052
 20
-10.37612915
 30
0.0
 11
48.67028809
 21
-10.54638672
 31
0.0
  0
LINE
  5
A5
330
1D
100
AcDbEntity
  8
1
  6
Continuous
370
    50
100
AcDbLine
 10
48.50003052
 20
-10.27012634
 30
0.0
 11
48.73623657
 21
-10.50628662
 31
0.0
  0
LINE
  5
A6
330
1D
100
AcDbEntity
  8
1
  6
Continuous
370
    50
100
AcDbLine
 10
48.50003052
 20
-10.16403198
 30
0.0
 11
48.80215454
 21
-10.46615601
 31
0.0
  0
LINE
  5
A7
330
1D
100
AcDbEntity
  8
1
  6
Continuous
370
    50
100
AcDbLine
 10
48.50003052
 20
-10.05793762
 30
0.0
 11
48.86808777
 21
-10.42602539
 31
0.0
  0
LINE
  5
A8
330
1D
100
AcDbEntity
  8
1
  6
Continuous
370
    50
100
AcDbLine
 10
48.50003052
 20
-9.9519043
 30
0.0
 11
48.93400574
 21
-10.38587952
 31
0.0
  0
LINE
  5
A9
330
1D
100
AcDbEntity
  8
1
  6
Continuous
370
    50
100
AcDbLine
 10
48.50003052
 20
-9.84579468
 30
0.0
 11
48.99995422
 21
-10.34571838
 31
0.0
  0
LINE
  5
AA
330
1D
100
AcDbEntity
  8
1
  6
Continuous
370
    50
100
AcDbLine
 10
48.50003052
 20
-9.73974609
 30
0.0
 11
49.06587219
 21
-10.30560303
 31
0.0
  0
LINE
  5
AB
330
1D
100
AcDbEntity
  8
1
  6
Continuous
370
    50
100
AcDbLine
 10
48.50003052
 20
-9.63368225
 30
0.0
 11
49.13182068
 21
-10.26545715
 31
0.0
  0
LINE
  5
AC
330
1D
100
AcDbEntity
  8
1
  6
Continuous
370
    50
100
AcDbLine
 10
48.50003052
 20
-9.52758789
 30
0.0
 11
49.19773865
 21
-10.22531128
 31
0.0
  0
LINE
  5
AD
330
1D
100
AcDbEntity
  8
1
  6
Continuous
370
    50
100
AcDbLine
 10
48.50003052
 20
-9.42153931
 30
0.0
 11
49.26368713
 21
-10.18518066
 31
0.0
  0
LINE
  5
AE
330
1D
100
AcDbEntity
  8
1
  6
Continuous
370
    50
100
AcDbLine
 10
48.50003052
 20
-9.31547546
 30
0.0
 11
49.32965088
 21
-10.14505005
 31
0.0
  0
LINE
  5
AF
330
1D
100
AcDbEntity
  8
1
  6
Continuous
370
    50
100
AcDbLine
 10
48.50003052
 20
-9.20941162
 30
0.0
 11
49.39556885
 21
-10.10493469
 31
0.0
  0
LINE
  5
B0
330
1D
100
AcDbEntity
  8
1
  6
Continuous
370
    50
100
AcDbLine
 10
48.50003052
 20
-9.10336304
 30
0.0
 11
49.46150208
 21
-10.06481934
 31
0.0
  0
LINE
  5
B1
330
1D
100
AcDbEntity
  8
1
  6
Continuous
370
    50
100
AcDbLine
 10
48.50003052
 20
-8.99728394
 30
0.0
 11
49.52742004
 21
-10.02467346
 31
0.0
  0
LINE
  5
B2
330
1D
100
AcDbEntity
  8
1
  6
Continuous
370
    50
100
AcDbLine
 10
48.50003052
 20
-8.89118958
 30
0.0
 11
49.59338379
 21
-9.98449707
 31
0.0
  0
LINE
  5
B3
330
1D
100
AcDbEntity
  8
1
  6
Continuous
370
    50
100
AcDbLine
 10
48.50003052
 20
-8.78515625
 30
0.0
 11
49.6592865
 21
-9.94444275
 31
0.0
  0
LINE
  5
B4
330
1D
100
AcDbEntity
  8
1
  6
Continuous
370
    50
100
AcDbLine
 10
48.50003052
 20
-8.67907715
 30
0.0
 11
49.72525024
 21
-9.90426636
 31
0.0
  0
LINE
  5
B5
330
1D
100
AcDbEntity
  8
1
  6
Continuous
370
    50
100
AcDbLine
 10
48.50003052
 20
-8.57299805
 30
0.0
 11
49.79116821
 21
-9.86410522
 31
0.0
  0
LINE
  5
B6
330
1D
100
AcDbEntity
  8
1
  6
Continuous
370
    50
100
AcDbLine
 10
48.50003052
 20
-8.4669342
 30
0.0
 11
49.85710144
 21
-9.82398987
 31
0.0
  0
LINE
  5
B7
330
1D
100
AcDbEntity
  8
1
  6
Continuous
370
    50
100
AcDbLine
 10
48.50003052
 20
-8.3608551
 30
0.0
 11
49.92301941
 21
-9.78387451
 31
0.0
  0
LINE
  5
B8
330
1D
100
AcDbEntity
  8
1
  6
Continuous
370
    50
100
AcDbLine
 10
48.50003052
 20
-8.25482178
 30
0.0
 11
49.98898315
 21
-9.7437439
 31
0.0
  0
LINE
  5
B9
330
1D
100
AcDbEntity
  8
1
  6
Continuous
370
    50
100
AcDbLine
 10
48.50003052
 20
-8.14875793
 30
0.0
 11
50.05488586
 21
-9.70361328
 31
0.0
  0
LINE
  5
BA
330
1D
100
AcDbEntity
  8
1
  6
Continuous
370
    50
100
AcDbLine
 10
48.50003052
 20
-8.04270935
 30
0.0
 11
50.12084961
 21
-9.66349792
 31
0.0
  0
LINE
  5
BB
330
1D
100
AcDbEntity
  8
1
  6
Continuous
370
    50
100
AcDbLine
 10
48.50003052
 20
-7.93661499
 30
0.0
 11
50.18676758
 21
-9.62332153
 31
0.0
  0
LINE
  5
BC
330
1D
100
AcDbEntity
  8
1
  6
Continuous
370
    50
100
AcDbLine
 10
48.54988098
 20
-7.88040161
 30
0.0
 11
50.25271606
 21
-9.58320618
 31
0.0
  0
LINE
  5
BD
330
1D
100
AcDbEntity
  8
1
  6
Continuous
370
    50
100
AcDbLine
 10
48.82092285
 20
-8.04537964
 30
0.0
 11
50.31858826
 21
-9.54307556
 31
0.0
  0
LINE
  5
BE
330
1D
100
AcDbEntity
  8
1
  6
Continuous
370
    50
100
AcDbLine
 10
49.09199524
 20
-8.21038818
 30
0.0
 11
50.384552
 21
-9.50294495
 31
0.0
  0
LINE
  5
BF
330
1D
100
AcDbEntity
  8
1
  6
Continuous
370
    50
100
AcDbLine
 10
49.36305237
 20
-8.37535095
 30
0.0
 11
50.45048523
 21
-9.46278381
 31
0.0
  0
LINE
  5
C0
330
1D
100
AcDbEntity
  8
1
  6
Continuous
370
    50
100
AcDbLine
 10
49.6341095
 20
-8.54037476
 30
0.0
 11
50.5164032
 21
-9.42263794
 31
0.0
  0
LINE
  5
C1
330
1D
100
AcDbEntity
  8
1
  6
Continuous
370
    50
100
AcDbLine
 10
49.90516663
 20
-8.70535278
 30
0.0
 11
50.58235168
 21
-9.38250732
 31
0.0
  0
LINE
  5
C2
330
1D
100
AcDbEntity
  8
1
  6
Continuous
370
    50
100
AcDbLine
 10
50.1762085
 20
-8.87037659
 30
0.0
 11
50.64825439
 21
-9.34242249
 31
0.0
  0
LINE
  5
C3
330
1D
100
AcDbEntity
  8
1
  6
Continuous
370
    50
100
AcDbLine
 10
50.44729614
 20
-9.03533936
 30
0.0
 11
50.71420288
 21
-9.30226135
 31
0.0
  0
LINE
  5
C4
330
1D
100
AcDbEntity
  8
1
  6
Continuous
370
    50
100
AcDbLine
 10
50.71835327
 20
-9.20033264
 30
0.0
 11
50.78013611
 21
-9.262146
 31
0.0
  0
LINE
  5
C5
330
1D
100
AcDbEntity
  8
1
  6
Continuous
370
    50
100
AcDbLine
 10
55.57513428
 20
-9.25004578
 30
0.0
 11
54.0
 21
-9.25004578
 31
0.0
  0
LINE
  5
C6
330
1D
100
AcDbEntity
  8
1
  6
Continuous
370
    50
100
AcDbLine
 10
58.0
 20
-7.91307068
 30
0.0
 11
57.96003723
 21
-7.87309265
 31
0.0
  0
LINE
  5
C7
330
1D
100
AcDbEntity
  8
1
  6
Continuous
370
    50
100
AcDbLine
 10
58.0
 20
-8.05453491
 30
0.0
 11
57.87036133
 21
-7.92489624
 31
0.0
  0
LINE
  5
C8
330
1D
100
AcDbEntity
  8
1
  6
Continuous
370
    50
100
AcDbLine
 10
58.0
 20
-8.19592285
 30
0.0
 11
57.78070068
 21
-7.97662354
 31
0.0
  0
LINE
  5
C9
330
1D
100
AcDbEntity
  8
1
  6
Continuous
370
    50
100
AcDbLine
 10
58.0
 20
-8.33734131
 30
0.0
 11
57.69102478
 21
-8.02842712
 31
0.0
  0
LINE
  5
CA
330
1D
100
AcDbEntity
  8
1
  6
Continuous
370
    50
100
AcDbLine
 10
58.0
 20
-8.47875977
 30
0.0
 11
57.60142517
 21
-8.08015442
 31
0.0
  0
LINE
  5
CB
330
1D
100
AcDbEntity
  8
1
  6
Continuous
370
    50
100
AcDbLine
 10
58.0
 20
-8.62020874
 30
0.0
 11
57.51174927
 21
-8.13197327
 31
0.0
  0
LINE
  5
CC
330
1D
100
AcDbEntity
  8
1
  6
Continuous
370
    50
100
AcDbLine
 10
58.0
 20
-8.76161194
 30
0.0
 11
57.42207336
 21
-8.18370056
 31
0.0
  0
LINE
  5
CD
330
1D
100
AcDbEntity
  8
1
  6
Continuous
370
    50
100
AcDbLine
 10
58.0
 20
-8.90304565
 30
0.0
 11
57.33242798
 21
-8.23547363
 31
0.0
  0
LINE
  5
CE
330
1D
100
AcDbEntity
  8
1
  6
Continuous
370
    50
100
AcDbLine
 10
58.0
 20
-9.04443359
 30
0.0
 11
57.24275208
 21
-8.28718567
 31
0.0
  0
LINE
  5
CF
330
1D
100
AcDbEntity
  8
1
  6
Continuous
370
    50
100
AcDbLine
 10
58.0
 20
-9.18586731
 30
0.0
 11
57.15310669
 21
-8.33898926
 31
0.0
  0
LINE
  5
D0
330
1D
100
AcDbEntity
  8
1
  6
Continuous
370
    50
100
AcDbLine
 10
58.0
 20
-9.32727051
 30
0.0
 11
57.06347656
 21
-8.39074707
 31
0.0
  0
LINE
  5
D1
330
1D
100
AcDbEntity
  8
1
  6
Continuous
370
    50
100
AcDbLine
 10
58.0
 20
-9.46871948
 30
0.0
 11
56.97383118
 21
-8.4425354
 31
0.0
  0
LINE
  5
D2
330
1D
100
AcDbEntity
  8
1
  6
Continuous
370
    50
100
AcDbLine
 10
58.0
 20
-9.61010742
 30
0.0
 11
56.88415527
 21
-8.4942627
 31
0.0
  0
LINE
  5
D3
330
1D
100
AcDbEntity
  8
1
  6
Continuous
370
    50
100
AcDbLine
 10
58.0
 20
-9.75154114
 30
0.0
 11
56.79449463
 21
-8.54603577
 31
0.0
  0
LINE
  5
D4
330
1D
100
AcDbEntity
  8
1
  6
Continuous
370
    50
100
AcDbLine
 10
58.0
 20
-9.89294434
 30
0.0
 11
56.70483398
 21
-8.5978241
 31
0.0
  0
LINE
  5
D5
330
1D
100
AcDbEntity
  8
1
  6
Continuous
370
    50
100
AcDbLine
 10
58.0
 20
-10.03437805
 30
0.0
 11
56.61515808
 21
-8.64958191
 31
0.0
  0
LINE
  5
D6
330
1D
100
AcDbEntity
  8
1
  6
Continuous
370
    50
100
AcDbLine
 10
58.0
 20
-10.17578125
 30
0.0
 11
56.5255127
 21
-8.70132446
 31
0.0
  0
LINE
  5
D7
330
1D
100
AcDbEntity
  8
1
  6
Continuous
370
    50
100
AcDbLine
 10
58.0
 20
-10.31723022
 30
0.0
 11
56.43586731
 21
-8.75309753
 31
0.0
  0
LINE
  5
D8
330
1D
100
AcDbEntity
  8
1
  6
Continuous
370
    50
100
AcDbLine
 10
58.0
 20
-10.45864868
 30
0.0
 11
56.34622192
 21
-8.80490112
 31
0.0
  0
LINE
  5
D9
330
1D
100
AcDbEntity
  8
1
  6
Continuous
370
    50
100
AcDbLine
 10
58.0
 20
-10.60005188
 30
0.0
 11
56.25656128
 21
-8.8565979
 31
0.0
  0
LINE
  5
DA
330
1D
100
AcDbEntity
  8
1
  6
Continuous
370
    50
100
AcDbLine
 10
57.78366089
 20
-10.52511597
 30
0.0
 11
56.16688538
 21
-8.90840149
 31
0.0
  0
LINE
  5
DB
330
1D
100
AcDbEntity
  8
1
  6
Continuous
370
    50
100
AcDbLine
 10
57.44908142
 20
-10.3319397
 30
0.0
 11
56.07728577
 21
-8.9601593
 31
0.0
  0
LINE
  5
DC
330
1D
100
AcDbEntity
  8
1
  6
Continuous
370
    50
100
AcDbLine
 10
57.11448669
 20
-10.13879395
 30
0.0
 11
55.98762512
 21
-9.01194763
 31
0.0
  0
LINE
  5
DD
330
1D
100
AcDbEntity
  8
1
  6
Continuous
370
    50
100
AcDbLine
 10
56.77987671
 20
-9.94554138
 30
0.0
 11
55.89794922
 21
-9.06364441
 31
0.0
  0
LINE
  5
DE
330
1D
100
AcDbEntity
  8
1
  6
Continuous
370
    50
100
AcDbLine
 10
56.44525146
 20
-9.75241089
 30
0.0
 11
55.80828857
 21
-9.11546326
 31
0.0
  0
LINE
  5
DF
330
1D
100
AcDbEntity
  8
1
  6
Continuous
370
    50
100
AcDbLine
 10
56.11065674
 20
-9.5592041
 30
0.0
 11
55.71862793
 21
-9.16717529
 31
0.0
  0
LINE
  5
E0
330
1D
100
AcDbEntity
  8
1
  6
Continuous
370
    50
100
AcDbLine
 10
55.77606201
 20
-9.36605835
 30
0.0
 11
55.62896729
 21
-9.21896362
 31
0.0
  0
LINE
  5
E1
330
1D
100
AcDbEntity
  8
1
  6
Continuous
370
    50
100
AcDbLine
 10
58.0
 20
-7.85006714
 30
0.0
 11
55.57513428
 21
-9.25006104
 31
0.0
  0
LINE
  5
E2
330
1D
100
AcDbEntity
  8
1
  6
Continuous
370
    50
100
AcDbLine
 10
58.0
 20
-10.65003967
 30
0.0
 11
55.57513428
 21
-9.25004578
 31
0.0
  0
LINE
  5
E3
330
1D
100
AcDbEntity
  8
1
  6
Continuous
370
    50
100
AcDbLine
 10
58.0
 20
-7.85006714
 30
0.0
 11
58.0
 21
-10.65007019
 31
0.0
  0
LINE
  5
E4
330
1D
100
AcDbEntity
  8
1
  6
Continuous
370
    50
100
AcDbLine
 10
58.35002136
 20
-19.39001465
 30
0.0
 11
54.65003967
 21
-19.39001465
 31
0.0
  0
LINE
  5
E5
330
1D
100
AcDbEntity
  8
1
  6
Continuous
370
    50
100
AcDbLine
 10
58.35002136
 20
-20.39001465
 30
0.0
 11
54.65003967
 21
-20.39001465
 31
0.0
  0
LINE
  5
E6
330
1D
100
AcDbEntity
  8
1
  6
Continuous
370
    50
100
AcDbLine
 10
58.35002136
 20
-21.39002991
 30
0.0
 11
54.65003967
 21
-21.39002991
 31
0.0
  0
LINE
  5
E7
330
1D
100
AcDbEntity
  8
1
  6
Continuous
370
    50
100
AcDbLine
 10
58.35002136
 20
-22.39003754
 30
0.0
 11
54.65003967
 21
-22.39003754
 31
0.0
  0
LINE
  5
E8
330
1D
100
AcDbEntity
  8
1
  6
Continuous
370
    50
100
AcDbLine
 10
58.35002136
 20
-23.39002991
 30
0.0
 11
54.65003967
 21
-23.39002991
 31
0.0
  0
LINE
  5
E9
330
1D
100
AcDbEntity
  8
1
  6
Continuous
370
    50
100
AcDbLine
 10
58.35002136
 20
-24.39001465
 30
0.0
 11
54.65003967
 21
-24.39001465
 31
0.0
  0
LINE
  5
EA
330
1D
100
AcDbEntity
  8
1
  6
Continuous
370
    50
100
AcDbLine
 10
58.35002136
 20
-25.39002991
 30
0.0
 11
54.65003967
 21
-25.39002991
 31
0.0
  0
LINE
  5
EB
330
1D
100
AcDbEntity
  8
1
  6
Continuous
370
    50
100
AcDbLine
 10
58.35002136
 20
-26.39002228
 30
0.0
 11
54.65003967
 21
-26.39002228
 31
0.0
  0
LINE
  5
EC
330
1D
100
AcDbEntity
  8
1
  6
Continuous
370
    50
100
AcDbLine
 10
58.35002136
 20
-27.39002991
 30
0.0
 11
54.65003967
 21
-27.39002991
 31
0.0
  0
LINE
  5
ED
330
1D
100
AcDbEntity
  8
1
  6
Continuous
370
    50
100
AcDbLine
 10
58.35002136
 20
-28.39003754
 30
0.0
 11
54.65003967
 21
-28.39003754
 31
0.0
  0
LINE
  5
EE
330
1D
100
AcDbEntity
  8
1
  6
Continuous
370
    50
100
AcDbLine
 10
58.35002136
 20
-29.39006042
 30
0.0
 11
54.65003967
 21
-29.39006042
 31
0.0
  0
LINE
  5
EF
330
1D
100
AcDbEntity
  8
1
  6
Continuous
370
    50
100
AcDbLine
 10
58.35002136
 20
-30.39006042
 30
0.0
 11
54.65003967
 21
-30.39006042
 31
0.0
  0
ARC
  5
F0
330
1D
100
AcDbEntity
  8
1
  6
Continuous
370
    50
100
AcDbCircle
 10
58.918988651
 20
-16.127374104
 30
0.0
 40
4.953582116
100
AcDbArc
 50
186.775292425
 51
210.480326229
  0
LINE
  5
F1
330
1D
100
AcDbEntity
  8
1
  6
Continuous
370
    50
100
AcDbLine
 10
58.35002136
 20
-18.64006042
 30
0.0
 11
58.35002136
 21
-32.50003815
 31
0.0
  0
LINE
  5
F2
330
1D
100
AcDbEntity
  8
1
  6
Continuous
370
    50
100
AcDbLine
 10
54.65000916
 20
-18.64006042
 30
0.0
 11
54.65000916
 21
-32.50003815
 31
0.0
  0
ARC
  5
F3
330
1D
100
AcDbEntity
  8
1
  6
Continuous
370
    50
100
AcDbCircle
 10
53.696800257
 20
-15.934796241
 30
0.0
 40
5.382431537
100
AcDbArc
 50
329.827404594
 51
331.695202444
  0
ARC
  5
F4
330
1D
100
AcDbEntity
  8
1
  6
Continuous
370
    50
100
AcDbCircle
 10
54.116839945
 20
-16.136801709
 30
0.0
 40
4.916875672
100
AcDbArc
 50
331.446836656
 51
353.286375408
  0
LINE
  5
F5
330
1D
100
AcDbEntity
  8
1
  6
Continuous
370
    50
100
AcDbLine
 10
58.35002136
 20
-18.64006042
 30
0.0
 11
54.65003967
 21
-18.64006042
 31
0.0
  0
LINE
  5
F6
330
1D
100
AcDbEntity
  8
SK3
  6
DASH
370
    35
100
AcDbLine
 10
17.0
 20
18.0
 30
0.0
 11
14.11325073
 21
13.0
 31
0.0
  0
LINE
  5
F7
330
1D
100
AcDbEntity
  8
SK3
  6
DASH
370
    35
100
AcDbLine
 10
17.0
 20
18.0
 30
0.0
 11
17.0
 21
-18.0
 31
0.0
  0
LINE
  5
F8
330
1D
100
AcDbEntity
  8
SK3
  6
DASH
370
    35
100
AcDbLine
 10
17.0
 20
18.0
 30
0.0
 11
59.0
 21
18.0
 31
0.0
  0
LINE
  5
F9
330
1D
100
AcDbEntity
  8
SK3
  6
DASH
370
    35
100
AcDbLine
 10
14.11325073
 20
13.0
 30
0.0
 11
14.11325073
 21
-13.00001526
 31
0.0
  0
LINE
  5
FA
330
1D
100
AcDbEntity
  8
SK3
  6
DASH
370
    35
100
AcDbLine
 10
3.19998169
 20
29.33345032
 30
0.0
 11
16.09716797
 21
16.4362793
 31
0.0
  0
LINE
  5
FB
330
1D
100
AcDbEntity
  8
4
  6
LONGDASH_DASH
370
    25
100
AcDbLine
 10
2.19998169
 20
28.0
 30
0.0
 11
15.97512054
 21
14.22488403
 31
0.0
  0
LINE
  5
FC
330
1D
100
AcDbEntity
  8
SK3
  6
DASH
370
    35
100
AcDbLine
 10
3.19998169
 20
24.66654968
 30
0.0
 11
14.38896179
 21
13.47756958
 31
0.0
  0
LINE
  5
FD
330
1D
100
AcDbEntity
  8
SK3
  6
DASH
370
    35
100
AcDbLine
 10
-59.75000381
 20
8.5
 30
0.0
 11
-68.25
 21
8.5
 31
0.0
  0
LINE
  5
FE
330
1D
100
AcDbEntity
  8
SK3
  6
DASH
370
    35
100
AcDbLine
 10
-58.88398361
 20
7.0
 30
0.0
 11
-58.88397598
 21
-7.0
 31
0.0
  0
LINE
  5
FF
330
1D
100
AcDbEntity
  8
SK3
  6
DASH
370
    35
100
AcDbLine
 10
-34.25
 20
8.0
 30
0.0
 11
-59.46133423
 21
8.0
 31
0.0
  0
LINE
  5
100
330
1D
100
AcDbEntity
  8
SK3
  6
DASH
370
    35
100
AcDbLine
 10
-59.75000381
 20
8.5
 30
0.0
 11
-58.88397598
 21
7.0
 31
0.0
  0
LINE
  5
101
330
1D
100
AcDbEntity
  8
SK3
  6
DASH
370
    35
100
AcDbLine
 10
-59.75000381
 20
8.5
 30
0.0
 11
-59.75000381
 21
-8.5
 31
0.0
  0
LINE
  5
102
330
1D
100
AcDbEntity
  8
SK3
  6
DASH
370
    35
100
AcDbLine
 10
-34.25
 20
8.0
 30
0.0
 11
-34.25
 21
-8.0
 31
0.0
  0
LINE
  5
103
330
1D
100
AcDbEntity
  8
SK3
  6
DASH
370
    35
100
AcDbLine
 10
-34.25
 20
8.0
 30
0.0
 11
-30.51794434
 21
7.0
 31
0.0
  0
LINE
  5
104
330
1D
100
AcDbEntity
  8
SK3
  6
DASH
370
    35
100
AcDbLine
 10
-14.4641037
 20
7.0
 30
0.0
 11
-18.732009219
 21
7.0
 31
0.0
  0
LINE
  5
105
330
1D
100
AcDbEntity
  8
SK3
  6
DASH
370
    35
100
AcDbLine
 10
-26.255461484
 20
7.0
 30
0.0
 11
-58.8839798
 21
7.0
 31
0.0
  0
LINE
  5
106
330
1D
100
AcDbEntity
  8
SK3
  6
DASH
370
    35
100
AcDbLine
 10
-14.4641037
 20
7.0
 30
0.0
 11
-14.4641037
 21
-7.0
 31
0.0
  0
LINE
  5
107
330
1D
100
AcDbEntity
  8
SK3
  6
DASH
370
    35
100
AcDbLine
 10
-11.0
 20
13.0
 30
0.0
 11
-14.4641037
 21
7.0
 31
0.0
  0
LINE
  5
108
330
1D
100
AcDbEntity
  8
SK3
  6
DASH
370
    35
100
AcDbLine
 10
-11.0
 20
13.0
 30
0.0
 11
-11.0
 21
-13.0
 31
0.0
  0
LINE
  5
109
330
1D
100
AcDbEntity
  8
SK3
  6
DASH
370
    35
100
AcDbLine
 10
14.11325073
 20
13.0
 30
0.0
 11
-11.0
 21
13.0
 31
0.0
  0
LINE
  5
10A
330
1D
100
AcDbEntity
  8
4
  6
LONGDASH_DASH
370
    25
100
AcDbLine
 10
61.0
 20
0.0
 30
0.0
 11
-18.732009219
 21
0.0
 31
0.0
  0
LINE
  5
10B
330
1D
100
AcDbEntity
  8
4
  6
LONGDASH_DASH
370
    25
100
AcDbLine
 10
-26.255461484
 20
0.0
 30
0.0
 11
-70.25
 21
0.0
 31
0.0
  0
LINE
  5
10C
330
1D
100
AcDbEntity
  8
4
  6
LONGDASH_DASH
370
    25
100
AcDbLine
 10
42.94999695
 20
-7.0
 30
0.0
 11
42.94999695
 21
7.0
 31
0.0
  0
LINE
  5
10D
330
1D
100
AcDbEntity
  8
SK3
  6
DASH
370
    35
100
AcDbLine
 10
17.0
 20
-18.0
 30
0.0
 11
14.11325073
 21
-13.00001526
 31
0.0
  0
LINE
  5
10E
330
1D
100
AcDbEntity
  8
SK3
  6
DASH
370
    35
100
AcDbLine
 10
17.0
 20
-18.0
 30
0.0
 11
59.0
 21
-18.0
 31
0.0
  0
LINE
  5
10F
330
1D
100
AcDbEntity
  8
SK3
  6
DASH
370
    35
100
AcDbLine
 10
3.19998169
 20
-29.33345032
 30
0.0
 11
16.09716797
 21
-16.4362793
 31
0.0
  0
LINE
  5
110
330
1D
100
AcDbEntity
  8
4
  6
LONGDASH_DASH
370
    25
100
AcDbLine
 10
2.19998169
 20
-28.0
 30
0.0
 11
15.97512054
 21
-14.22488403
 31
0.0
  0
LINE
  5
111
330
1D
100
AcDbEntity
  8
SK3
  6
DASH
370
    35
100
AcDbLine
 10
3.19998169
 20
-24.66654968
 30
0.0
 11
14.38896179
 21
-13.47756958
 31
0.0
  0
LINE
  5
112
330
1D
100
AcDbEntity
  8
SK3
  6
DASH
370
    35
100
AcDbLine
 10
-59.75000381
 20
-8.5
 30
0.0
 11
-68.25
 21
-8.5
 31
0.0
  0
LINE
  5
113
330
1D
100
AcDbEntity
  8
SK3
  6
DASH
370
    35
100
AcDbLine
 10
-34.25
 20
-8.0
 30
0.0
 11
-59.4613266
 21
-8.0
 31
0.0
  0
LINE
  5
114
330
1D
100
AcDbEntity
  8
SK3
  6
DASH
370
    35
100
AcDbLine
 10
-59.75000381
 20
-8.5
 30
0.0
 11
-58.88397598
 21
-7.0
 31
0.0
  0
LINE
  5
115
330
1D
100
AcDbEntity
  8
SK3
  6
DASH
370
    35
100
AcDbLine
 10
-34.25
 20
-8.0
 30
0.0
 11
-30.51794434
 21
-7.0
 31
0.0
  0
LINE
  5
116
330
1D
100
AcDbEntity
  8
SK3
  6
DASH
370
    35
100
AcDbLine
 10
-14.4641037
 20
-7.0
 30
0.0
 11
-18.732009219
 21
-7.0
 31
0.0
  0
LINE
  5
117
330
1D
100
AcDbEntity
  8
SK3
  6
DASH
370
    35
100
AcDbLine
 10
-26.255461484
 20
-7.0
 30
0.0
 11
-58.88397217
 21
-7.0
 31
0.0
  0
LINE
  5
118
330
1D
100
AcDbEntity
  8
SK3
  6
DASH
370
    35
100
AcDbLine
 10
-11.0
 20
-13.0
 30
0.0
 11
-14.4641037
 21
-7.0
 31
0.0
  0
LINE
  5
119
330
1D
100
AcDbEntity
  8
SK3
  6
DASH
370
    35
100
AcDbLine
 10
14.1132431
 20
-13.0
 30
0.0
 11
-11.0
 21
-13.0
 31
0.0
  0
LINE
  5
11A
330
1D
100
AcDbEntity
  8
1
  6
Continuous
370
    50
100
AcDbLine
 10
0.0
 20
22.2250061
 30
0.0
 11
0.0
 21
-22.22499847
 31
0.0
  0
LINE
  5
11B
330
1D
100
AcDbEntity
  8
SK1
100
AcDbLine
 10
-68.25
 20
11.19088745
 30
0.0
 11
-68.25
 21
-11.19085693
 31
0.0
  0
LINE
  5
11C
330
1D
100
AcDbEntity
  8
SK1
100
AcDbLine
 10
0.0
 20
22.2250061
 30
0.0
 11
-67.1803894
 21
12.42779541
 31
0.0
  0
ARC
  5
11D
330
1D
100
AcDbEntity
  8
SK1
100
AcDbCircle
 10
-67.0
 20
11.19088745
 30
0.0
 40
1.25
100
AcDbArc
 50
98.29736328
 51
180.0
  0
LINE
  5
11E
330
1D
100
AcDbEntity
  8
SK1
100
AcDbLine
 10
0.0
 20
-22.22499084
 30
0.0
 11
-67.18038177
 21
-12.42779541
 31
0.0
  0
ARC
  5
11F
330
1D
100
AcDbEntity
  8
SK1
100
AcDbCircle
 10
-67.0
 20
-11.19087219
 30
0.0
 40
1.25
100
AcDbArc
 50
180.0
 51
261.7029418900001
  0
LINE
  5
120
330
1D
100
AcDbEntity
  8
SK2
100
AcDbLine
 10
-22.0
 20
-22.22499084
 30
0.0
 11
0.0
 21
-22.22499084
 31
0.0
  0
LINE
  5
121
330
1D
100
AcDbEntity
  8
SK2
100
AcDbLine
 10
-20.0
 20
-22.22499084
 30
0.0
 11
-20.45
 21
-18.72499084
 31
0.0
  0
LINE
  5
122
330
1D
100
AcDbEntity
  8
SK2
100
AcDbLine
 10
-20.45
 20
-18.72499084
 30
0.0
 11
-19.55
 21
-18.72499084
 31
0.0
  0
LINE
  5
123
330
1D
100
AcDbEntity
  8
SK2
100
AcDbLine
 10
-19.55
 20
-18.72499084
 30
0.0
 11
-20.0
 21
-22.22499084
 31
0.0
  0
LINE
  5
124
330
1D
100
AcDbEntity
  8
SK2
100
AcDbLine
 10
-20.0
 20
-18.82499084
 30
0.0
 11
-20.0
 21
-22.12499084
 31
0.0
  0
LINE
  5
125
330
1D
100
AcDbEntity
  8
SK2
100
AcDbLine
 10
-19.8
 20
-18.82499084
 30
0.0
 11
-19.8
 21
-20.569435284
 31
0.0
  0
LINE
  5
126
330
1D
100
AcDbEntity
  8
SK2
100
AcDbLine
 10
-20.2
 20
-18.82499084
 30
0.0
 11
-20.2
 21
-20.569435284
 31
0.0
  0
LINE
  5
127
330
1D
100
AcDbEntity
  8
SK2
100
AcDbLine
 10
-19.6
 20
-18.82499084
 30
0.0
 11
-19.6
 21
-19.013879729
 31
0.0
  0
LINE
  5
128
330
1D
100
AcDbEntity
  8
SK2
100
AcDbLine
 10
-20.4
 20
-18.82499084
 30
0.0
 11
-20.4
 21
-19.013879729
 31
0.0
  0
LINE
  5
129
330
1D
100
AcDbEntity
  8
SK2
100
AcDbLine
 10
-22.0
 20
22.2250061
 30
0.0
 11
0.0
 21
22.2250061
 31
0.0
  0
LINE
  5
12A
330
1D
100
AcDbEntity
  8
SK2
100
AcDbLine
 10
-20.0
 20
22.2250061
 30
0.0
 11
-19.55
 21
18.7250061
 31
0.0
  0
LINE
  5
12B
330
1D
100
AcDbEntity
  8
SK2
100
AcDbLine
 10
-19.55
 20
18.7250061
 30
0.0
 11
-20.45
 21
18.7250061
 31
0.0
  0
LINE
  5
12C
330
1D
100
AcDbEntity
  8
SK2
100
AcDbLine
 10
-20.45
 20
18.7250061
 30
0.0
 11
-20.0
 21
22.2250061
 31
0.0
  0
LINE
  5
12D
330
1D
100
AcDbEntity
  8
SK2
100
AcDbLine
 10
-20.0
 20
18.8250061
 30
0.0
 11
-20.0
 21
22.1250061
 31
0.0
  0
LINE
  5
12E
330
1D
100
AcDbEntity
  8
SK2
100
AcDbLine
 10
-20.2
 20
18.8250061
 30
0.0
 11
-20.2
 21
20.569450544
 31
0.0
  0
LINE
  5
12F
330
1D
100
AcDbEntity
  8
SK2
100
AcDbLine
 10
-19.8
 20
18.8250061
 30
0.0
 11
-19.8
 21
20.569450544
 31
0.0
  0
LINE
  5
130
330
1D
100
AcDbEntity
  8
SK2
100
AcDbLine
 10
-20.4
 20
18.8250061
 30
0.0
 11
-20.4
 21
19.013894989
 31
0.0
  0
LINE
  5
131
330
1D
100
AcDbEntity
  8
SK2
100
AcDbLine
 10
-19.6
 20
18.8250061
 30
0.0
 11
-19.6
 21
19.013894989
 31
0.0
  0
LINE
  5
132
330
1D
100
AcDbEntity
  8
SK2
100
AcDbLine
 10
-20.0
 20
-18.72499084
 30
0.0
 11
-20.0
 21
18.7250061
 31
0.0
  0
TEXT
  5
133
330
1D
100
AcDbEntity
  8
SK2
100
AcDbText
 10
-21.5
 20
-2.539680367
 30
0.0
 40
3.5
  1
44.45
 50
90.0
  7
BMG_Text
100
AcDbText
  0
CIRCLE
  5
134
330
1D
100
AcDbEntity
  8
SK2
100
AcDbCircle
 10
-22.75
 20
-4.789680367
 30
0.0
 40
1.25
  0
LINE
  5
135
330
1D
100
AcDbEntity
  8
SK2
100
AcDbLine
 10
-21.5
 20
-6.039680367
 30
0.0
 11
-24.0
 21
-3.539680367
 31
0.0
  0
LINE
  5
136
330
1D
100
AcDbEntity
  8
2
  6
Continuous
370
    25
100
AcDbLine
 10
0.0
 20
-46.499999995
 30
0.0
 11
0.0
 21
-22.22499084
 31
0.0
  0
LINE
  5
137
330
1D
100
AcDbEntity
  8
2
  6
Continuous
370
    25
100
AcDbLine
 10
0.0
 20
-44.499999995
 30
0.0
 11
3.5
 21
-44.049999995
 31
0.0
  0
LINE
  5
138
330
1D
100
AcDbEntity
  8
2
  6
Continuous
370
    25
100
AcDbLine
 10
3.5
 20
-44.049999995
 30
0.0
 11
3.5
 21
-44.949999995
 31
0.0
  0
LINE
  5
139
330
1D
100
AcDbEntity
  8
2
  6
Continuous
370
    25
100
AcDbLine
 10
3.5
 20
-44.949999995
 30
0.0
 11
0.0
 21
-44.499999995
 31
0.0
  0
LINE
  5
13A
330
1D
100
AcDbEntity
  8
2
  6
Continuous
370
    25
100
AcDbLine
 10
3.4
 20
-44.499999995
 30
0.0
 11
0.1
 21
-44.499999995
 31
0.0
  0
LINE
  5
13B
330
1D
100
AcDbEntity
  8
2
  6
Continuous
370
    25
100
AcDbLine
 10
3.4
 20
-44.699999995
 30
0.0
 11
1.655555556
 21
-44.699999995
 31
0.0
  0
LINE
  5
13C
330
1D
100
AcDbEntity
  8
2
  6
Continuous
370
    25
100
AcDbLine
 10
3.4
 20
-44.299999995
 30
0.0
 11
1.655555556
 21
-44.299999995
 31
0.0
  0
LINE
  5
13D
330
1D
100
AcDbEntity
  8
2
  6
Continuous
370
    25
100
AcDbLine
 10
3.4
 20
-44.899999995
 30
0.0
 11
3.211111111
 21
-44.899999995
 31
0.0
  0
LINE
  5
13E
330
1D
100
AcDbEntity
  8
2
  6
Continuous
370
    25
100
AcDbLine
 10
3.4
 20
-44.099999995
 30
0.0
 11
3.211111111
 21
-44.099999995
 31
0.0
  0
LINE
  5
13F
330
1D
100
AcDbEntity
  8
2
  6
Continuous
370
    25
100
AcDbLine
 10
59.0
 20
-46.499999999
 30
0.0
 11
59.0
 21
-31.37422943
 31
0.0
  0
LINE
  5
140
330
1D
100
AcDbEntity
  8
2
  6
Continuous
370
    25
100
AcDbLine
 10
59.0
 20
-44.499999999
 30
0.0
 11
55.5
 21
-44.949999999
 31
0.0
  0
LINE
  5
141
330
1D
100
AcDbEntity
  8
2
  6
Continuous
370
    25
100
AcDbLine
 10
55.5
 20
-44.949999999
 30
0.0
 11
55.5
 21
-44.049999999
 31
0.0
  0
LINE
  5
142
330
1D
100
AcDbEntity
  8
2
  6
Continuous
370
    25
100
AcDbLine
 10
55.5
 20
-44.049999999
 30
0.0
 11
59.0
 21
-44.499999999
 31
0.0
  0
LINE
  5
143
330
1D
100
AcDbEntity
  8
2
  6
Continuous
370
    25
100
AcDbLine
 10
55.6
 20
-44.499999999
 30
0.0
 11
58.9
 21
-44.499999999
 31
0.0
  0
LINE
  5
144
330
1D
100
AcDbEntity
  8
2
  6
Continuous
370
    25
100
AcDbLine
 10
55.6
 20
-44.299999999
 30
0.0
 11
57.344444444
 21
-44.299999999
 31
0.0
  0
LINE
  5
145
330
1D
100
AcDbEntity
  8
2
  6
Continuous
370
    25
100
AcDbLine
 10
55.6
 20
-44.699999999
 30
0.0
 11
57.344444444
 21
-44.699999999
 31
0.0
  0
LINE
  5
146
330
1D
100
AcDbEntity
  8
2
  6
Continuous
370
    25
100
AcDbLine
 10
55.6
 20
-44.099999999
 30
0.0
 11
55.788888889
 21
-44.099999999
 31
0.0
  0
LINE
  5
147
330
1D
100
AcDbEntity
  8
2
  6
Continuous
370
    25
100
AcDbLine
 10
55.6
 20
-44.899999999
 30
0.0
 11
55.788888889
 21
-44.899999999
 31
0.0
  0
LINE
  5
148
330
1D
100
AcDbEntity
  8
2
  6
Continuous
370
    25
100
AcDbLine
 10
3.5
 20
-44.499999995
 30
0.0
 11
55.5
 21
-44.499999999
 31
0.0
  0
TEXT
  5
149
330
1D
100
AcDbEntity
  8
2
  6
Continuous
370
    25
100
AcDbText
 10
27.999374341
 20
-42.999999997
 30
0.0
 40
3.5
  1
59
 50
359.999999997
  7
BMG_Text
100
AcDbText
  0
LINE
  5
14A
330
1D
100
AcDbEntity
  8
2
  6
Continuous
370
    25
100
AcDbLine
 10
90.000015259
 20
-32.5
 30
0.0
 11
58.0
 21
-32.5
 31
0.0
  0
LINE
  5
14B
330
1D
100
AcDbEntity
  8
2
  6
Continuous
370
    25
100
AcDbLine
 10
88.000015259
 20
-32.5
 30
0.0
 11
87.550013615
 21
-29.000000211
 31
0.0
  0
LINE
  5
14C
330
1D
100
AcDbEntity
  8
2
  6
Continuous
370
    25
100
AcDbLine
 10
87.550013615
 20
-29.000000211
 30
0.0
 11
88.450013615
 21
-28.999999789
 31
0.0
  0
LINE
  5
14D
330
1D
100
AcDbEntity
  8
2
  6
Continuous
370
    25
100
AcDbLine
 10
88.450013615
 20
-28.999999789
 30
0.0
 11
88.000015259
 21
-32.5
 31
0.0
  0
LINE
  5
14E
330
1D
100
AcDbEntity
  8
2
  6
Continuous
370
    25
100
AcDbLine
 10
88.000013662
 20
-29.1
 30
0.0
 11
88.000015212
 21
-32.4
 31
0.0
  0
LINE
  5
14F
330
1D
100
AcDbEntity
  8
2
  6
Continuous
370
    25
100
AcDbLine
 10
88.200013662
 20
-29.099999906
 30
0.0
 11
88.200014481
 21
-30.844444351
 31
0.0
  0
LINE
  5
150
330
1D
100
AcDbEntity
  8
2
  6
Continuous
370
    25
100
AcDbLine
 10
87.800013662
 20
-29.100000094
 30
0.0
 11
87.800014481
 21
-30.844444538
 31
0.0
  0
LINE
  5
151
330
1D
100
AcDbEntity
  8
2
  6
Continuous
370
    25
100
AcDbLine
 10
88.400013662
 20
-29.099999812
 30
0.0
 11
88.400013751
 21
-29.288888701
 31
0.0
  0
LINE
  5
152
330
1D
100
AcDbEntity
  8
2
  6
Continuous
370
    25
100
AcDbLine
 10
87.600013662
 20
-29.100000188
 30
0.0
 11
87.600013751
 21
-29.288889077
 31
0.0
  0
LINE
  5
153
330
1D
100
AcDbEntity
  8
2
  6
Continuous
370
    25
100
AcDbLine
 10
89.99998474
 20
32.50001526
 30
0.0
 11
57.99998474
 21
32.50001526
 31
0.0
  0
LINE
  5
154
330
1D
100
AcDbEntity
  8
2
  6
Continuous
370
    25
100
AcDbLine
 10
87.99998474
 20
32.50001526
 30
0.0
 11
88.449986383
 21
29.000015471
 31
0.0
  0
LINE
  5
155
330
1D
100
AcDbEntity
  8
2
  6
Continuous
370
    25
100
AcDbLine
 10
88.449986383
 20
29.000015471
 30
0.0
 11
87.549986383
 21
29.000015049
 31
0.0
  0
LINE
  5
156
330
1D
100
AcDbEntity
  8
2
  6
Continuous
370
    25
100
AcDbLine
 10
87.549986383
 20
29.000015049
 30
0.0
 11
87.99998474
 21
32.50001526
 31
0.0
  0
LINE
  5
157
330
1D
100
AcDbEntity
  8
2
  6
Continuous
370
    25
100
AcDbLine
 10
87.999986336
 20
29.10001526
 30
0.0
 11
87.999984787
 21
32.40001526
 31
0.0
  0
LINE
  5
158
330
1D
100
AcDbEntity
  8
2
  6
Continuous
370
    25
100
AcDbLine
 10
87.799986336
 20
29.100015166
 30
0.0
 11
87.799985517
 21
30.844459611
 31
0.0
  0
LINE
  5
159
330
1D
100
AcDbEntity
  8
2
  6
Continuous
370
    25
100
AcDbLine
 10
88.199986336
 20
29.100015354
 30
0.0
 11
88.199985517
 21
30.844459798
 31
0.0
  0
LINE
  5
15A
330
1D
100
AcDbEntity
  8
2
  6
Continuous
370
    25
100
AcDbLine
 10
87.599986336
 20
29.100015072
 30
0.0
 11
87.599986248
 21
29.288903961
 31
0.0
  0
LINE
  5
15B
330
1D
100
AcDbEntity
  8
2
  6
Continuous
370
    25
100
AcDbLine
 10
88.399986336
 20
29.100015448
 30
0.0
 11
88.399986248
 21
29.288904337
 31
0.0
  0
LINE
  5
15C
330
1D
100
AcDbEntity
  8
2
  6
Continuous
370
    25
100
AcDbLine
 10
88.000013615
 20
-29.0
 30
0.0
 11
87.999986383
 21
29.00001526
 31
0.0
  0
TEXT
  5
15D
330
1D
100
AcDbEntity
  8
2
  6
Continuous
370
    25
100
AcDbText
 10
86.499999882
 20
0.249381199
 30
0.0
 40
3.5
  1
65
 50
90.00002690100003
  7
BMG_Text
100
AcDbText
  0
CIRCLE
  5
15E
330
1D
100
AcDbEntity
  8
2
  6
Continuous
370
    25
100
AcDbCircle
 10
85.250000939
 20
-2.000619388
 30
0.0
 40
1.25
  0
LINE
  5
15F
330
1D
100
AcDbEntity
  8
2
  6
Continuous
370
    25
100
AcDbLine
 10
86.500001526
 20
-3.250618801
 30
0.0
 11
84.000000352
 21
-0.750619975
 31
0.0
  0
LINE
  5
160
330
1D
100
AcDbEntity
  8
2
  6
Continuous
370
    25
100
AcDbLine
 10
82.000000002
 20
-25.0
 30
0.0
 11
34.19999695
 21
-25.0
 31
0.0
  0
LINE
  5
161
330
1D
100
AcDbEntity
  8
2
  6
Continuous
370
    25
100
AcDbLine
 10
80.000000002
 20
-25.0
 30
0.0
 11
79.550000002
 21
-21.5
 31
0.0
  0
LINE
  5
162
330
1D
100
AcDbEntity
  8
2
  6
Continuous
370
    25
100
AcDbLine
 10
79.550000002
 20
-21.5
 30
0.0
 11
80.450000002
 21
-21.5
 31
0.0
  0
LINE
  5
163
330
1D
100
AcDbEntity
  8
2
  6
Continuous
370
    25
100
AcDbLine
 10
80.450000002
 20
-21.5
 30
0.0
 11
80.000000002
 21
-25.0
 31
0.0
  0
LINE
  5
164
330
1D
100
AcDbEntity
  8
2
  6
Continuous
370
    25
100
AcDbLine
 10
80.000000002
 20
-21.6
 30
0.0
 11
80.000000002
 21
-24.9
 31
0.0
  0
LINE
  5
165
330
1D
100
AcDbEntity
  8
2
  6
Continuous
370
    25
100
AcDbLine
 10
80.200000002
 20
-21.6
 30
0.0
 11
80.200000002
 21
-23.344444444
 31
0.0
  0
LINE
  5
166
330
1D
100
AcDbEntity
  8
2
  6
Continuous
370
    25
100
AcDbLine
 10
79.800000002
 20
-21.6
 30
0.0
 11
79.800000002
 21
-23.344444444
 31
0.0
  0
LINE
  5
167
330
1D
100
AcDbEntity
  8
2
  6
Continuous
370
    25
100
AcDbLine
 10
80.400000002
 20
-21.6
 30
0.0
 11
80.400000002
 21
-21.788888889
 31
0.0
  0
LINE
  5
168
330
1D
100
AcDbEntity
  8
2
  6
Continuous
370
    25
100
AcDbLine
 10
79.600000002
 20
-21.6
 30
0.0
 11
79.600000002
 21
-21.788888889
 31
0.0
  0
LINE
  5
169
330
1D
100
AcDbEntity
  8
2
  6
Continuous
370
    25
100
AcDbLine
 10
82.000000002
 20
25.0
 30
0.0
 11
34.19999695
 21
25.0
 31
0.0
  0
LINE
  5
16A
330
1D
100
AcDbEntity
  8
2
  6
Continuous
370
    25
100
AcDbLine
 10
80.000000002
 20
25.0
 30
0.0
 11
80.450000002
 21
21.5
 31
0.0
  0
LINE
  5
16B
330
1D
100
AcDbEntity
  8
2
  6
Continuous
370
    25
100
AcDbLine
 10
80.450000002
 20
21.5
 30
0.0
 11
79.550000002
 21
21.5
 31
0.0
  0
LINE
  5
16C
330
1D
100
AcDbEntity
  8
2
  6
Continuous
370
    25
100
AcDbLine
 10
79.550000002
 20
21.5
 30
0.0
 11
80.000000002
 21
25.0
 31
0.0
  0
LINE
  5
16D
330
1D
100
AcDbEntity
  8
2
  6
Continuous
370
    25
100
AcDbLine
 10
80.000000002
 20
21.6
 30
0.0
 11
80.000000002
 21
24.9
 31
0.0
  0
LINE
  5
16E
330
1D
100
AcDbEntity
  8
2
  6
Continuous
370
    25
100
AcDbLine
 10
79.800000002
 20
21.6
 30
0.0
 11
79.800000002
 21
23.344444444
 31
0.0
  0
LINE
  5
16F
330
1D
100
AcDbEntity
  8
2
  6
Continuous
370
    25
100
AcDbLine
 10
80.200000002
 20
21.6
 30
0.0
 11
80.200000002
 21
23.344444444
 31
0.0
  0
LINE
  5
170
330
1D
100
AcDbEntity
  8
2
  6
Continuous
370
    25
100
AcDbLine
 10
79.600000002
 20
21.6
 30
0.0
 11
79.600000002
 21
21.788888889
 31
0.0
  0
LINE
  5
171
330
1D
100
AcDbEntity
  8
2
  6
Continuous
370
    25
100
AcDbLine
 10
80.400000002
 20
21.6
 30
0.0
 11
80.400000002
 21
21.788888889
 31
0.0
  0
LINE
  5
172
330
1D
100
AcDbEntity
  8
2
  6
Continuous
370
    25
100
AcDbLine
 10
80.000000002
 20
-21.5
 30
0.0
 11
80.000000002
 21
21.5
 31
0.0
  0
TEXT
  5
173
330
1D
100
AcDbEntity
  8
2
  6
Continuous
370
    25
100
AcDbText
 10
78.500000002
 20
0.194686941
 30
0.0
 40
3.5
  1
50
 50
90.0
  7
BMG_Text
100
AcDbText
  0
CIRCLE
  5
174
330
1D
100
AcDbEntity
  8
2
  6
Continuous
370
    25
100
AcDbCircle
 10
77.250000002
 20
-2.055313059
 30
0.0
 40
1.25
  0
LINE
  5
175
330
1D
100
AcDbEntity
  8
2
  6
Continuous
370
    25
100
AcDbLine
 10
78.500000002
 20
-3.305313059
 30
0.0
 11
76.000000002
 21
-0.805313059
 31
0.0
  0
LINE
  5
176
330
1D
100
AcDbEntity
  8
2
  6
Continuous
370
    25
100
AcDbLine
 10
74.0
 20
-18.0
 30
0.0
 11
59.0
 21
-18.0
 31
0.0
  0
LINE
  5
177
330
1D
100
AcDbEntity
  8
2
  6
Continuous
370
    25
100
AcDbLine
 10
72.0
 20
-18.0
 30
0.0
 11
71.55
 21
-14.5
 31
0.0
  0
LINE
  5
178
330
1D
100
AcDbEntity
  8
2
  6
Continuous
370
    25
100
AcDbLine
 10
71.55
 20
-14.5
 30
0.0
 11
72.45
 21
-14.5
 31
0.0
  0
LINE
  5
179
330
1D
100
AcDbEntity
  8
2
  6
Continuous
370
    25
100
AcDbLine
 10
72.45
 20
-14.5
 30
0.0
 11
72.0
 21
-18.0
 31
0.0
  0
LINE
  5
17A
330
1D
100
AcDbEntity
  8
2
  6
Continuous
370
    25
100
AcDbLine
 10
72.0
 20
-14.6
 30
0.0
 11
72.0
 21
-17.9
 31
0.0
  0
LINE
  5
17B
330
1D
100
AcDbEntity
  8
2
  6
Continuous
370
    25
100
AcDbLine
 10
72.2
 20
-14.6
 30
0.0
 11
72.2
 21
-16.344444444
 31
0.0
  0
LINE
  5
17C
330
1D
100
AcDbEntity
  8
2
  6
Continuous
370
    25
100
AcDbLine
 10
71.8
 20
-14.6
 30
0.0
 11
71.8
 21
-16.344444444
 31
0.0
  0
LINE
  5
17D
330
1D
100
AcDbEntity
  8
2
  6
Continuous
370
    25
100
AcDbLine
 10
72.4
 20
-14.6
 30
0.0
 11
72.4
 21
-14.788888889
 31
0.0
  0
LINE
  5
17E
330
1D
100
AcDbEntity
  8
2
  6
Continuous
370
    25
100
AcDbLine
 10
71.6
 20
-14.6
 30
0.0
 11
71.6
 21
-14.788888889
 31
0.0
  0
LINE
  5
17F
330
1D
100
AcDbEntity
  8
2
  6
Continuous
370
    25
100
AcDbLine
 10
74.0
 20
18.0
 30
0.0
 11
59.0
 21
18.0
 31
0.0
  0
LINE
  5
180
330
1D
100
AcDbEntity
  8
2
  6
Continuous
370
    25
100
AcDbLine
 10
72.0
 20
18.0
 30
0.0
 11
72.45
 21
14.5
 31
0.0
  0
LINE
  5
181
330
1D
100
AcDbEntity
  8
2
  6
Continuous
370
    25
100
AcDbLine
 10
72.45
 20
14.5
 30
0.0
 11
71.55
 21
14.5
 31
0.0
  0
LINE
  5
182
330
1D
100
AcDbEntity
  8
2
  6
Continuous
370
    25
100
AcDbLine
 10
71.55
 20
14.5
 30
0.0
 11
72.0
 21
18.0
 31
0.0
  0
LINE
  5
183
330
1D
100
AcDbEntity
  8
2
  6
Continuous
370
    25
100
AcDbLine
 10
72.0
 20
14.6
 30
0.0
 11
72.0
 21
17.9
 31
0.0
  0
LINE
  5
184
330
1D
100
AcDbEntity
  8
2
  6
Continuous
370
    25
100
AcDbLine
 10
71.8
 20
14.6
 30
0.0
 11
71.8
 21
16.344444444
 31
0.0
  0
LINE
  5
185
330
1D
100
AcDbEntity
  8
2
  6
Continuous
370
    25
100
AcDbLine
 10
72.2
 20
14.6
 30
0.0
 11
72.2
 21
16.344444444
 31
0.0
  0
LINE
  5
186
330
1D
100
AcDbEntity
  8
2
  6
Continuous
370
    25
100
AcDbLine
 10
71.6
 20
14.6
 30
0.0
 11
71.6
 21
14.788888889
 31
0.0
  0
LINE
  5
187
330
1D
100
AcDbEntity
  8
2
  6
Continuous
370
    25
100
AcDbLine
 10
72.4
 20
14.6
 30
0.0
 11
72.4
 21
14.788888889
 31
0.0
  0
LINE
  5
188
330
1D
100
AcDbEntity
  8
2
  6
Continuous
370
    25
100
AcDbLine
 10
72.0
 20
-14.5
 30
0.0
 11
72.0
 21
14.5
 31
0.0
  0
TEXT
  5
189
330
1D
100
AcDbEntity
  8
2
  6
Continuous
370
    25
100
AcDbText
 10
70.5
 20
0.331405848
 30
0.0
 40
3.5
  1
36
 50
90.0
  7
BMG_Text
100
AcDbText
  0
CIRCLE
  5
18A
330
1D
100
AcDbEntity
  8
2
  6
Continuous
370
    25
100
AcDbCircle
 10
69.25
 20
-1.918594152
 30
0.0
 40
1.25
  0
LINE
  5
18B
330
1D
100
AcDbEntity
  8
2
  6
Continuous
370
    25
100
AcDbLine
 10
70.5
 20
-3.168594152
 30
0.0
 11
68.0
 21
-0.668594152
 31
0.0
  0
TEXT
  5
18C
330
1D
100
AcDbEntity
  8
SK6
  6
Continuous
370
    35
100
AcDbText
 10
35.0
 20
-29.62098032
 30
0.0
 40
3.5
  1
336.301
  7
BMG_Text
100
AcDbText
  0
TEXT
  5
18D
330
1D
100
AcDbEntity
  8
SK6
  6
Continuous
370
    35
100
AcDbText
 10
59.46294785
 20
-15.41805363
 30
0.0
 40
3.5
  1
-
 50
90.000208186
 41
0.625
  7
BMG_Text
100
AcDbText
  0
TEXT
  5
18E
330
1D
100
AcDbEntity
  8
SK6
  6
Continuous
370
    35
100
AcDbText
 10
59.46294785
 20
-6.02802372
 30
0.0
 40
3.5
  1
+
 50
90.000208186
 41
0.625
  7
BMG_Text
100
AcDbText
  0
LINE
  5
18F
330
1D
100
AcDbEntity
  8
6
100
AcDbLine
 10
-34.29150391
 20
-31.83221054
 30
0.0
 11
-34.29150391
 21
-33.90220261
 31
0.0
  0
ARC
  5
190
330
1D
100
AcDbEntity
  8
6
100
AcDbCircle
 10
-37.17148972
 20
-34.98221207
 30
0.0
 40
1.08000004
100
AcDbArc
 50
90.00000763
 51
206.54360962
  0
LINE
  5
191
330
1D
100
AcDbEntity
  8
6
100
AcDbLine
 10
-37.17148972
 20
-33.90223312
 30
0.0
 11
-34.29149246
 21
-33.90223312
 31
0.0
  0
ARC
  5
192
330
1D
100
AcDbEntity
  8
6
100
AcDbCircle
 10
-38.34149933
 20
-34.53220749
 30
0.0
 40
2.70000005
100
AcDbArc
 50
90.00000763
 51
206.5436554
  0
ARC
  5
193
330
1D
100
AcDbEntity
  8
6
100
AcDbCircle
 10
-37.62148285
 20
-44.43221664
 30
0.0
 40
1.08000004
100
AcDbArc
 50
270.0
 51
26.54360962
  0
LINE
  5
194
330
1D
100
AcDbEntity
  8
6
100
AcDbLine
 10
-37.62148285
 20
-45.51221848
 30
0.0
 11
-41.04148102
 21
-45.51221848
 31
0.0
  0
LINE
  5
195
330
1D
100
AcDbEntity
  8
6
100
AcDbLine
 10
-40.75690079
 20
-35.73878098
 30
0.0
 11
-36.65533447
 21
-43.94957352
 31
0.0
  0
ARC
  5
196
330
1D
100
AcDbEntity
  8
6
100
AcDbCircle
 10
-36.45149612
 20
-44.88222122
 30
0.0
 40
2.70000005
100
AcDbArc
 50
270.0
 51
26.54364014
  0
LINE
  5
197
330
1D
100
AcDbEntity
  8
6
100
AcDbLine
 10
-38.13765717
 20
-35.46483994
 30
0.0
 11
-34.03608704
 21
-43.67564011
 31
0.0
  0
LINE
  5
198
330
1D
100
AcDbEntity
  8
6
100
AcDbLine
 10
-41.04150391
 20
-45.51221848
 30
0.0
 11
-41.04150391
 21
-47.5822258
 31
0.0
  0
LINE
  5
199
330
1D
100
AcDbEntity
  8
6
100
AcDbLine
 10
-41.04150391
 20
-47.5822258
 30
0.0
 11
-36.45149994
 21
-47.5822258
 31
0.0
  0
LINE
  5
19A
330
1D
100
AcDbEntity
  8
6
100
AcDbLine
 10
-31.59149933
 20
-47.5822258
 30
0.0
 11
-31.59149933
 21
-31.8322258
 31
0.0
  0
LINE
  5
19B
330
1D
100
AcDbEntity
  8
6
100
AcDbLine
 10
-23.31149292
 20
-47.5822258
 30
0.0
 11
-23.31149292
 21
-31.8322258
 31
0.0
  0
LINE
  5
19C
330
1D
100
AcDbEntity
  8
6
100
AcDbLine
 10
-23.31149292
 20
-47.5822258
 30
0.0
 11
-20.61149979
 21
-47.5822258
 31
0.0
  0
LINE
  5
19D
330
1D
100
AcDbEntity
  8
6
100
AcDbLine
 10
-20.61149979
 20
-47.5822258
 30
0.0
 11
-20.61149979
 21
-40.74222946
 31
0.0
  0
ARC
  5
19E
330
1D
100
AcDbEntity
  8
6
100
AcDbCircle
 10
-19.26148605
 20
-41.82221603
 30
0.0
 40
1.08000004
100
AcDbArc
 50
0.0
 51
90.00000763
  0
LINE
  5
19F
330
1D
100
AcDbEntity
  8
6
100
AcDbLine
 10
-19.26148605
 20
-40.7422142
 30
0.0
 11
-20.61148834
 21
-40.7422142
 31
0.0
  0
LINE
  5
1A0
330
1D
100
AcDbEntity
  8
6
100
AcDbLine
 10
-18.18150711
 20
-45.06222153
 30
0.0
 11
-18.18150711
 21
-46.05221176
 31
0.0
  0
ARC
  5
1A1
330
1D
100
AcDbEntity
  8
6
100
AcDbCircle
 10
-13.05150986
 20
-46.05221939
 30
0.0
 40
2.51999998
100
AcDbArc
 50
180.0
 51
217.38319397
  0
ARC
  5
1A2
330
1D
100
AcDbEntity
  8
6
100
AcDbCircle
 10
-15.6615181
 20
-46.05221939
 30
0.0
 40
2.51999998
100
AcDbArc
 50
180.0
 51
217.38319397
  0
LINE
  5
1A3
330
1D
100
AcDbEntity
  8
6
100
AcDbLine
 10
-15.14390182
 20
-47.5822258
 30
0.0
 11
-17.66390228
 21
-47.5822258
 31
0.0
  0
LINE
  5
1A4
330
1D
100
AcDbEntity
  8
6
100
AcDbLine
 10
-18.18150711
 20
-41.82223129
 30
0.0
 11
-18.18150711
 21
-46.05221939
 31
0.0
  0
ARC
  5
1A5
330
1D
100
AcDbEntity
  8
6
100
AcDbCircle
 10
-18.09148788
 20
-42.00222397
 30
0.0
 40
2.51999998
100
AcDbArc
 50
358.70883179
 51
93.06652832
  0
ARC
  5
1A6
330
1D
100
AcDbEntity
  8
6
100
AcDbCircle
 10
-18.36149979
 20
-36.96222305
 30
0.0
 40
2.51999998
100
AcDbArc
 50
273.06652832
 51
0.0
  0
ARC
  5
1A7
330
1D
100
AcDbEntity
  8
6
100
AcDbCircle
 10
-18.36149979
 20
-34.35223007
 30
0.0
 40
2.51999998
100
AcDbArc
 50
0.0
 51
90.00000763
  0
LINE
  5
1A8
330
1D
100
AcDbEntity
  8
6
100
AcDbLine
 10
-15.84148788
 20
-34.35223007
 30
0.0
 11
-15.84148788
 21
-36.96223068
 31
0.0
  0
ARC
  5
1A9
330
1D
100
AcDbEntity
  8
6
100
AcDbCircle
 10
-18.99149704
 20
-34.80222702
 30
0.0
 40
0.90000004
100
AcDbArc
 50
0.0
 51
90.00000763
  0
LINE
  5
1AA
330
1D
100
AcDbEntity
  8
6
100
AcDbLine
 10
-18.99149704
 20
-33.90223312
 30
0.0
 11
-20.61149979
 21
-33.90223312
 31
0.0
  0
ARC
  5
1AB
330
1D
100
AcDbEntity
  8
6
100
AcDbCircle
 10
-18.99149704
 20
-37.68221664
 30
0.0
 40
0.90000004
100
AcDbArc
 50
270.0
 51
0.0
  0
LINE
  5
1AC
330
1D
100
AcDbEntity
  8
6
100
AcDbLine
 10
-18.09148788
 20
-34.80222702
 30
0.0
 11
-18.09148788
 21
-37.68222427
 31
0.0
  0
LINE
  5
1AD
330
1D
100
AcDbEntity
  8
6
100
AcDbLine
 10
-20.61149979
 20
-33.90223312
 30
0.0
 11
-20.61149979
 21
-38.5822258
 31
0.0
  0
LINE
  5
1AE
330
1D
100
AcDbEntity
  8
6
100
AcDbLine
 10
-18.99149704
 20
-38.5822258
 30
0.0
 11
-20.61149979
 21
-38.5822258
 31
0.0
  0
LINE
  5
1AF
330
1D
100
AcDbEntity
  8
6
100
AcDbLine
 10
-15.57213974
 20
-42.05900955
 30
0.0
 11
-15.57151031
 21
-46.05262375
 31
0.0
  0
LINE
  5
1B0
330
1D
100
AcDbEntity
  8
6
100
AcDbLine
 10
-15.14390182
 20
-47.5822258
 30
0.0
 11
-15.05390549
 21
-47.5822258
 31
0.0
  0
LINE
  5
1B1
330
1D
100
AcDbEntity
  8
6
100
AcDbLine
 10
-38.34149933
 20
-31.83221054
 30
0.0
 11
-34.29149628
 21
-31.83221054
 31
0.0
  0
LINE
  5
1B2
330
1D
100
AcDbEntity
  8
6
100
AcDbLine
 10
-18.36149979
 20
-31.83221054
 30
0.0
 11
-23.31150436
 21
-31.83221054
 31
0.0
  0
LINE
  5
1B3
330
1D
100
AcDbEntity
  8
6
100
AcDbLine
 10
-65.34149933
 20
-47.5822258
 30
0.0
 11
-68.13150024
 21
-47.5822258
 31
0.0
  0
LINE
  5
1B4
330
1D
100
AcDbEntity
  8
6
100
AcDbLine
 10
-65.34149933
 20
-44.16222763
 30
0.0
 11
-65.34149933
 21
-47.5822258
 31
0.0
  0
LINE
  5
1B5
330
1D
100
AcDbEntity
  8
6
100
AcDbLine
 10
-64.2614975
 20
-42.09222031
 30
0.0
 11
-65.34149933
 21
-44.16222763
 31
0.0
  0
LINE
  5
1B6
330
1D
100
AcDbEntity
  8
6
100
AcDbLine
 10
-61.83150482
 20
-47.5822258
 30
0.0
 11
-64.2614975
 21
-42.09222031
 31
0.0
  0
LINE
  5
1B7
330
1D
100
AcDbEntity
  8
6
100
AcDbLine
 10
-59.04150391
 20
-47.5822258
 30
0.0
 11
-61.83149719
 21
-47.5822258
 31
0.0
  0
LINE
  5
1B8
330
1D
100
AcDbEntity
  8
6
100
AcDbLine
 10
-62.64151001
 20
-38.5822258
 30
0.0
 11
-59.04150391
 21
-47.5822258
 31
0.0
  0
LINE
  5
1B9
330
1D
100
AcDbEntity
  8
6
100
AcDbLine
 10
-59.58150482
 20
-31.8322258
 30
0.0
 11
-62.64149475
 21
-38.5822258
 31
0.0
  0
LINE
  5
1BA
330
1D
100
AcDbEntity
  8
6
100
AcDbLine
 10
-65.34149933
 20
-38.94223404
 30
0.0
 11
-62.37150574
 21
-31.83224106
 31
0.0
  0
LINE
  5
1BB
330
1D
100
AcDbEntity
  8
6
100
AcDbLine
 10
-65.34149933
 20
-31.8322258
 30
0.0
 11
-65.34149933
 21
-38.94223404
 31
0.0
  0
LINE
  5
1BC
330
1D
100
AcDbEntity
  8
6
100
AcDbLine
 10
-68.13150024
 20
-47.5822258
 30
0.0
 11
-68.13150024
 21
-31.8322258
 31
0.0
  0
LINE
  5
1BD
330
1D
100
AcDbEntity
  8
6
100
AcDbLine
 10
-62.37150574
 20
-31.8322258
 30
0.0
 11
-59.58150482
 21
-31.8322258
 31
0.0
  0
LINE
  5
1BE
330
1D
100
AcDbEntity
  8
6
100
AcDbLine
 10
-68.13150024
 20
-31.8322258
 30
0.0
 11
-65.34149933
 21
-31.8322258
 31
0.0
  0
LINE
  5
1BF
330
1D
100
AcDbEntity
  8
6
100
AcDbLine
 10
-46.08149338
 20
-31.8322258
 30
0.0
 11
-46.08149338
 21
-47.5822258
 31
0.0
  0
LINE
  5
1C0
330
1D
100
AcDbEntity
  8
6
100
AcDbLine
 10
-43.20149612
 20
-47.5822258
 30
0.0
 11
-43.20149612
 21
-31.8322258
 31
0.0
  0
LINE
  5
1C1
330
1D
100
AcDbEntity
  8
6
100
AcDbLine
 10
-46.08149338
 20
-47.5822258
 30
0.0
 11
-43.20149612
 21
-47.5822258
 31
0.0
  0
LINE
  5
1C2
330
1D
100
AcDbEntity
  8
6
100
AcDbLine
 10
-43.20149612
 20
-31.8322258
 30
0.0
 11
-46.08150482
 21
-31.8322258
 31
0.0
  0
LINE
  5
1C3
330
1D
100
AcDbEntity
  8
6
100
AcDbLine
 10
-25.74149704
 20
-47.5822258
 30
0.0
 11
-25.74149704
 21
-45.51221848
 31
0.0
  0
LINE
  5
1C4
330
1D
100
AcDbEntity
  8
6
100
AcDbLine
 10
-31.59149933
 20
-47.5822258
 30
0.0
 11
-25.74149704
 21
-47.5822258
 31
0.0
  0
LINE
  5
1C5
330
1D
100
AcDbEntity
  8
6
100
AcDbLine
 10
-25.74150848
 20
-33.90221786
 30
0.0
 11
-25.74150848
 21
-31.8322258
 31
0.0
  0
LINE
  5
1C6
330
1D
100
AcDbEntity
  8
6
100
AcDbLine
 10
-28.71152496
 20
-33.90221786
 30
0.0
 11
-25.74151993
 21
-33.90221786
 31
0.0
  0
LINE
  5
1C7
330
1D
100
AcDbEntity
  8
6
100
AcDbLine
 10
-28.71152496
 20
-38.5822258
 30
0.0
 11
-28.71152496
 21
-33.90223312
 31
0.0
  0
LINE
  5
1C8
330
1D
100
AcDbEntity
  8
6
100
AcDbLine
 10
-25.74150848
 20
-38.5822258
 30
0.0
 11
-28.71151352
 21
-38.5822258
 31
0.0
  0
LINE
  5
1C9
330
1D
100
AcDbEntity
  8
6
100
AcDbLine
 10
-25.74150848
 20
-40.74220657
 30
0.0
 11
-25.74150848
 21
-38.58220291
 31
0.0
  0
LINE
  5
1CA
330
1D
100
AcDbEntity
  8
6
100
AcDbLine
 10
-28.71152496
 20
-40.74220657
 30
0.0
 11
-25.74151993
 21
-40.74220657
 31
0.0
  0
LINE
  5
1CB
330
1D
100
AcDbEntity
  8
6
100
AcDbLine
 10
-28.71152496
 20
-45.51221848
 30
0.0
 11
-28.71152496
 21
-40.74220657
 31
0.0
  0
LINE
  5
1CC
330
1D
100
AcDbEntity
  8
6
100
AcDbLine
 10
-25.74150848
 20
-45.51221848
 30
0.0
 11
-28.71151352
 21
-45.51221848
 31
0.0
  0
LINE
  5
1CD
330
1D
100
AcDbEntity
  8
6
100
AcDbLine
 10
-25.74150848
 20
-31.8322258
 30
0.0
 11
-31.59151077
 21
-31.8322258
 31
0.0
  0
LINE
  5
1CE
330
1D
100
AcDbEntity
  8
6
100
AcDbLine
 10
-51.66149902
 20
-47.5822258
 30
0.0
 11
-57.96150208
 21
-47.5822258
 31
0.0
  0
LINE
  5
1CF
330
1D
100
AcDbEntity
  8
6
100
AcDbLine
 10
-52.11148834
 20
-45.0622139
 30
0.0
 11
-51.66149902
 21
-47.58221054
 31
0.0
  0
LINE
  5
1D0
330
1D
100
AcDbEntity
  8
6
100
AcDbLine
 10
-54.99150848
 20
-45.0622139
 30
0.0
 11
-52.11151123
 21
-45.0622139
 31
0.0
  0
LINE
  5
1D1
330
1D
100
AcDbEntity
  8
6
100
AcDbLine
 10
-53.46150208
 20
-35.70222855
 30
0.0
 11
-54.99150085
 21
-45.06223679
 31
0.0
  0
LINE
  5
1D2
330
1D
100
AcDbEntity
  8
6
100
AcDbLine
 10
-50.40150452
 20
-47.5822258
 30
0.0
 11
-53.46150208
 21
-35.70222855
 31
0.0
  0
LINE
  5
1D3
330
1D
100
AcDbEntity
  8
6
100
AcDbLine
 10
-47.43149567
 20
-47.5822258
 30
0.0
 11
-50.40148926
 21
-47.5822258
 31
0.0
  0
LINE
  5
1D4
330
1D
100
AcDbEntity
  8
6
100
AcDbLine
 10
-51.84149933
 20
-31.38222122
 30
0.0
 11
-47.43150711
 21
-47.5822258
 31
0.0
  0
LINE
  5
1D5
330
1D
100
AcDbEntity
  8
6
100
AcDbLine
 10
-54.90150452
 20
-31.38222122
 30
0.0
 11
-51.84150696
 21
-31.38222122
 31
0.0
  0
LINE
  5
1D6
330
1D
100
AcDbEntity
  8
6
100
AcDbLine
 10
-57.96150208
 20
-47.5822258
 30
0.0
 11
-54.90150452
 21
-31.38222122
 31
0.0
  0
LINE
  5
27C
330
1D
100
AcDbEntity
  8
NOCUT
100
AcDbLine
 10
0.0
 20
0.0000038149999995
 30
0.0
 11
0.0
 21
22.2250061
 31
0.0
  0
LINE
  5
27D
330
1D
100
AcDbEntity
  8
NOCUT
100
AcDbLine
 10
0.0
 20
22.2250061
 30
0.0
 11
2.3999939
 21
22.2250061
 31
0.0
  0
LINE
  5
27E
330
1D
100
AcDbEntity
  8
NOCUT
100
AcDbLine
 10
3.19999695
 20
23.02502441
 30
0.0
 11
3.19999695
 21
31.25
 31
0.0
  0
LINE
  5
27F
330
1D
100
AcDbEntity
  8
NOCUT
100
AcDbLine
 10
3.19999695
 20
31.25
 30
0.0
 11
3.69999695
 21
31.75
 31
0.0
  0
LINE
  5
280
330
1D
100
AcDbEntity
  8
NOCUT
100
AcDbLine
 10
3.69999695
 20
31.75
 30
0.0
 11
7.57815552
 21
31.75
 31
0.0
  0
LINE
  5
281
330
1D
100
AcDbEntity
  8
NOCUT
100
AcDbLine
 10
7.57815552
 20
31.75
 30
0.0
 11
9.17498779
 21
28.98422241
 31
0.0
  0
LINE
  5
282
330
1D
100
AcDbEntity
  8
NOCUT
100
AcDbLine
 10
9.17498779
 20
28.98422241
 30
0.0
 11
9.17498779
 21
28.5
 31
0.0
  0
LINE
  5
288
330
1D
100
AcDbEntity
  8
NOCUT
100
AcDbLine
 10
9.67498779
 20
28.0
 30
0.0
 11
12.5249939
 21
28.0
 31
0.0
  0
LINE
  5
289
330
1D
100
AcDbEntity
  8
NOCUT
100
AcDbLine
 10
13.0249939
 20
28.5
 30
0.0
 11
13.0249939
 21
28.98422241
 31
0.0
  0
LINE
  5
28A
330
1D
100
AcDbEntity
  8
NOCUT
100
AcDbLine
 10
13.0249939
 20
28.98422241
 30
0.0
 11
14.62182617
 21
31.75
 31
0.0
  0
LINE
  5
28B
330
1D
100
AcDbEntity
  8
NOCUT
100
AcDbLine
 10
14.62182617
 20
31.75
 30
0.0
 11
18.55000305
 21
31.75
 31
0.0
  0
LINE
  5
28C
330
1D
100
AcDbEntity
  8
NOCUT
100
AcDbLine
 10
18.55000305
 20
31.75
 30
0.0
 11
19.05000305
 21
31.25
 31
0.0
  0
LINE
  5
28D
330
1D
100
AcDbEntity
  8
NOCUT
100
AcDbLine
 10
19.05000305
 20
31.25
 30
0.0
 11
19.05000305
 21
25.80001831
 31
0.0
  0
LINE
  5
28E
330
1D
100
AcDbEntity
  8
NOCUT
100
AcDbLine
 10
19.8500061
 20
25.0
 30
0.0
 11
34.19999695
 21
25.0
 31
0.0
  0
LINE
  5
28F
330
1D
100
AcDbEntity
  8
NOCUT
100
AcDbLine
 10
35.0
 20
25.80000305
 30
0.0
 11
35.0
 21
30.50001526
 31
0.0
  0
LINE
  5
290
330
1D
100
AcDbEntity
  8
NOCUT
100
AcDbLine
 10
35.0
 20
30.50001526
 30
0.0
 11
36.0
 21
31.50001526
 31
0.0
  0
LINE
  5
291
330
1D
100
AcDbEntity
  8
NOCUT
100
AcDbLine
 10
36.0
 20
31.50001526
 30
0.0
 11
54.07267630129948
 21
31.50001526
 31
0.0
  0
LINE
  5
292
330
1D
100
AcDbEntity
  8
NOCUT
100
AcDbLine
 10
54.07267630129948
 20
31.50001526
 30
0.0
 11
54.65000916
 21
32.5
 31
0.0
  0
LINE
  5
293
330
1D
100
AcDbEntity
  8
NOCUT
100
AcDbLine
 10
54.65000916
 20
32.5
 30
0.0
 11
58.35002136
 21
32.5
 31
0.0
  0
LINE
  5
294
330
1D
100
AcDbEntity
  8
NOCUT
100
AcDbLine
 10
58.35002136
 20
32.5
 30
0.0
 11
59.0
 21
31.37419128
 31
0.0
  0
LINE
  5
295
330
1D
100
AcDbEntity
  8
NOCUT
100
AcDbLine
 10
0.0
 20
0.0000038149999995
 30
0.0
 11
59.02112713847436
 21
0.0000038149999995
 31
0.0
  0
LINE
  5
296
330
1D
100
AcDbEntity
  8
NOCUT
100
AcDbLine
 10
59.02112713847436
 20
0.0000038149999995
 30
0.0
 11
59.0
 21
31.37419128
 31
0.0
  0
ARC
  5
29C
330
1D
100
AcDbEntity
  8
NOCUT
100
AcDbCircle
 10
2.39996784895069
 20
23.02503520069794
 30
0.0
 40
0.800029101122082
100
AcDbArc
 50
270.0018657011046
 51
359.9992272012992
  0
ARC
  5
29D
330
1D
100
AcDbEntity
  8
NOCUT
100
AcDbCircle
 10
9.674987790000001
 20
28.5
 30
0.0
 40
0.5000000000000024
100
AcDbArc
 50
180.0000000000004
 51
269.9999999999998
  0
ARC
  5
29E
330
1D
100
AcDbEntity
  8
NOCUT
100
AcDbCircle
 10
12.5249939
 20
28.5
 30
0.0
 40
0.5000000000000024
100
AcDbArc
 50
270.0000000000002
 51
359.9999999999996
  0
ARC
  5
29F
330
1D
100
AcDbEntity
  8
NOCUT
100
AcDbCircle
 10
19.85000610010291
 20
25.80000305024845
 30
0.0
 40
0.8000030502484482
100
AcDbArc
 50
179.9989071049667
 51
269.9999999926296
  0
ARC
  5
2A0
330
1D
100
AcDbEntity
  8
NOCUT
100
AcDbCircle
 10
34.19999695
 20
25.80000305
 30
0.0
 40
0.8000030500000012
100
AcDbArc
 50
270.0
 51
0.0
  0
LWPOLYLINE
  5
2AB
330
1D
100
AcDbEntity
  8
INFTOTAL
100
AcDbPolyline
 90
        4
 70
     1
 43
0.0
 10
-116.2733372164978
 20
52.91157907371781
 10
-116.2733372164978
 20
-82.91947747367385
 10
141.4497809924177
 20
-82.91947747367385
 10
141.4497809924177
 20
52.91157907371781
  0
ENDSEC
  0
SECTION
  2
OBJECTS
  0
DICTIONARY
  5
C
330
0
100
AcDbDictionary
281
     1
  3
ACAD_DETAILVIEWSTYLE
350
286
  3
ACAD_GROUP
350
D
  3
ACAD_LAYOUT
350
1A
  3
ACAD_MATERIAL
350
214
  3
ACAD_MLEADERSTYLE
350
221
  3
ACAD_MLINESTYLE
350
17
  3
ACAD_PLOTSETTINGS
350
19
  3
ACAD_PLOTSTYLENAME
350
E
  3
ACAD_SCALELIST
350
1DD
  3
ACAD_SECTIONVIEWSTYLE
350
287
  3
ACAD_TABLESTYLE
350
26A
  3
ACAD_VISUALSTYLE
350
203
  3
ACDB_RECOMPOSE_DATA
350
2AE
  3
AcDbVariableDictionary
350
21F
  3
APPDATA
350
26D
  0
DICTIONARY
  5
26E
330
2
100
AcDbDictionary
280
     1
281
     1
  3
ACAD_LAYERSTATES
360
26F
  0
DICTIONARY
  5
286
102
{ACAD_REACTORS
330
C
102
}
330
C
100
AcDbDictionary
281
     1
  0
DICTIONARY
  5
D
102
{ACAD_REACTORS
330
C
102
}
330
C
100
AcDbDictionary
281
     1
  0
DICTIONARY
  5
1A
102
{ACAD_REACTORS
330
C
102
}
330
C
100
AcDbDictionary
281
     1
  3
Layout1
350
1C
  3
Model
350
1E
  0
DICTIONARY
  5
214
102
{ACAD_REACTORS
330
C
102
}
330
C
100
AcDbDictionary
281
     1
  3
ByBlock
350
216
  3
ByLayer
350
215
  3
Global
350
217
  0
DICTIONARY
  5
221
102
{ACAD_REACTORS
330
C
102
}
330
C
100
AcDbDictionary
281
     1
  3
Standard
350
26C
  0
DICTIONARY
  5
17
102
{ACAD_REACTORS
330
C
102
}
330
C
100
AcDbDictionary
281
     1
  3
Standard
350
18
  0
DICTIONARY
  5
19
102
{ACAD_REACTORS
330
C
102
}
330
C
100
AcDbDictionary
281
     1
  0
ACDBDICTIONARYWDFLT
  5
E
102
{ACAD_REACTORS
330
C
102
}
330
C
100
AcDbDictionary
281
     1
  3
Normal
350
F
100
AcDbDictionaryWithDefault
340
F
  0
DICTIONARY
  5
1DD
102
{ACAD_REACTORS
330
C
102
}
330
C
100
AcDbDictionary
281
     1
  3
A0
350
1DE
  3
A1
350
1DF
  3
A2
350
1E0
  3
A3
350
1E1
  3
A4
350
1E2
  3
A5
350
1E3
  3
A6
350
1E4
  3
A7
350
1E5
  3
A8
350
1E6
  3
A9
350
1E7
  3
B0
350
1E8
  3
B1
350
1E9
  3
B2
350
1EA
  3
B3
350
1EB
  3
B4
350
1EC
  3
B5
350
1ED
  3
B6
350
1EE
  3
B7
350
1EF
  3
B8
350
1F0
  3
B9
350
1F1
  3
C0
350
1F2
  3
C1
350
1F3
  3
C2
350
1F4
  3
C3
350
1F5
  3
C4
350
1F6
  3
C5
350
1F7
  3
C6
350
1F8
  3
C7
350
1F9
  3
C8
350
1FA
  3
C9
350
1FB
  3
D0
350
1FC
  3
D1
350
1FD
  3
D2
350
1FE
  0
DICTIONARY
  5
287
102
{ACAD_REACTORS
330
C
102
}
330
C
100
AcDbDictionary
281
     1
  0
DICTIONARY
  5
26A
102
{ACAD_REACTORS
330
C
102
}
330
C
100
AcDbDictionary
281
     1
  3
Standard
350
26B
  0
DICTIONARY
  5
203
102
{ACAD_REACTORS
330
C
102
}
330
C
100
AcDbDictionary
281
     1
  3
2dWireframe
350
208
  3
3D Hidden
350
20A
  3
3dWireframe
350
209
  3
Basic
350
20B
  3
Brighten
350
20F
  3
ColorChange
350
213
  3
Conceptual
350
20D
  3
Dim
350
20E
  3
EdgeColorOff
350
264
  3
Facepattern
350
212
  3
Flat
350
204
  3
FlatWithEdges
350
205
  3
Gouraud
350
206
  3
GouraudWithEdges
350
207
  3
Hidden
350
261
  3
JitterOff
350
262
  3
Linepattern
350
211
  3
OverhangOff
350
263
  3
Realistic
350
20C
  3
Shaded
350
269
  3
Shaded with edges
350
268
  3
Shades of Gray
350
265
  3
Sketchy
350
266
  3
Thicken
350
210
  3
Wireframe
350
260
  3
X-Ray
350
267
  0
XRECORD
  5
2AE
102
{ACAD_REACTORS
330
C
102
}
330
C
100
AcDbXrecord
280
     1
 90
        1
330
26B
  0
DICTIONARY
  5
21F
102
{ACAD_REACTORS
330
C
102
}
330
C
100
AcDbDictionary
281
     1
  3
CANNOSCALE
350
283
  3
CMLEADERSTYLE
350
285
  3
CTABLESTYLE
350
284
  3
DIMASSOC
350
223
  3
HIDETEXT
350
224
  3
MSLTSCALE
350
222
  0
DICTIONARY
  5
26D
102
{ACAD_REACTORS
330
C
102
}
330
C
100
AcDbDictionary
281
     1
  0
DICTIONARY
  5
26F
102
{ACAD_REACTORS
330
26E
102
}
330
26E
100
AcDbDictionary
281
     1
  0
LAYOUT
  5
1C
102
{ACAD_REACTORS
330
1A
102
}
330
1A
100
AcDbPlotSettings
  1

  2
none_device
  4

  6

 40
0.0
 41
0.0
 42
0.0
 43
0.0
 44
0.0
 45
0.0
 46
0.0
 47
0.0
 48
0.0
 49
0.0
140
0.0
141
0.0
142
1.0
143
1.0
 70
   688
 72
     0
 73
     0
 74
     5
  7

 75
    16
 76
     0
 77
     2
 78
   300
147
1.0
148
0.0
149
0.0
100
AcDbLayout
  1
Layout1
 70
     1
 71
     1
 10
0.0
 20
0.0
 11
12.0
 21
9.0
 12
0.0
 22
0.0
 32
0.0
 14
1.000000000000000E+20
 24
1.000000000000000E+20
 34
1.000000000000000E+20
 15
-1.000000000000000E+20
 25
-1.000000000000000E+20
 35
-1.000000000000000E+20
146
0.0
 13
0.0
 23
0.0
 33
0.0
 16
1.0
 26
0.0
 36
0.0
 17
0.0
 27
1.0
 37
0.0
 76
     0
330
1B
  0
LAYOUT
  5
1E
102
{ACAD_REACTORS
330
1A
102
}
330
1A
100
AcDbPlotSettings
  1

  2
none_device
  4

  6

 40
0.0
 41
0.0
 42
0.0
 43
0.0
 44
0.0
 45
0.0
 46
0.0
 47
0.0
 48
0.0
 49
0.0
140
0.0
141
0.0
142
1.0
143
1.0
 70
  1712
 72
     0
 73
     0
 74
     0
  7

 75
     0
 76
     0
 77
     2
 78
   300
147
1.0
148
0.0
149
0.0
100
AcDbLayout
  1
Model
 70
     1
 71
     0
 10
0.0
 20
0.0
 11
12.0
 21
9.0
 12
0.0
 22
0.0
 32
0.0
 14
-116.2733372164978
 24
-82.91947747367385
 34
0.0
 15
141.4497809924177
 25
52.9115790737178
 35
0.0
146
0.0
 13
0.0
 23
0.0
 33
0.0
 16
1.0
 26
0.0
 36
0.0
 17
0.0
 27
1.0
 37
0.0
 76
     0
330
1D
331
1D7
  0
MATERIAL
  5
216
102
{ACAD_REACTORS
330
214
102
}
330
214
100
AcDbMaterial
  1
ByBlock
 72
     1
 94
      127
  0
MATERIAL
  5
215
102
{ACAD_REACTORS
330
214
102
}
330
214
100
AcDbMaterial
  1
ByLayer
 72
     1
 94
      127
  0
MATERIAL
  5
217
102
{ACAD_REACTORS
330
214
102
}
330
214
100
AcDbMaterial
  1
Global
 72
     1
 94
      127
  0
MLEADERSTYLE
  5
26C
102
{ACAD_REACTORS
330
221
102
}
330
221
100
AcDbMLeaderStyle
179
     2
170
     2
171
     1
172
     0
 90
        2
 40
0.0
 41
0.0
173
     1
 91
-1056964608
340
14
 92
       -2
290
     1
 42
0.09
291
     1
 43
0.36
  3
Standard
341
0
 44
0.18
300

342
11
174
     1
178
     1
175
     1
176
     0
 93
-1056964608
 45
0.18
292
     0
297
     0
 46
0.18
343
0
 94
-1056964608
 47
1.0
 49
1.0
140
1.0
293
     1
141
0.0
294
     1
177
     0
142
1.0
295
     0
296
     0
143
0.125
271
     0
272
     9
273
     9
298
     0
  0
MLINESTYLE
  5
18
102
{ACAD_REACTORS
330
17
102
}
330
17
100
AcDbMlineStyle
  2
Standard
 70
     0
  3

 62
   256
 51
90.0
 52
90.0
 71
     2
 49
0.5
 62
   256
  6
BYLAYER
 49
-0.5
 62
   256
  6
BYLAYER
  0
ACDBPLACEHOLDER
  5
F
102
{ACAD_REACTORS
330
E
102
}
330
E
  0
SCALE
  5
1DE
102
{ACAD_REACTORS
330
1DD
102
}
330
1DD
100
AcDbScale
 70
     0
300
1:1
140
1.0
141
1.0
290
     1
  0
SCALE
  5
1DF
102
{ACAD_REACTORS
330
1DD
102
}
330
1DD
100
AcDbScale
 70
     0
300
1:2
140
1.0
141
2.0
290
     0
  0
SCALE
  5
1E0
102
{ACAD_REACTORS
330
1DD
102
}
330
1DD
100
AcDbScale
 70
     0
300
1:4
140
1.0
141
4.0
290
     0
  0
SCALE
  5
1E1
102
{ACAD_REACTORS
330
1DD
102
}
330
1DD
100
AcDbScale
 70
     0
300
1:5
140
1.0
141
5.0
290
     0
  0
SCALE
  5
1E2
102
{ACAD_REACTORS
330
1DD
102
}
330
1DD
100
AcDbScale
 70
     0
300
1:8
140
1.0
141
8.0
290
     0
  0
SCALE
  5
1E3
102
{ACAD_REACTORS
330
1DD
102
}
330
1DD
100
AcDbScale
 70
     0
300
1:10
140
1.0
141
10.0
290
     0
  0
SCALE
  5
1E4
102
{ACAD_REACTORS
330
1DD
102
}
330
1DD
100
AcDbScale
 70
     0
300
1:16
140
1.0
141
16.0
290
     0
  0
SCALE
  5
1E5
102
{ACAD_REACTORS
330
1DD
102
}
330
1DD
100
AcDbScale
 70
     0
300
1:20
140
1.0
141
20.0
290
     0
  0
SCALE
  5
1E6
102
{ACAD_REACTORS
330
1DD
102
}
330
1DD
100
AcDbScale
 70
     0
300
1:30
140
1.0
141
30.0
290
     0
  0
SCALE
  5
1E7
102
{ACAD_REACTORS
330
1DD
102
}
330
1DD
100
AcDbScale
 70
     0
300
1:40
140
1.0
141
40.0
290
     0
  0
SCALE
  5
1E8
102
{ACAD_REACTORS
330
1DD
102
}
330
1DD
100
AcDbScale
 70
     0
300
1:50
140
1.0
141
50.0
290
     0
  0
SCALE
  5
1E9
102
{ACAD_REACTORS
330
1DD
102
}
330
1DD
100
AcDbScale
 70
     0
300
1:100
140
1.0
141
100.0
290
     0
  0
SCALE
  5
1EA
102
{ACAD_REACTORS
330
1DD
102
}
330
1DD
100
AcDbScale
 70
     0
300
2:1
140
2.0
141
1.0
290
     0
  0
SCALE
  5
1EB
102
{ACAD_REACTORS
330
1DD
102
}
330
1DD
100
AcDbScale
 70
     0
300
4:1
140
4.0
141
1.0
290
     0
  0
SCALE
  5
1EC
102
{ACAD_REACTORS
330
1DD
102
}
330
1DD
100
AcDbScale
 70
     0
300
8:1
140
8.0
141
1.0
290
     0
  0
SCALE
  5
1ED
102
{ACAD_REACTORS
330
1DD
102
}
330
1DD
100
AcDbScale
 70
     0
300
10:1
140
10.0
141
1.0
290
     0
  0
SCALE
  5
1EE
102
{ACAD_REACTORS
330
1DD
102
}
330
1DD
100
AcDbScale
 70
     0
300
100:1
140
100.0
141
1.0
290
     0
  0
SCALE
  5
1EF
102
{ACAD_REACTORS
330
1DD
102
}
330
1DD
100
AcDbScale
 70
     0
300
1/128" = 1'-0"
140
0.0078125
141
12.0
290
     0
  0
SCALE
  5
1F0
102
{ACAD_REACTORS
330
1DD
102
}
330
1DD
100
AcDbScale
 70
     0
300
1/64" = 1'-0"
140
0.015625
141
12.0
290
     0
  0
SCALE
  5
1F1
102
{ACAD_REACTORS
330
1DD
102
}
330
1DD
100
AcDbScale
 70
     0
300
1/32" = 1'-0"
140
0.03125
141
12.0
290
     0
  0
SCALE
  5
1F2
102
{ACAD_REACTORS
330
1DD
102
}
330
1DD
100
AcDbScale
 70
     0
300
1/16" = 1'-0"
140
0.0625
141
12.0
290
     0
  0
SCALE
  5
1F3
102
{ACAD_REACTORS
330
1DD
102
}
330
1DD
100
AcDbScale
 70
     0
300
3/32" = 1'-0"
140
0.09375
141
12.0
290
     0
  0
SCALE
  5
1F4
102
{ACAD_REACTORS
330
1DD
102
}
330
1DD
100
AcDbScale
 70
     0
300
1/8" = 1'-0"
140
0.125
141
12.0
290
     0
  0
SCALE
  5
1F5
102
{ACAD_REACTORS
330
1DD
102
}
330
1DD
100
AcDbScale
 70
     0
300
3/16" = 1'-0"
140
0.1875
141
12.0
290
     0
  0
SCALE
  5
1F6
102
{ACAD_REACTORS
330
1DD
102
}
330
1DD
100
AcDbScale
 70
     0
300
1/4" = 1'-0"
140
0.25
141
12.0
290
     0
  0
SCALE
  5
1F7
102
{ACAD_REACTORS
330
1DD
102
}
330
1DD
100
AcDbScale
 70
     0
300
3/8" = 1'-0"
140
0.375
141
12.0
290
     0
  0
SCALE
  5
1F8
102
{ACAD_REACTORS
330
1DD
102
}
330
1DD
100
AcDbScale
 70
     0
300
1/2" = 1'-0"
140
0.5
141
12.0
290
     0
  0
SCALE
  5
1F9
102
{ACAD_REACTORS
330
1DD
102
}
330
1DD
100
AcDbScale
 70
     0
300
3/4" = 1'-0"
140
0.75
141
12.0
290
     0
  0
SCALE
  5
1FA
102
{ACAD_REACTORS
330
1DD
102
}
330
1DD
100
AcDbScale
 70
     0
300
1" = 1'-0"
140
1.0
141
12.0
290
     0
  0
SCALE
  5
1FB
102
{ACAD_REACTORS
330
1DD
102
}
330
1DD
100
AcDbScale
 70
     0
300
1-1/2" = 1'-0"
140
1.5
141
12.0
290
     0
  0
SCALE
  5
1FC
102
{ACAD_REACTORS
330
1DD
102
}
330
1DD
100
AcDbScale
 70
     0
300
3" = 1'-0"
140
3.0
141
12.0
290
     0
  0
SCALE
  5
1FD
102
{ACAD_REACTORS
330
1DD
102
}
330
1DD
100
AcDbScale
 70
     0
300
6" = 1'-0"
140
6.0
141
12.0
290
     0
  0
SCALE
  5
1FE
102
{ACAD_REACTORS
330
1DD
102
}
330
1DD
100
AcDbScale
 70
     0
300
1'-0" = 1'-0"
140
12.0
141
12.0
290
     0
  0
TABLESTYLE
  5
26B
102
{ACAD_REACTORS
330
26A
102
}
102
{ACAD_XDICTIONARY
360
2AC
102
}
330
26A
100
AcDbTableStyle
  3
Standard
 70
     0
 71
     0
 40
0.06
 41
0.06
280
     0
281
     0
  7
Standard
140
0.18
170
     2
 62
     0
 63
   257
283
     0
 90
        4
 91
        0
  1

274
    -2
284
     1
 64
     0
275
    -2
285
     1
 65
     0
276
    -2
286
     1
 66
     0
277
    -2
287
     1
 67
     0
278
    -2
288
     1
 68
     0
279
    -2
289
     1
 69
     0
  7
Standard
140
0.25
170
     5
 62
     0
 63
   257
283
     0
 90
        4
 91
        0
  1

274
    -2
284
     1
 64
     0
275
    -2
285
     1
 65
     0
276
    -2
286
     1
 66
     0
277
    -2
287
     1
 67
     0
278
    -2
288
     1
 68
     0
279
    -2
289
     1
 69
     0
  7
Standard
140
0.18
170
     5
 62
     0
 63
   257
283
     0
 90
        4
 91
        0
  1

274
    -2
284
     1
 64
     0
275
    -2
285
     1
 65
     0
276
    -2
286
     1
 66
     0
277
    -2
287
     1
 67
     0
278
    -2
288
     1
 68
     0
279
    -2
289
     1
 69
     0
  0
VISUALSTYLE
  5
208
102
{ACAD_REACTORS
330
203
102
}
330
203
100
AcDbVisualStyle
  2
2dWireframe
 70
     4
177
     3
291
     0
 70
    58
 90
        0
176
     1
 90
        2
176
     1
 90
        0
176
     1
 90
        0
176
     1
 40
-0.6
176
     1
 40
-30.0
176
     1
 62
     7
176
     1
 90
        1
176
     1
 90
        4
176
     1
 62
     7
176
     1
 62
   257
176
     1
 90
        1
176
     1
 90
        1
176
     1
 40
1.0
176
     1
 90
        0
176
     1
 62
   257
176
     1
 40
1.0
176
     1
 90
        1
176
     1
 90
        6
176
     1
 90
        2
176
     1
 62
     7
176
     1
 90
        5
176
     1
 90
        0
176
     1
 90
        0
176
     1
290
     0
176
     1
 90
        1
176
     1
 40
0.0
176
     1
 90
        0
176
     1
290
     1
176
     1
290
     1
176
     1
290
     0
176
     1
290
     0
176
     1
290
     0
176
     1
290
     0
176
     1
290
     0
176
     1
290
     0
176
     1
290
     0
176
     1
 90
       50
176
     1
 40
0.0
176
     1
 40
1.0
176
     1
 90
        0
176
     1
 62
    18
420
        0
176
     1
 90
       50
176
     1
 90
        3
176
     1
 62
     5
420
      255
176
     1
290
     0
176
     1
 90
       50
176
     1
 90
       50
176
     1
 90
       50
176
     1
290
     0
176
     1
 90
       50
176
     1
 62
   256
176
     0
 40
1.0
176
     0
 90
        2
176
     1
  1
strokes_ogs.tif
176
     1
290
     0
176
     1
 40
1.0
176
     1
 40
1.0
176
     1
  0
VISUALSTYLE
  5
20A
102
{ACAD_REACTORS
330
203
102
}
330
203
100
AcDbVisualStyle
  2
3D Hidden
 70
     6
177
     3
291
     0
 70
    58
 90
        1
176
     1
 90
        2
176
     1
 90
        2
176
     1
 90
        0
176
     1
 40
-0.6
176
     1
 40
-30.0
176
     1
 62
     7
176
     1
 90
        2
176
     1
 90
        2
176
     1
 62
     7
176
     1
 62
   257
176
     1
 90
        2
176
     1
 90
        1
176
     1
 40
40.0
176
     1
 90
        0
176
     1
 62
   257
176
     1
 40
1.0
176
     1
 90
        1
176
     1
 90
        6
176
     1
 90
        2
176
     1
 62
     7
176
     1
 90
        3
176
     1
 90
        0
176
     1
 90
        0
176
     1
290
     0
176
     1
 90
        1
176
     1
 40
0.0
176
     1
 90
        0
176
     1
290
     0
176
     1
290
     1
176
     1
290
     1
176
     1
290
     0
176
     1
290
     0
176
     1
290
     0
176
     1
290
     0
176
     1
290
     0
176
     1
290
     0
176
     1
 90
       50
176
     1
 40
0.0
176
     1
 40
1.0
176
     1
 90
        0
176
     1
 62
    18
420
        0
176
     1
 90
       50
176
     1
 90
        3
176
     1
 62
     5
420
      255
176
     1
290
     0
176
     1
 90
       50
176
     1
 90
       50
176
     1
 90
       50
176
     1
290
     0
176
     1
 90
       50
176
     1
 62
   256
176
     0
 40
1.0
176
     0
 90
        2
176
     1
  1
strokes_ogs.tif
176
     1
290
     0
176
     1
 40
1.0
176
     1
 40
1.0
176
     1
  0
VISUALSTYLE
  5
209
102
{ACAD_REACTORS
330
203
102
}
330
203
100
AcDbVisualStyle
  2
3dWireframe
 70
     5
177
     3
291
     0
 70
    58
 90
        0
176
     1
 90
        2
176
     1
 90
        0
176
     1
 90
        0
176
     1
 40
-0.6
176
     1
 40
-30.0
176
     1
 62
     7
176
     1
 90
        1
176
     1
 90
        4
176
     1
 62
     7
176
     1
 62
   257
176
     1
 90
        1
176
     1
 90
        1
176
     1
 40
1.0
176
     1
 90
        0
176
     1
 62
   257
176
     1
 40
1.0
176
     1
 90
        1
176
     1
 90
        6
176
     1
 90
        2
176
     1
 62
     7
176
     1
 90
        5
176
     1
 90
        0
176
     1
 90
        0
176
     1
290
     0
176
     1
 90
        1
176
     1
 40
0.0
176
     1
 90
        0
176
     1
290
     0
176
     1
290
     1
176
     1
290
     1
176
     1
290
     0
176
     1
290
     0
176
     1
290
     0
176
     1
290
     0
176
     1
290
     0
176
     1
290
     0
176
     1
 90
       50
176
     1
 40
0.0
176
     1
 40
1.0
176
     1
 90
        0
176
     1
 62
    18
420
        0
176
     1
 90
       50
176
     1
 90
        3
176
     1
 62
     5
420
      255
176
     1
290
     0
176
     1
 90
       50
176
     1
 90
       50
176
     1
 90
       50
176
     1
290
     0
176
     1
 90
       50
176
     1
 62
   256
176
     0
 40
1.0
176
     0
 90
        2
176
     1
  1
strokes_ogs.tif
176
     1
290
     0
176
     1
 40
1.0
176
     1
 40
1.0
176
     1
  0
VISUALSTYLE
  5
20B
102
{ACAD_REACTORS
330
203
102
}
330
203
100
AcDbVisualStyle
  2
Basic
 70
     7
177
     3
291
     1
 70
    58
 90
        1
176
     1
 90
        0
176
     1
 90
        1
176
     1
 90
        0
176
     1
 40
-0.6
176
     1
 40
-30.0
176
     1
 62
     7
176
     1
 90
        0
176
     1
 90
        4
176
     1
 62
     7
176
     1
 62
   257
176
     1
 90
        1
176
     1
 90
        1
176
     1
 40
1.0
176
     1
 90
        8
176
     1
 62
     7
176
     1
 40
1.0
176
     1
 90
        1
176
     1
 90
        6
176
     1
 90
        2
176
     1
 62
     7
176
     1
 90
        5
176
     1
 90
        0
176
     1
 90
        0
176
     1
290
     0
176
     1
 90
        1
176
     1
 40
0.0
176
     1
 90
        0
176
     1
290
     0
176
     1
290
     1
176
     1
290
     1
176
     1
290
     0
176
     1
290
     0
176
     1
290
     0
176
     1
290
     0
176
     1
290
     0
176
     1
290
     0
176
     1
 90
       50
176
     1
 40
0.0
176
     1
 40
1.0
176
     1
 90
        0
176
     1
 62
    18
420
        0
176
     1
 90
       50
176
     1
 90
        3
176
     1
 62
     5
420
      255
176
     1
290
     0
176
     1
 90
       50
176
     1
 90
       50
176
     1
 90
       50
176
     1
290
     0
176
     1
 90
       50
176
     1
 62
   256
176
     0
 40
1.0
176
     0
 90
        2
176
     1
  1
strokes_ogs.tif
176
     1
290
     0
176
     1
 40
1.0
176
     1
 40
1.0
176
     1
  0
VISUALSTYLE
  5
20F
102
{ACAD_REACTORS
330
203
102
}
330
203
100
AcDbVisualStyle
  2
Brighten
 70
    12
177
     3
291
     1
 70
    58
 90
        2
176
     1
 90
        2
176
     1
 90
        0
176
     1
 90
        0
176
     1
 40
-0.6
176
     1
 40
-30.0
176
     1
 62
     7
176
     1
 90
        1
176
     1
 90
        4
176
     1
 62
     7
176
     1
 62
   257
176
     1
 90
        1
176
     1
 90
        1
176
     1
 40
1.0
176
     1
 90
        8
176
     1
 62
     7
176
     1
 40
1.0
176
     1
 90
        1
176
     1
 90
        6
176
     1
 90
        2
176
     1
 62
     7
176
     1
 90
        5
176
     1
 90
        0
176
     1
 90
        0
176
     1
290
     0
176
     1
 90
        1
176
     1
 40
50.0
176
     1
 90
        0
176
     1
290
     0
176
     1
290
     1
176
     1
290
     1
176
     1
290
     0
176
     1
290
     0
176
     1
290
     0
176
     1
290
     0
176
     1
290
     0
176
     1
290
     0
176
     1
 90
       50
176
     1
 40
0.0
176
     1
 40
1.0
176
     1
 90
        0
176
     1
 62
    18
420
        0
176
     1
 90
       50
176
     1
 90
        3
176
     1
 62
     5
420
      255
176
     1
290
     0
176
     1
 90
       50
176
     1
 90
       50
176
     1
 90
       50
176
     1
290
     0
176
     1
 90
       50
176
     1
 62
   256
176
     0
 40
1.0
176
     0
 90
        2
176
     1
  1
strokes_ogs.tif
176
     1
290
     0
176
     1
 40
1.0
176
     1
 40
1.0
176
     1
  0
VISUALSTYLE
  5
213
102
{ACAD_REACTORS
330
203
102
}
330
203
100
AcDbVisualStyle
  2
ColorChange
 70
    16
177
     3
291
     1
 70
    58
 90
        2
176
     1
 90
        2
176
     1
 90
        3
176
     1
 90
        0
176
     1
 40
-0.6
176
     1
 40
-30.0
176
     1
 62
     8
176
     1
 90
        1
176
     1
 90
        4
176
     1
 62
     7
176
     1
 62
   257
176
     1
 90
        1
176
     1
 90
        1
176
     1
 40
1.0
176
     1
 90
        8
176
     1
 62
     8
176
     1
 40
1.0
176
     1
 90
        1
176
     1
 90
        6
176
     1
 90
        2
176
     1
 62
     7
176
     1
 90
        5
176
     1
 90
        0
176
     1
 90
        0
176
     1
290
     0
176
     1
 90
        1
176
     1
 40
0.0
176
     1
 90
        0
176
     1
290
     0
176
     1
290
     1
176
     1
290
     1
176
     1
290
     0
176
     1
290
     0
176
     1
290
     0
176
     1
290
     0
176
     1
290
     0
176
     1
290
     0
176
     1
 90
       50
176
     1
 40
0.0
176
     1
 40
1.0
176
     1
 90
        0
176
     1
 62
    18
420
        0
176
     1
 90
       50
176
     1
 90
        3
176
     1
 62
     5
420
      255
176
     1
290
     0
176
     1
 90
       50
176
     1
 90
       50
176
     1
 90
       50
176
     1
290
     0
176
     1
 90
       50
176
     1
 62
   256
176
     0
 40
1.0
176
     0
 90
        2
176
     1
  1
strokes_ogs.tif
176
     1
290
     0
176
     1
 40
1.0
176
     1
 40
1.0
176
     1
  0
VISUALSTYLE
  5
20D
102
{ACAD_REACTORS
330
203
102
}
330
203
100
AcDbVisualStyle
  2
Conceptual
 70
     9
177
     3
291
     0
 70
    58
 90
        3
176
     1
 90
        2
176
     1
 90
        0
176
     1
 90
        0
176
     1
 40
-0.6
176
     1
 40
-30.0
176
     1
 62
     7
176
     1
 90
        2
176
     1
 90
        2
176
     1
 62
     7
176
     1
 62
   257
176
     1
 90
        1
176
     1
 90
        1
176
     1
 40
40.0
176
     1
 90
        8
176
     1
 62
     7
176
     1
 40
1.0
176
     1
 90
        1
176
     1
 90
        6
176
     1
 90
        2
176
     1
 62
     7
176
     1
 90
        3
176
     1
 90
        0
176
     1
 90
        0
176
     1
290
     0
176
     1
 90
        1
176
     1
 40
0.0
176
     1
 90
        0
176
     1
290
     0
176
     1
290
     1
176
     1
290
     1
176
     1
290
     0
176
     1
290
     0
176
     1
290
     0
176
     1
290
     0
176
     1
290
     0
176
     1
290
     0
176
     1
 90
       50
176
     1
 40
0.0
176
     1
 40
1.0
176
     1
 90
        0
176
     1
 62
    18
420
        0
176
     1
 90
       50
176
     1
 90
        3
176
     1
 62
     5
420
      255
176
     1
290
     0
176
     1
 90
       50
176
     1
 90
       50
176
     1
 90
       50
176
     1
290
     0
176
     1
 90
       50
176
     1
 62
   256
176
     0
 40
1.0
176
     0
 90
        2
176
     1
  1
strokes_ogs.tif
176
     1
290
     0
176
     1
 40
1.0
176
     1
 40
1.0
176
     1
  0
VISUALSTYLE
  5
20E
102
{ACAD_REACTORS
330
203
102
}
330
203
100
AcDbVisualStyle
  2
Dim
 70
    11
177
     3
291
     1
 70
    58
 90
        2
176
     1
 90
        2
176
     1
 90
        0
176
     1
 90
        0
176
     1
 40
-0.6
176
     1
 40
-30.0
176
     1
 62
     7
176
     1
 90
        1
176
     1
 90
        4
176
     1
 62
     7
176
     1
 62
   257
176
     1
 90
        1
176
     1
 90
        1
176
     1
 40
1.0
176
     1
 90
        8
176
     1
 62
     7
176
     1
 40
1.0
176
     1
 90
        1
176
     1
 90
        6
176
     1
 90
        2
176
     1
 62
     7
176
     1
 90
        5
176
     1
 90
        0
176
     1
 90
        0
176
     1
290
     0
176
     1
 90
        1
176
     1
 40
-50.0
176
     1
 90
        0
176
     1
290
     0
176
     1
290
     1
176
     1
290
     1
176
     1
290
     0
176
     1
290
     0
176
     1
290
     0
176
     1
290
     0
176
     1
290
     0
176
     1
290
     0
176
     1
 90
       50
176
     1
 40
0.0
176
     1
 40
1.0
176
     1
 90
        0
176
     1
 62
    18
420
        0
176
     1
 90
       50
176
     1
 90
        3
176
     1
 62
     5
420
      255
176
     1
290
     0
176
     1
 90
       50
176
     1
 90
       50
176
     1
 90
       50
176
     1
290
     0
176
     1
 90
       50
176
     1
 62
   256
176
     0
 40
1.0
176
     0
 90
        2
176
     1
  1
strokes_ogs.tif
176
     1
290
     0
176
     1
 40
1.0
176
     1
 40
1.0
176
     1
  0
VISUALSTYLE
  5
264
102
{ACAD_REACTORS
330
203
102
}
330
203
100
AcDbVisualStyle
  2
EdgeColorOff
 70
    22
177
     3
291
     1
 70
    58
 90
        2
176
     0
 90
        2
176
     0
 90
        0
176
     0
 90
        0
176
     0
 40
0.6
176
     0
 40
30.0
176
     0
 62
     7
420
 16777215
176
     0
 90
        1
176
     0
 90
        4
176
     0
 62
     7
176
     0
 62
   257
176
     0
 90
        1
176
     0
 90
        1
176
     0
 40
1.0
176
     0
 90
        8
176
     2
 62
     7
176
     0
 40
1.0
176
     0
 90
        1
176
     0
 90
        6
176
     0
 90
        2
176
     0
 62
     7
176
     0
 90
        5
176
     0
 90
        0
176
     0
 90
        0
176
     0
290
     0
176
     0
 90
        1
176
     0
 40
0.0
176
     0
 90
        0
176
     0
290
     0
176
     0
290
     1
176
     0
290
     1
176
     0
290
     0
176
     0
290
     0
176
     0
290
     0
176
     0
290
     0
176
     0
290
     0
176
     0
290
     0
176
     0
 90
       50
176
     0
 40
0.0
176
     0
 40
1.0
176
     0
 90
        0
176
     0
 62
    18
420
        0
176
     0
 90
       50
176
     0
 90
        3
176
     0
 62
     5
420
      255
176
     0
290
     0
176
     0
 90
       50
176
     0
 90
       50
176
     0
 90
       50
176
     0
290
     0
176
     0
 90
       50
176
     0
 62
   256
176
     0
 40
1.0
176
     0
 90
        2
176
     0
  1
strokes_ogs.tif
176
     0
290
     0
176
     0
 40
1.0
176
     0
 40
1.0
176
     0
  0
VISUALSTYLE
  5
212
102
{ACAD_REACTORS
330
203
102
}
330
203
100
AcDbVisualStyle
  2
Facepattern
 70
    15
177
     3
291
     1
 70
    58
 90
        2
176
     1
 90
        2
176
     1
 90
        0
176
     1
 90
        0
176
     1
 40
-0.6
176
     1
 40
-30.0
176
     1
 62
     7
176
     1
 90
        1
176
     1
 90
        4
176
     1
 62
     7
176
     1
 62
   257
176
     1
 90
        1
176
     1
 90
        1
176
     1
 40
1.0
176
     1
 90
        8
176
     1
 62
     7
176
     1
 40
1.0
176
     1
 90
        1
176
     1
 90
        6
176
     1
 90
        2
176
     1
 62
     7
176
     1
 90
        5
176
     1
 90
        0
176
     1
 90
        0
176
     1
290
     0
176
     1
 90
        1
176
     1
 40
0.0
176
     1
 90
        0
176
     1
290
     0
176
     1
290
     1
176
     1
290
     1
176
     1
290
     0
176
     1
290
     0
176
     1
290
     0
176
     1
290
     0
176
     1
290
     0
176
     1
290
     0
176
     1
 90
       50
176
     1
 40
0.0
176
     1
 40
1.0
176
     1
 90
        0
176
     1
 62
    18
420
        0
176
     1
 90
       50
176
     1
 90
        3
176
     1
 62
     5
420
      255
176
     1
290
     0
176
     1
 90
       50
176
     1
 90
       50
176
     1
 90
       50
176
     1
290
     0
176
     1
 90
       50
176
     1
 62
   256
176
     0
 40
1.0
176
     0
 90
        2
176
     1
  1
strokes_ogs.tif
176
     1
290
     0
176
     1
 40
1.0
176
     1
 40
1.0
176
     1
  0
VISUALSTYLE
  5
204
102
{ACAD_REACTORS
330
203
102
}
330
203
100
AcDbVisualStyle
  2
Flat
 70
     0
177
     3
291
     1
 70
    58
 90
        2
176
     1
 90
        1
176
     1
 90
        1
176
     1
 90
        2
176
     1
 40
-0.6
176
     1
 40
30.0
176
     1
 62
     7
176
     1
 90
        0
176
     1
 90
        4
176
     1
 62
     7
176
     1
 62
   257
176
     1
 90
        1
176
     1
 90
        1
176
     1
 40
1.0
176
     1
 90
        8
176
     1
 62
     7
176
     1
 40
1.0
176
     1
 90
        1
176
     1
 90
        6
176
     1
 90
        2
176
     1
 62
     7
176
     1
 90
        5
176
     1
 90
        0
176
     1
 90
        0
176
     1
290
     0
176
     1
 90
       13
176
     1
 40
0.0
176
     1
 90
        0
176
     1
290
     0
176
     1
290
     1
176
     1
290
     1
176
     1
290
     0
176
     1
290
     0
176
     1
290
     0
176
     1
290
     0
176
     1
290
     0
176
     1
290
     0
176
     1
 90
       50
176
     1
 40
0.0
176
     1
 40
1.0
176
     1
 90
        0
176
     1
 62
    18
420
        0
176
     1
 90
       50
176
     1
 90
        3
176
     1
 62
     5
420
      255
176
     1
290
     0
176
     1
 90
       50
176
     1
 90
       50
176
     1
 90
       50
176
     1
290
     0
176
     1
 90
       50
176
     1
 62
   256
176
     0
 40
1.0
176
     0
 90
        2
176
     1
  1
strokes_ogs.tif
176
     1
290
     0
176
     1
 40
1.0
176
     1
 40
1.0
176
     1
  0
VISUALSTYLE
  5
205
102
{ACAD_REACTORS
330
203
102
}
330
203
100
AcDbVisualStyle
  2
FlatWithEdges
 70
     1
177
     3
291
     1
 70
    58
 90
        2
176
     1
 90
        1
176
     1
 90
        1
176
     1
 90
        2
176
     1
 40
-0.6
176
     1
 40
30.0
176
     1
 62
     7
176
     1
 90
        1
176
     1
 90
        4
176
     1
 62
     7
176
     1
 62
   257
176
     1
 90
        1
176
     1
 90
        1
176
     1
 40
1.0
176
     1
 90
        0
176
     1
 62
   257
176
     1
 40
1.0
176
     1
 90
        1
176
     1
 90
        6
176
     1
 90
        2
176
     1
 62
     7
176
     1
 90
        5
176
     1
 90
        0
176
     1
 90
        0
176
     1
290
     0
176
     1
 90
       13
176
     1
 40
0.0
176
     1
 90
        0
176
     1
290
     0
176
     1
290
     1
176
     1
290
     1
176
     1
290
     0
176
     1
290
     0
176
     1
290
     0
176
     1
290
     0
176
     1
290
     0
176
     1
290
     0
176
     1
 90
       50
176
     1
 40
0.0
176
     1
 40
1.0
176
     1
 90
        0
176
     1
 62
    18
420
        0
176
     1
 90
       50
176
     1
 90
        3
176
     1
 62
     5
420
      255
176
     1
290
     0
176
     1
 90
       50
176
     1
 90
       50
176
     1
 90
       50
176
     1
290
     0
176
     1
 90
       50
176
     1
 62
   256
176
     0
 40
1.0
176
     0
 90
        2
176
     1
  1
strokes_ogs.tif
176
     1
290
     0
176
     1
 40
1.0
176
     1
 40
1.0
176
     1
  0
VISUALSTYLE
  5
206
102
{ACAD_REACTORS
330
203
102
}
330
203
100
AcDbVisualStyle
  2
Gouraud
 70
     2
177
     3
291
     1
 70
    58
 90
        2
176
     1
 90
        2
176
     1
 90
        1
176
     1
 90
        2
176
     1
 40
-0.6
176
     1
 40
30.0
176
     1
 62
     7
176
     1
 90
        0
176
     1
 90
        4
176
     1
 62
     7
176
     1
 62
   257
176
     1
 90
        1
176
     1
 90
        1
176
     1
 40
1.0
176
     1
 90
        0
176
     1
 62
     7
176
     1
 40
1.0
176
     1
 90
        1
176
     1
 90
        6
176
     1
 90
        2
176
     1
 62
     7
176
     1
 90
        5
176
     1
 90
        0
176
     1
 90
        0
176
     1
290
     0
176
     1
 90
       13
176
     1
 40
0.0
176
     1
 90
        0
176
     1
290
     0
176
     1
290
     1
176
     1
290
     1
176
     1
290
     0
176
     1
290
     0
176
     1
290
     0
176
     1
290
     0
176
     1
290
     0
176
     1
290
     0
176
     1
 90
       50
176
     1
 40
0.0
176
     1
 40
1.0
176
     1
 90
        0
176
     1
 62
    18
420
        0
176
     1
 90
       50
176
     1
 90
        3
176
     1
 62
     5
420
      255
176
     1
290
     0
176
     1
 90
       50
176
     1
 90
       50
176
     1
 90
       50
176
     1
290
     0
176
     1
 90
       50
176
     1
 62
   256
176
     0
 40
1.0
176
     0
 90
        2
176
     1
  1
strokes_ogs.tif
176
     1
290
     0
176
     1
 40
1.0
176
     1
 40
1.0
176
     1
  0
VISUALSTYLE
  5
207
102
{ACAD_REACTORS
330
203
102
}
330
203
100
AcDbVisualStyle
  2
GouraudWithEdges
 70
     3
177
     3
291
     1
 70
    58
 90
        2
176
     1
 90
        2
176
     1
 90
        1
176
     1
 90
        2
176
     1
 40
-0.6
176
     1
 40
30.0
176
     1
 62
     7
176
     1
 90
        1
176
     1
 90
        4
176
     1
 62
     7
176
     1
 62
   257
176
     1
 90
        1
176
     1
 90
        1
176
     1
 40
1.0
176
     1
 90
        0
176
     1
 62
   257
176
     1
 40
1.0
176
     1
 90
        1
176
     1
 90
        6
176
     1
 90
        2
176
     1
 62
     7
176
     1
 90
        5
176
     1
 90
        0
176
     1
 90
        0
176
     1
290
     0
176
     1
 90
       13
176
     1
 40
0.0
176
     1
 90
        0
176
     1
290
     0
176
     1
290
     1
176
     1
290
     1
176
     1
290
     0
176
     1
290
     0
176
     1
290
     0
176
     1
290
     0
176
     1
290
     0
176
     1
290
     0
176
     1
 90
       50
176
     1
 40
0.0
176
     1
 40
1.0
176
     1
 90
        0
176
     1
 62
    18
420
        0
176
     1
 90
       50
176
     1
 90
        3
176
     1
 62
     5
420
      255
176
     1
290
     0
176
     1
 90
       50
176
     1
 90
       50
176
     1
 90
       50
176
     1
290
     0
176
     1
 90
       50
176
     1
 62
   256
176
     0
 40
1.0
176
     0
 90
        2
176
     1
  1
strokes_ogs.tif
176
     1
290
     0
176
     1
 40
1.0
176
     1
 40
1.0
176
     1
  0
VISUALSTYLE
  5
261
102
{ACAD_REACTORS
330
203
102
}
330
203
100
AcDbVisualStyle
  2
Hidden
 70
     6
177
     3
291
     0
 70
    58
 90
        1
176
     1
 90
        2
176
     1
 90
        2
176
     1
 90
        0
176
     1
 40
0.6
176
     1
 40
30.0
176
     1
 62
     7
420
 16777215
176
     1
 90
        2
176
     1
 90
        2
176
     1
 62
     7
176
     1
 62
   257
176
     1
 90
        2
176
     1
 90
        1
176
     1
 40
40.0
176
     1
 90
        0
176
     1
 62
   257
176
     1
 40
1.0
176
     1
 90
        1
176
     1
 90
        6
176
     1
 90
        2
176
     1
 62
     7
176
     1
 90
        3
176
     1
 90
        0
176
     1
 90
        0
176
     1
290
     0
176
     1
 90
        1
176
     1
 40
0.0
176
     1
 90
        0
176
     1
290
     0
176
     1
290
     1
176
     1
290
     1
176
     1
290
     0
176
     1
290
     0
176
     1
290
     0
176
     1
290
     0
176
     1
290
     0
176
     1
290
     0
176
     1
 90
       50
176
     1
 40
0.0
176
     1
 40
1.0
176
     1
 90
        0
176
     1
 62
    18
420
        0
176
     1
 90
       50
176
     1
 90
        3
176
     1
 62
     5
420
      255
176
     1
290
     0
176
     1
 90
       50
176
     1
 90
       50
176
     1
 90
       50
176
     1
290
     0
176
     1
 90
       50
176
     1
 62
   256
176
     0
 40
1.0
176
     0
 90
        2
176
     1
  1
strokes_ogs.tif
176
     1
290
     0
176
     1
 40
1.0
176
     1
 40
1.0
176
     1
  0
VISUALSTYLE
  5
262
102
{ACAD_REACTORS
330
203
102
}
330
203
100
AcDbVisualStyle
  2
JitterOff
 70
    20
177
     3
291
     1
 70
    58
 90
        2
176
     0
 90
        2
176
     0
 90
        0
176
     0
 90
        0
176
     0
 40
0.6
176
     0
 40
30.0
176
     0
 62
     7
420
 16777215
176
     0
 90
        1
176
     0
 90
        4
176
     0
 62
     7
176
     0
 62
   257
176
     0
 90
        1
176
     0
 90
        1
176
     0
 40
1.0
176
     0
 90
       10
176
     2
 62
     7
176
     0
 40
1.0
176
     0
 90
        1
176
     0
 90
        6
176
     0
 90
        2
176
     0
 62
     7
176
     0
 90
        5
176
     0
 90
        0
176
     0
 90
        0
176
     0
290
     0
176
     0
 90
        1
176
     0
 40
0.0
176
     0
 90
        0
176
     0
290
     0
176
     0
290
     1
176
     0
290
     1
176
     0
290
     0
176
     0
290
     0
176
     0
290
     0
176
     0
290
     0
176
     0
290
     0
176
     0
290
     0
176
     0
 90
       50
176
     0
 40
0.0
176
     0
 40
1.0
176
     0
 90
        0
176
     0
 62
    18
420
        0
176
     0
 90
       50
176
     0
 90
        3
176
     0
 62
     5
420
      255
176
     0
290
     0
176
     0
 90
       50
176
     0
 90
       50
176
     0
 90
       50
176
     0
290
     0
176
     0
 90
       50
176
     0
 62
   256
176
     0
 40
1.0
176
     0
 90
        2
176
     0
  1
strokes_ogs.tif
176
     0
290
     0
176
     0
 40
1.0
176
     0
 40
1.0
176
     0
  0
VISUALSTYLE
  5
211
102
{ACAD_REACTORS
330
203
102
}
330
203
100
AcDbVisualStyle
  2
Linepattern
 70
    14
177
     3
291
     1
 70
    58
 90
        2
176
     1
 90
        2
176
     1
 90
        0
176
     1
 90
        0
176
     1
 40
-0.6
176
     1
 40
-30.0
176
     1
 62
     7
176
     1
 90
        1
176
     1
 90
        4
176
     1
 62
     7
176
     1
 62
   257
176
     1
 90
        7
176
     1
 90
        7
176
     1
 40
1.0
176
     1
 90
        8
176
     1
 62
     7
176
     1
 40
1.0
176
     1
 90
        1
176
     1
 90
        6
176
     1
 90
        2
176
     1
 62
     7
176
     1
 90
        5
176
     1
 90
        0
176
     1
 90
        0
176
     1
290
     0
176
     1
 90
        1
176
     1
 40
0.0
176
     1
 90
        0
176
     1
290
     0
176
     1
290
     1
176
     1
290
     1
176
     1
290
     0
176
     1
290
     0
176
     1
290
     0
176
     1
290
     0
176
     1
290
     0
176
     1
290
     0
176
     1
 90
       50
176
     1
 40
0.0
176
     1
 40
1.0
176
     1
 90
        0
176
     1
 62
    18
420
        0
176
     1
 90
       50
176
     1
 90
        3
176
     1
 62
     5
420
      255
176
     1
290
     0
176
     1
 90
       50
176
     1
 90
       50
176
     1
 90
       50
176
     1
290
     0
176
     1
 90
       50
176
     1
 62
   256
176
     0
 40
1.0
176
     0
 90
        2
176
     1
  1
strokes_ogs.tif
176
     1
290
     0
176
     1
 40
1.0
176
     1
 40
1.0
176
     1
  0
VISUALSTYLE
  5
263
102
{ACAD_REACTORS
330
203
102
}
330
203
100
AcDbVisualStyle
  2
OverhangOff
 70
    21
177
     3
291
     1
 70
    58
 90
        2
176
     0
 90
        2
176
     0
 90
        0
176
     0
 90
        0
176
     0
 40
0.6
176
     0
 40
30.0
176
     0
 62
     7
420
 16777215
176
     0
 90
        1
176
     0
 90
        4
176
     0
 62
     7
176
     0
 62
   257
176
     0
 90
        1
176
     0
 90
        1
176
     0
 40
1.0
176
     0
 90
        9
176
     2
 62
     7
176
     0
 40
1.0
176
     0
 90
        1
176
     0
 90
        6
176
     0
 90
        2
176
     0
 62
     7
176
     0
 90
        5
176
     0
 90
        0
176
     0
 90
        0
176
     0
290
     0
176
     0
 90
        1
176
     0
 40
0.0
176
     0
 90
        0
176
     0
290
     0
176
     0
290
     1
176
     0
290
     1
176
     0
290
     0
176
     0
290
     0
176
     0
290
     0
176
     0
290
     0
176
     0
290
     0
176
     0
290
     0
176
     0
 90
       50
176
     0
 40
0.0
176
     0
 40
1.0
176
     0
 90
        0
176
     0
 62
    18
420
        0
176
     0
 90
       50
176
     0
 90
        3
176
     0
 62
     5
420
      255
176
     0
290
     0
176
     0
 90
       50
176
     0
 90
       50
176
     0
 90
       50
176
     0
290
     0
176
     0
 90
       50
176
     0
 62
   256
176
     0
 40
1.0
176
     0
 90
        2
176
     0
  1
strokes_ogs.tif
176
     0
290
     0
176
     0
 40
1.0
176
     0
 40
1.0
176
     0
  0
VISUALSTYLE
  5
20C
102
{ACAD_REACTORS
330
203
102
}
330
203
100
AcDbVisualStyle
  2
Realistic
 70
     8
177
     3
291
     0
 70
    58
 90
        2
176
     1
 90
        2
176
     1
 90
        0
176
     1
 90
        0
176
     1
 40
-0.6
176
     1
 40
-30.0
176
     1
 62
     7
176
     1
 90
        1
176
     1
 90
        0
176
     1
 62
     7
176
     1
 62
   257
176
     1
 90
        1
176
     1
 90
        1
176
     1
 40
1.0
176
     1
 90
        8
176
     1
 62
     8
176
     1
 40
1.0
176
     1
 90
        1
176
     1
 90
        6
176
     1
 90
        2
176
     1
 62
     7
176
     1
 90
        5
176
     1
 90
        0
176
     1
 90
        0
176
     1
290
     0
176
     1
 90
       13
176
     1
 40
0.0
176
     1
 90
        0
176
     1
290
     0
176
     1
290
     1
176
     1
290
     1
176
     1
290
     0
176
     1
290
     0
176
     1
290
     0
176
     1
290
     0
176
     1
290
     0
176
     1
290
     0
176
     1
 90
       50
176
     1
 40
0.0
176
     1
 40
1.0
176
     1
 90
        0
176
     1
 62
    18
420
        0
176
     1
 90
       50
176
     1
 90
        3
176
     1
 62
     5
420
      255
176
     1
290
     0
176
     1
 90
       50
176
     1
 90
       50
176
     1
 90
       50
176
     1
290
     0
176
     1
 90
       50
176
     1
 62
   256
176
     0
 40
1.0
176
     0
 90
        2
176
     1
  1
strokes_ogs.tif
176
     1
290
     0
176
     1
 40
1.0
176
     1
 40
1.0
176
     1
  0
VISUALSTYLE
  5
269
102
{ACAD_REACTORS
330
203
102
}
330
203
100
AcDbVisualStyle
  2
Shaded
 70
    27
177
     3
291
     0
 70
    58
 90
        2
176
     1
 90
        2
176
     1
 90
        1
176
     1
 90
        2
176
     1
 40
0.6
176
     1
 40
30.0
176
     1
 62
     7
420
 16777215
176
     1
 90
        0
176
     1
 90
        4
176
     1
 62
     7
176
     1
 62
   257
176
     1
 90
        1
176
     1
 90
        1
176
     1
 40
1.0
176
     1
 90
        8
176
     1
 62
   257
176
     1
 40
1.0
176
     1
 90
        1
176
     1
 90
        6
176
     1
 90
        2
176
     1
 62
     8
420
  7895160
176
     1
 90
        3
176
     1
 90
        0
176
     1
 90
        0
176
     1
290
     0
176
     1
 90
        5
176
     1
 40
0.0
176
     1
 90
        0
176
     1
290
     0
176
     1
290
     1
176
     1
290
     1
176
     1
290
     0
176
     1
290
     0
176
     1
290
     0
176
     1
290
     0
176
     1
290
     0
176
     1
290
     0
176
     1
 90
       50
176
     1
 40
0.0
176
     1
 40
1.0
176
     1
 90
        0
176
     1
 62
    18
420
        0
176
     1
 90
       50
176
     1
 90
        3
176
     1
 62
     5
420
      255
176
     1
290
     0
176
     1
 90
       50
176
     1
 90
       50
176
     1
 90
       50
176
     1
290
     0
176
     1
 90
       50
176
     1
 62
   256
176
     0
 40
1.0
176
     0
 90
        2
176
     1
  1
strokes_ogs.tif
176
     1
290
     0
176
     1
 40
1.0
176
     1
 40
1.0
176
     1
  0
VISUALSTYLE
  5
268
102
{ACAD_REACTORS
330
203
102
}
330
203
100
AcDbVisualStyle
  2
Shaded with edges
 70
    26
177
     3
291
     0
 70
    58
 90
        2
176
     1
 90
        2
176
     1
 90
        1
176
     1
 90
        2
176
     1
 40
0.6
176
     1
 40
30.0
176
     1
 62
     7
420
 16777215
176
     1
 90
        1
176
     1
 90
       10
176
     1
 62
     7
176
     1
 62
   257
176
     1
 90
        2
176
     1
 90
        1
176
     1
 40
1.0
176
     1
 90
        8
176
     1
 62
   257
176
     1
 40
1.0
176
     1
 90
        1
176
     1
 90
        6
176
     1
 90
        2
176
     1
 62
     7
176
     1
 90
        3
176
     1
 90
        0
176
     1
 90
        0
176
     1
290
     0
176
     1
 90
        5
176
     1
 40
0.0
176
     1
 90
        0
176
     1
290
     0
176
     1
290
     1
176
     1
290
     1
176
     1
290
     0
176
     1
290
     0
176
     1
290
     0
176
     1
290
     0
176
     1
290
     0
176
     1
290
     0
176
     1
 90
       50
176
     1
 40
0.0
176
     1
 40
1.0
176
     1
 90
        0
176
     1
 62
    18
420
        0
176
     1
 90
       50
176
     1
 90
        3
176
     1
 62
     5
420
      255
176
     1
290
     0
176
     1
 90
       50
176
     1
 90
       50
176
     1
 90
       50
176
     1
290
     0
176
     1
 90
       50
176
     1
 62
   256
176
     0
 40
1.0
176
     0
 90
        2
176
     1
  1
strokes_ogs.tif
176
     1
290
     0
176
     1
 40
1.0
176
     1
 40
1.0
176
     1
  0
VISUALSTYLE
  5
265
102
{ACAD_REACTORS
330
203
102
}
330
203
100
AcDbVisualStyle
  2
Shades of Gray
 70
    23
177
     3
291
     0
 70
    58
 90
        2
176
     1
 90
        2
176
     1
 90
        3
176
     1
 90
        0
176
     1
 40
0.6
176
     1
 40
30.0
176
     1
 62
     7
420
 16777215
176
     1
 90
        2
176
     1
 90
        2
176
     1
 62
     7
176
     1
 62
     7
176
     1
 90
        1
176
     1
 90
        1
176
     1
 40
40.0
176
     1
 90
        8
176
     1
 62
     7
176
     1
 40
1.0
176
     1
 90
        1
176
     1
 90
        6
176
     1
 90
        2
176
     1
 62
     7
176
     1
 90
        3
176
     1
 90
        0
176
     1
 90
        0
176
     1
290
     0
176
     1
 90
        1
176
     1
 40
0.0
176
     1
 90
        0
176
     1
290
     0
176
     1
290
     1
176
     1
290
     1
176
     1
290
     0
176
     1
290
     0
176
     1
290
     0
176
     1
290
     0
176
     1
290
     0
176
     1
290
     0
176
     1
 90
       50
176
     1
 40
0.0
176
     1
 40
1.0
176
     1
 90
        0
176
     1
 62
    18
420
        0
176
     1
 90
       50
176
     1
 90
        3
176
     1
 62
     5
420
      255
176
     1
290
     0
176
     1
 90
       50
176
     1
 90
       50
176
     1
 90
       50
176
     1
290
     0
176
     1
 90
       50
176
     1
 62
   256
176
     0
 40
1.0
176
     0
 90
        2
176
     1
  1
strokes_ogs.tif
176
     1
290
     0
176
     1
 40
1.0
176
     1
 40
1.0
176
     1
  0
VISUALSTYLE
  5
266
102
{ACAD_REACTORS
330
203
102
}
330
203
100
AcDbVisualStyle
  2
Sketchy
 70
    24
177
     3
291
     0
 70
    58
 90
        1
176
     1
 90
        2
176
     1
 90
        2
176
     1
 90
        0
176
     1
 40
0.6
176
     1
 40
30.0
176
     1
 62
     7
420
 16777215
176
     1
 90
        2
176
     1
 90
        2
176
     1
 62
     7
176
     1
 62
     7
176
     1
 90
        1
176
     1
 90
        1
176
     1
 40
40.0
176
     1
 90
       11
176
     1
 62
     7
176
     1
 40
1.0
176
     1
 90
        1
176
     1
 90
        6
176
     1
 90
        2
176
     1
 62
     7
176
     1
 90
        6
176
     1
 90
        0
176
     1
 90
        0
176
     1
290
     0
176
     1
 90
        1
176
     1
 40
0.0
176
     1
 90
        0
176
     1
290
     0
176
     1
290
     1
176
     1
290
     1
176
     1
290
     0
176
     1
290
     0
176
     1
290
     0
176
     1
290
     0
176
     1
290
     0
176
     1
290
     0
176
     1
 90
       50
176
     1
 40
0.0
176
     1
 40
1.0
176
     1
 90
        0
176
     1
 62
    18
420
        0
176
     1
 90
       50
176
     1
 90
        3
176
     1
 62
     5
420
      255
176
     1
290
     0
176
     1
 90
       50
176
     1
 90
       50
176
     1
 90
       50
176
     1
290
     0
176
     1
 90
       50
176
     1
 62
   256
176
     0
 40
1.0
176
     0
 90
        2
176
     1
  1
strokes_ogs.tif
176
     1
290
     0
176
     1
 40
1.0
176
     1
 40
1.0
176
     1
  0
VISUALSTYLE
  5
210
102
{ACAD_REACTORS
330
203
102
}
330
203
100
AcDbVisualStyle
  2
Thicken
 70
    13
177
     3
291
     1
 70
    58
 90
        2
176
     1
 90
        2
176
     1
 90
        0
176
     1
 90
        0
176
     1
 40
-0.6
176
     1
 40
-30.0
176
     1
 62
     7
176
     1
 90
        1
176
     1
 90
        4
176
     1
 62
     7
176
     1
 62
   257
176
     1
 90
        1
176
     1
 90
        1
176
     1
 40
1.0
176
     1
 90
       12
176
     1
 62
     7
176
     1
 40
1.0
176
     1
 90
        1
176
     1
 90
        6
176
     1
 90
        2
176
     1
 62
     7
176
     1
 90
        5
176
     1
 90
        0
176
     1
 90
        0
176
     1
290
     0
176
     1
 90
        1
176
     1
 40
0.0
176
     1
 90
        0
176
     1
290
     0
176
     1
290
     1
176
     1
290
     1
176
     1
290
     0
176
     1
290
     0
176
     1
290
     0
176
     1
290
     0
176
     1
290
     0
176
     1
290
     0
176
     1
 90
       50
176
     1
 40
0.0
176
     1
 40
1.0
176
     1
 90
        0
176
     1
 62
    18
420
        0
176
     1
 90
       50
176
     1
 90
        3
176
     1
 62
     5
420
      255
176
     1
290
     0
176
     1
 90
       50
176
     1
 90
       50
176
     1
 90
       50
176
     1
290
     0
176
     1
 90
       50
176
     1
 62
   256
176
     0
 40
1.0
176
     0
 90
        2
176
     1
  1
strokes_ogs.tif
176
     1
290
     0
176
     1
 40
1.0
176
     1
 40
1.0
176
     1
  0
VISUALSTYLE
  5
260
102
{ACAD_REACTORS
330
203
102
}
330
203
100
AcDbVisualStyle
  2
Wireframe
 70
     5
177
     3
291
     0
 70
    58
 90
        0
176
     1
 90
        2
176
     1
 90
        0
176
     1
 90
        0
176
     1
 40
0.6
176
     1
 40
30.0
176
     1
 62
     7
420
 16777215
176
     1
 90
        1
176
     1
 90
        4
176
     1
 62
     7
176
     1
 62
   257
176
     1
 90
        1
176
     1
 90
        1
176
     1
 40
1.0
176
     1
 90
        0
176
     1
 62
   257
176
     1
 40
1.0
176
     1
 90
        1
176
     1
 90
        6
176
     1
 90
        2
176
     1
 62
     7
176
     1
 90
        3
176
     1
 90
        0
176
     1
 90
        0
176
     1
290
     0
176
     1
 90
        1
176
     1
 40
0.0
176
     1
 90
        0
176
     1
290
     0
176
     1
290
     1
176
     1
290
     1
176
     1
290
     0
176
     1
290
     0
176
     1
290
     0
176
     1
290
     0
176
     1
290
     0
176
     1
290
     0
176
     1
 90
       50
176
     1
 40
0.0
176
     1
 40
1.0
176
     1
 90
        0
176
     1
 62
    18
420
        0
176
     1
 90
       50
176
     1
 90
        3
176
     1
 62
     5
420
      255
176
     1
290
     0
176
     1
 90
       50
176
     1
 90
       50
176
     1
 90
       50
176
     1
290
     0
176
     1
 90
       50
176
     1
 62
   256
176
     0
 40
1.0
176
     0
 90
        2
176
     1
  1
strokes_ogs.tif
176
     1
290
     0
176
     1
 40
1.0
176
     1
 40
1.0
176
     1
  0
VISUALSTYLE
  5
267
102
{ACAD_REACTORS
330
203
102
}
330
203
100
AcDbVisualStyle
  2
X-Ray
 70
    25
177
     3
291
     0
 70
    58
 90
        2
176
     1
 90
        2
176
     1
 90
        1
176
     1
 90
        1
176
     1
 40
0.5
176
     1
 40
30.0
176
     1
 62
     7
420
 16777215
176
     1
 90
        1
176
     1
 90
        0
176
     1
 62
     7
176
     1
 62
   257
176
     1
 90
        1
176
     1
 90
        1
176
     1
 40
1.0
176
     1
 90
        8
176
     1
 62
     7
176
     1
 40
1.0
176
     1
 90
        1
176
     1
 90
        6
176
     1
 90
        2
176
     1
 62
     7
176
     1
 90
        3
176
     1
 90
        0
176
     1
 90
        0
176
     1
290
     0
176
     1
 90
       13
176
     1
 40
0.0
176
     1
 90
        0
176
     1
290
     0
176
     1
290
     1
176
     1
290
     1
176
     1
290
     0
176
     1
290
     0
176
     1
290
     0
176
     1
290
     0
176
     1
290
     0
176
     1
290
     0
176
     1
 90
       50
176
     1
 40
0.0
176
     1
 40
1.0
176
     1
 90
        0
176
     1
 62
    18
420
        0
176
     1
 90
       50
176
     1
 90
        3
176
     1
 62
     5
420
      255
176
     1
290
     0
176
     1
 90
       50
176
     1
 90
       50
176
     1
 90
       50
176
     1
290
     0
176
     1
 90
       50
176
     1
 62
   256
176
     0
 40
1.0
176
     0
 90
        2
176
     1
  1
strokes_ogs.tif
176
     1
290
     0
176
     1
 40
1.0
176
     1
 40
1.0
176
     1
  0
DICTIONARYVAR
  5
283
102
{ACAD_REACTORS
330
21F
102
}
330
21F
100
DictionaryVariables
280
     0
  1
1:1
  0
DICTIONARYVAR
  5
285
102
{ACAD_REACTORS
330
21F
102
}
330
21F
100
DictionaryVariables
280
     0
  1
Standard
  0
DICTIONARYVAR
  5
284
102
{ACAD_REACTORS
330
21F
102
}
330
21F
100
DictionaryVariables
280
     0
  1
Standard
  0
DICTIONARYVAR
  5
223
102
{ACAD_REACTORS
330
21F
102
}
330
21F
100
DictionaryVariables
280
     0
  1
2
  0
DICTIONARYVAR
  5
224
102
{ACAD_REACTORS
330
21F
102
}
330
21F
100
DictionaryVariables
280
     0
  1
1
  0
DICTIONARYVAR
  5
222
102
{ACAD_REACTORS
330
21F
102
}
330
21F
100
DictionaryVariables
280
     0
  1
0
  0
DICTIONARY
  5
2AC
330
26B
100
AcDbDictionary
280
     1
281
     1
  3
ACAD_ROUNDTRIP_2008_TABLESTYLE_CELLSTYLEMAP
360
2AD
  0
CELLSTYLEMAP
  5
2AD
102
{ACAD_REACTORS
330
2AC
102
}
330
2AC
100
AcDbCellStyleMap
 90
        3
300
CELLSTYLE
  1
TABLEFORMAT_BEGIN
 90
        5
170
     1
 91
        0
 92
    32768
 62
   257
 93
        1
300
CONTENTFORMAT
  1
CONTENTFORMAT_BEGIN
 90
        0
 91
        0
 92
        4
 93
        0
300

 40
0.0
140
1.0
 94
        5
 62
     0
340
11
144
0.25
309
CONTENTFORMAT_END
171
     1
301
MARGIN
  1
CELLMARGIN_BEGIN
 40
0.06
 40
0.06
 40
0.06
 40
0.06
 40
0.06
 40
0.06
309
CELLMARGIN_END
 94
        6
 95
        1
302
GRIDFORMAT
  1
GRIDFORMAT_BEGIN
 90
        0
 91
        1
 62
     0
 92
       -2
340
14
 93
        0
 40
0.045
309
GRIDFORMAT_END
 95
        2
302
GRIDFORMAT
  1
GRIDFORMAT_BEGIN
 90
        0
 91
        1
 62
     0
 92
       -2
340
14
 93
        0
 40
0.045
309
GRIDFORMAT_END
 95
        4
302
GRIDFORMAT
  1
GRIDFORMAT_BEGIN
 90
        0
 91
        1
 62
     0
 92
       -2
340
14
 93
        0
 40
0.045
309
GRIDFORMAT_END
 95
        8
302
GRIDFORMAT
  1
GRIDFORMAT_BEGIN
 90
        0
 91
        1
 62
     0
 92
       -2
340
14
 93
        0
 40
0.045
309
GRIDFORMAT_END
 95
       16
302
GRIDFORMAT
  1
GRIDFORMAT_BEGIN
 90
        0
 91
        1
 62
     0
 92
       -2
340
14
 93
        0
 40
0.045
309
GRIDFORMAT_END
 95
       32
302
GRIDFORMAT
  1
GRIDFORMAT_BEGIN
 90
        0
 91
        1
 62
     0
 92
       -2
340
14
 93
        0
 40
0.045
309
GRIDFORMAT_END
309
TABLEFORMAT_END
  1
CELLSTYLE_BEGIN
 90
        1
 91
        1
300
_TITLE
309
CELLSTYLE_END
300
CELLSTYLE
  1
TABLEFORMAT_BEGIN
 90
        5
170
     1
 91
        0
 92
        0
 62
   257
 93
        1
300
CONTENTFORMAT
  1
CONTENTFORMAT_BEGIN
 90
        0
 91
        0
 92
        4
 93
        0
300

 40
0.0
140
1.0
 94
        5
 62
     0
340
11
144
0.18
309
CONTENTFORMAT_END
171
     1
301
MARGIN
  1
CELLMARGIN_BEGIN
 40
0.06
 40
0.06
 40
0.06
 40
0.06
 40
0.06
 40
0.06
309
CELLMARGIN_END
 94
        6
 95
        1
302
GRIDFORMAT
  1
GRIDFORMAT_BEGIN
 90
        0
 91
        1
 62
     0
 92
       -2
340
14
 93
        0
 40
0.045
309
GRIDFORMAT_END
 95
        2
302
GRIDFORMAT
  1
GRIDFORMAT_BEGIN
 90
        0
 91
        1
 62
     0
 92
       -2
340
14
 93
        0
 40
0.045
309
GRIDFORMAT_END
 95
        4
302
GRIDFORMAT
  1
GRIDFORMAT_BEGIN
 90
        0
 91
        1
 62
     0
 92
       -2
340
14
 93
        0
 40
0.045
309
GRIDFORMAT_END
 95
        8
302
GRIDFORMAT
  1
GRIDFORMAT_BEGIN
 90
        0
 91
        1
 62
     0
 92
       -2
340
14
 93
        0
 40
0.045
309
GRIDFORMAT_END
 95
       16
302
GRIDFORMAT
  1
GRIDFORMAT_BEGIN
 90
        0
 91
        1
 62
     0
 92
       -2
340
14
 93
        0
 40
0.045
309
GRIDFORMAT_END
 95
       32
302
GRIDFORMAT
  1
GRIDFORMAT_BEGIN
 90
        0
 91
        1
 62
     0
 92
       -2
340
14
 93
        0
 40
0.045
309
GRIDFORMAT_END
309
TABLEFORMAT_END
  1
CELLSTYLE_BEGIN
 90
        2
 91
        1
300
_HEADER
309
CELLSTYLE_END
300
CELLSTYLE
  1
TABLEFORMAT_BEGIN
 90
        5
170
     1
 91
        0
 92
        0
 62
   257
 93
        1
300
CONTENTFORMAT
  1
CONTENTFORMAT_BEGIN
 90
        0
 91
        0
 92
        4
 93
        0
300

 40
0.0
140
1.0
 94
        2
 62
     0
340
11
144
0.18
309
CONTENTFORMAT_END
171
     1
301
MARGIN
  1
CELLMARGIN_BEGIN
 40
0.06
 40
0.06
 40
0.06
 40
0.06
 40
0.06
 40
0.06
309
CELLMARGIN_END
 94
        6
 95
        1
302
GRIDFORMAT
  1
GRIDFORMAT_BEGIN
 90
        0
 91
        1
 62
     0
 92
       -2
340
14
 93
        0
 40
0.045
309
GRIDFORMAT_END
 95
        2
302
GRIDFORMAT
  1
GRIDFORMAT_BEGIN
 90
        0
 91
        1
 62
     0
 92
       -2
340
14
 93
        0
 40
0.045
309
GRIDFORMAT_END
 95
        4
302
GRIDFORMAT
  1
GRIDFORMAT_BEGIN
 90
        0
 91
        1
 62
     0
 92
       -2
340
14
 93
        0
 40
0.045
309
GRIDFORMAT_END
 95
        8
302
GRIDFORMAT
  1
GRIDFORMAT_BEGIN
 90
        0
 91
        1
 62
     0
 92
       -2
340
14
 93
        0
 40
0.045
309
GRIDFORMAT_END
 95
       16
302
GRIDFORMAT
  1
GRIDFORMAT_BEGIN
 90
        0
 91
        1
 62
     0
 92
       -2
340
14
 93
        0
 40
0.045
309
GRIDFORMAT_END
 95
       32
302
GRIDFORMAT
  1
GRIDFORMAT_BEGIN
 90
        0
 91
        1
 62
     0
 92
       -2
340
14
 93
        0
 40
0.045
309
GRIDFORMAT_END
309
TABLEFORMAT_END
  1
CELLSTYLE_BEGIN
 90
        3
 91
        2
300
_DATA
309
CELLSTYLE_END
  0
ENDSEC
  0
EOF
