  0
SECTION
  2
HEADER
  9
$ACADVER
  1
AC1014
  9
$ACADMAINTVER
 70
     9
  9
$DWGCODEPAGE
  3
ANSI_1252
  9
$INSBASE
 10
0.0
 20
0.0
 30
0.0
  9
$EXTMIN
 10
-88.38714040339914
 20
-39.41554466732062
 30
0.0
  9
$EXTMAX
 10
141.2800434182166
 20
54.53921235061323
 30
0.0
  9
$LIMMIN
 10
-65.244678917
 20
-37.942106595
  9
$LIMMAX
 10
114.458458366
 20
51.813994755
  9
$ORTHOMODE
 70
     0
  9
$REGENMODE
 70
     1
  9
$FILLMODE
 70
     1
  9
$QTEXTMODE
 70
     0
  9
$MIRRTEXT
 70
     1
  9
$DRAGMODE
 70
     2
  9
$LTSCALE
 40
1.0
  9
$OSMODE
 70
   511
  9
$ATTMODE
 70
     1
  9
$TEXTSIZE
 40
0.2
  9
$TRACEWID
 40
0.05
  9
$TEXTSTYLE
  7
STANDARD
  9
$CLAYER
  8
INFTOTAL
  9
$CELTYPE
  6
BYLAYER
  9
$CECOLOR
 62
   256
  9
$CELTSCALE
 40
1.0
  9
$DELOBJ
 70
     1
  9
$DISPSILH
 70
     0
  9
$DIMSCALE
 40
1.0
  9
$DIMASZ
 40
0.18
  9
$DIMEXO
 40
0.0625
  9
$DIMDLI
 40
0.38
  9
$DIMRND
 40
0.0
  9
$DIMDLE
 40
0.0
  9
$DIMEXE
 40
0.18
  9
$DIMTP
 40
0.0
  9
$DIMTM
 40
0.0
  9
$DIMTXT
 40
0.18
  9
$DIMCEN
 40
0.09
  9
$DIMTSZ
 40
0.0
  9
$DIMTOL
 70
     0
  9
$DIMLIM
 70
     0
  9
$DIMTIH
 70
     1
  9
$DIMTOH
 70
     1
  9
$DIMSE1
 70
     0
  9
$DIMSE2
 70
     0
  9
$DIMTAD
 70
     0
  9
$DIMZIN
 70
     0
  9
$DIMBLK
  1

  9
$DIMASO
 70
     1
  9
$DIMSHO
 70
     1
  9
$DIMPOST
  1

  9
$DIMAPOST
  1

  9
$DIMALT
 70
     0
  9
$DIMALTD
 70
     2
  9
$DIMALTF
 40
25.4
  9
$DIMLFAC
 40
1.0
  9
$DIMTOFL
 70
     0
  9
$DIMTVP
 40
0.0
  9
$DIMTIX
 70
     0
  9
$DIMSOXD
 70
     0
  9
$DIMSAH
 70
     0
  9
$DIMBLK1
  1

  9
$DIMBLK2
  1

  9
$DIMSTYLE
  2
STANDARD
  9
$DIMCLRD
 70
     0
  9
$DIMCLRE
 70
     0
  9
$DIMCLRT
 70
     0
  9
$DIMTFAC
 40
1.0
  9
$DIMGAP
 40
0.09
  9
$DIMJUST
 70
     0
  9
$DIMSD1
 70
     0
  9
$DIMSD2
 70
     0
  9
$DIMTOLJ
 70
     1
  9
$DIMTZIN
 70
     0
  9
$DIMALTZ
 70
     0
  9
$DIMALTTZ
 70
     0
  9
$DIMFIT
 70
     5
  9
$DIMUPT
 70
     0
  9
$DIMUNIT
 70
     2
  9
$DIMDEC
 70
     4
  9
$DIMTDEC
 70
     4
  9
$DIMALTU
 70
     2
  9
$DIMALTTD
 70
     2
  9
$DIMTXSTY
  7
STANDARD
  9
$DIMAUNIT
 70
     0
  9
$LUNITS
 70
     2
  9
$LUPREC
 70
     4
  9
$SKETCHINC
 40
0.1
  9
$FILLETRAD
 40
0.5
  9
$AUNITS
 70
     2
  9
$AUPREC
 70
     0
  9
$MENU
  1
.
  9
$ELEVATION
 40
0.0
  9
$PELEVATION
 40
0.0
  9
$THICKNESS
 40
0.0
  9
$LIMCHECK
 70
     0
  9
$CHAMFERA
 40
0.5
  9
$CHAMFERB
 40
0.5
  9
$CHAMFERC
 40
1.0
  9
$CHAMFERD
 40
0.0
  9
$SKPOLY
 70
     0
  9
$TDCREATE
 40
2458327.549450151
  9
$TDUPDATE
 40
2458362.30353463
  9
$TDINDWG
 40
0.0064490046
  9
$TDUSRTIMER
 40
0.0079506597
  9
$USRTIMER
 70
     1
  9
$ANGBASE
 50
0.0
  9
$ANGDIR
 70
     0
  9
$PDMODE
 70
     0
  9
$PDSIZE
 40
0.0
  9
$PLINEWID
 40
0.0
  9
$COORDS
 70
     1
  9
$SPLFRAME
 70
     0
  9
$SPLINETYPE
 70
     6
  9
$SPLINESEGS
 70
     8
  9
$ATTDIA
 70
     0
  9
$ATTREQ
 70
     1
  9
$HANDLING
 70
     1
  9
$HANDSEED
  5
18B
  9
$SURFTAB1
 70
     6
  9
$SURFTAB2
 70
     6
  9
$SURFTYPE
 70
     6
  9
$SURFU
 70
     6
  9
$SURFV
 70
     6
  9
$UCSNAME
  2

  9
$UCSORG
 10
0.0
 20
0.0
 30
0.0
  9
$UCSXDIR
 10
1.0
 20
0.0
 30
0.0
  9
$UCSYDIR
 10
0.0
 20
1.0
 30
0.0
  9
$PUCSNAME
  2

  9
$PUCSORG
 10
0.0
 20
0.0
 30
0.0
  9
$PUCSXDIR
 10
1.0
 20
0.0
 30
0.0
  9
$PUCSYDIR
 10
0.0
 20
1.0
 30
0.0
  9
$USERI1
 70
     0
  9
$USERI2
 70
     0
  9
$USERI3
 70
     0
  9
$USERI4
 70
     0
  9
$USERI5
 70
     0
  9
$USERR1
 40
0.0
  9
$USERR2
 40
0.0
  9
$USERR3
 40
0.0
  9
$USERR4
 40
0.0
  9
$USERR5
 40
0.0
  9
$WORLDVIEW
 70
     1
  9
$SHADEDGE
 70
     3
  9
$SHADEDIF
 70
    70
  9
$TILEMODE
 70
     1
  9
$MAXACTVP
 70
    64
  9
$PINSBASE
 10
0.0
 20
0.0
 30
0.0
  9
$PLIMCHECK
 70
     0
  9
$PEXTMIN
 10
1.000000000000000E+20
 20
1.000000000000000E+20
 30
1.000000000000000E+20
  9
$PEXTMAX
 10
-1.000000000000000E+20
 20
-1.000000000000000E+20
 30
-1.000000000000000E+20
  9
$PLIMMIN
 10
0.0
 20
0.0
  9
$PLIMMAX
 10
0.0
 20
0.0
  9
$UNITMODE
 70
     0
  9
$VISRETAIN
 70
     1
  9
$PLINEGEN
 70
     0
  9
$PSLTSCALE
 70
     1
  9
$TREEDEPTH
 70
  3020
  9
$PICKSTYLE
 70
     1
  9
$CMLSTYLE
  2
STANDARD
  9
$CMLJUST
 70
     0
  9
$CMLSCALE
 40
1.0
  9
$PROXYGRAPHICS
 70
     1
  9
$MEASUREMENT
 70
     0
  0
ENDSEC
  0
SECTION
  2
CLASSES
  0
CLASS
  1
ACDBDICTIONARYWDFLT
  2
AcDbDictionaryWithDefault
  3
ObjectDBX Classes
 90
        0
280
     0
281
     0
  0
CLASS
  1
SCALE
  2
AcDbScale
  3
ObjectDBX Classes
 90
     1153
280
     0
281
     0
  0
CLASS
  1
VISUALSTYLE
  2
AcDbVisualStyle
  3
ObjectDBX Classes
 90
     4095
280
     0
281
     0
  0
CLASS
  1
MATERIAL
  2
AcDbMaterial
  3
ObjectDBX Classes
 90
     1153
280
     0
281
     0
  0
CLASS
  1
DICTIONARYVAR
  2
AcDbDictionaryVar
  3
ObjectDBX Classes
 90
        0
280
     0
281
     0
  0
CLASS
  1
ACDBPLACEHOLDER
  2
AcDbPlaceHolder
  3
ObjectDBX Classes
 90
        0
280
     0
281
     0
  0
CLASS
  1
LAYOUT
  2
AcDbLayout
  3
ObjectDBX Classes
 90
        0
280
     0
281
     0
  0
CLASS
  1
TABLESTYLE
  2
AcDbTableStyle
  3
ObjectDBX Classes
 90
     4095
280
     0
281
     0
  0
CLASS
  1
MLEADERSTYLE
  2
AcDbMLeaderStyle
  3
ACDB_MLEADERSTYLE_CLASS
 90
     4095
280
     0
281
     0
  0
CLASS
  1
CELLSTYLEMAP
  2
AcDbCellStyleMap
  3
ObjectDBX Classes
 90
     1152
280
     0
281
     0
  0
CLASS
  1
XRECORD
  2
AcDbXrecord
  3
ObjectDBX Classes
 90
        0
280
     0
281
     0
  0
CLASS
  1
LWPOLYLINE
  2
AcDbPolyline
  3
ObjectDBX Classes
 90
        0
280
     0
281
     1
  0
CLASS
  1
HATCH
  2
AcDbHatch
  3
ObjectDBX Classes
 90
        0
280
     0
281
     1
  0
ENDSEC
  0
SECTION
  2
TABLES
  0
TABLE
  2
VPORT
  5
8
330
0
100
AcDbSymbolTable
 70
     1
  0
VPORT
  5
97
330
8
100
AcDbSymbolTableRecord
100
AcDbViewportTableRecord
  2
*ACTIVE
 70
     0
 10
0.0
 20
0.0
 11
1.0
 21
1.0
 12
2.736814355266574
 22
8.163138355073905
 13
0.0
 23
0.0
 14
0.5
 24
0.5
 15
0.5
 25
0.5
 16
0.0
 26
0.0
 36
1.0
 17
0.0
 27
0.0
 37
0.0
 40
163.709046319127
 41
2.246376811594203
 42
50.0
 43
0.0
 44
0.0
 50
0.0
 51
0.0
 71
    16
 72
   100
 73
     1
 74
     3
 75
     0
 76
     0
 77
     0
 78
     0
  0
ENDTAB
  0
TABLE
  2
LTYPE
  5
5
330
0
100
AcDbSymbolTable
 70
     8
  0
LTYPE
  5
14
330
5
100
AcDbSymbolTableRecord
100
AcDbLinetypeTableRecord
  2
BYBLOCK
 70
     0
  3

 72
    65
 73
     0
 40
0.0
  0
LTYPE
  5
15
330
5
100
AcDbSymbolTableRecord
100
AcDbLinetypeTableRecord
  2
BYLAYER
 70
     0
  3

 72
    65
 73
     0
 40
0.0
  0
LTYPE
  5
16
330
5
100
AcDbSymbolTableRecord
100
AcDbLinetypeTableRecord
  2
CONTINUOUS
 70
     0
  3
Solid line
 72
    65
 73
     0
 40
0.0
  0
LTYPE
  5
20
330
5
100
AcDbSymbolTableRecord
100
AcDbLinetypeTableRecord
  2
PUNKT
 70
     0
  3
..............
 72
    65
 73
     2
 40
1.5
 49
0.7
 74
     0
 49
-0.8
 74
     0
  0
LTYPE
  5
21
330
5
100
AcDbSymbolTableRecord
100
AcDbLinetypeTableRecord
  2
GESTRICHELT
 70
     0
  3
-- -- -- -- --
 72
    65
 73
     7
 40
2.8
 49
0.9
 74
     0
 49
0.0
 74
     0
 49
0.9
 74
     0
 49
0.0
 74
     0
 49
0.2
 74
     0
 49
0.0
 74
     0
 49
-0.8
 74
     0
  0
LTYPE
  5
22
330
5
100
AcDbSymbolTableRecord
100
AcDbLinetypeTableRecord
  2
STRICHPUNKT
 70
     0
  3
--.--.--.--.--
 72
    65
 73
     4
 40
8.8
 49
5.5
 74
     0
 49
-1.3
 74
     0
 49
0.7
 74
     0
 49
-1.3
 74
     0
  0
LTYPE
  5
25
330
5
100
AcDbSymbolTableRecord
100
AcDbLinetypeTableRecord
  2
PHANTOM
 70
     0
  3
--..--..--..--
 72
    65
 73
     6
 40
14.2
 49
7.0
 74
     0
 49
-1.8
 74
     0
 49
0.9
 74
     0
 49
-1.8
 74
     0
 49
0.9
 74
     0
 49
-1.8
 74
     0
  0
LTYPE
  5
10F
330
5
100
AcDbSymbolTableRecord
100
AcDbLinetypeTableRecord
  2
DASH
 70
     0
  3
DASH _ _ _ _ _
 72
    65
 73
     2
 40
0.75
 49
0.4
 74
     0
 49
-0.35
 74
     0
  0
LTYPE
  5
110
330
5
100
AcDbSymbolTableRecord
100
AcDbLinetypeTableRecord
  2
LONGDASH_DASH
 70
     0
  3
LONGDASH_DASH __ . __ . __
 72
    65
 73
     4
 40
0.85
 49
0.4
 74
     0
 49
-0.2
 74
     0
 49
0.05
 74
     0
 49
-0.2
 74
     0
  0
LTYPE
  5
111
330
5
100
AcDbSymbolTableRecord
100
AcDbLinetypeTableRecord
  2
LONGDASH_DASH_DASH
 70
     0
  3
LONGDASH_DASH_DASH __ . . __ . . __
 72
    65
 73
     6
 40
1.1
 49
0.4
 74
     0
 49
-0.2
 74
     0
 49
0.05
 74
     0
 49
-0.2
 74
     0
 49
0.05
 74
     0
 49
-0.2
 74
     0
  0
ENDTAB
  0
TABLE
  2
LAYER
  5
2
102
{ACAD_XDICTIONARY
360
12E
102
}
330
0
100
AcDbSymbolTable
 70
    15
  0
LAYER
  5
D9
330
2
100
AcDbSymbolTableRecord
100
AcDbLayerTableRecord
  2
200
 70
     0
 62
     2
  6
CONTINUOUS
  0
LAYER
  5
112
330
2
100
AcDbSymbolTableRecord
100
AcDbLayerTableRecord
  2
0
 70
     0
 62
    -1
  6
CONTINUOUS
  0
LAYER
  5
113
330
2
100
AcDbSymbolTableRecord
100
AcDbLayerTableRecord
  2
1
 70
     0
 62
     4
  6
CONTINUOUS
  0
LAYER
  5
114
330
2
100
AcDbSymbolTableRecord
100
AcDbLayerTableRecord
  2
2
 70
     0
 62
     7
  6
CONTINUOUS
  0
LAYER
  5
115
330
2
100
AcDbSymbolTableRecord
100
AcDbLayerTableRecord
  2
3
 70
     0
 62
     1
  6
DASH
  0
LAYER
  5
116
330
2
100
AcDbSymbolTableRecord
100
AcDbLayerTableRecord
  2
4
 70
     0
 62
     2
  6
LONGDASH_DASH
  0
LAYER
  5
117
330
2
100
AcDbSymbolTableRecord
100
AcDbLayerTableRecord
  2
6
 70
     0
 62
     5
  6
CONTINUOUS
  0
LAYER
  5
118
330
2
100
AcDbSymbolTableRecord
100
AcDbLayerTableRecord
  2
CUT
 70
     0
 62
     1
  6
CONTINUOUS
  0
LAYER
  5
119
330
2
100
AcDbSymbolTableRecord
100
AcDbLayerTableRecord
  2
NOCUT
 70
     0
 62
     7
  6
CONTINUOUS
  0
LAYER
  5
11A
330
2
100
AcDbSymbolTableRecord
100
AcDbLayerTableRecord
  2
SK1
 70
     0
 62
     4
  6
CONTINUOUS
  0
LAYER
  5
11B
330
2
100
AcDbSymbolTableRecord
100
AcDbLayerTableRecord
  2
SK2
 70
     0
 62
     7
  6
CONTINUOUS
  0
LAYER
  5
11C
330
2
100
AcDbSymbolTableRecord
100
AcDbLayerTableRecord
  2
SK3
 70
     0
 62
     1
  6
DASH
  0
LAYER
  5
11D
330
2
100
AcDbSymbolTableRecord
100
AcDbLayerTableRecord
  2
SK4
 70
     0
 62
     2
  6
LONGDASH_DASH
  0
LAYER
  5
11E
330
2
100
AcDbSymbolTableRecord
100
AcDbLayerTableRecord
  2
SK6
 70
     0
 62
     5
  6
CONTINUOUS
  0
LAYER
  5
11F
330
2
100
AcDbSymbolTableRecord
100
AcDbLayerTableRecord
  2
INFTOTAL
 70
     0
 62
     9
  6
CONTINUOUS
  0
ENDTAB
  0
TABLE
  2
STYLE
  5
3
330
0
100
AcDbSymbolTable
 70
     2
  0
STYLE
  5
11
330
3
100
AcDbSymbolTableRecord
100
AcDbTextStyleTableRecord
  2
STANDARD
 70
     0
 40
0.0
 41
1.0
 50
0.0
 71
     0
 42
0.2
  3
txt
  4

  0
STYLE
  5
D8
330
3
100
AcDbSymbolTableRecord
100
AcDbTextStyleTableRecord
  2
BMG_TEXT
 70
     0
 40
3.5
 41
1.0
 50
0.0
 71
     0
 42
0.2
  3
monos.ttf
  4

1001
ACAD
1000
Monospac821 BT
1071
       49
  0
ENDTAB
  0
TABLE
  2
VIEW
  5
6
330
0
100
AcDbSymbolTable
 70
     0
  0
ENDTAB
  0
TABLE
  2
UCS
  5
7
330
0
100
AcDbSymbolTable
 70
     0
  0
ENDTAB
  0
TABLE
  2
APPID
  5
9
330
0
100
AcDbSymbolTable
 70
     1
  0
APPID
  5
12
330
9
100
AcDbSymbolTableRecord
100
AcDbRegAppTableRecord
  2
ACAD
 70
     0
  0
ENDTAB
  0
TABLE
  2
DIMSTYLE
  5
A
330
0
100
AcDbSymbolTable
 70
     1
  0
DIMSTYLE
105
28
330
A
100
AcDbSymbolTableRecord
100
AcDbDimStyleTableRecord
  2
STANDARD
 70
     0
  3

  4

  5

  6

  7

 40
1.0
 41
0.18
 42
0.0625
 43
0.38
 44
0.18
 45
0.0
 46
0.0
 47
0.0
 48
0.0
140
0.18
141
0.09
142
0.0
143
25.4
144
1.0
145
0.0
146
1.0
147
0.09
 71
     0
 72
     0
 73
     1
 74
     1
 75
     0
 76
     0
 77
     0
 78
     0
170
     0
171
     2
172
     0
173
     0
174
     0
175
     0
176
     0
177
     0
178
     0
270
     2
271
     4
272
     4
273
     2
274
     2
340
11
275
     0
280
     0
281
     0
282
     0
283
     1
284
     0
285
     0
286
     0
287
     3
288
     0
  0
ENDTAB
  0
TABLE
  2
BLOCK_RECORD
  5
1
330
0
100
AcDbSymbolTable
 70
     0
  0
BLOCK_RECORD
  5
1D
330
1
100
AcDbSymbolTableRecord
100
AcDbBlockTableRecord
  2
*MODEL_SPACE
  0
BLOCK_RECORD
  5
1B
330
1
100
AcDbSymbolTableRecord
100
AcDbBlockTableRecord
  2
*PAPER_SPACE
  0
ENDTAB
  0
ENDSEC
  0
SECTION
  2
BLOCKS
  0
BLOCK
  5
C1
330
1D
100
AcDbEntity
  8
0
100
AcDbBlockBegin
  2
*MODEL_SPACE
 70
     0
 10
0.0
 20
0.0
 30
0.0
  3
*MODEL_SPACE
  1

  0
ENDBLK
  5
C2
330
1D
100
AcDbEntity
  8
0
100
AcDbBlockEnd
  0
BLOCK
  5
BF
330
1B
100
AcDbEntity
 67
     1
  8
0
100
AcDbBlockBegin
  2
*PAPER_SPACE
 70
     0
 10
0.0
 20
0.0
 30
0.0
  3
*PAPER_SPACE
  1

  0
ENDBLK
  5
C0
330
1B
100
AcDbEntity
 67
     1
  8
0
100
AcDbBlockEnd
  0
ENDSEC
  0
SECTION
  2
ENTITIES
  0
LINE
  5
29
330
1D
100
AcDbEntity
  8
1
  6
CONTINUOUS
100
AcDbLine
 10
88.604700538
 20
0.0
 30
0.0
 11
88.027350269
 21
1.0
 31
0.0
  0
LINE
  5
2A
330
1D
100
AcDbEntity
  8
1
  6
CONTINUOUS
100
AcDbLine
 10
88.027350269
 20
1.0
 30
0.0
 11
86.872649731
 21
1.0
 31
0.0
  0
LINE
  5
2B
330
1D
100
AcDbEntity
  8
1
  6
CONTINUOUS
100
AcDbLine
 10
86.872649731
 20
1.0
 30
0.0
 11
86.295299462
 21
0.0
 31
0.0
  0
LINE
  5
2C
330
1D
100
AcDbEntity
  8
1
  6
CONTINUOUS
100
AcDbLine
 10
86.295299462
 20
0.0
 30
0.0
 11
86.872649731
 21
-1.0
 31
0.0
  0
LINE
  5
2D
330
1D
100
AcDbEntity
  8
1
  6
CONTINUOUS
100
AcDbLine
 10
86.872649731
 20
-1.0
 30
0.0
 11
88.027350269
 21
-1.0
 31
0.0
  0
LINE
  5
2E
330
1D
100
AcDbEntity
  8
1
  6
CONTINUOUS
100
AcDbLine
 10
88.027350269
 20
-1.0
 30
0.0
 11
88.604700538
 21
0.0
 31
0.0
  0
ARC
  5
2F
330
1D
100
AcDbEntity
  8
1
  6
CONTINUOUS
100
AcDbCircle
 10
67.5
 20
10.5
 30
0.0
 40
1.0
100
AcDbArc
 50
180.0
 51
270.0
  0
LINE
  5
30
330
1D
100
AcDbEntity
  8
1
  6
CONTINUOUS
100
AcDbLine
 10
67.5
 20
9.5
 30
0.0
 11
92.0
 21
9.5
 31
0.0
  0
LINE
  5
31
330
1D
100
AcDbEntity
  8
1
  6
CONTINUOUS
100
AcDbLine
 10
92.0
 20
9.5
 30
0.0
 11
92.5
 21
9.0
 31
0.0
  0
LINE
  5
32
330
1D
100
AcDbEntity
  8
1
  6
CONTINUOUS
100
AcDbLine
 10
92.5
 20
9.0
 30
0.0
 11
92.5
 21
-9.0
 31
0.0
  0
LINE
  5
33
330
1D
100
AcDbEntity
  8
1
  6
CONTINUOUS
100
AcDbLine
 10
92.5
 20
-9.0
 30
0.0
 11
92.0
 21
-9.5
 31
0.0
  0
LINE
  5
34
330
1D
100
AcDbEntity
  8
1
  6
CONTINUOUS
100
AcDbLine
 10
92.0
 20
-9.5
 30
0.0
 11
67.5
 21
-9.5
 31
0.0
  0
ARC
  5
35
330
1D
100
AcDbEntity
  8
1
  6
CONTINUOUS
100
AcDbCircle
 10
67.5
 20
-10.5
 30
0.0
 40
1.0
100
AcDbArc
 50
90.0
 51
180.0
  0
LINE
  5
36
330
1D
100
AcDbEntity
  8
SK3
  6
DASH
100
AcDbLine
 10
79.850480947
 20
-5.75
 30
0.0
 11
79.850480947
 21
5.75
 31
0.0
  0
LINE
  5
37
330
1D
100
AcDbEntity
  8
SK3
  6
DASH
100
AcDbLine
 10
79.850480947
 20
5.75
 30
0.0
 11
78.5
 21
5.75
 31
0.0
  0
LINE
  5
38
330
1D
100
AcDbEntity
  8
SK3
  6
DASH
100
AcDbLine
 10
78.5
 20
5.75
 30
0.0
 11
78.5
 21
-5.75
 31
0.0
  0
LINE
  5
39
330
1D
100
AcDbEntity
  8
SK3
  6
DASH
100
AcDbLine
 10
78.5
 20
-5.75
 30
0.0
 11
77.317096739
 21
-2.5
 31
0.0
  0
LINE
  5
3A
330
1D
100
AcDbEntity
  8
SK3
  6
DASH
100
AcDbLine
 10
77.317096739
 20
-2.5
 30
0.0
 11
77.317096739
 21
2.5
 31
0.0
  0
LINE
  5
3B
330
1D
100
AcDbEntity
  8
SK3
  6
DASH
100
AcDbLine
 10
77.317096739
 20
2.5
 30
0.0
 11
-47.5
 21
2.5
 31
0.0
  0
LINE
  5
3C
330
1D
100
AcDbEntity
  8
SK1
100
AcDbLine
 10
-47.5
 20
-10.5
 30
0.0
 11
-46.5
 21
-11.5
 31
0.0
  0
LINE
  5
3D
330
1D
100
AcDbEntity
  8
SK1
100
AcDbLine
 10
-46.5
 20
-11.5
 30
0.0
 11
0.0
 21
-11.5
 31
0.0
  0
LINE
  5
3E
330
1D
100
AcDbEntity
  8
1
  6
CONTINUOUS
100
AcDbLine
 10
0.0
 20
-11.5
 30
0.0
 11
58.5
 21
-11.5
 31
0.0
  0
LINE
  5
3F
330
1D
100
AcDbEntity
  8
1
  6
CONTINUOUS
100
AcDbLine
 10
58.5
 20
-11.5
 30
0.0
 11
66.0
 21
-11.5
 31
0.0
  0
LINE
  5
40
330
1D
100
AcDbEntity
  8
1
  6
CONTINUOUS
100
AcDbLine
 10
66.0
 20
-11.5
 30
0.0
 11
66.5
 21
-11.0
 31
0.0
  0
LINE
  5
41
330
1D
100
AcDbEntity
  8
1
  6
CONTINUOUS
100
AcDbLine
 10
66.5
 20
-11.0
 30
0.0
 11
66.5
 21
11.0
 31
0.0
  0
LINE
  5
42
330
1D
100
AcDbEntity
  8
1
  6
CONTINUOUS
100
AcDbLine
 10
66.5
 20
11.0
 30
0.0
 11
66.0
 21
11.5
 31
0.0
  0
LINE
  5
43
330
1D
100
AcDbEntity
  8
1
  6
CONTINUOUS
100
AcDbLine
 10
66.0
 20
11.5
 30
0.0
 11
58.5
 21
11.5
 31
0.0
  0
LINE
  5
44
330
1D
100
AcDbEntity
  8
1
  6
CONTINUOUS
100
AcDbLine
 10
58.5
 20
11.5
 30
0.0
 11
0.0
 21
11.5
 31
0.0
  0
LINE
  5
45
330
1D
100
AcDbEntity
  8
SK1
100
AcDbLine
 10
0.0
 20
11.5
 30
0.0
 11
-46.5
 21
11.5
 31
0.0
  0
LINE
  5
46
330
1D
100
AcDbEntity
  8
SK1
100
AcDbLine
 10
-46.5
 20
11.5
 30
0.0
 11
-47.5
 21
10.5
 31
0.0
  0
LINE
  5
47
330
1D
100
AcDbEntity
  8
SK1
100
AcDbLine
 10
-47.5
 20
10.5
 30
0.0
 11
-47.5
 21
-10.5
 31
0.0
  0
LINE
  5
48
330
1D
100
AcDbEntity
  8
SK3
  6
DASH
100
AcDbLine
 10
78.5
 20
-5.75
 30
0.0
 11
79.850480947
 21
-5.75
 31
0.0
  0
LINE
  5
49
330
1D
100
AcDbEntity
  8
SK3
  6
DASH
100
AcDbLine
 10
79.850480947
 20
-5.75
 30
0.0
 11
80.283493649
 21
-5.5
 31
0.0
  0
LINE
  5
4A
330
1D
100
AcDbEntity
  8
SK3
  6
DASH
100
AcDbLine
 10
80.283493649
 20
-5.5
 30
0.0
 11
80.283493649
 21
5.5
 31
0.0
  0
LINE
  5
4B
330
1D
100
AcDbEntity
  8
SK3
  6
DASH
100
AcDbLine
 10
80.283493649
 20
5.5
 30
0.0
 11
79.850480947
 21
5.75
 31
0.0
  0
LINE
  5
4C
330
1D
100
AcDbEntity
  8
1
  6
CONTINUOUS
100
AcDbLine
 10
58.5
 20
11.5
 30
0.0
 11
58.5
 21
8.5
 31
0.0
  0
LINE
  5
4D
330
1D
100
AcDbEntity
  8
1
  6
CONTINUOUS
100
AcDbLine
 10
58.5
 20
8.5
 30
0.0
 11
62.0
 21
8.5
 31
0.0
  0
LINE
  5
4E
330
1D
100
AcDbEntity
  8
1
  6
CONTINUOUS
100
AcDbLine
 10
62.0
 20
8.5
 30
0.0
 11
62.0
 21
-8.5
 31
0.0
  0
LINE
  5
4F
330
1D
100
AcDbEntity
  8
1
  6
CONTINUOUS
100
AcDbLine
 10
62.0
 20
-8.5
 30
0.0
 11
58.5
 21
-8.5
 31
0.0
  0
LINE
  5
50
330
1D
100
AcDbEntity
  8
1
  6
CONTINUOUS
100
AcDbLine
 10
58.5
 20
-8.5
 30
0.0
 11
58.5
 21
-11.5
 31
0.0
  0
LINE
  5
51
330
1D
100
AcDbEntity
  8
SK3
  6
DASH
100
AcDbLine
 10
78.5
 20
5.75
 30
0.0
 11
77.317096739
 21
2.5
 31
0.0
  0
LINE
  5
52
330
1D
100
AcDbEntity
  8
SK3
  6
DASH
100
AcDbLine
 10
92.5
 20
5.5
 30
0.0
 11
80.283493649
 21
5.5
 31
0.0
  0
LINE
  5
53
330
1D
100
AcDbEntity
  8
SK3
  6
DASH
100
AcDbLine
 10
80.283493649
 20
-5.5
 30
0.0
 11
92.5
 21
-5.5
 31
0.0
  0
LINE
  5
54
330
1D
100
AcDbEntity
  8
SK3
  6
DASH
100
AcDbLine
 10
-47.5
 20
-2.5
 30
0.0
 11
77.317096739
 21
-2.5
 31
0.0
  0
LINE
  5
55
330
1D
100
AcDbEntity
  8
4
  6
LONGDASH_DASH
100
AcDbLine
 10
-50.128999065
 20
0.0
 30
0.0
 11
94.127128157
 21
0.0
 31
0.0
  0
LINE
  5
56
330
1D
100
AcDbEntity
  8
4
  6
LONGDASH_DASH
100
AcDbLine
 10
87.45
 20
2.571046927
 30
0.0
 11
87.45
 21
-2.549575905
 31
0.0
  0
CIRCLE
  5
57
330
1D
100
AcDbEntity
  8
1
  6
CONTINUOUS
100
AcDbCircle
 10
87.45
 20
0.0
 30
0.0
 40
2.0
  0
LINE
  5
58
330
1D
100
AcDbEntity
  8
2
  6
CONTINUOUS
100
AcDbLine
 10
-47.5
 20
33.957685471
 30
0.0
 11
-47.5
 21
10.5
 31
0.0
  0
LINE
  5
59
330
1D
100
AcDbEntity
  8
2
  6
CONTINUOUS
100
AcDbLine
 10
-47.5
 20
31.957685471
 30
0.0
 11
-44.0
 21
32.407685471
 31
0.0
  0
LINE
  5
5A
330
1D
100
AcDbEntity
  8
2
  6
CONTINUOUS
100
AcDbLine
 10
-44.0
 20
32.407685471
 30
0.0
 11
-44.0
 21
31.507685471
 31
0.0
  0
LINE
  5
5B
330
1D
100
AcDbEntity
  8
2
  6
CONTINUOUS
100
AcDbLine
 10
-44.0
 20
31.507685471
 30
0.0
 11
-47.5
 21
31.957685471
 31
0.0
  0
LINE
  5
5C
330
1D
100
AcDbEntity
  8
2
  6
CONTINUOUS
100
AcDbLine
 10
92.5
 20
33.957685471
 30
0.0
 11
92.5
 21
9.0
 31
0.0
  0
LINE
  5
5D
330
1D
100
AcDbEntity
  8
2
  6
CONTINUOUS
100
AcDbLine
 10
92.5
 20
31.957685471
 30
0.0
 11
89.0
 21
31.507685471
 31
0.0
  0
LINE
  5
5E
330
1D
100
AcDbEntity
  8
2
  6
CONTINUOUS
100
AcDbLine
 10
89.0
 20
31.507685471
 30
0.0
 11
89.0
 21
32.407685471
 31
0.0
  0
LINE
  5
5F
330
1D
100
AcDbEntity
  8
2
  6
CONTINUOUS
100
AcDbLine
 10
89.0
 20
32.407685471
 30
0.0
 11
92.5
 21
31.957685471
 31
0.0
  0
LINE
  5
60
330
1D
100
AcDbEntity
  8
2
  6
CONTINUOUS
100
AcDbLine
 10
-44.0
 20
31.957685471
 30
0.0
 11
89.0
 21
31.957685471
 31
0.0
  0
TEXT
  5
61
330
1D
100
AcDbEntity
  8
2
  6
CONTINUOUS
100
AcDbText
 10
20.097029685
 20
33.457685471
 30
0.0
 40
3.5
  1
140
  7
BMG_TEXT
100
AcDbText
  0
LINE
  5
62
330
1D
100
AcDbEntity
  8
2
  6
CONTINUOUS
100
AcDbLine
 10
66.5
 20
23.747307043
 30
0.0
 11
66.5
 21
10.598797064
 31
0.0
  0
LINE
  5
63
330
1D
100
AcDbEntity
  8
2
  6
CONTINUOUS
100
AcDbLine
 10
66.5
 20
21.747307043
 30
0.0
 11
70.000000004
 21
22.197307014
 31
0.0
  0
LINE
  5
64
330
1D
100
AcDbEntity
  8
2
  6
CONTINUOUS
100
AcDbLine
 10
70.000000004
 20
22.197307014
 30
0.0
 11
69.999999996
 21
21.297307014
 31
0.0
  0
LINE
  5
65
330
1D
100
AcDbEntity
  8
2
  6
CONTINUOUS
100
AcDbLine
 10
69.999999996
 20
21.297307014
 30
0.0
 11
66.5
 21
21.747307043
 31
0.0
  0
LINE
  5
66
330
1D
100
AcDbEntity
  8
2
  6
CONTINUOUS
100
AcDbLine
 10
92.5
 20
23.747306824
 30
0.0
 11
92.5
 21
9.0
 31
0.0
  0
LINE
  5
67
330
1D
100
AcDbEntity
  8
2
  6
CONTINUOUS
100
AcDbLine
 10
92.5
 20
21.747306824
 30
0.0
 11
88.999999996
 21
21.297306853
 31
0.0
  0
LINE
  5
68
330
1D
100
AcDbEntity
  8
2
  6
CONTINUOUS
100
AcDbLine
 10
88.999999996
 20
21.297306853
 30
0.0
 11
89.000000004
 21
22.197306853
 31
0.0
  0
LINE
  5
69
330
1D
100
AcDbEntity
  8
2
  6
CONTINUOUS
100
AcDbLine
 10
89.000000004
 20
22.197306853
 30
0.0
 11
92.5
 21
21.747306824
 31
0.0
  0
LINE
  5
6A
330
1D
100
AcDbEntity
  8
2
  6
CONTINUOUS
100
AcDbLine
 10
70.0
 20
21.747307014
 30
0.0
 11
89.0
 21
21.747306853
 31
0.0
  0
TEXT
  5
6B
330
1D
100
AcDbEntity
  8
2
  6
CONTINUOUS
100
AcDbText
 10
77.889999722
 20
23.247306947
 30
0.0
 40
3.5
  1
26
 50
359.9999995160001
  7
BMG_TEXT
100
AcDbText
  0
LINE
  5
6C
330
1D
100
AcDbEntity
  8
SK2
100
AcDbLine
 10
-60.482883453
 20
-11.5
 30
0.0
 11
-46.5
 21
-11.5
 31
0.0
  0
LINE
  5
6D
330
1D
100
AcDbEntity
  8
SK2
100
AcDbLine
 10
-58.482883453
 20
-11.5
 30
0.0
 11
-58.932883453
 21
-8.0
 31
0.0
  0
LINE
  5
6E
330
1D
100
AcDbEntity
  8
SK2
100
AcDbLine
 10
-58.932883453
 20
-8.0
 30
0.0
 11
-58.032883453
 21
-8.0
 31
0.0
  0
LINE
  5
6F
330
1D
100
AcDbEntity
  8
SK2
100
AcDbLine
 10
-58.032883453
 20
-8.0
 30
0.0
 11
-58.482883453
 21
-11.5
 31
0.0
  0
LINE
  5
70
330
1D
100
AcDbEntity
  8
SK2
100
AcDbLine
 10
-60.482883453
 20
11.5
 30
0.0
 11
-46.5
 21
11.5
 31
0.0
  0
LINE
  5
71
330
1D
100
AcDbEntity
  8
SK2
100
AcDbLine
 10
-58.482883453
 20
11.5
 30
0.0
 11
-58.032883453
 21
8.0
 31
0.0
  0
LINE
  5
72
330
1D
100
AcDbEntity
  8
SK2
100
AcDbLine
 10
-58.032883453
 20
8.0
 30
0.0
 11
-58.932883453
 21
8.0
 31
0.0
  0
LINE
  5
73
330
1D
100
AcDbEntity
  8
SK2
100
AcDbLine
 10
-58.932883453
 20
8.0
 30
0.0
 11
-58.482883453
 21
11.5
 31
0.0
  0
LINE
  5
74
330
1D
100
AcDbEntity
  8
SK2
100
AcDbLine
 10
-58.482883453
 20
-8.0
 30
0.0
 11
-58.482883453
 21
8.0
 31
0.0
  0
TEXT
  5
75
330
1D
100
AcDbEntity
  8
SK2
100
AcDbText
 10
-59.982883453
 20
0.276718493
 30
0.0
 40
3.5
  1
23
 50
90.0
  7
BMG_TEXT
100
AcDbText
  0
CIRCLE
  5
76
330
1D
100
AcDbEntity
  8
SK2
100
AcDbCircle
 10
-61.232883453
 20
-1.973281507
 30
0.0
 40
1.25
  0
LINE
  5
77
330
1D
100
AcDbEntity
  8
SK2
100
AcDbLine
 10
-59.982883453
 20
-3.223281507
 30
0.0
 11
-62.482883453
 21
-0.723281507
 31
0.0
  0
LINE
  5
78
330
1D
100
AcDbEntity
  8
2
  6
CONTINUOUS
100
AcDbLine
 10
114.696662903
 20
-9.5
 30
0.0
 11
92.0
 21
-9.5
 31
0.0
  0
LINE
  5
79
330
1D
100
AcDbEntity
  8
2
  6
CONTINUOUS
100
AcDbLine
 10
112.696662903
 20
-9.5
 30
0.0
 11
112.246662903
 21
-6.0
 31
0.0
  0
LINE
  5
7A
330
1D
100
AcDbEntity
  8
2
  6
CONTINUOUS
100
AcDbLine
 10
112.246662903
 20
-6.0
 30
0.0
 11
113.146662903
 21
-6.0
 31
0.0
  0
LINE
  5
7B
330
1D
100
AcDbEntity
  8
2
  6
CONTINUOUS
100
AcDbLine
 10
113.146662903
 20
-6.0
 30
0.0
 11
112.696662903
 21
-9.5
 31
0.0
  0
LINE
  5
7C
330
1D
100
AcDbEntity
  8
2
  6
CONTINUOUS
100
AcDbLine
 10
114.696662903
 20
9.5
 30
0.0
 11
92.0
 21
9.5
 31
0.0
  0
LINE
  5
7D
330
1D
100
AcDbEntity
  8
2
  6
CONTINUOUS
100
AcDbLine
 10
112.696662903
 20
9.5
 30
0.0
 11
113.146662903
 21
6.0
 31
0.0
  0
LINE
  5
7E
330
1D
100
AcDbEntity
  8
2
  6
CONTINUOUS
100
AcDbLine
 10
113.146662903
 20
6.0
 30
0.0
 11
112.246662903
 21
6.0
 31
0.0
  0
LINE
  5
7F
330
1D
100
AcDbEntity
  8
2
  6
CONTINUOUS
100
AcDbLine
 10
112.246662903
 20
6.0
 30
0.0
 11
112.696662903
 21
9.5
 31
0.0
  0
LINE
  5
80
330
1D
100
AcDbEntity
  8
2
  6
CONTINUOUS
100
AcDbLine
 10
112.696662903
 20
-6.0
 30
0.0
 11
112.696662903
 21
6.0
 31
0.0
  0
TEXT
  5
81
330
1D
100
AcDbEntity
  8
2
  6
CONTINUOUS
100
AcDbText
 10
111.196662903
 20
0.522812288
 30
0.0
 40
3.5
  1
19
 50
90.0
  7
BMG_TEXT
100
AcDbText
  0
CIRCLE
  5
82
330
1D
100
AcDbEntity
  8
2
  6
CONTINUOUS
100
AcDbCircle
 10
109.946662903
 20
-1.727187712
 30
0.0
 40
1.25
  0
LINE
  5
83
330
1D
100
AcDbEntity
  8
2
  6
CONTINUOUS
100
AcDbLine
 10
111.196662903
 20
-2.977187712
 30
0.0
 11
108.696662903
 21
-0.477187712
 31
0.0
  0
LINE
  5
84
330
1D
100
AcDbEntity
  8
2
  6
CONTINUOUS
100
AcDbLine
 10
105.930143356
 20
-5.5
 30
0.0
 11
92.5
 21
-5.5
 31
0.0
  0
LINE
  5
85
330
1D
100
AcDbEntity
  8
2
  6
CONTINUOUS
100
AcDbLine
 10
103.930143356
 20
-5.5
 30
0.0
 11
103.480143356
 21
-2.0
 31
0.0
  0
LINE
  5
86
330
1D
100
AcDbEntity
  8
2
  6
CONTINUOUS
100
AcDbLine
 10
103.480143356
 20
-2.0
 30
0.0
 11
104.380143356
 21
-2.0
 31
0.0
  0
LINE
  5
87
330
1D
100
AcDbEntity
  8
2
  6
CONTINUOUS
100
AcDbLine
 10
104.380143356
 20
-2.0
 30
0.0
 11
103.930143356
 21
-5.5
 31
0.0
  0
LINE
  5
88
330
1D
100
AcDbEntity
  8
2
  6
CONTINUOUS
100
AcDbLine
 10
105.930143356
 20
5.5
 30
0.0
 11
92.5
 21
5.5
 31
0.0
  0
LINE
  5
89
330
1D
100
AcDbEntity
  8
2
  6
CONTINUOUS
100
AcDbLine
 10
103.930143356
 20
5.5
 30
0.0
 11
104.380143356
 21
2.0
 31
0.0
  0
LINE
  5
8A
330
1D
100
AcDbEntity
  8
2
  6
CONTINUOUS
100
AcDbLine
 10
104.380143356
 20
2.0
 30
0.0
 11
103.480143356
 21
2.0
 31
0.0
  0
LINE
  5
8B
330
1D
100
AcDbEntity
  8
2
  6
CONTINUOUS
100
AcDbLine
 10
103.480143356
 20
2.0
 30
0.0
 11
103.930143356
 21
5.5
 31
0.0
  0
LINE
  5
8C
330
1D
100
AcDbEntity
  8
2
  6
CONTINUOUS
100
AcDbLine
 10
103.930143356
 20
-2.0
 30
0.0
 11
103.930143356
 21
2.0
 31
0.0
  0
TEXT
  5
8D
330
1D
100
AcDbEntity
  8
2
  6
CONTINUOUS
100
AcDbText
 10
102.430143356
 20
-0.0027776180564095
 30
0.0
 40
3.5
  1
11
 50
90.0
  7
BMG_TEXT
100
AcDbText
  0
CIRCLE
  5
8E
330
1D
100
AcDbEntity
  8
2
  6
CONTINUOUS
100
AcDbCircle
 10
101.180143356
 20
-1.399062623
 30
0.0
 40
1.25
  0
LINE
  5
8F
330
1D
100
AcDbEntity
  8
2
  6
CONTINUOUS
100
AcDbLine
 10
102.430143356
 20
-2.649062623
 30
0.0
 11
99.930143356
 21
-0.149062623
 31
0.0
  0
LINE
  5
90
330
1D
100
AcDbEntity
  8
2
  6
CONTINUOUS
100
AcDbLine
 10
0.0
 20
-25.08579731
 30
0.0
 11
0.0
 21
-11.5
 31
0.0
  0
LINE
  5
91
330
1D
100
AcDbEntity
  8
2
  6
CONTINUOUS
100
AcDbLine
 10
0.0
 20
-23.08579731
 30
0.0
 11
3.5
 21
-22.63579731
 31
0.0
  0
LINE
  5
92
330
1D
100
AcDbEntity
  8
2
  6
CONTINUOUS
100
AcDbLine
 10
3.5
 20
-22.63579731
 30
0.0
 11
3.5
 21
-23.53579731
 31
0.0
  0
LINE
  5
93
330
1D
100
AcDbEntity
  8
2
  6
CONTINUOUS
100
AcDbLine
 10
3.5
 20
-23.53579731
 30
0.0
 11
0.0
 21
-23.08579731
 31
0.0
  0
LINE
  5
94
330
1D
100
AcDbEntity
  8
2
  6
CONTINUOUS
100
AcDbLine
 10
3.5
 20
-23.08579731
 30
0.0
 11
101.75
 21
-23.08579731
 31
0.0
  0
TEXT
  5
95
330
1D
100
AcDbEntity
  8
2
  6
CONTINUOUS
100
AcDbText
 10
37.315780113
 20
-21.58579731
 30
0.0
 40
3.5
  1
Ausdrehtiefe 125
  7
BMG_TEXT
100
AcDbText
  0
TEXT
  5
96
330
1D
100
AcDbEntity
  8
SK6
  6
CONTINUOUS
100
AcDbText
 10
8.494191426250332
 20
-10.29144228426335
 30
0.0
 40
3.5
  1
335.383
  7
BMG_TEXT
100
AcDbText
  0
LINE
  5
133
330
1D
100
AcDbEntity
  8
NOCUT
100
AcDbLine
 10
0.0
 20
11.5
 30
0.0
 11
-0.0000000000000021
 21
0.0
 31
0.0
  0
LINE
  5
134
330
1D
100
AcDbEntity
  8
NOCUT
100
AcDbLine
 10
-0.0000000000000021
 20
0.0
 30
0.0
 11
92.5
 21
0.0
 31
0.0
  0
LINE
  5
135
330
1D
100
AcDbEntity
  8
NOCUT
100
AcDbLine
 10
92.5
 20
0.0
 30
0.0
 11
92.5
 21
9.0
 31
0.0
  0
LINE
  5
137
330
1D
100
AcDbEntity
  8
NOCUT
100
AcDbLine
 10
92.5
 20
9.0
 30
0.0
 11
92.0
 21
9.5
 31
0.0
  0
LINE
  5
138
330
1D
100
AcDbEntity
  8
NOCUT
100
AcDbLine
 10
92.0
 20
9.5
 30
0.0
 11
67.5
 21
9.5
 31
0.0
  0
LINE
  5
139
330
1D
100
AcDbEntity
  8
NOCUT
100
AcDbLine
 10
66.5
 20
10.598797064
 30
0.0
 11
66.5
 21
11.0
 31
0.0
  0
LINE
  5
13A
330
1D
100
AcDbEntity
  8
NOCUT
100
AcDbLine
 10
66.5
 20
11.0
 30
0.0
 11
66.0
 21
11.5
 31
0.0
  0
LINE
  5
13B
330
1D
100
AcDbEntity
  8
NOCUT
100
AcDbLine
 10
66.0
 20
11.5
 30
0.0
 11
0.0
 21
11.5
 31
0.0
  0
ARC
  5
141
330
1D
100
AcDbEntity
  8
NOCUT
100
AcDbCircle
 10
67.50295294914554
 20
10.50712904987617
 30
0.0
 40
1.007133378958885
100
AcDbArc
 50
174.7777826761672
 51
269.8320065950449
  0
LWPOLYLINE
  5
166
330
1D
100
AcDbEntity
  8
INFTOTAL
100
AcDbPolyline
 90
        4
 70
     1
 43
0.0
 10
-88.38714040339914
 20
54.53921235061323
 10
-88.38714040339914
 20
-39.41554466732062
 10
141.2800434182166
 20
-39.41554466732062
 10
141.2800434182166
 20
54.53921235061323
  0
ENDSEC
  0
SECTION
  2
OBJECTS
  0
DICTIONARY
  5
C
330
0
100
AcDbDictionary
  3
ACAD_DETAILVIEWSTYLE
350
13F
  3
ACAD_GROUP
350
D
  3
ACAD_MLINESTYLE
350
17
  3
ACAD_SCALELIST
350
9D
  3
ACAD_SECTIONVIEWSTYLE
350
140
  3
ACDBVARIABLEDICTIONARY
350
DF
  3
APPDATA
350
12D
  3
DWGPROPS
350
18A
  0
DICTIONARY
  5
12E
330
2
100
AcDbDictionary
280
     1
  3
ACAD_LAYERSTATES
360
12F
  0
DICTIONARY
  5
13F
102
{ACAD_REACTORS
330
C
102
}
330
C
100
AcDbDictionary
  0
DICTIONARY
  5
D
102
{ACAD_REACTORS
330
C
102
}
330
C
100
AcDbDictionary
  0
DICTIONARY
  5
17
102
{ACAD_REACTORS
330
C
102
}
330
C
100
AcDbDictionary
  3
STANDARD
350
18
  0
DICTIONARY
  5
9D
102
{ACAD_REACTORS
330
C
102
}
330
C
100
AcDbDictionary
  0
DICTIONARY
  5
140
102
{ACAD_REACTORS
330
C
102
}
330
C
100
AcDbDictionary
  0
DICTIONARY
  5
DF
102
{ACAD_REACTORS
330
C
102
}
330
C
100
AcDbDictionary
  3
DIMASSOC
350
E3
  3
HIDETEXT
350
E4
  0
DICTIONARY
  5
12D
102
{ACAD_REACTORS
330
C
102
}
330
C
100
AcDbDictionary
  0
XRECORD
  5
18A
102
{ACAD_REACTORS
330
C
102
}
330
C
100
AcDbXrecord
  1
DWGPROPS COOKIE
  2

  3

  4

  6

  7

  8
christoph.stuessi
  9

300
=
301
=
302
=
303
=
304
=
305
=
306
=
307
=
308
=
309
=
 40
0.0
 41
2458327.466116817
 42
2458362.220201296
  1

 90
        0
  0
DICTIONARY
  5
12F
102
{ACAD_REACTORS
330
12E
102
}
330
12E
100
AcDbDictionary
  0
MLINESTYLE
  5
18
102
{ACAD_REACTORS
330
17
102
}
330
17
100
AcDbMlineStyle
  2
Standard
 70
     0
  3

 62
   256
 51
90.0
 52
90.0
 71
     2
 49
0.5
 62
   256
  6
BYLAYER
 49
-0.5
 62
   256
  6
BYLAYER
  0
DICTIONARYVAR
  5
E3
102
{ACAD_REACTORS
330
DF
102
}
330
DF
100
DictionaryVariables
280
     0
  1
2
  0
DICTIONARYVAR
  5
E4
102
{ACAD_REACTORS
330
DF
102
}
330
DF
100
DictionaryVariables
280
     0
  1
1
  0
ENDSEC
  0
EOF
