  0
SECTION
  2
HEADER
  9
$ACADVER
  1
AC1027
  9
$ACADMAINTVER
 70
   105
  9
$DWGCODEPAGE
  3
ANSI_1252
  9
$REQUIREDVERSIONS
160
                 0
  9
$LASTSAVEDBY
  1
christoph.stuessi
  9
$INSBASE
 10
0.0
 20
0.0
 30
0.0
  9
$EXTMIN
 10
-101.0167150324935
 20
-57.131101316496
 30
0.0
  9
$EXTMAX
 10
95.6120851660232
 20
67.43012957849194
 30
0.0
  9
$LIMMIN
 10
-67.357142856
 20
-44.89
  9
$LIMMAX
 10
78.357142858
 20
45.89
  9
$ORTHOMODE
 70
     0
  9
$REGENMODE
 70
     1
  9
$FILLMODE
 70
     1
  9
$QTEXTMODE
 70
     0
  9
$MIRRTEXT
 70
     1
  9
$LTSCALE
 40
1.0
  9
$ATTMODE
 70
     1
  9
$TEXTSIZE
 40
0.2
  9
$TRACEWID
 40
0.05
  9
$TEXTSTYLE
  7
Standard
  9
$CLAYER
  8
INFTOTAL
  9
$CELTYPE
  6
ByLayer
  9
$CECOLOR
 62
   256
  9
$CELTSCALE
 40
1.0
  9
$DISPSILH
 70
     0
  9
$DIMSCALE
 40
1.0
  9
$DIMASZ
 40
0.18
  9
$DIMEXO
 40
0.0625
  9
$DIMDLI
 40
0.38
  9
$DIMRND
 40
0.0
  9
$DIMDLE
 40
0.0
  9
$DIMEXE
 40
0.18
  9
$DIMTP
 40
0.0
  9
$DIMTM
 40
0.0
  9
$DIMTXT
 40
0.18
  9
$DIMCEN
 40
0.09
  9
$DIMTSZ
 40
0.0
  9
$DIMTOL
 70
     0
  9
$DIMLIM
 70
     0
  9
$DIMTIH
 70
     1
  9
$DIMTOH
 70
     1
  9
$DIMSE1
 70
     0
  9
$DIMSE2
 70
     0
  9
$DIMTAD
 70
     0
  9
$DIMZIN
 70
     0
  9
$DIMBLK
  1

  9
$DIMASO
 70
     1
  9
$DIMSHO
 70
     1
  9
$DIMPOST
  1

  9
$DIMAPOST
  1

  9
$DIMALT
 70
     0
  9
$DIMALTD
 70
     2
  9
$DIMALTF
 40
25.4
  9
$DIMLFAC
 40
1.0
  9
$DIMTOFL
 70
     0
  9
$DIMTVP
 40
0.0
  9
$DIMTIX
 70
     0
  9
$DIMSOXD
 70
     0
  9
$DIMSAH
 70
     0
  9
$DIMBLK1
  1

  9
$DIMBLK2
  1

  9
$DIMSTYLE
  2
Standard
  9
$DIMCLRD
 70
     0
  9
$DIMCLRE
 70
     0
  9
$DIMCLRT
 70
     0
  9
$DIMTFAC
 40
1.0
  9
$DIMGAP
 40
0.09
  9
$DIMJUST
 70
     0
  9
$DIMSD1
 70
     0
  9
$DIMSD2
 70
     0
  9
$DIMTOLJ
 70
     1
  9
$DIMTZIN
 70
     0
  9
$DIMALTZ
 70
     0
  9
$DIMALTTZ
 70
     0
  9
$DIMUPT
 70
     0
  9
$DIMDEC
 70
     4
  9
$DIMTDEC
 70
     4
  9
$DIMALTU
 70
     2
  9
$DIMALTTD
 70
     2
  9
$DIMTXSTY
  7
Standard
  9
$DIMAUNIT
 70
     0
  9
$DIMADEC
 70
     0
  9
$DIMALTRND
 40
0.0
  9
$DIMAZIN
 70
     0
  9
$DIMDSEP
 70
    46
  9
$DIMATFIT
 70
     3
  9
$DIMFRAC
 70
     0
  9
$DIMLDRBLK
  1

  9
$DIMLUNIT
 70
     2
  9
$DIMLWD
 70
    -2
  9
$DIMLWE
 70
    -2
  9
$DIMTMOVE
 70
     2
  9
$DIMFXL
 40
1.0
  9
$DIMFXLON
 70
     0
  9
$DIMJOGANG
 40
0.7853981633974483
  9
$DIMTFILL
 70
     0
  9
$DIMTFILLCLR
 70
     0
  9
$DIMARCSYM
 70
     0
  9
$DIMLTYPE
  6

  9
$DIMLTEX1
  6

  9
$DIMLTEX2
  6

  9
$DIMTXTDIRECTION
 70
     0
  9
$LUNITS
 70
     2
  9
$LUPREC
 70
     4
  9
$SKETCHINC
 40
0.1
  9
$FILLETRAD
 40
0.5
  9
$AUNITS
 70
     2
  9
$AUPREC
 70
     0
  9
$MENU
  1
.
  9
$ELEVATION
 40
0.0
  9
$PELEVATION
 40
0.0
  9
$THICKNESS
 40
0.0
  9
$LIMCHECK
 70
     0
  9
$CHAMFERA
 40
0.5
  9
$CHAMFERB
 40
0.5
  9
$CHAMFERC
 40
1.0
  9
$CHAMFERD
 40
0.0
  9
$SKPOLY
 70
     0
  9
$TDCREATE
 40
2458327.54942522
  9
$TDUCREATE
 40
2458327.466091887
  9
$TDUPDATE
 40
2458361.30080125
  9
$TDUUPDATE
 40
2458361.217467917
  9
$TDINDWG
 40
0.0
  9
$TDUSRTIMER
 40
0.0
  9
$USRTIMER
 70
     1
  9
$ANGBASE
 50
0.0
  9
$ANGDIR
 70
     0
  9
$PDMODE
 70
     0
  9
$PDSIZE
 40
0.0
  9
$PLINEWID
 40
0.0
  9
$SPLFRAME
 70
     0
  9
$SPLINETYPE
 70
     6
  9
$SPLINESEGS
 70
     8
  9
$HANDSEED
  5
1CB
  9
$SURFTAB1
 70
     6
  9
$SURFTAB2
 70
     6
  9
$SURFTYPE
 70
     6
  9
$SURFU
 70
     6
  9
$SURFV
 70
     6
  9
$UCSBASE
  2

  9
$UCSNAME
  2

  9
$UCSORG
 10
0.0
 20
0.0
 30
0.0
  9
$UCSXDIR
 10
1.0
 20
0.0
 30
0.0
  9
$UCSYDIR
 10
0.0
 20
1.0
 30
0.0
  9
$UCSORTHOREF
  2

  9
$UCSORTHOVIEW
 70
     0
  9
$UCSORGTOP
 10
0.0
 20
0.0
 30
0.0
  9
$UCSORGBOTTOM
 10
0.0
 20
0.0
 30
0.0
  9
$UCSORGLEFT
 10
0.0
 20
0.0
 30
0.0
  9
$UCSORGRIGHT
 10
0.0
 20
0.0
 30
0.0
  9
$UCSORGFRONT
 10
0.0
 20
0.0
 30
0.0
  9
$UCSORGBACK
 10
0.0
 20
0.0
 30
0.0
  9
$PUCSBASE
  2

  9
$PUCSNAME
  2

  9
$PUCSORG
 10
0.0
 20
0.0
 30
0.0
  9
$PUCSXDIR
 10
1.0
 20
0.0
 30
0.0
  9
$PUCSYDIR
 10
0.0
 20
1.0
 30
0.0
  9
$PUCSORTHOREF
  2

  9
$PUCSORTHOVIEW
 70
     0
  9
$PUCSORGTOP
 10
0.0
 20
0.0
 30
0.0
  9
$PUCSORGBOTTOM
 10
0.0
 20
0.0
 30
0.0
  9
$PUCSORGLEFT
 10
0.0
 20
0.0
 30
0.0
  9
$PUCSORGRIGHT
 10
0.0
 20
0.0
 30
0.0
  9
$PUCSORGFRONT
 10
0.0
 20
0.0
 30
0.0
  9
$PUCSORGBACK
 10
0.0
 20
0.0
 30
0.0
  9
$USERI1
 70
     0
  9
$USERI2
 70
     0
  9
$USERI3
 70
     0
  9
$USERI4
 70
     0
  9
$USERI5
 70
     0
  9
$USERR1
 40
0.0
  9
$USERR2
 40
0.0
  9
$USERR3
 40
0.0
  9
$USERR4
 40
0.0
  9
$USERR5
 40
0.0
  9
$WORLDVIEW
 70
     1
  9
$SHADEDGE
 70
     3
  9
$SHADEDIF
 70
    70
  9
$TILEMODE
 70
     1
  9
$MAXACTVP
 70
    64
  9
$PINSBASE
 10
0.0
 20
0.0
 30
0.0
  9
$PLIMCHECK
 70
     0
  9
$PEXTMIN
 10
1.000000000000000E+20
 20
1.000000000000000E+20
 30
1.000000000000000E+20
  9
$PEXTMAX
 10
-1.000000000000000E+20
 20
-1.000000000000000E+20
 30
-1.000000000000000E+20
  9
$PLIMMIN
 10
0.0
 20
0.0
  9
$PLIMMAX
 10
0.0
 20
0.0
  9
$UNITMODE
 70
     0
  9
$VISRETAIN
 70
     1
  9
$PLINEGEN
 70
     0
  9
$PSLTSCALE
 70
     1
  9
$TREEDEPTH
 70
  3020
  9
$CMLSTYLE
  2
Standard
  9
$CMLJUST
 70
     0
  9
$CMLSCALE
 40
1.0
  9
$PROXYGRAPHICS
 70
     1
  9
$MEASUREMENT
 70
     0
  9
$CELWEIGHT
370
    -1
  9
$ENDCAPS
280
     0
  9
$JOINSTYLE
280
     0
  9
$LWDISPLAY
290
     0
  9
$INSUNITS
 70
     0
  9
$HYPERLINKBASE
  1

  9
$STYLESHEET
  1

  9
$XEDIT
290
     1
  9
$CEPSNTYPE
380
     0
  9
$PSTYLEMODE
290
     1
  9
$FINGERPRINTGUID
  2
{84313DC8-FAA1-4DBB-A38E-6B9F9DDB82C7}
  9
$VERSIONGUID
  2
{FAEB1C32-E019-11D5-929B-00C0DF256EC4}
  9
$EXTNAMES
290
     1
  9
$PSVPSCALE
 40
0.0
  9
$OLESTARTUP
290
     0
  9
$SORTENTS
280
   127
  9
$INDEXCTL
280
     0
  9
$HIDETEXT
280
     1
  9
$XCLIPFRAME
280
     2
  9
$HALOGAP
280
     0
  9
$OBSCOLOR
 70
   257
  9
$OBSLTYPE
280
     0
  9
$INTERSECTIONDISPLAY
280
     0
  9
$INTERSECTIONCOLOR
 70
   257
  9
$DIMASSOC
280
     2
  9
$PROJECTNAME
  1

  9
$CAMERADISPLAY
290
     0
  9
$LENSLENGTH
 40
50.0
  9
$CAMERAHEIGHT
 40
0.0
  9
$STEPSPERSEC
 40
2.0
  9
$STEPSIZE
 40
6.0
  9
$3DDWFPREC
 40
2.0
  9
$PSOLWIDTH
 40
0.25
  9
$PSOLHEIGHT
 40
4.0
  9
$LOFTANG1
 40
1.570796326794897
  9
$LOFTANG2
 40
1.570796326794897
  9
$LOFTMAG1
 40
0.0
  9
$LOFTMAG2
 40
0.0
  9
$LOFTPARAM
 70
     7
  9
$LOFTNORMALS
280
     1
  9
$LATITUDE
 40
37.795
  9
$LONGITUDE
 40
-122.394
  9
$NORTHDIRECTION
 40
0.0
  9
$TIMEZONE
 70
 -8000
  9
$LIGHTGLYPHDISPLAY
280
     1
  9
$TILEMODELIGHTSYNCH
280
     1
  9
$SOLIDHIST
280
     0
  9
$SHOWHIST
280
     1
  9
$DWFFRAME
280
     2
  9
$DGNFRAME
280
     2
  9
$REALWORLDSCALE
290
     1
  9
$INTERFERECOLOR
 62
   256
  9
$CSHADOW
280
     0
  9
$SHADOWPLANELOCATION
 40
0.0
  0
ENDSEC
  0
SECTION
  2
CLASSES
  0
CLASS
  1
ACDBDICTIONARYWDFLT
  2
AcDbDictionaryWithDefault
  3
ObjectDBX Classes
 90
        0
 91
        5
280
     0
281
     0
  0
CLASS
  1
SCALE
  2
AcDbScale
  3
ObjectDBX Classes
 90
     1153
 91
        5
280
     0
281
     0
  0
CLASS
  1
VISUALSTYLE
  2
AcDbVisualStyle
  3
ObjectDBX Classes
 90
     4095
 91
        5
280
     0
281
     0
  0
CLASS
  1
MATERIAL
  2
AcDbMaterial
  3
ObjectDBX Classes
 90
     1153
 91
        5
280
     0
281
     0
  0
CLASS
  1
DICTIONARYVAR
  2
AcDbDictionaryVar
  3
ObjectDBX Classes
 90
        0
 91
        5
280
     0
281
     0
  0
CLASS
  1
ACDBPLACEHOLDER
  2
AcDbPlaceHolder
  3
ObjectDBX Classes
 90
        0
 91
        1
280
     0
281
     0
  0
CLASS
  1
LAYOUT
  2
AcDbLayout
  3
ObjectDBX Classes
 90
        0
 91
        1
280
     0
281
     0
  0
CLASS
  1
TABLESTYLE
  2
AcDbTableStyle
  3
ObjectDBX Classes
 90
     4095
 91
        5
280
     0
281
     0
  0
CLASS
  1
MLEADERSTYLE
  2
AcDbMLeaderStyle
  3
ACDB_MLEADERSTYLE_CLASS
 90
     4095
 91
        5
280
     0
281
     0
  0
CLASS
  1
CELLSTYLEMAP
  2
AcDbCellStyleMap
  3
ObjectDBX Classes
 90
     1152
 91
        5
280
     0
281
     0
  0
ENDSEC
  0
SECTION
  2
TABLES
  0
TABLE
  2
VPORT
  5
8
330
0
100
AcDbSymbolTable
 70
     1
  0
VPORT
  5
F1
330
8
100
AcDbSymbolTableRecord
100
AcDbViewportTableRecord
  2
*Active
 70
     0
 10
0.0
 20
0.0
 11
1.0
 21
1.0
 12
-6.722751091140225
 22
-8.605048575196399
 13
0.0
 23
0.0
 14
0.5
 24
0.5
 15
0.5
 25
0.5
 16
0.0
 26
0.0
 36
1.0
 17
0.0
 27
0.0
 37
0.0
 40
204.6363078989089
 41
2.246376811594203
 42
50.0
 43
0.0
 44
0.0
 50
0.0
 51
0.0
 71
    16
 72
   100
 73
     1
 74
     3
 75
     0
 76
     0
 77
     0
 78
     0
281
     0
 65
     1
110
0.0
120
0.0
130
0.0
111
1.0
121
0.0
131
0.0
112
0.0
122
1.0
132
0.0
 79
     0
146
0.0
348
122
 60
     3
 61
     5
292
     1
282
     1
141
0.0
142
0.0
 63
   256
  0
ENDTAB
  0
TABLE
  2
LTYPE
  5
5
330
0
100
AcDbSymbolTable
 70
     8
  0
LTYPE
  5
14
330
5
100
AcDbSymbolTableRecord
100
AcDbLinetypeTableRecord
  2
ByBlock
 70
     0
  3

 72
    65
 73
     0
 40
0.0
  0
LTYPE
  5
15
330
5
100
AcDbSymbolTableRecord
100
AcDbLinetypeTableRecord
  2
ByLayer
 70
     0
  3

 72
    65
 73
     0
 40
0.0
  0
LTYPE
  5
16
330
5
100
AcDbSymbolTableRecord
100
AcDbLinetypeTableRecord
  2
Continuous
 70
     0
  3
Solid line
 72
    65
 73
     0
 40
0.0
  0
LTYPE
  5
20
330
5
100
AcDbSymbolTableRecord
100
AcDbLinetypeTableRecord
  2
PUNKT
 70
     0
  3
..............
 72
    65
 73
     2
 40
1.5
 49
0.7
 74
     0
 49
-0.8
 74
     0
  0
LTYPE
  5
21
330
5
100
AcDbSymbolTableRecord
100
AcDbLinetypeTableRecord
  2
GESTRICHELT
 70
     0
  3
-- -- -- -- --
 72
    65
 73
     7
 40
2.8
 49
0.9
 74
     0
 49
0.0
 74
     0
 49
0.9
 74
     0
 49
0.0
 74
     0
 49
0.2
 74
     0
 49
0.0
 74
     0
 49
-0.8
 74
     0
  0
LTYPE
  5
22
330
5
100
AcDbSymbolTableRecord
100
AcDbLinetypeTableRecord
  2
STRICHPUNKT
 70
     0
  3
--.--.--.--.--
 72
    65
 73
     4
 40
8.8
 49
5.5
 74
     0
 49
-1.3
 74
     0
 49
0.7
 74
     0
 49
-1.3
 74
     0
  0
LTYPE
  5
25
330
5
100
AcDbSymbolTableRecord
100
AcDbLinetypeTableRecord
  2
PHANTOM
 70
     0
  3
--..--..--..--
 72
    65
 73
     6
 40
14.2
 49
7.0
 74
     0
 49
-1.8
 74
     0
 49
0.9
 74
     0
 49
-1.8
 74
     0
 49
0.9
 74
     0
 49
-1.8
 74
     0
  0
LTYPE
  5
169
330
5
100
AcDbSymbolTableRecord
100
AcDbLinetypeTableRecord
  2
DASH
 70
     0
  3
DASH _ _ _ _ _
 72
    65
 73
     2
 40
0.75
 49
0.4
 74
     0
 49
-0.35
 74
     0
  0
LTYPE
  5
16A
330
5
100
AcDbSymbolTableRecord
100
AcDbLinetypeTableRecord
  2
LONGDASH_DASH
 70
     0
  3
LONGDASH_DASH __ . __ . __
 72
    65
 73
     4
 40
0.85
 49
0.4
 74
     0
 49
-0.2
 74
     0
 49
0.05
 74
     0
 49
-0.2
 74
     0
  0
LTYPE
  5
16B
330
5
100
AcDbSymbolTableRecord
100
AcDbLinetypeTableRecord
  2
LONGDASH_DASH_DASH
 70
     0
  3
LONGDASH_DASH_DASH __ . . __ . . __
 72
    65
 73
     6
 40
1.1
 49
0.4
 74
     0
 49
-0.2
 74
     0
 49
0.05
 74
     0
 49
-0.2
 74
     0
 49
0.05
 74
     0
 49
-0.2
 74
     0
  0
ENDTAB
  0
TABLE
  2
LAYER
  5
2
102
{ACAD_XDICTIONARY
360
188
102
}
330
0
100
AcDbSymbolTable
 70
    15
  0
LAYER
  5
133
330
2
100
AcDbSymbolTableRecord
100
AcDbLayerTableRecord
  2
200
 70
     0
 62
     2
  6
Continuous
370
    50
390
F
347
131
348
0
  0
LAYER
  5
16C
330
2
100
AcDbSymbolTableRecord
100
AcDbLayerTableRecord
  2
0
 70
     0
 62
    -1
  6
Continuous
370
    -3
390
F
347
131
348
0
  0
LAYER
  5
16D
330
2
100
AcDbSymbolTableRecord
100
AcDbLayerTableRecord
  2
1
 70
     0
 62
     4
  6
Continuous
370
    50
390
F
347
131
348
0
  0
LAYER
  5
16E
330
2
100
AcDbSymbolTableRecord
100
AcDbLayerTableRecord
  2
2
 70
     0
 62
     7
  6
Continuous
370
    25
390
F
347
131
348
0
  0
LAYER
  5
16F
330
2
100
AcDbSymbolTableRecord
100
AcDbLayerTableRecord
  2
3
 70
     0
 62
     1
  6
DASH
370
    35
390
F
347
131
348
0
  0
LAYER
  5
170
330
2
100
AcDbSymbolTableRecord
100
AcDbLayerTableRecord
  2
4
 70
     0
 62
     2
  6
LONGDASH_DASH
370
    25
390
F
347
131
348
0
  0
LAYER
  5
171
330
2
100
AcDbSymbolTableRecord
100
AcDbLayerTableRecord
  2
6
 70
     0
 62
     5
  6
Continuous
370
    -3
390
F
347
131
348
0
  0
LAYER
  5
172
330
2
100
AcDbSymbolTableRecord
100
AcDbLayerTableRecord
  2
CUT
 70
     0
 62
     1
  6
Continuous
370
    25
390
F
347
131
348
0
  0
LAYER
  5
173
330
2
100
AcDbSymbolTableRecord
100
AcDbLayerTableRecord
  2
NOCUT
 70
     0
 62
     7
  6
Continuous
370
    25
390
F
347
131
348
0
  0
LAYER
  5
174
330
2
100
AcDbSymbolTableRecord
100
AcDbLayerTableRecord
  2
SK1
 70
     0
 62
     4
  6
Continuous
370
    50
390
F
347
131
348
0
  0
LAYER
  5
175
330
2
100
AcDbSymbolTableRecord
100
AcDbLayerTableRecord
  2
SK2
 70
     0
 62
    -7
  6
Continuous
370
    25
390
F
347
131
348
0
  0
LAYER
  5
176
330
2
100
AcDbSymbolTableRecord
100
AcDbLayerTableRecord
  2
SK3
 70
     0
 62
     1
  6
DASH
370
    35
390
F
347
131
348
0
  0
LAYER
  5
177
330
2
100
AcDbSymbolTableRecord
100
AcDbLayerTableRecord
  2
SK4
 70
     0
 62
     2
  6
LONGDASH_DASH
370
    25
390
F
347
131
348
0
  0
LAYER
  5
178
330
2
100
AcDbSymbolTableRecord
100
AcDbLayerTableRecord
  2
SK6
 70
     0
 62
     5
  6
Continuous
370
    -3
390
F
347
131
348
0
  0
LAYER
  5
179
330
2
100
AcDbSymbolTableRecord
100
AcDbLayerTableRecord
  2
INFTOTAL
 70
     0
 62
     9
  6
Continuous
370
    18
390
F
347
131
348
0
  0
ENDTAB
  0
TABLE
  2
STYLE
  5
3
330
0
100
AcDbSymbolTable
 70
     2
  0
STYLE
  5
11
330
3
100
AcDbSymbolTableRecord
100
AcDbTextStyleTableRecord
  2
Standard
 70
     0
 40
0.0
 41
1.0
 50
0.0
 71
     0
 42
0.2
  3
txt
  4

  0
STYLE
  5
132
330
3
100
AcDbSymbolTableRecord
100
AcDbTextStyleTableRecord
  2
BMG_Text
 70
     0
 40
3.5
 41
1.0
 50
0.0
 71
     0
 42
0.2
  3
monos.ttf
  4

1001
ACAD
1000
Monospac821 BT
1071
       49
  0
ENDTAB
  0
TABLE
  2
VIEW
  5
6
330
0
100
AcDbSymbolTable
 70
     0
  0
ENDTAB
  0
TABLE
  2
UCS
  5
7
330
0
100
AcDbSymbolTable
 70
     0
  0
ENDTAB
  0
TABLE
  2
APPID
  5
9
330
0
100
AcDbSymbolTable
 70
     1
  0
APPID
  5
12
330
9
100
AcDbSymbolTableRecord
100
AcDbRegAppTableRecord
  2
ACAD
 70
     0
  0
ENDTAB
  0
TABLE
  2
DIMSTYLE
  5
A
330
0
100
AcDbSymbolTable
 70
     1
100
AcDbDimStyleTable
  0
DIMSTYLE
105
28
330
A
100
AcDbSymbolTableRecord
100
AcDbDimStyleTableRecord
  2
Standard
 70
     0
178
     0
340
11
  0
ENDTAB
  0
TABLE
  2
BLOCK_RECORD
  5
1
330
0
100
AcDbSymbolTable
 70
     0
  0
BLOCK_RECORD
  5
1D
330
1
100
AcDbSymbolTableRecord
100
AcDbBlockTableRecord
  2
*Model_Space
340
1E
 70
     0
280
     1
281
     0
  0
BLOCK_RECORD
  5
1B
330
1
100
AcDbSymbolTableRecord
100
AcDbBlockTableRecord
  2
*Paper_Space
340
1C
 70
     0
280
     1
281
     0
  0
ENDTAB
  0
ENDSEC
  0
SECTION
  2
BLOCKS
  0
BLOCK
  5
11B
330
1D
100
AcDbEntity
  8
0
100
AcDbBlockBegin
  2
*Model_Space
 70
     0
 10
0.0
 20
0.0
 30
0.0
  3
*Model_Space
  1

  0
ENDBLK
  5
11C
330
1D
100
AcDbEntity
  8
0
100
AcDbBlockEnd
  0
BLOCK
  5
119
330
1B
100
AcDbEntity
 67
     1
  8
0
100
AcDbBlockBegin
  2
*Paper_Space
 70
     0
 10
0.0
 20
0.0
 30
0.0
  3
*Paper_Space
  1

  0
ENDBLK
  5
11A
330
1B
100
AcDbEntity
 67
     1
  8
0
100
AcDbBlockEnd
  0
ENDSEC
  0
SECTION
  2
ENTITIES
  0
LINE
  5
29
330
1D
100
AcDbEntity
  8
1
  6
Continuous
370
    50
100
AcDbLine
 10
1.0
 20
31.75
 30
0.0
 11
11.0
 21
31.75
 31
0.0
  0
LINE
  5
2A
330
1D
100
AcDbEntity
  8
1
  6
Continuous
370
    50
100
AcDbLine
 10
12.0
 20
30.75
 30
0.0
 11
12.0
 21
-30.75
 31
0.0
  0
LINE
  5
2B
330
1D
100
AcDbEntity
  8
1
  6
Continuous
370
    50
100
AcDbLine
 10
12.0
 20
30.75
 30
0.0
 11
11.0
 21
31.75
 31
0.0
  0
ARC
  5
2C
330
1D
100
AcDbEntity
  8
1
  6
Continuous
370
    50
100
AcDbCircle
 10
17.0
 20
24.5
 30
0.0
 40
5.0
100
AcDbArc
 50
180.0
 51
270.0
  0
LINE
  5
2D
330
1D
100
AcDbEntity
  8
1
  6
Continuous
370
    50
100
AcDbLine
 10
17.0
 20
19.5
 30
0.0
 11
48.25001526
 21
19.5
 31
0.0
  0
LINE
  5
2E
330
1D
100
AcDbEntity
  8
1
  6
Continuous
370
    50
100
AcDbLine
 10
40.94998169
 20
-1.1546936
 30
0.0
 11
40.94998169
 21
1.1546936
 31
0.0
  0
LINE
  5
2F
330
1D
100
AcDbEntity
  8
1
  6
Continuous
370
    50
100
AcDbLine
 10
40.94998169
 20
1.1546936
 30
0.0
 11
38.94998169
 21
2.30940247
 31
0.0
  0
LINE
  5
30
330
1D
100
AcDbEntity
  8
1
  6
Continuous
370
    50
100
AcDbLine
 10
36.94998169
 20
1.1546936
 30
0.0
 11
38.94998169
 21
2.30940247
 31
0.0
  0
LINE
  5
31
330
1D
100
AcDbEntity
  8
1
  6
Continuous
370
    50
100
AcDbLine
 10
36.94998169
 20
-1.1546936
 30
0.0
 11
36.94998169
 21
1.1546936
 31
0.0
  0
LINE
  5
32
330
1D
100
AcDbEntity
  8
1
  6
Continuous
370
    50
100
AcDbLine
 10
49.0
 20
18.75
 30
0.0
 11
49.0
 21
-18.75
 31
0.0
  0
LINE
  5
33
330
1D
100
AcDbEntity
  8
1
  6
Continuous
370
    50
100
AcDbLine
 10
49.0
 20
18.75
 30
0.0
 11
48.25
 21
19.5
 31
0.0
  0
CIRCLE
  5
34
330
1D
100
AcDbEntity
  8
1
  6
Continuous
370
    50
100
AcDbCircle
 10
38.94998169
 20
0.0
 30
0.0
 40
4.0
  0
LINE
  5
35
330
1D
100
AcDbEntity
  8
4
  6
LONGDASH_DASH
370
    25
100
AcDbLine
 10
38.94998169
 20
-5.0
 30
0.0
 11
38.94998169
 21
5.0
 31
0.0
  0
LINE
  5
36
330
1D
100
AcDbEntity
  8
1
  6
Continuous
370
    50
100
AcDbLine
 10
0.0
 20
30.75
 30
0.0
 11
1.0
 21
31.75
 31
0.0
  0
LINE
  5
37
330
1D
100
AcDbEntity
  8
1
  6
Continuous
370
    50
100
AcDbLine
 10
1.00000763
 20
-31.75
 30
0.0
 11
11.0
 21
-31.75
 31
0.0
  0
ARC
  5
38
330
1D
100
AcDbEntity
  8
1
  6
Continuous
370
    50
100
AcDbCircle
 10
17.0
 20
-24.50003052
 30
0.0
 40
5.0
100
AcDbArc
 50
90.0
 51
180.0
  0
LINE
  5
39
330
1D
100
AcDbEntity
  8
1
  6
Continuous
370
    50
100
AcDbLine
 10
12.0
 20
-30.75
 30
0.0
 11
11.0
 21
-31.75
 31
0.0
  0
LINE
  5
3A
330
1D
100
AcDbEntity
  8
1
  6
Continuous
370
    50
100
AcDbLine
 10
17.0
 20
-19.50003052
 30
0.0
 11
48.25001526
 21
-19.5
 31
0.0
  0
LINE
  5
3B
330
1D
100
AcDbEntity
  8
1
  6
Continuous
370
    50
100
AcDbLine
 10
38.94998169
 20
-2.30940247
 30
0.0
 11
36.94998169
 21
-1.1546936
 31
0.0
  0
LINE
  5
3C
330
1D
100
AcDbEntity
  8
1
  6
Continuous
370
    50
100
AcDbLine
 10
40.94998169
 20
-1.1546936
 30
0.0
 11
38.94998169
 21
-2.30940247
 31
0.0
  0
LINE
  5
3D
330
1D
100
AcDbEntity
  8
1
  6
Continuous
370
    50
100
AcDbLine
 10
48.25
 20
-19.5
 30
0.0
 11
49.0
 21
-18.75
 31
0.0
  0
LINE
  5
3E
330
1D
100
AcDbEntity
  8
1
  6
Continuous
370
    50
100
AcDbLine
 10
0.0
 20
-30.75
 30
0.0
 11
1.00000763
 21
-31.75
 31
0.0
  0
LINE
  5
3F
330
1D
100
AcDbEntity
  8
SK1
100
AcDbLine
 10
-39.99999619
 20
17.0
 30
0.0
 11
-39.99999619
 21
-17.0
 31
0.0
  0
LINE
  5
40
330
1D
100
AcDbEntity
  8
4
  6
LONGDASH_DASH
370
    25
100
AcDbLine
 10
-41.99999619
 20
0.0
 30
0.0
 11
51.00000381
 21
0.0
 31
0.0
  0
LINE
  5
41
330
1D
100
AcDbEntity
  8
1
  6
Continuous
370
    50
100
AcDbLine
 10
0.0
 20
30.75
 30
0.0
 11
0.0
 21
-30.75
 31
0.0
  0
ARC
  5
42
330
1D
100
AcDbEntity
  8
SK1
100
AcDbCircle
 10
-15.0
 20
17.78205872
 30
0.0
 40
0.99999547
100
AcDbArc
 50
149.99984741
 51
167.41178894
  0
ARC
  5
43
330
1D
100
AcDbEntity
  8
SK1
100
AcDbCircle
 10
-3.0
 20
17.78205872
 30
0.0
 40
1.00000203
100
AcDbArc
 50
12.58806419
 51
29.99992943
  0
ARC
  5
44
330
1D
100
AcDbEntity
  8
SK1
100
AcDbCircle
 10
-4.56920624
 20
20.5
 30
0.0
 40
1.0
100
AcDbArc
 50
29.99917603
 51
90.0
  0
ARC
  5
45
330
1D
100
AcDbEntity
  8
SK1
100
AcDbCircle
 10
-13.43079376
 20
20.5
 30
0.0
 40
0.99999547
100
AcDbArc
 50
90.0
 51
149.99984741
  0
LINE
  5
46
330
1D
100
AcDbEntity
  8
SK1
100
AcDbLine
 10
-2.13397217
 20
18.28205872
 30
0.0
 11
-3.70317841
 21
20.99998474
 31
0.0
  0
LINE
  5
47
330
1D
100
AcDbEntity
  8
SK1
100
AcDbLine
 10
-15.8660202
 20
18.28205872
 30
0.0
 11
-14.29681396
 21
21.0
 31
0.0
  0
LINE
  5
48
330
1D
100
AcDbEntity
  8
SK1
100
AcDbLine
 10
-13.43079376
 20
21.5
 30
0.0
 11
-4.56920624
 21
21.5
 31
0.0
  0
LINE
  5
49
330
1D
100
AcDbEntity
  8
4
  6
LONGDASH_DASH
370
    25
100
AcDbLine
 10
-9.0
 20
22.5
 30
0.0
 11
-9.0
 21
-22.5
 31
0.0
  0
LINE
  5
4A
330
1D
100
AcDbEntity
  8
4
  6
LONGDASH_DASH
370
    25
100
AcDbLine
 10
-15.5
 20
-5.5
 30
0.0
 11
-15.5
 21
5.5
 31
0.0
  0
CIRCLE
  5
4B
330
1D
100
AcDbEntity
  8
SK1
100
AcDbCircle
 10
-15.5
 20
0.0
 30
0.0
 40
4.5
  0
LINE
  5
4C
330
1D
100
AcDbEntity
  8
SK1
100
AcDbLine
 10
-34.99999619
 20
18.0
 30
0.0
 11
-37.17717361
 21
17.6940155
 31
0.0
  0
LINE
  5
4D
330
1D
100
AcDbEntity
  8
SK1
100
AcDbLine
 10
-38.82634735
 20
17.98480225
 30
0.0
 11
-37.17718124
 21
17.6940155
 31
0.0
  0
LINE
  5
4E
330
1D
100
AcDbEntity
  8
SK1
100
AcDbLine
 10
-34.99999619
 20
18.0
 30
0.0
 11
-34.99999619
 21
-18.0
 31
0.0
  0
ARC
  5
4F
330
1D
100
AcDbEntity
  8
SK1
100
AcDbCircle
 10
-38.99999619
 20
17.0
 30
0.0
 40
1.0
100
AcDbArc
 50
79.99987793
 51
180.0
  0
LINE
  5
50
330
1D
100
AcDbEntity
  8
SK1
100
AcDbLine
 10
-34.99999619
 20
18.0
 30
0.0
 11
0.0
 21
18.0
 31
0.0
  0
ARC
  5
51
330
1D
100
AcDbEntity
  8
SK1
100
AcDbCircle
 10
-3.0
 20
-17.78205872
 30
0.0
 40
0.99999547
100
AcDbArc
 50
329.9998474100001
 51
347.41183472
  0
ARC
  5
52
330
1D
100
AcDbEntity
  8
SK1
100
AcDbCircle
 10
-4.56920624
 20
-20.5
 30
0.0
 40
1.0
100
AcDbArc
 50
270.0
 51
330.0004577600001
  0
ARC
  5
53
330
1D
100
AcDbEntity
  8
SK1
100
AcDbCircle
 10
-13.43080139
 20
-20.5
 30
0.0
 40
1.00000203
100
AcDbArc
 50
209.99992371
 51
270.0
  0
ARC
  5
54
330
1D
100
AcDbEntity
  8
SK1
100
AcDbCircle
 10
-15.0
 20
-17.78205109
 30
0.0
 40
0.99999928
100
AcDbArc
 50
192.58859253
 51
210.0005188
  0
LINE
  5
55
330
1D
100
AcDbEntity
  8
SK1
100
AcDbLine
 10
-15.8660202
 20
-18.28205872
 30
0.0
 11
-14.29682922
 21
-21.0
 31
0.0
  0
LINE
  5
56
330
1D
100
AcDbEntity
  8
SK1
100
AcDbLine
 10
-2.1339798
 20
-18.28205872
 30
0.0
 11
-3.70317841
 21
-20.99999237
 31
0.0
  0
LINE
  5
57
330
1D
100
AcDbEntity
  8
SK1
100
AcDbLine
 10
-13.43080139
 20
-21.5
 30
0.0
 11
-4.56920624
 21
-21.5
 31
0.0
  0
LINE
  5
58
330
1D
100
AcDbEntity
  8
SK1
100
AcDbLine
 10
-38.82634735
 20
-17.98480988
 30
0.0
 11
-37.17718124
 21
-17.6940155
 31
0.0
  0
LINE
  5
59
330
1D
100
AcDbEntity
  8
SK1
100
AcDbLine
 10
-34.99999619
 20
-18.0
 30
0.0
 11
-37.17717361
 21
-17.6940155
 31
0.0
  0
ARC
  5
5A
330
1D
100
AcDbEntity
  8
SK1
100
AcDbCircle
 10
-38.99999619
 20
-17.0
 30
0.0
 40
1.0
100
AcDbArc
 50
180.0
 51
279.99981689
  0
LINE
  5
5B
330
1D
100
AcDbEntity
  8
SK1
100
AcDbLine
 10
-34.99999619
 20
-18.0
 30
0.0
 11
0.0
 21
-18.0
 31
0.0
  0
LINE
  5
5C
330
1D
100
AcDbEntity
  8
SK3
  6
DASH
370
    35
100
AcDbLine
 10
-39.99999619
 20
8.0
 30
0.0
 11
21.26794434
 21
8.0
 31
0.0
  0
LINE
  5
5D
330
1D
100
AcDbEntity
  8
SK3
  6
DASH
370
    35
100
AcDbLine
 10
23.0
 20
11.0
 30
0.0
 11
49.0
 21
11.0
 31
0.0
  0
LINE
  5
5E
330
1D
100
AcDbEntity
  8
SK3
  6
DASH
370
    35
100
AcDbLine
 10
23.0
 20
11.0
 30
0.0
 11
23.0
 21
-11.0
 31
0.0
  0
LINE
  5
5F
330
1D
100
AcDbEntity
  8
SK3
  6
DASH
370
    35
100
AcDbLine
 10
23.0
 20
11.0
 30
0.0
 11
21.26794434
 21
8.0
 31
0.0
  0
LINE
  5
60
330
1D
100
AcDbEntity
  8
SK3
  6
DASH
370
    35
100
AcDbLine
 10
21.26794434
 20
8.0
 30
0.0
 11
21.26794434
 21
-8.0
 31
0.0
  0
LINE
  5
61
330
1D
100
AcDbEntity
  8
SK3
  6
DASH
370
    35
100
AcDbLine
 10
-39.99999619
 20
-8.0
 30
0.0
 11
21.26794434
 21
-8.0
 31
0.0
  0
LINE
  5
62
330
1D
100
AcDbEntity
  8
SK3
  6
DASH
370
    35
100
AcDbLine
 10
23.0
 20
-11.0
 30
0.0
 11
49.0
 21
-11.0
 31
0.0
  0
LINE
  5
63
330
1D
100
AcDbEntity
  8
SK3
  6
DASH
370
    35
100
AcDbLine
 10
23.0
 20
-11.0
 30
0.0
 11
21.26794434
 21
-8.0
 31
0.0
  0
LINE
  5
64
330
1D
100
AcDbEntity
  8
2
  6
Continuous
370
    25
100
AcDbLine
 10
0.0
 20
42.0
 30
0.0
 11
0.0
 21
30.75
 31
0.0
  0
LINE
  5
65
330
1D
100
AcDbEntity
  8
2
  6
Continuous
370
    25
100
AcDbLine
 10
0.0
 20
40.0
 30
0.0
 11
3.5
 21
40.45
 31
0.0
  0
LINE
  5
66
330
1D
100
AcDbEntity
  8
2
  6
Continuous
370
    25
100
AcDbLine
 10
3.5
 20
40.45
 30
0.0
 11
3.5
 21
39.55
 31
0.0
  0
LINE
  5
67
330
1D
100
AcDbEntity
  8
2
  6
Continuous
370
    25
100
AcDbLine
 10
3.5
 20
39.55
 30
0.0
 11
0.0
 21
40.0
 31
0.0
  0
LINE
  5
68
330
1D
100
AcDbEntity
  8
2
  6
Continuous
370
    25
100
AcDbLine
 10
3.4
 20
40.0
 30
0.0
 11
0.1
 21
40.0
 31
0.0
  0
LINE
  5
69
330
1D
100
AcDbEntity
  8
2
  6
Continuous
370
    25
100
AcDbLine
 10
3.4
 20
39.8
 30
0.0
 11
1.655555556
 21
39.8
 31
0.0
  0
LINE
  5
6A
330
1D
100
AcDbEntity
  8
2
  6
Continuous
370
    25
100
AcDbLine
 10
3.4
 20
40.2
 30
0.0
 11
1.655555556
 21
40.2
 31
0.0
  0
LINE
  5
6B
330
1D
100
AcDbEntity
  8
2
  6
Continuous
370
    25
100
AcDbLine
 10
3.4
 20
39.6
 30
0.0
 11
3.211111111
 21
39.6
 31
0.0
  0
LINE
  5
6C
330
1D
100
AcDbEntity
  8
2
  6
Continuous
370
    25
100
AcDbLine
 10
3.4
 20
40.4
 30
0.0
 11
3.211111111
 21
40.4
 31
0.0
  0
LINE
  5
6D
330
1D
100
AcDbEntity
  8
2
  6
Continuous
370
    25
100
AcDbLine
 10
49.0
 20
42.0
 30
0.0
 11
49.0
 21
18.75
 31
0.0
  0
LINE
  5
6E
330
1D
100
AcDbEntity
  8
2
  6
Continuous
370
    25
100
AcDbLine
 10
49.0
 20
40.0
 30
0.0
 11
45.5
 21
39.55
 31
0.0
  0
LINE
  5
6F
330
1D
100
AcDbEntity
  8
2
  6
Continuous
370
    25
100
AcDbLine
 10
45.5
 20
39.55
 30
0.0
 11
45.5
 21
40.45
 31
0.0
  0
LINE
  5
70
330
1D
100
AcDbEntity
  8
2
  6
Continuous
370
    25
100
AcDbLine
 10
45.5
 20
40.45
 30
0.0
 11
49.0
 21
40.0
 31
0.0
  0
LINE
  5
71
330
1D
100
AcDbEntity
  8
2
  6
Continuous
370
    25
100
AcDbLine
 10
45.6
 20
40.0
 30
0.0
 11
48.9
 21
40.0
 31
0.0
  0
LINE
  5
72
330
1D
100
AcDbEntity
  8
2
  6
Continuous
370
    25
100
AcDbLine
 10
45.6
 20
40.2
 30
0.0
 11
47.344444444
 21
40.2
 31
0.0
  0
LINE
  5
73
330
1D
100
AcDbEntity
  8
2
  6
Continuous
370
    25
100
AcDbLine
 10
45.6
 20
39.8
 30
0.0
 11
47.344444444
 21
39.8
 31
0.0
  0
LINE
  5
74
330
1D
100
AcDbEntity
  8
2
  6
Continuous
370
    25
100
AcDbLine
 10
45.6
 20
40.4
 30
0.0
 11
45.788888889
 21
40.4
 31
0.0
  0
LINE
  5
75
330
1D
100
AcDbEntity
  8
2
  6
Continuous
370
    25
100
AcDbLine
 10
45.6
 20
39.6
 30
0.0
 11
45.788888889
 21
39.6
 31
0.0
  0
LINE
  5
76
330
1D
100
AcDbEntity
  8
2
  6
Continuous
370
    25
100
AcDbLine
 10
3.5
 20
40.0
 30
0.0
 11
45.5
 21
40.0
 31
0.0
  0
TEXT
  5
77
330
1D
100
AcDbEntity
  8
2
  6
Continuous
370
    25
100
AcDbText
 10
22.889999452
 20
41.5
 30
0.0
 40
3.5
  1
49
  7
BMG_Text
100
AcDbText
  0
LINE
  5
78
330
1D
100
AcDbEntity
  8
2
  6
Continuous
370
    25
100
AcDbLine
 10
-57.999999999
 20
-31.75
 30
0.0
 11
1.00000763
 21
-31.75
 31
0.0
  0
LINE
  5
79
330
1D
100
AcDbEntity
  8
2
  6
Continuous
370
    25
100
AcDbLine
 10
-55.999999999
 20
-31.75
 30
0.0
 11
-56.449999999
 21
-28.25
 31
0.0
  0
LINE
  5
7A
330
1D
100
AcDbEntity
  8
2
  6
Continuous
370
    25
100
AcDbLine
 10
-56.449999999
 20
-28.25
 30
0.0
 11
-55.549999999
 21
-28.25
 31
0.0
  0
LINE
  5
7B
330
1D
100
AcDbEntity
  8
2
  6
Continuous
370
    25
100
AcDbLine
 10
-55.549999999
 20
-28.25
 30
0.0
 11
-55.999999999
 21
-31.75
 31
0.0
  0
LINE
  5
7C
330
1D
100
AcDbEntity
  8
2
  6
Continuous
370
    25
100
AcDbLine
 10
-55.999999999
 20
-28.35
 30
0.0
 11
-55.999999999
 21
-31.65
 31
0.0
  0
LINE
  5
7D
330
1D
100
AcDbEntity
  8
2
  6
Continuous
370
    25
100
AcDbLine
 10
-55.799999999
 20
-28.35
 30
0.0
 11
-55.799999999
 21
-30.094444444
 31
0.0
  0
LINE
  5
7E
330
1D
100
AcDbEntity
  8
2
  6
Continuous
370
    25
100
AcDbLine
 10
-56.199999999
 20
-28.35
 30
0.0
 11
-56.199999999
 21
-30.094444444
 31
0.0
  0
LINE
  5
7F
330
1D
100
AcDbEntity
  8
2
  6
Continuous
370
    25
100
AcDbLine
 10
-55.599999999
 20
-28.35
 30
0.0
 11
-55.599999999
 21
-28.538888889
 31
0.0
  0
LINE
  5
80
330
1D
100
AcDbEntity
  8
2
  6
Continuous
370
    25
100
AcDbLine
 10
-56.399999999
 20
-28.35
 30
0.0
 11
-56.399999999
 21
-28.538888889
 31
0.0
  0
LINE
  5
81
330
1D
100
AcDbEntity
  8
2
  6
Continuous
370
    25
100
AcDbLine
 10
-58.0
 20
31.75
 30
0.0
 11
1.0
 21
31.75
 31
0.0
  0
LINE
  5
82
330
1D
100
AcDbEntity
  8
2
  6
Continuous
370
    25
100
AcDbLine
 10
-56.0
 20
31.75
 30
0.0
 11
-55.55
 21
28.25
 31
0.0
  0
LINE
  5
83
330
1D
100
AcDbEntity
  8
2
  6
Continuous
370
    25
100
AcDbLine
 10
-55.55
 20
28.25
 30
0.0
 11
-56.45
 21
28.25
 31
0.0
  0
LINE
  5
84
330
1D
100
AcDbEntity
  8
2
  6
Continuous
370
    25
100
AcDbLine
 10
-56.45
 20
28.25
 30
0.0
 11
-56.0
 21
31.75
 31
0.0
  0
LINE
  5
85
330
1D
100
AcDbEntity
  8
2
  6
Continuous
370
    25
100
AcDbLine
 10
-56.0
 20
28.35
 30
0.0
 11
-56.0
 21
31.65
 31
0.0
  0
LINE
  5
86
330
1D
100
AcDbEntity
  8
2
  6
Continuous
370
    25
100
AcDbLine
 10
-56.2
 20
28.35
 30
0.0
 11
-56.2
 21
30.094444444
 31
0.0
  0
LINE
  5
87
330
1D
100
AcDbEntity
  8
2
  6
Continuous
370
    25
100
AcDbLine
 10
-55.8
 20
28.35
 30
0.0
 11
-55.8
 21
30.094444444
 31
0.0
  0
LINE
  5
88
330
1D
100
AcDbEntity
  8
2
  6
Continuous
370
    25
100
AcDbLine
 10
-56.4
 20
28.35
 30
0.0
 11
-56.4
 21
28.538888889
 31
0.0
  0
LINE
  5
89
330
1D
100
AcDbEntity
  8
2
  6
Continuous
370
    25
100
AcDbLine
 10
-55.6
 20
28.35
 30
0.0
 11
-55.6
 21
28.538888889
 31
0.0
  0
LINE
  5
8A
330
1D
100
AcDbEntity
  8
2
  6
Continuous
370
    25
100
AcDbLine
 10
-55.999999999
 20
-28.25
 30
0.0
 11
-56.0
 21
28.25
 31
0.0
  0
TEXT
  5
8B
330
1D
100
AcDbEntity
  8
2
  6
Continuous
370
    25
100
AcDbText
 10
-57.5
 20
-1.17250071
 30
0.0
 40
3.5
  1
63.5
 50
90.0
  7
BMG_Text
100
AcDbText
  0
CIRCLE
  5
8C
330
1D
100
AcDbEntity
  8
2
  6
Continuous
370
    25
100
AcDbCircle
 10
-58.75
 20
-3.42250071
 30
0.0
 40
1.25
  0
LINE
  5
8D
330
1D
100
AcDbEntity
  8
2
  6
Continuous
370
    25
100
AcDbLine
 10
-57.5
 20
-4.67250071
 30
0.0
 11
-60.0
 21
-2.17250071
 31
0.0
  0
LINE
  5
8E
330
1D
100
AcDbEntity
  8
SK2
100
AcDbLine
 10
-50.000000005
 20
-18.0
 30
0.0
 11
-34.99999619
 21
-18.0
 31
0.0
  0
LINE
  5
8F
330
1D
100
AcDbEntity
  8
SK2
100
AcDbLine
 10
-48.000000005
 20
-18.0
 30
0.0
 11
-48.450000005
 21
-14.5
 31
0.0
  0
LINE
  5
90
330
1D
100
AcDbEntity
  8
SK2
100
AcDbLine
 10
-48.450000005
 20
-14.5
 30
0.0
 11
-47.550000005
 21
-14.5
 31
0.0
  0
LINE
  5
91
330
1D
100
AcDbEntity
  8
SK2
100
AcDbLine
 10
-47.550000005
 20
-14.5
 30
0.0
 11
-48.000000005
 21
-18.0
 31
0.0
  0
LINE
  5
92
330
1D
100
AcDbEntity
  8
SK2
100
AcDbLine
 10
-48.000000005
 20
-14.6
 30
0.0
 11
-48.000000005
 21
-17.9
 31
0.0
  0
LINE
  5
93
330
1D
100
AcDbEntity
  8
SK2
100
AcDbLine
 10
-47.800000005
 20
-14.6
 30
0.0
 11
-47.800000005
 21
-16.344444444
 31
0.0
  0
LINE
  5
94
330
1D
100
AcDbEntity
  8
SK2
100
AcDbLine
 10
-48.200000005
 20
-14.6
 30
0.0
 11
-48.200000005
 21
-16.344444444
 31
0.0
  0
LINE
  5
95
330
1D
100
AcDbEntity
  8
SK2
100
AcDbLine
 10
-47.600000005
 20
-14.6
 30
0.0
 11
-47.600000005
 21
-14.788888889
 31
0.0
  0
LINE
  5
96
330
1D
100
AcDbEntity
  8
SK2
100
AcDbLine
 10
-48.400000005
 20
-14.6
 30
0.0
 11
-48.400000005
 21
-14.788888889
 31
0.0
  0
LINE
  5
97
330
1D
100
AcDbEntity
  8
SK2
100
AcDbLine
 10
-50.000000005
 20
18.0
 30
0.0
 11
-34.99999619
 21
18.0
 31
0.0
  0
LINE
  5
98
330
1D
100
AcDbEntity
  8
SK2
100
AcDbLine
 10
-48.000000005
 20
18.0
 30
0.0
 11
-47.550000005
 21
14.5
 31
0.0
  0
LINE
  5
99
330
1D
100
AcDbEntity
  8
SK2
100
AcDbLine
 10
-47.550000005
 20
14.5
 30
0.0
 11
-48.450000005
 21
14.5
 31
0.0
  0
LINE
  5
9A
330
1D
100
AcDbEntity
  8
SK2
100
AcDbLine
 10
-48.450000005
 20
14.5
 30
0.0
 11
-48.000000005
 21
18.0
 31
0.0
  0
LINE
  5
9B
330
1D
100
AcDbEntity
  8
SK2
100
AcDbLine
 10
-48.000000005
 20
14.6
 30
0.0
 11
-48.000000005
 21
17.9
 31
0.0
  0
LINE
  5
9C
330
1D
100
AcDbEntity
  8
SK2
100
AcDbLine
 10
-48.200000005
 20
14.6
 30
0.0
 11
-48.200000005
 21
16.344444444
 31
0.0
  0
LINE
  5
9D
330
1D
100
AcDbEntity
  8
SK2
100
AcDbLine
 10
-47.800000005
 20
14.6
 30
0.0
 11
-47.800000005
 21
16.344444444
 31
0.0
  0
LINE
  5
9E
330
1D
100
AcDbEntity
  8
SK2
100
AcDbLine
 10
-48.400000005
 20
14.6
 30
0.0
 11
-48.400000005
 21
14.788888889
 31
0.0
  0
LINE
  5
9F
330
1D
100
AcDbEntity
  8
SK2
100
AcDbLine
 10
-47.600000005
 20
14.6
 30
0.0
 11
-47.600000005
 21
14.788888889
 31
0.0
  0
LINE
  5
A0
330
1D
100
AcDbEntity
  8
SK2
100
AcDbLine
 10
-48.000000005
 20
-14.5
 30
0.0
 11
-48.000000005
 21
14.5
 31
0.0
  0
TEXT
  5
A1
330
1D
100
AcDbEntity
  8
SK2
100
AcDbText
 10
-49.500000005
 20
0.331405848
 30
0.0
 40
3.5
  1
36
 50
90.0
  7
BMG_Text
100
AcDbText
  0
CIRCLE
  5
A2
330
1D
100
AcDbEntity
  8
SK2
100
AcDbCircle
 10
-50.750000005
 20
-1.918594152
 30
0.0
 40
1.25
  0
LINE
  5
A3
330
1D
100
AcDbEntity
  8
SK2
100
AcDbLine
 10
-49.500000005
 20
-3.168594152
 30
0.0
 11
-52.000000005
 21
-0.668594152
 31
0.0
  0
LINE
  5
A4
330
1D
100
AcDbEntity
  8
2
  6
Continuous
370
    25
100
AcDbLine
 10
74.000000001
 20
-19.5
 30
0.0
 11
48.25001526
 21
-19.5
 31
0.0
  0
LINE
  5
A5
330
1D
100
AcDbEntity
  8
2
  6
Continuous
370
    25
100
AcDbLine
 10
72.000000001
 20
-19.5
 30
0.0
 11
71.550000001
 21
-16.0
 31
0.0
  0
LINE
  5
A6
330
1D
100
AcDbEntity
  8
2
  6
Continuous
370
    25
100
AcDbLine
 10
71.550000001
 20
-16.0
 30
0.0
 11
72.450000001
 21
-16.0
 31
0.0
  0
LINE
  5
A7
330
1D
100
AcDbEntity
  8
2
  6
Continuous
370
    25
100
AcDbLine
 10
72.450000001
 20
-16.0
 30
0.0
 11
72.000000001
 21
-19.5
 31
0.0
  0
LINE
  5
A8
330
1D
100
AcDbEntity
  8
2
  6
Continuous
370
    25
100
AcDbLine
 10
72.000000001
 20
-16.1
 30
0.0
 11
72.000000001
 21
-19.4
 31
0.0
  0
LINE
  5
A9
330
1D
100
AcDbEntity
  8
2
  6
Continuous
370
    25
100
AcDbLine
 10
72.200000001
 20
-16.1
 30
0.0
 11
72.200000001
 21
-17.844444444
 31
0.0
  0
LINE
  5
AA
330
1D
100
AcDbEntity
  8
2
  6
Continuous
370
    25
100
AcDbLine
 10
71.800000001
 20
-16.1
 30
0.0
 11
71.800000001
 21
-17.844444444
 31
0.0
  0
LINE
  5
AB
330
1D
100
AcDbEntity
  8
2
  6
Continuous
370
    25
100
AcDbLine
 10
72.400000001
 20
-16.1
 30
0.0
 11
72.400000001
 21
-16.288888889
 31
0.0
  0
LINE
  5
AC
330
1D
100
AcDbEntity
  8
2
  6
Continuous
370
    25
100
AcDbLine
 10
71.600000001
 20
-16.1
 30
0.0
 11
71.600000001
 21
-16.288888889
 31
0.0
  0
LINE
  5
AD
330
1D
100
AcDbEntity
  8
2
  6
Continuous
370
    25
100
AcDbLine
 10
74.000000001
 20
19.5
 30
0.0
 11
48.25001526
 21
19.5
 31
0.0
  0
LINE
  5
AE
330
1D
100
AcDbEntity
  8
2
  6
Continuous
370
    25
100
AcDbLine
 10
72.000000001
 20
19.5
 30
0.0
 11
72.450000001
 21
16.0
 31
0.0
  0
LINE
  5
AF
330
1D
100
AcDbEntity
  8
2
  6
Continuous
370
    25
100
AcDbLine
 10
72.450000001
 20
16.0
 30
0.0
 11
71.550000001
 21
16.0
 31
0.0
  0
LINE
  5
B0
330
1D
100
AcDbEntity
  8
2
  6
Continuous
370
    25
100
AcDbLine
 10
71.550000001
 20
16.0
 30
0.0
 11
72.000000001
 21
19.5
 31
0.0
  0
LINE
  5
B1
330
1D
100
AcDbEntity
  8
2
  6
Continuous
370
    25
100
AcDbLine
 10
72.000000001
 20
16.1
 30
0.0
 11
72.000000001
 21
19.4
 31
0.0
  0
LINE
  5
B2
330
1D
100
AcDbEntity
  8
2
  6
Continuous
370
    25
100
AcDbLine
 10
71.800000001
 20
16.1
 30
0.0
 11
71.800000001
 21
17.844444444
 31
0.0
  0
LINE
  5
B3
330
1D
100
AcDbEntity
  8
2
  6
Continuous
370
    25
100
AcDbLine
 10
72.200000001
 20
16.1
 30
0.0
 11
72.200000001
 21
17.844444444
 31
0.0
  0
LINE
  5
B4
330
1D
100
AcDbEntity
  8
2
  6
Continuous
370
    25
100
AcDbLine
 10
71.600000001
 20
16.1
 30
0.0
 11
71.600000001
 21
16.288888889
 31
0.0
  0
LINE
  5
B5
330
1D
100
AcDbEntity
  8
2
  6
Continuous
370
    25
100
AcDbLine
 10
72.400000001
 20
16.1
 30
0.0
 11
72.400000001
 21
16.288888889
 31
0.0
  0
LINE
  5
B6
330
1D
100
AcDbEntity
  8
2
  6
Continuous
370
    25
100
AcDbLine
 10
72.000000001
 20
-16.0
 30
0.0
 11
72.000000001
 21
16.0
 31
0.0
  0
TEXT
  5
B7
330
1D
100
AcDbEntity
  8
2
  6
Continuous
370
    25
100
AcDbText
 10
70.500000001
 20
0.331405814
 30
0.0
 40
3.5
  1
39
 50
90.0
  7
BMG_Text
100
AcDbText
  0
CIRCLE
  5
B8
330
1D
100
AcDbEntity
  8
2
  6
Continuous
370
    25
100
AcDbCircle
 10
69.250000001
 20
-1.918594186
 30
0.0
 40
1.25
  0
LINE
  5
B9
330
1D
100
AcDbEntity
  8
2
  6
Continuous
370
    25
100
AcDbLine
 10
70.500000001
 20
-3.168594186
 30
0.0
 11
68.000000001
 21
-0.668594186
 31
0.0
  0
LINE
  5
BA
330
1D
100
AcDbEntity
  8
2
  6
Continuous
370
    25
100
AcDbLine
 10
66.0
 20
-11.0
 30
0.0
 11
49.0
 21
-11.0
 31
0.0
  0
LINE
  5
BB
330
1D
100
AcDbEntity
  8
2
  6
Continuous
370
    25
100
AcDbLine
 10
64.0
 20
-11.0
 30
0.0
 11
63.55
 21
-7.5
 31
0.0
  0
LINE
  5
BC
330
1D
100
AcDbEntity
  8
2
  6
Continuous
370
    25
100
AcDbLine
 10
63.55
 20
-7.5
 30
0.0
 11
64.45
 21
-7.5
 31
0.0
  0
LINE
  5
BD
330
1D
100
AcDbEntity
  8
2
  6
Continuous
370
    25
100
AcDbLine
 10
64.45
 20
-7.5
 30
0.0
 11
64.0
 21
-11.0
 31
0.0
  0
LINE
  5
BE
330
1D
100
AcDbEntity
  8
2
  6
Continuous
370
    25
100
AcDbLine
 10
64.0
 20
-7.6
 30
0.0
 11
64.0
 21
-10.9
 31
0.0
  0
LINE
  5
BF
330
1D
100
AcDbEntity
  8
2
  6
Continuous
370
    25
100
AcDbLine
 10
64.2
 20
-7.6
 30
0.0
 11
64.2
 21
-9.344444444
 31
0.0
  0
LINE
  5
C0
330
1D
100
AcDbEntity
  8
2
  6
Continuous
370
    25
100
AcDbLine
 10
63.8
 20
-7.6
 30
0.0
 11
63.8
 21
-9.344444444
 31
0.0
  0
LINE
  5
C1
330
1D
100
AcDbEntity
  8
2
  6
Continuous
370
    25
100
AcDbLine
 10
64.4
 20
-7.6
 30
0.0
 11
64.4
 21
-7.788888889
 31
0.0
  0
LINE
  5
C2
330
1D
100
AcDbEntity
  8
2
  6
Continuous
370
    25
100
AcDbLine
 10
63.6
 20
-7.6
 30
0.0
 11
63.6
 21
-7.788888889
 31
0.0
  0
LINE
  5
C3
330
1D
100
AcDbEntity
  8
2
  6
Continuous
370
    25
100
AcDbLine
 10
66.0
 20
11.0
 30
0.0
 11
49.0
 21
11.0
 31
0.0
  0
LINE
  5
C4
330
1D
100
AcDbEntity
  8
2
  6
Continuous
370
    25
100
AcDbLine
 10
64.0
 20
11.0
 30
0.0
 11
64.45
 21
7.5
 31
0.0
  0
LINE
  5
C5
330
1D
100
AcDbEntity
  8
2
  6
Continuous
370
    25
100
AcDbLine
 10
64.45
 20
7.5
 30
0.0
 11
63.55
 21
7.5
 31
0.0
  0
LINE
  5
C6
330
1D
100
AcDbEntity
  8
2
  6
Continuous
370
    25
100
AcDbLine
 10
63.55
 20
7.5
 30
0.0
 11
64.0
 21
11.0
 31
0.0
  0
LINE
  5
C7
330
1D
100
AcDbEntity
  8
2
  6
Continuous
370
    25
100
AcDbLine
 10
64.0
 20
7.6
 30
0.0
 11
64.0
 21
10.9
 31
0.0
  0
LINE
  5
C8
330
1D
100
AcDbEntity
  8
2
  6
Continuous
370
    25
100
AcDbLine
 10
63.8
 20
7.6
 30
0.0
 11
63.8
 21
9.344444444
 31
0.0
  0
LINE
  5
C9
330
1D
100
AcDbEntity
  8
2
  6
Continuous
370
    25
100
AcDbLine
 10
64.2
 20
7.6
 30
0.0
 11
64.2
 21
9.344444444
 31
0.0
  0
LINE
  5
CA
330
1D
100
AcDbEntity
  8
2
  6
Continuous
370
    25
100
AcDbLine
 10
63.6
 20
7.6
 30
0.0
 11
63.6
 21
7.788888889
 31
0.0
  0
LINE
  5
CB
330
1D
100
AcDbEntity
  8
2
  6
Continuous
370
    25
100
AcDbLine
 10
64.4
 20
7.6
 30
0.0
 11
64.4
 21
7.788888889
 31
0.0
  0
LINE
  5
CC
330
1D
100
AcDbEntity
  8
2
  6
Continuous
370
    25
100
AcDbLine
 10
64.0
 20
-7.5
 30
0.0
 11
64.0
 21
7.5
 31
0.0
  0
TEXT
  5
CD
330
1D
100
AcDbEntity
  8
2
  6
Continuous
370
    25
100
AcDbText
 10
62.5
 20
0.085312254
 30
0.0
 40
3.5
  1
22
 50
90.0
  7
BMG_Text
100
AcDbText
  0
CIRCLE
  5
CE
330
1D
100
AcDbEntity
  8
2
  6
Continuous
370
    25
100
AcDbCircle
 10
61.25
 20
-2.164687746
 30
0.0
 40
1.25
  0
LINE
  5
CF
330
1D
100
AcDbEntity
  8
2
  6
Continuous
370
    25
100
AcDbLine
 10
62.5
 20
-3.414687746
 30
0.0
 11
60.0
 21
-0.914687746
 31
0.0
  0
LINE
  5
D0
330
1D
100
AcDbEntity
  8
2
  6
Continuous
370
    25
100
AcDbLine
 10
0.0
 20
-46.0
 30
0.0
 11
0.0
 21
-30.75
 31
0.0
  0
LINE
  5
D1
330
1D
100
AcDbEntity
  8
2
  6
Continuous
370
    25
100
AcDbLine
 10
0.0
 20
-44.0
 30
0.0
 11
3.5
 21
-43.55
 31
0.0
  0
LINE
  5
D2
330
1D
100
AcDbEntity
  8
2
  6
Continuous
370
    25
100
AcDbLine
 10
3.5
 20
-43.55
 30
0.0
 11
3.5
 21
-44.45
 31
0.0
  0
LINE
  5
D3
330
1D
100
AcDbEntity
  8
2
  6
Continuous
370
    25
100
AcDbLine
 10
3.5
 20
-44.45
 30
0.0
 11
0.0
 21
-44.0
 31
0.0
  0
LINE
  5
D4
330
1D
100
AcDbEntity
  8
2
  6
Continuous
370
    25
100
AcDbLine
 10
3.4
 20
-44.0
 30
0.0
 11
0.1
 21
-44.0
 31
0.0
  0
LINE
  5
D5
330
1D
100
AcDbEntity
  8
2
  6
Continuous
370
    25
100
AcDbLine
 10
3.4
 20
-44.2
 30
0.0
 11
1.655555556
 21
-44.2
 31
0.0
  0
LINE
  5
D6
330
1D
100
AcDbEntity
  8
2
  6
Continuous
370
    25
100
AcDbLine
 10
3.4
 20
-43.8
 30
0.0
 11
1.655555556
 21
-43.8
 31
0.0
  0
LINE
  5
D7
330
1D
100
AcDbEntity
  8
2
  6
Continuous
370
    25
100
AcDbLine
 10
3.4
 20
-44.4
 30
0.0
 11
3.211111111
 21
-44.4
 31
0.0
  0
LINE
  5
D8
330
1D
100
AcDbEntity
  8
2
  6
Continuous
370
    25
100
AcDbLine
 10
3.4
 20
-43.6
 30
0.0
 11
3.211111111
 21
-43.6
 31
0.0
  0
LINE
  5
D9
330
1D
100
AcDbEntity
  8
2
  6
Continuous
370
    25
100
AcDbLine
 10
16.0
 20
-46.0
 30
0.0
 11
16.0
 21
-36.0
 31
0.0
  0
LINE
  5
DA
330
1D
100
AcDbEntity
  8
2
  6
Continuous
370
    25
100
AcDbLine
 10
16.0
 20
-44.0
 30
0.0
 11
12.5
 21
-44.45
 31
0.0
  0
LINE
  5
DB
330
1D
100
AcDbEntity
  8
2
  6
Continuous
370
    25
100
AcDbLine
 10
12.5
 20
-44.45
 30
0.0
 11
12.5
 21
-43.55
 31
0.0
  0
LINE
  5
DC
330
1D
100
AcDbEntity
  8
2
  6
Continuous
370
    25
100
AcDbLine
 10
12.5
 20
-43.55
 30
0.0
 11
16.0
 21
-44.0
 31
0.0
  0
LINE
  5
DD
330
1D
100
AcDbEntity
  8
2
  6
Continuous
370
    25
100
AcDbLine
 10
12.6
 20
-44.0
 30
0.0
 11
15.9
 21
-44.0
 31
0.0
  0
LINE
  5
DE
330
1D
100
AcDbEntity
  8
2
  6
Continuous
370
    25
100
AcDbLine
 10
12.6
 20
-43.8
 30
0.0
 11
14.344444444
 21
-43.8
 31
0.0
  0
LINE
  5
DF
330
1D
100
AcDbEntity
  8
2
  6
Continuous
370
    25
100
AcDbLine
 10
12.6
 20
-44.2
 30
0.0
 11
14.344444444
 21
-44.2
 31
0.0
  0
LINE
  5
E0
330
1D
100
AcDbEntity
  8
2
  6
Continuous
370
    25
100
AcDbLine
 10
12.6
 20
-43.6
 30
0.0
 11
12.788888889
 21
-43.6
 31
0.0
  0
LINE
  5
E1
330
1D
100
AcDbEntity
  8
2
  6
Continuous
370
    25
100
AcDbLine
 10
12.6
 20
-44.4
 30
0.0
 11
12.788888889
 21
-44.4
 31
0.0
  0
LINE
  5
E2
330
1D
100
AcDbEntity
  8
2
  6
Continuous
370
    25
100
AcDbLine
 10
3.5
 20
-44.0
 30
0.0
 11
12.5
 21
-44.0
 31
0.0
  0
TEXT
  5
E3
330
1D
100
AcDbEntity
  8
2
  6
Continuous
370
    25
100
AcDbText
 10
6.772812321
 20
-42.5
 30
0.0
 40
3.5
  1
16
  7
BMG_Text
100
AcDbText
  0
LINE
  5
E4
330
1D
100
AcDbEntity
  8
2
  6
Continuous
370
    25
100
AcDbLine
 10
16.0
 20
-46.0
 30
0.0
 11
16.0
 21
-36.0
 31
0.0
  0
LINE
  5
E5
330
1D
100
AcDbEntity
  8
2
  6
Continuous
370
    25
100
AcDbLine
 10
16.0
 20
-44.0
 30
0.0
 11
19.5
 21
-43.55
 31
0.0
  0
LINE
  5
E6
330
1D
100
AcDbEntity
  8
2
  6
Continuous
370
    25
100
AcDbLine
 10
19.5
 20
-43.55
 30
0.0
 11
19.5
 21
-44.45
 31
0.0
  0
LINE
  5
E7
330
1D
100
AcDbEntity
  8
2
  6
Continuous
370
    25
100
AcDbLine
 10
19.5
 20
-44.45
 30
0.0
 11
16.0
 21
-44.0
 31
0.0
  0
LINE
  5
E8
330
1D
100
AcDbEntity
  8
2
  6
Continuous
370
    25
100
AcDbLine
 10
19.4
 20
-44.0
 30
0.0
 11
16.1
 21
-44.0
 31
0.0
  0
LINE
  5
E9
330
1D
100
AcDbEntity
  8
2
  6
Continuous
370
    25
100
AcDbLine
 10
19.4
 20
-44.2
 30
0.0
 11
17.655555556
 21
-44.2
 31
0.0
  0
LINE
  5
EA
330
1D
100
AcDbEntity
  8
2
  6
Continuous
370
    25
100
AcDbLine
 10
19.4
 20
-43.8
 30
0.0
 11
17.655555556
 21
-43.8
 31
0.0
  0
LINE
  5
EB
330
1D
100
AcDbEntity
  8
2
  6
Continuous
370
    25
100
AcDbLine
 10
19.4
 20
-44.4
 30
0.0
 11
19.211111111
 21
-44.4
 31
0.0
  0
LINE
  5
EC
330
1D
100
AcDbEntity
  8
2
  6
Continuous
370
    25
100
AcDbLine
 10
19.4
 20
-43.6
 30
0.0
 11
19.211111111
 21
-43.6
 31
0.0
  0
LINE
  5
ED
330
1D
100
AcDbEntity
  8
2
  6
Continuous
370
    25
100
AcDbLine
 10
19.5
 20
-44.0
 30
0.0
 11
52.3
 21
-44.0
 31
0.0
  0
TEXT
  5
EE
330
1D
100
AcDbEntity
  8
2
100
AcDbText
 10
60.59708860214421
 20
-42.5
 30
0.0
 40
3.5
  1
80
  7
BMG_Text
100
AcDbText
  0
TEXT
  5
EF
330
1D
100
AcDbEntity
  8
2
  6
Continuous
370
    25
100
AcDbText
 10
20.625312094
 20
-42.5
 30
0.0
 40
3.5
  1
Ausdrehtiefe
  7
BMG_Text
100
AcDbText
  0
TEXT
  5
F0
330
1D
100
AcDbEntity
  8
SK6
100
AcDbText
 10
25.16485165478202
 20
-16.870566955
 30
0.0
 40
3.5
  1
332.641
  7
BMG_Text
100
AcDbText
  0
LINE
  5
18D
330
1D
100
AcDbEntity
  8
SK1
  6
ByBlock
100
AcDbLine
 10
12.0
 20
24.5
 30
0.0
 11
12.0
 21
30.75
 31
0.0
  0
LINE
  5
18E
330
1D
100
AcDbEntity
  8
SK1
  6
ByBlock
100
AcDbLine
 10
12.0
 20
30.75
 30
0.0
 11
11.0
 21
31.75
 31
0.0
  0
LINE
  5
190
330
1D
100
AcDbEntity
  8
NOCUT
  6
ByBlock
100
AcDbLine
 10
12.0
 20
24.5
 30
0.0
 11
12.0
 21
30.75
 31
0.0
  0
LINE
  5
191
330
1D
100
AcDbEntity
  8
NOCUT
  6
ByBlock
100
AcDbLine
 10
12.0
 20
30.75
 30
0.0
 11
11.0
 21
31.75
 31
0.0
  0
LINE
  5
192
330
1D
100
AcDbEntity
  8
NOCUT
  6
ByBlock
100
AcDbLine
 10
11.0
 20
31.75
 30
0.0
 11
1.0
 21
31.75
 31
0.0
  0
LINE
  5
193
330
1D
100
AcDbEntity
  8
NOCUT
  6
ByBlock
100
AcDbLine
 10
1.0
 20
31.75
 30
0.0
 11
0.0
 21
30.75
 31
0.0
  0
LINE
  5
194
330
1D
100
AcDbEntity
  8
NOCUT
  6
ByBlock
100
AcDbLine
 10
0.0
 20
30.75
 30
0.0
 11
0.0
 21
0.0
 31
0.0
  0
LINE
  5
195
330
1D
100
AcDbEntity
  8
NOCUT
  6
ByBlock
100
AcDbLine
 10
0.0
 20
0.0
 30
0.0
 11
49.0
 21
0.0
 31
0.0
  0
LINE
  5
196
330
1D
100
AcDbEntity
  8
NOCUT
  6
ByBlock
100
AcDbLine
 10
49.0
 20
0.0
 30
0.0
 11
49.0
 21
18.75
 31
0.0
  0
LINE
  5
197
330
1D
100
AcDbEntity
  8
NOCUT
  6
ByBlock
100
AcDbLine
 10
49.0
 20
18.75
 30
0.0
 11
48.25001526
 21
19.5
 31
0.0
  0
LINE
  5
198
330
1D
100
AcDbEntity
  8
NOCUT
  6
ByBlock
100
AcDbLine
 10
48.25001526
 20
19.5
 30
0.0
 11
17.0
 21
19.5
 31
0.0
  0
ARC
  5
199
330
1D
100
AcDbEntity
  8
NOCUT
  6
ByBlock
100
AcDbCircle
 10
17.0
 20
24.5
 30
0.0
 40
5.0
100
AcDbArc
 50
180.0
 51
270.0
  0
LWPOLYLINE
  5
1A1
330
1D
100
AcDbEntity
  8
INFTOTAL
100
AcDbPolyline
 90
        4
 70
     1
 43
0.0
 10
-101.0167150324935
 20
67.43012957849194
 10
-101.0167150324935
 20
-57.131101316496
 10
95.6120851660232
 20
-57.131101316496
 10
95.6120851660232
 20
67.43012957849194
  0
ENDSEC
  0
SECTION
  2
OBJECTS
  0
DICTIONARY
  5
C
330
0
100
AcDbDictionary
281
     1
  3
ACAD_DETAILVIEWSTYLE
350
1C3
  3
ACAD_GROUP
350
D
  3
ACAD_LAYOUT
350
1A
  3
ACAD_MATERIAL
350
12E
  3
ACAD_MLEADERSTYLE
350
13B
  3
ACAD_MLINESTYLE
350
17
  3
ACAD_PLOTSETTINGS
350
19
  3
ACAD_PLOTSTYLENAME
350
E
  3
ACAD_SCALELIST
350
F7
  3
ACAD_SECTIONVIEWSTYLE
350
1C4
  3
ACAD_TABLESTYLE
350
184
  3
ACAD_VISUALSTYLE
350
11D
  3
ACDB_RECOMPOSE_DATA
350
1CA
  3
AcDbVariableDictionary
350
139
  3
APPDATA
350
187
  0
DICTIONARY
  5
188
330
2
100
AcDbDictionary
280
     1
281
     1
  3
ACAD_LAYERSTATES
360
189
  0
DICTIONARY
  5
1C3
102
{ACAD_REACTORS
330
C
102
}
330
C
100
AcDbDictionary
281
     1
  0
DICTIONARY
  5
D
102
{ACAD_REACTORS
330
C
102
}
330
C
100
AcDbDictionary
281
     1
  0
DICTIONARY
  5
1A
102
{ACAD_REACTORS
330
C
102
}
330
C
100
AcDbDictionary
281
     1
  3
Layout1
350
1C
  3
Model
350
1E
  0
DICTIONARY
  5
12E
102
{ACAD_REACTORS
330
C
102
}
330
C
100
AcDbDictionary
281
     1
  3
ByBlock
350
130
  3
ByLayer
350
12F
  3
Global
350
131
  0
DICTIONARY
  5
13B
102
{ACAD_REACTORS
330
C
102
}
330
C
100
AcDbDictionary
281
     1
  3
Standard
350
186
  0
DICTIONARY
  5
17
102
{ACAD_REACTORS
330
C
102
}
330
C
100
AcDbDictionary
281
     1
  3
Standard
350
18
  0
DICTIONARY
  5
19
102
{ACAD_REACTORS
330
C
102
}
330
C
100
AcDbDictionary
281
     1
  0
ACDBDICTIONARYWDFLT
  5
E
102
{ACAD_REACTORS
330
C
102
}
330
C
100
AcDbDictionary
281
     1
  3
Normal
350
F
100
AcDbDictionaryWithDefault
340
F
  0
DICTIONARY
  5
F7
102
{ACAD_REACTORS
330
C
102
}
330
C
100
AcDbDictionary
281
     1
  3
A0
350
F8
  3
A1
350
F9
  3
A2
350
FA
  3
A3
350
FB
  3
A4
350
FC
  3
A5
350
FD
  3
A6
350
FE
  3
A7
350
FF
  3
A8
350
100
  3
A9
350
101
  3
B0
350
102
  3
B1
350
103
  3
B2
350
104
  3
B3
350
105
  3
B4
350
106
  3
B5
350
107
  3
B6
350
108
  3
B7
350
109
  3
B8
350
10A
  3
B9
350
10B
  3
C0
350
10C
  3
C1
350
10D
  3
C2
350
10E
  3
C3
350
10F
  3
C4
350
110
  3
C5
350
111
  3
C6
350
112
  3
C7
350
113
  3
C8
350
114
  3
C9
350
115
  3
D0
350
116
  3
D1
350
117
  3
D2
350
118
  0
DICTIONARY
  5
1C4
102
{ACAD_REACTORS
330
C
102
}
330
C
100
AcDbDictionary
281
     1
  0
DICTIONARY
  5
184
102
{ACAD_REACTORS
330
C
102
}
330
C
100
AcDbDictionary
281
     1
  3
Standard
350
185
  0
DICTIONARY
  5
11D
102
{ACAD_REACTORS
330
C
102
}
330
C
100
AcDbDictionary
281
     1
  3
2dWireframe
350
122
  3
3D Hidden
350
124
  3
3dWireframe
350
123
  3
Basic
350
125
  3
Brighten
350
129
  3
ColorChange
350
12D
  3
Conceptual
350
127
  3
Dim
350
128
  3
EdgeColorOff
350
17E
  3
Facepattern
350
12C
  3
Flat
350
11E
  3
FlatWithEdges
350
11F
  3
Gouraud
350
120
  3
GouraudWithEdges
350
121
  3
Hidden
350
17B
  3
JitterOff
350
17C
  3
Linepattern
350
12B
  3
OverhangOff
350
17D
  3
Realistic
350
126
  3
Shaded
350
183
  3
Shaded with edges
350
182
  3
Shades of Gray
350
17F
  3
Sketchy
350
180
  3
Thicken
350
12A
  3
Wireframe
350
17A
  3
X-Ray
350
181
  0
XRECORD
  5
1CA
102
{ACAD_REACTORS
330
C
102
}
330
C
100
AcDbXrecord
280
     1
 90
        1
330
185
  0
DICTIONARY
  5
139
102
{ACAD_REACTORS
330
C
102
}
330
C
100
AcDbDictionary
281
     1
  3
CANNOSCALE
350
1C0
  3
CMLEADERSTYLE
350
1C2
  3
CTABLESTYLE
350
1C1
  3
DIMASSOC
350
13D
  3
HIDETEXT
350
13E
  3
MSLTSCALE
350
13C
  0
DICTIONARY
  5
187
102
{ACAD_REACTORS
330
C
102
}
330
C
100
AcDbDictionary
281
     1
  0
DICTIONARY
  5
189
102
{ACAD_REACTORS
330
188
102
}
330
188
100
AcDbDictionary
281
     1
  0
LAYOUT
  5
1C
102
{ACAD_REACTORS
330
1A
102
}
330
1A
100
AcDbPlotSettings
  1

  2
none_device
  4

  6

 40
0.0
 41
0.0
 42
0.0
 43
0.0
 44
0.0
 45
0.0
 46
0.0
 47
0.0
 48
0.0
 49
0.0
140
0.0
141
0.0
142
1.0
143
1.0
 70
   688
 72
     0
 73
     0
 74
     5
  7

 75
    16
 76
     0
 77
     2
 78
   300
147
1.0
148
0.0
149
0.0
100
AcDbLayout
  1
Layout1
 70
     1
 71
     1
 10
0.0
 20
0.0
 11
12.0
 21
9.0
 12
0.0
 22
0.0
 32
0.0
 14
1.000000000000000E+20
 24
1.000000000000000E+20
 34
1.000000000000000E+20
 15
-1.000000000000000E+20
 25
-1.000000000000000E+20
 35
-1.000000000000000E+20
146
0.0
 13
0.0
 23
0.0
 33
0.0
 16
1.0
 26
0.0
 36
0.0
 17
0.0
 27
1.0
 37
0.0
 76
     0
330
1B
  0
LAYOUT
  5
1E
102
{ACAD_REACTORS
330
1A
102
}
330
1A
100
AcDbPlotSettings
  1

  2
none_device
  4

  6

 40
0.0
 41
0.0
 42
0.0
 43
0.0
 44
0.0
 45
0.0
 46
0.0
 47
0.0
 48
0.0
 49
0.0
140
0.0
141
0.0
142
1.0
143
1.0
 70
  1712
 72
     0
 73
     0
 74
     0
  7

 75
     0
 76
     0
 77
     2
 78
   300
147
1.0
148
0.0
149
0.0
100
AcDbLayout
  1
Model
 70
     1
 71
     0
 10
0.0
 20
0.0
 11
12.0
 21
9.0
 12
0.0
 22
0.0
 32
0.0
 14
-101.0167150324935
 24
-57.131101316496
 34
0.0
 15
95.6120851660232
 25
67.43012957849194
 35
0.0
146
0.0
 13
0.0
 23
0.0
 33
0.0
 16
1.0
 26
0.0
 36
0.0
 17
0.0
 27
1.0
 37
0.0
 76
     0
330
1D
331
F1
  0
MATERIAL
  5
130
102
{ACAD_REACTORS
330
12E
102
}
330
12E
100
AcDbMaterial
  1
ByBlock
 72
     1
 94
      127
  0
MATERIAL
  5
12F
102
{ACAD_REACTORS
330
12E
102
}
330
12E
100
AcDbMaterial
  1
ByLayer
 72
     1
 94
      127
  0
MATERIAL
  5
131
102
{ACAD_REACTORS
330
12E
102
}
330
12E
100
AcDbMaterial
  1
Global
 72
     1
 94
      127
  0
MLEADERSTYLE
  5
186
102
{ACAD_REACTORS
330
13B
102
}
330
13B
100
AcDbMLeaderStyle
179
     2
170
     2
171
     1
172
     0
 90
        2
 40
0.0
 41
0.0
173
     1
 91
-1056964608
340
14
 92
       -2
290
     1
 42
0.09
291
     1
 43
0.36
  3
Standard
341
0
 44
0.18
300

342
11
174
     1
178
     1
175
     1
176
     0
 93
-1056964608
 45
0.18
292
     0
297
     0
 46
0.18
343
0
 94
-1056964608
 47
1.0
 49
1.0
140
1.0
293
     1
141
0.0
294
     1
177
     0
142
1.0
295
     0
296
     0
143
0.125
271
     0
272
     9
273
     9
298
     0
  0
MLINESTYLE
  5
18
102
{ACAD_REACTORS
330
17
102
}
330
17
100
AcDbMlineStyle
  2
Standard
 70
     0
  3

 62
   256
 51
90.0
 52
90.0
 71
     2
 49
0.5
 62
   256
  6
BYLAYER
 49
-0.5
 62
   256
  6
BYLAYER
  0
ACDBPLACEHOLDER
  5
F
102
{ACAD_REACTORS
330
E
102
}
330
E
  0
SCALE
  5
F8
102
{ACAD_REACTORS
330
F7
102
}
330
F7
100
AcDbScale
 70
     0
300
1:1
140
1.0
141
1.0
290
     1
  0
SCALE
  5
F9
102
{ACAD_REACTORS
330
F7
102
}
330
F7
100
AcDbScale
 70
     0
300
1:2
140
1.0
141
2.0
290
     0
  0
SCALE
  5
FA
102
{ACAD_REACTORS
330
F7
102
}
330
F7
100
AcDbScale
 70
     0
300
1:4
140
1.0
141
4.0
290
     0
  0
SCALE
  5
FB
102
{ACAD_REACTORS
330
F7
102
}
330
F7
100
AcDbScale
 70
     0
300
1:5
140
1.0
141
5.0
290
     0
  0
SCALE
  5
FC
102
{ACAD_REACTORS
330
F7
102
}
330
F7
100
AcDbScale
 70
     0
300
1:8
140
1.0
141
8.0
290
     0
  0
SCALE
  5
FD
102
{ACAD_REACTORS
330
F7
102
}
330
F7
100
AcDbScale
 70
     0
300
1:10
140
1.0
141
10.0
290
     0
  0
SCALE
  5
FE
102
{ACAD_REACTORS
330
F7
102
}
330
F7
100
AcDbScale
 70
     0
300
1:16
140
1.0
141
16.0
290
     0
  0
SCALE
  5
FF
102
{ACAD_REACTORS
330
F7
102
}
330
F7
100
AcDbScale
 70
     0
300
1:20
140
1.0
141
20.0
290
     0
  0
SCALE
  5
100
102
{ACAD_REACTORS
330
F7
102
}
330
F7
100
AcDbScale
 70
     0
300
1:30
140
1.0
141
30.0
290
     0
  0
SCALE
  5
101
102
{ACAD_REACTORS
330
F7
102
}
330
F7
100
AcDbScale
 70
     0
300
1:40
140
1.0
141
40.0
290
     0
  0
SCALE
  5
102
102
{ACAD_REACTORS
330
F7
102
}
330
F7
100
AcDbScale
 70
     0
300
1:50
140
1.0
141
50.0
290
     0
  0
SCALE
  5
103
102
{ACAD_REACTORS
330
F7
102
}
330
F7
100
AcDbScale
 70
     0
300
1:100
140
1.0
141
100.0
290
     0
  0
SCALE
  5
104
102
{ACAD_REACTORS
330
F7
102
}
330
F7
100
AcDbScale
 70
     0
300
2:1
140
2.0
141
1.0
290
     0
  0
SCALE
  5
105
102
{ACAD_REACTORS
330
F7
102
}
330
F7
100
AcDbScale
 70
     0
300
4:1
140
4.0
141
1.0
290
     0
  0
SCALE
  5
106
102
{ACAD_REACTORS
330
F7
102
}
330
F7
100
AcDbScale
 70
     0
300
8:1
140
8.0
141
1.0
290
     0
  0
SCALE
  5
107
102
{ACAD_REACTORS
330
F7
102
}
330
F7
100
AcDbScale
 70
     0
300
10:1
140
10.0
141
1.0
290
     0
  0
SCALE
  5
108
102
{ACAD_REACTORS
330
F7
102
}
330
F7
100
AcDbScale
 70
     0
300
100:1
140
100.0
141
1.0
290
     0
  0
SCALE
  5
109
102
{ACAD_REACTORS
330
F7
102
}
330
F7
100
AcDbScale
 70
     0
300
1/128" = 1'-0"
140
0.0078125
141
12.0
290
     0
  0
SCALE
  5
10A
102
{ACAD_REACTORS
330
F7
102
}
330
F7
100
AcDbScale
 70
     0
300
1/64" = 1'-0"
140
0.015625
141
12.0
290
     0
  0
SCALE
  5
10B
102
{ACAD_REACTORS
330
F7
102
}
330
F7
100
AcDbScale
 70
     0
300
1/32" = 1'-0"
140
0.03125
141
12.0
290
     0
  0
SCALE
  5
10C
102
{ACAD_REACTORS
330
F7
102
}
330
F7
100
AcDbScale
 70
     0
300
1/16" = 1'-0"
140
0.0625
141
12.0
290
     0
  0
SCALE
  5
10D
102
{ACAD_REACTORS
330
F7
102
}
330
F7
100
AcDbScale
 70
     0
300
3/32" = 1'-0"
140
0.09375
141
12.0
290
     0
  0
SCALE
  5
10E
102
{ACAD_REACTORS
330
F7
102
}
330
F7
100
AcDbScale
 70
     0
300
1/8" = 1'-0"
140
0.125
141
12.0
290
     0
  0
SCALE
  5
10F
102
{ACAD_REACTORS
330
F7
102
}
330
F7
100
AcDbScale
 70
     0
300
3/16" = 1'-0"
140
0.1875
141
12.0
290
     0
  0
SCALE
  5
110
102
{ACAD_REACTORS
330
F7
102
}
330
F7
100
AcDbScale
 70
     0
300
1/4" = 1'-0"
140
0.25
141
12.0
290
     0
  0
SCALE
  5
111
102
{ACAD_REACTORS
330
F7
102
}
330
F7
100
AcDbScale
 70
     0
300
3/8" = 1'-0"
140
0.375
141
12.0
290
     0
  0
SCALE
  5
112
102
{ACAD_REACTORS
330
F7
102
}
330
F7
100
AcDbScale
 70
     0
300
1/2" = 1'-0"
140
0.5
141
12.0
290
     0
  0
SCALE
  5
113
102
{ACAD_REACTORS
330
F7
102
}
330
F7
100
AcDbScale
 70
     0
300
3/4" = 1'-0"
140
0.75
141
12.0
290
     0
  0
SCALE
  5
114
102
{ACAD_REACTORS
330
F7
102
}
330
F7
100
AcDbScale
 70
     0
300
1" = 1'-0"
140
1.0
141
12.0
290
     0
  0
SCALE
  5
115
102
{ACAD_REACTORS
330
F7
102
}
330
F7
100
AcDbScale
 70
     0
300
1-1/2" = 1'-0"
140
1.5
141
12.0
290
     0
  0
SCALE
  5
116
102
{ACAD_REACTORS
330
F7
102
}
330
F7
100
AcDbScale
 70
     0
300
3" = 1'-0"
140
3.0
141
12.0
290
     0
  0
SCALE
  5
117
102
{ACAD_REACTORS
330
F7
102
}
330
F7
100
AcDbScale
 70
     0
300
6" = 1'-0"
140
6.0
141
12.0
290
     0
  0
SCALE
  5
118
102
{ACAD_REACTORS
330
F7
102
}
330
F7
100
AcDbScale
 70
     0
300
1'-0" = 1'-0"
140
12.0
141
12.0
290
     0
  0
TABLESTYLE
  5
185
102
{ACAD_REACTORS
330
184
102
}
102
{ACAD_XDICTIONARY
360
1C8
102
}
330
184
100
AcDbTableStyle
  3
Standard
 70
     0
 71
     0
 40
0.06
 41
0.06
280
     0
281
     0
  7
Standard
140
0.18
170
     2
 62
     0
 63
   257
283
     0
 90
        4
 91
        0
  1

274
    -2
284
     1
 64
     0
275
    -2
285
     1
 65
     0
276
    -2
286
     1
 66
     0
277
    -2
287
     1
 67
     0
278
    -2
288
     1
 68
     0
279
    -2
289
     1
 69
     0
  7
Standard
140
0.25
170
     5
 62
     0
 63
   257
283
     0
 90
        4
 91
        0
  1

274
    -2
284
     1
 64
     0
275
    -2
285
     1
 65
     0
276
    -2
286
     1
 66
     0
277
    -2
287
     1
 67
     0
278
    -2
288
     1
 68
     0
279
    -2
289
     1
 69
     0
  7
Standard
140
0.18
170
     5
 62
     0
 63
   257
283
     0
 90
        4
 91
        0
  1

274
    -2
284
     1
 64
     0
275
    -2
285
     1
 65
     0
276
    -2
286
     1
 66
     0
277
    -2
287
     1
 67
     0
278
    -2
288
     1
 68
     0
279
    -2
289
     1
 69
     0
  0
VISUALSTYLE
  5
122
102
{ACAD_REACTORS
330
11D
102
}
330
11D
100
AcDbVisualStyle
  2
2dWireframe
 70
     4
177
     3
291
     0
 70
    58
 90
        0
176
     1
 90
        2
176
     1
 90
        0
176
     1
 90
        0
176
     1
 40
-0.6
176
     1
 40
-30.0
176
     1
 62
     7
176
     1
 90
        1
176
     1
 90
        4
176
     1
 62
     7
176
     1
 62
   257
176
     1
 90
        1
176
     1
 90
        1
176
     1
 40
1.0
176
     1
 90
        0
176
     1
 62
   257
176
     1
 40
1.0
176
     1
 90
        1
176
     1
 90
        6
176
     1
 90
        2
176
     1
 62
     7
176
     1
 90
        5
176
     1
 90
        0
176
     1
 90
        0
176
     1
290
     0
176
     1
 90
        1
176
     1
 40
0.0
176
     1
 90
        0
176
     1
290
     1
176
     1
290
     1
176
     1
290
     0
176
     1
290
     0
176
     1
290
     0
176
     1
290
     0
176
     1
290
     0
176
     1
290
     0
176
     1
290
     0
176
     1
 90
       50
176
     1
 40
0.0
176
     1
 40
1.0
176
     1
 90
        0
176
     1
 62
    18
420
        0
176
     1
 90
       50
176
     1
 90
        3
176
     1
 62
     5
420
      255
176
     1
290
     0
176
     1
 90
       50
176
     1
 90
       50
176
     1
 90
       50
176
     1
290
     0
176
     1
 90
       50
176
     1
 62
   256
176
     0
 40
1.0
176
     0
 90
        2
176
     1
  1
strokes_ogs.tif
176
     1
290
     0
176
     1
 40
1.0
176
     1
 40
1.0
176
     1
  0
VISUALSTYLE
  5
124
102
{ACAD_REACTORS
330
11D
102
}
330
11D
100
AcDbVisualStyle
  2
3D Hidden
 70
     6
177
     3
291
     0
 70
    58
 90
        1
176
     1
 90
        2
176
     1
 90
        2
176
     1
 90
        0
176
     1
 40
-0.6
176
     1
 40
-30.0
176
     1
 62
     7
176
     1
 90
        2
176
     1
 90
        2
176
     1
 62
     7
176
     1
 62
   257
176
     1
 90
        2
176
     1
 90
        1
176
     1
 40
40.0
176
     1
 90
        0
176
     1
 62
   257
176
     1
 40
1.0
176
     1
 90
        1
176
     1
 90
        6
176
     1
 90
        2
176
     1
 62
     7
176
     1
 90
        3
176
     1
 90
        0
176
     1
 90
        0
176
     1
290
     0
176
     1
 90
        1
176
     1
 40
0.0
176
     1
 90
        0
176
     1
290
     0
176
     1
290
     1
176
     1
290
     1
176
     1
290
     0
176
     1
290
     0
176
     1
290
     0
176
     1
290
     0
176
     1
290
     0
176
     1
290
     0
176
     1
 90
       50
176
     1
 40
0.0
176
     1
 40
1.0
176
     1
 90
        0
176
     1
 62
    18
420
        0
176
     1
 90
       50
176
     1
 90
        3
176
     1
 62
     5
420
      255
176
     1
290
     0
176
     1
 90
       50
176
     1
 90
       50
176
     1
 90
       50
176
     1
290
     0
176
     1
 90
       50
176
     1
 62
   256
176
     0
 40
1.0
176
     0
 90
        2
176
     1
  1
strokes_ogs.tif
176
     1
290
     0
176
     1
 40
1.0
176
     1
 40
1.0
176
     1
  0
VISUALSTYLE
  5
123
102
{ACAD_REACTORS
330
11D
102
}
330
11D
100
AcDbVisualStyle
  2
3dWireframe
 70
     5
177
     3
291
     0
 70
    58
 90
        0
176
     1
 90
        2
176
     1
 90
        0
176
     1
 90
        0
176
     1
 40
-0.6
176
     1
 40
-30.0
176
     1
 62
     7
176
     1
 90
        1
176
     1
 90
        4
176
     1
 62
     7
176
     1
 62
   257
176
     1
 90
        1
176
     1
 90
        1
176
     1
 40
1.0
176
     1
 90
        0
176
     1
 62
   257
176
     1
 40
1.0
176
     1
 90
        1
176
     1
 90
        6
176
     1
 90
        2
176
     1
 62
     7
176
     1
 90
        5
176
     1
 90
        0
176
     1
 90
        0
176
     1
290
     0
176
     1
 90
        1
176
     1
 40
0.0
176
     1
 90
        0
176
     1
290
     0
176
     1
290
     1
176
     1
290
     1
176
     1
290
     0
176
     1
290
     0
176
     1
290
     0
176
     1
290
     0
176
     1
290
     0
176
     1
290
     0
176
     1
 90
       50
176
     1
 40
0.0
176
     1
 40
1.0
176
     1
 90
        0
176
     1
 62
    18
420
        0
176
     1
 90
       50
176
     1
 90
        3
176
     1
 62
     5
420
      255
176
     1
290
     0
176
     1
 90
       50
176
     1
 90
       50
176
     1
 90
       50
176
     1
290
     0
176
     1
 90
       50
176
     1
 62
   256
176
     0
 40
1.0
176
     0
 90
        2
176
     1
  1
strokes_ogs.tif
176
     1
290
     0
176
     1
 40
1.0
176
     1
 40
1.0
176
     1
  0
VISUALSTYLE
  5
125
102
{ACAD_REACTORS
330
11D
102
}
330
11D
100
AcDbVisualStyle
  2
Basic
 70
     7
177
     3
291
     1
 70
    58
 90
        1
176
     1
 90
        0
176
     1
 90
        1
176
     1
 90
        0
176
     1
 40
-0.6
176
     1
 40
-30.0
176
     1
 62
     7
176
     1
 90
        0
176
     1
 90
        4
176
     1
 62
     7
176
     1
 62
   257
176
     1
 90
        1
176
     1
 90
        1
176
     1
 40
1.0
176
     1
 90
        8
176
     1
 62
     7
176
     1
 40
1.0
176
     1
 90
        1
176
     1
 90
        6
176
     1
 90
        2
176
     1
 62
     7
176
     1
 90
        5
176
     1
 90
        0
176
     1
 90
        0
176
     1
290
     0
176
     1
 90
        1
176
     1
 40
0.0
176
     1
 90
        0
176
     1
290
     0
176
     1
290
     1
176
     1
290
     1
176
     1
290
     0
176
     1
290
     0
176
     1
290
     0
176
     1
290
     0
176
     1
290
     0
176
     1
290
     0
176
     1
 90
       50
176
     1
 40
0.0
176
     1
 40
1.0
176
     1
 90
        0
176
     1
 62
    18
420
        0
176
     1
 90
       50
176
     1
 90
        3
176
     1
 62
     5
420
      255
176
     1
290
     0
176
     1
 90
       50
176
     1
 90
       50
176
     1
 90
       50
176
     1
290
     0
176
     1
 90
       50
176
     1
 62
   256
176
     0
 40
1.0
176
     0
 90
        2
176
     1
  1
strokes_ogs.tif
176
     1
290
     0
176
     1
 40
1.0
176
     1
 40
1.0
176
     1
  0
VISUALSTYLE
  5
129
102
{ACAD_REACTORS
330
11D
102
}
330
11D
100
AcDbVisualStyle
  2
Brighten
 70
    12
177
     3
291
     1
 70
    58
 90
        2
176
     1
 90
        2
176
     1
 90
        0
176
     1
 90
        0
176
     1
 40
-0.6
176
     1
 40
-30.0
176
     1
 62
     7
176
     1
 90
        1
176
     1
 90
        4
176
     1
 62
     7
176
     1
 62
   257
176
     1
 90
        1
176
     1
 90
        1
176
     1
 40
1.0
176
     1
 90
        8
176
     1
 62
     7
176
     1
 40
1.0
176
     1
 90
        1
176
     1
 90
        6
176
     1
 90
        2
176
     1
 62
     7
176
     1
 90
        5
176
     1
 90
        0
176
     1
 90
        0
176
     1
290
     0
176
     1
 90
        1
176
     1
 40
50.0
176
     1
 90
        0
176
     1
290
     0
176
     1
290
     1
176
     1
290
     1
176
     1
290
     0
176
     1
290
     0
176
     1
290
     0
176
     1
290
     0
176
     1
290
     0
176
     1
290
     0
176
     1
 90
       50
176
     1
 40
0.0
176
     1
 40
1.0
176
     1
 90
        0
176
     1
 62
    18
420
        0
176
     1
 90
       50
176
     1
 90
        3
176
     1
 62
     5
420
      255
176
     1
290
     0
176
     1
 90
       50
176
     1
 90
       50
176
     1
 90
       50
176
     1
290
     0
176
     1
 90
       50
176
     1
 62
   256
176
     0
 40
1.0
176
     0
 90
        2
176
     1
  1
strokes_ogs.tif
176
     1
290
     0
176
     1
 40
1.0
176
     1
 40
1.0
176
     1
  0
VISUALSTYLE
  5
12D
102
{ACAD_REACTORS
330
11D
102
}
330
11D
100
AcDbVisualStyle
  2
ColorChange
 70
    16
177
     3
291
     1
 70
    58
 90
        2
176
     1
 90
        2
176
     1
 90
        3
176
     1
 90
        0
176
     1
 40
-0.6
176
     1
 40
-30.0
176
     1
 62
     8
176
     1
 90
        1
176
     1
 90
        4
176
     1
 62
     7
176
     1
 62
   257
176
     1
 90
        1
176
     1
 90
        1
176
     1
 40
1.0
176
     1
 90
        8
176
     1
 62
     8
176
     1
 40
1.0
176
     1
 90
        1
176
     1
 90
        6
176
     1
 90
        2
176
     1
 62
     7
176
     1
 90
        5
176
     1
 90
        0
176
     1
 90
        0
176
     1
290
     0
176
     1
 90
        1
176
     1
 40
0.0
176
     1
 90
        0
176
     1
290
     0
176
     1
290
     1
176
     1
290
     1
176
     1
290
     0
176
     1
290
     0
176
     1
290
     0
176
     1
290
     0
176
     1
290
     0
176
     1
290
     0
176
     1
 90
       50
176
     1
 40
0.0
176
     1
 40
1.0
176
     1
 90
        0
176
     1
 62
    18
420
        0
176
     1
 90
       50
176
     1
 90
        3
176
     1
 62
     5
420
      255
176
     1
290
     0
176
     1
 90
       50
176
     1
 90
       50
176
     1
 90
       50
176
     1
290
     0
176
     1
 90
       50
176
     1
 62
   256
176
     0
 40
1.0
176
     0
 90
        2
176
     1
  1
strokes_ogs.tif
176
     1
290
     0
176
     1
 40
1.0
176
     1
 40
1.0
176
     1
  0
VISUALSTYLE
  5
127
102
{ACAD_REACTORS
330
11D
102
}
330
11D
100
AcDbVisualStyle
  2
Conceptual
 70
     9
177
     3
291
     0
 70
    58
 90
        3
176
     1
 90
        2
176
     1
 90
        0
176
     1
 90
        0
176
     1
 40
-0.6
176
     1
 40
-30.0
176
     1
 62
     7
176
     1
 90
        2
176
     1
 90
        2
176
     1
 62
     7
176
     1
 62
   257
176
     1
 90
        1
176
     1
 90
        1
176
     1
 40
40.0
176
     1
 90
        8
176
     1
 62
     7
176
     1
 40
1.0
176
     1
 90
        1
176
     1
 90
        6
176
     1
 90
        2
176
     1
 62
     7
176
     1
 90
        3
176
     1
 90
        0
176
     1
 90
        0
176
     1
290
     0
176
     1
 90
        1
176
     1
 40
0.0
176
     1
 90
        0
176
     1
290
     0
176
     1
290
     1
176
     1
290
     1
176
     1
290
     0
176
     1
290
     0
176
     1
290
     0
176
     1
290
     0
176
     1
290
     0
176
     1
290
     0
176
     1
 90
       50
176
     1
 40
0.0
176
     1
 40
1.0
176
     1
 90
        0
176
     1
 62
    18
420
        0
176
     1
 90
       50
176
     1
 90
        3
176
     1
 62
     5
420
      255
176
     1
290
     0
176
     1
 90
       50
176
     1
 90
       50
176
     1
 90
       50
176
     1
290
     0
176
     1
 90
       50
176
     1
 62
   256
176
     0
 40
1.0
176
     0
 90
        2
176
     1
  1
strokes_ogs.tif
176
     1
290
     0
176
     1
 40
1.0
176
     1
 40
1.0
176
     1
  0
VISUALSTYLE
  5
128
102
{ACAD_REACTORS
330
11D
102
}
330
11D
100
AcDbVisualStyle
  2
Dim
 70
    11
177
     3
291
     1
 70
    58
 90
        2
176
     1
 90
        2
176
     1
 90
        0
176
     1
 90
        0
176
     1
 40
-0.6
176
     1
 40
-30.0
176
     1
 62
     7
176
     1
 90
        1
176
     1
 90
        4
176
     1
 62
     7
176
     1
 62
   257
176
     1
 90
        1
176
     1
 90
        1
176
     1
 40
1.0
176
     1
 90
        8
176
     1
 62
     7
176
     1
 40
1.0
176
     1
 90
        1
176
     1
 90
        6
176
     1
 90
        2
176
     1
 62
     7
176
     1
 90
        5
176
     1
 90
        0
176
     1
 90
        0
176
     1
290
     0
176
     1
 90
        1
176
     1
 40
-50.0
176
     1
 90
        0
176
     1
290
     0
176
     1
290
     1
176
     1
290
     1
176
     1
290
     0
176
     1
290
     0
176
     1
290
     0
176
     1
290
     0
176
     1
290
     0
176
     1
290
     0
176
     1
 90
       50
176
     1
 40
0.0
176
     1
 40
1.0
176
     1
 90
        0
176
     1
 62
    18
420
        0
176
     1
 90
       50
176
     1
 90
        3
176
     1
 62
     5
420
      255
176
     1
290
     0
176
     1
 90
       50
176
     1
 90
       50
176
     1
 90
       50
176
     1
290
     0
176
     1
 90
       50
176
     1
 62
   256
176
     0
 40
1.0
176
     0
 90
        2
176
     1
  1
strokes_ogs.tif
176
     1
290
     0
176
     1
 40
1.0
176
     1
 40
1.0
176
     1
  0
VISUALSTYLE
  5
17E
102
{ACAD_REACTORS
330
11D
102
}
330
11D
100
AcDbVisualStyle
  2
EdgeColorOff
 70
    22
177
     3
291
     1
 70
    58
 90
        2
176
     0
 90
        2
176
     0
 90
        0
176
     0
 90
        0
176
     0
 40
0.6
176
     0
 40
30.0
176
     0
 62
     7
420
 16777215
176
     0
 90
        1
176
     0
 90
        4
176
     0
 62
     7
176
     0
 62
   257
176
     0
 90
        1
176
     0
 90
        1
176
     0
 40
1.0
176
     0
 90
        8
176
     2
 62
     7
176
     0
 40
1.0
176
     0
 90
        1
176
     0
 90
        6
176
     0
 90
        2
176
     0
 62
     7
176
     0
 90
        5
176
     0
 90
        0
176
     0
 90
        0
176
     0
290
     0
176
     0
 90
        1
176
     0
 40
0.0
176
     0
 90
        0
176
     0
290
     0
176
     0
290
     1
176
     0
290
     1
176
     0
290
     0
176
     0
290
     0
176
     0
290
     0
176
     0
290
     0
176
     0
290
     0
176
     0
290
     0
176
     0
 90
       50
176
     0
 40
0.0
176
     0
 40
1.0
176
     0
 90
        0
176
     0
 62
    18
420
        0
176
     0
 90
       50
176
     0
 90
        3
176
     0
 62
     5
420
      255
176
     0
290
     0
176
     0
 90
       50
176
     0
 90
       50
176
     0
 90
       50
176
     0
290
     0
176
     0
 90
       50
176
     0
 62
   256
176
     0
 40
1.0
176
     0
 90
        2
176
     0
  1
strokes_ogs.tif
176
     0
290
     0
176
     0
 40
1.0
176
     0
 40
1.0
176
     0
  0
VISUALSTYLE
  5
12C
102
{ACAD_REACTORS
330
11D
102
}
330
11D
100
AcDbVisualStyle
  2
Facepattern
 70
    15
177
     3
291
     1
 70
    58
 90
        2
176
     1
 90
        2
176
     1
 90
        0
176
     1
 90
        0
176
     1
 40
-0.6
176
     1
 40
-30.0
176
     1
 62
     7
176
     1
 90
        1
176
     1
 90
        4
176
     1
 62
     7
176
     1
 62
   257
176
     1
 90
        1
176
     1
 90
        1
176
     1
 40
1.0
176
     1
 90
        8
176
     1
 62
     7
176
     1
 40
1.0
176
     1
 90
        1
176
     1
 90
        6
176
     1
 90
        2
176
     1
 62
     7
176
     1
 90
        5
176
     1
 90
        0
176
     1
 90
        0
176
     1
290
     0
176
     1
 90
        1
176
     1
 40
0.0
176
     1
 90
        0
176
     1
290
     0
176
     1
290
     1
176
     1
290
     1
176
     1
290
     0
176
     1
290
     0
176
     1
290
     0
176
     1
290
     0
176
     1
290
     0
176
     1
290
     0
176
     1
 90
       50
176
     1
 40
0.0
176
     1
 40
1.0
176
     1
 90
        0
176
     1
 62
    18
420
        0
176
     1
 90
       50
176
     1
 90
        3
176
     1
 62
     5
420
      255
176
     1
290
     0
176
     1
 90
       50
176
     1
 90
       50
176
     1
 90
       50
176
     1
290
     0
176
     1
 90
       50
176
     1
 62
   256
176
     0
 40
1.0
176
     0
 90
        2
176
     1
  1
strokes_ogs.tif
176
     1
290
     0
176
     1
 40
1.0
176
     1
 40
1.0
176
     1
  0
VISUALSTYLE
  5
11E
102
{ACAD_REACTORS
330
11D
102
}
330
11D
100
AcDbVisualStyle
  2
Flat
 70
     0
177
     3
291
     1
 70
    58
 90
        2
176
     1
 90
        1
176
     1
 90
        1
176
     1
 90
        2
176
     1
 40
-0.6
176
     1
 40
30.0
176
     1
 62
     7
176
     1
 90
        0
176
     1
 90
        4
176
     1
 62
     7
176
     1
 62
   257
176
     1
 90
        1
176
     1
 90
        1
176
     1
 40
1.0
176
     1
 90
        8
176
     1
 62
     7
176
     1
 40
1.0
176
     1
 90
        1
176
     1
 90
        6
176
     1
 90
        2
176
     1
 62
     7
176
     1
 90
        5
176
     1
 90
        0
176
     1
 90
        0
176
     1
290
     0
176
     1
 90
       13
176
     1
 40
0.0
176
     1
 90
        0
176
     1
290
     0
176
     1
290
     1
176
     1
290
     1
176
     1
290
     0
176
     1
290
     0
176
     1
290
     0
176
     1
290
     0
176
     1
290
     0
176
     1
290
     0
176
     1
 90
       50
176
     1
 40
0.0
176
     1
 40
1.0
176
     1
 90
        0
176
     1
 62
    18
420
        0
176
     1
 90
       50
176
     1
 90
        3
176
     1
 62
     5
420
      255
176
     1
290
     0
176
     1
 90
       50
176
     1
 90
       50
176
     1
 90
       50
176
     1
290
     0
176
     1
 90
       50
176
     1
 62
   256
176
     0
 40
1.0
176
     0
 90
        2
176
     1
  1
strokes_ogs.tif
176
     1
290
     0
176
     1
 40
1.0
176
     1
 40
1.0
176
     1
  0
VISUALSTYLE
  5
11F
102
{ACAD_REACTORS
330
11D
102
}
330
11D
100
AcDbVisualStyle
  2
FlatWithEdges
 70
     1
177
     3
291
     1
 70
    58
 90
        2
176
     1
 90
        1
176
     1
 90
        1
176
     1
 90
        2
176
     1
 40
-0.6
176
     1
 40
30.0
176
     1
 62
     7
176
     1
 90
        1
176
     1
 90
        4
176
     1
 62
     7
176
     1
 62
   257
176
     1
 90
        1
176
     1
 90
        1
176
     1
 40
1.0
176
     1
 90
        0
176
     1
 62
   257
176
     1
 40
1.0
176
     1
 90
        1
176
     1
 90
        6
176
     1
 90
        2
176
     1
 62
     7
176
     1
 90
        5
176
     1
 90
        0
176
     1
 90
        0
176
     1
290
     0
176
     1
 90
       13
176
     1
 40
0.0
176
     1
 90
        0
176
     1
290
     0
176
     1
290
     1
176
     1
290
     1
176
     1
290
     0
176
     1
290
     0
176
     1
290
     0
176
     1
290
     0
176
     1
290
     0
176
     1
290
     0
176
     1
 90
       50
176
     1
 40
0.0
176
     1
 40
1.0
176
     1
 90
        0
176
     1
 62
    18
420
        0
176
     1
 90
       50
176
     1
 90
        3
176
     1
 62
     5
420
      255
176
     1
290
     0
176
     1
 90
       50
176
     1
 90
       50
176
     1
 90
       50
176
     1
290
     0
176
     1
 90
       50
176
     1
 62
   256
176
     0
 40
1.0
176
     0
 90
        2
176
     1
  1
strokes_ogs.tif
176
     1
290
     0
176
     1
 40
1.0
176
     1
 40
1.0
176
     1
  0
VISUALSTYLE
  5
120
102
{ACAD_REACTORS
330
11D
102
}
330
11D
100
AcDbVisualStyle
  2
Gouraud
 70
     2
177
     3
291
     1
 70
    58
 90
        2
176
     1
 90
        2
176
     1
 90
        1
176
     1
 90
        2
176
     1
 40
-0.6
176
     1
 40
30.0
176
     1
 62
     7
176
     1
 90
        0
176
     1
 90
        4
176
     1
 62
     7
176
     1
 62
   257
176
     1
 90
        1
176
     1
 90
        1
176
     1
 40
1.0
176
     1
 90
        0
176
     1
 62
     7
176
     1
 40
1.0
176
     1
 90
        1
176
     1
 90
        6
176
     1
 90
        2
176
     1
 62
     7
176
     1
 90
        5
176
     1
 90
        0
176
     1
 90
        0
176
     1
290
     0
176
     1
 90
       13
176
     1
 40
0.0
176
     1
 90
        0
176
     1
290
     0
176
     1
290
     1
176
     1
290
     1
176
     1
290
     0
176
     1
290
     0
176
     1
290
     0
176
     1
290
     0
176
     1
290
     0
176
     1
290
     0
176
     1
 90
       50
176
     1
 40
0.0
176
     1
 40
1.0
176
     1
 90
        0
176
     1
 62
    18
420
        0
176
     1
 90
       50
176
     1
 90
        3
176
     1
 62
     5
420
      255
176
     1
290
     0
176
     1
 90
       50
176
     1
 90
       50
176
     1
 90
       50
176
     1
290
     0
176
     1
 90
       50
176
     1
 62
   256
176
     0
 40
1.0
176
     0
 90
        2
176
     1
  1
strokes_ogs.tif
176
     1
290
     0
176
     1
 40
1.0
176
     1
 40
1.0
176
     1
  0
VISUALSTYLE
  5
121
102
{ACAD_REACTORS
330
11D
102
}
330
11D
100
AcDbVisualStyle
  2
GouraudWithEdges
 70
     3
177
     3
291
     1
 70
    58
 90
        2
176
     1
 90
        2
176
     1
 90
        1
176
     1
 90
        2
176
     1
 40
-0.6
176
     1
 40
30.0
176
     1
 62
     7
176
     1
 90
        1
176
     1
 90
        4
176
     1
 62
     7
176
     1
 62
   257
176
     1
 90
        1
176
     1
 90
        1
176
     1
 40
1.0
176
     1
 90
        0
176
     1
 62
   257
176
     1
 40
1.0
176
     1
 90
        1
176
     1
 90
        6
176
     1
 90
        2
176
     1
 62
     7
176
     1
 90
        5
176
     1
 90
        0
176
     1
 90
        0
176
     1
290
     0
176
     1
 90
       13
176
     1
 40
0.0
176
     1
 90
        0
176
     1
290
     0
176
     1
290
     1
176
     1
290
     1
176
     1
290
     0
176
     1
290
     0
176
     1
290
     0
176
     1
290
     0
176
     1
290
     0
176
     1
290
     0
176
     1
 90
       50
176
     1
 40
0.0
176
     1
 40
1.0
176
     1
 90
        0
176
     1
 62
    18
420
        0
176
     1
 90
       50
176
     1
 90
        3
176
     1
 62
     5
420
      255
176
     1
290
     0
176
     1
 90
       50
176
     1
 90
       50
176
     1
 90
       50
176
     1
290
     0
176
     1
 90
       50
176
     1
 62
   256
176
     0
 40
1.0
176
     0
 90
        2
176
     1
  1
strokes_ogs.tif
176
     1
290
     0
176
     1
 40
1.0
176
     1
 40
1.0
176
     1
  0
VISUALSTYLE
  5
17B
102
{ACAD_REACTORS
330
11D
102
}
330
11D
100
AcDbVisualStyle
  2
Hidden
 70
     6
177
     3
291
     0
 70
    58
 90
        1
176
     1
 90
        2
176
     1
 90
        2
176
     1
 90
        0
176
     1
 40
0.6
176
     1
 40
30.0
176
     1
 62
     7
420
 16777215
176
     1
 90
        2
176
     1
 90
        2
176
     1
 62
     7
176
     1
 62
   257
176
     1
 90
        2
176
     1
 90
        1
176
     1
 40
40.0
176
     1
 90
        0
176
     1
 62
   257
176
     1
 40
1.0
176
     1
 90
        1
176
     1
 90
        6
176
     1
 90
        2
176
     1
 62
     7
176
     1
 90
        3
176
     1
 90
        0
176
     1
 90
        0
176
     1
290
     0
176
     1
 90
        1
176
     1
 40
0.0
176
     1
 90
        0
176
     1
290
     0
176
     1
290
     1
176
     1
290
     1
176
     1
290
     0
176
     1
290
     0
176
     1
290
     0
176
     1
290
     0
176
     1
290
     0
176
     1
290
     0
176
     1
 90
       50
176
     1
 40
0.0
176
     1
 40
1.0
176
     1
 90
        0
176
     1
 62
    18
420
        0
176
     1
 90
       50
176
     1
 90
        3
176
     1
 62
     5
420
      255
176
     1
290
     0
176
     1
 90
       50
176
     1
 90
       50
176
     1
 90
       50
176
     1
290
     0
176
     1
 90
       50
176
     1
 62
   256
176
     0
 40
1.0
176
     0
 90
        2
176
     1
  1
strokes_ogs.tif
176
     1
290
     0
176
     1
 40
1.0
176
     1
 40
1.0
176
     1
  0
VISUALSTYLE
  5
17C
102
{ACAD_REACTORS
330
11D
102
}
330
11D
100
AcDbVisualStyle
  2
JitterOff
 70
    20
177
     3
291
     1
 70
    58
 90
        2
176
     0
 90
        2
176
     0
 90
        0
176
     0
 90
        0
176
     0
 40
0.6
176
     0
 40
30.0
176
     0
 62
     7
420
 16777215
176
     0
 90
        1
176
     0
 90
        4
176
     0
 62
     7
176
     0
 62
   257
176
     0
 90
        1
176
     0
 90
        1
176
     0
 40
1.0
176
     0
 90
       10
176
     2
 62
     7
176
     0
 40
1.0
176
     0
 90
        1
176
     0
 90
        6
176
     0
 90
        2
176
     0
 62
     7
176
     0
 90
        5
176
     0
 90
        0
176
     0
 90
        0
176
     0
290
     0
176
     0
 90
        1
176
     0
 40
0.0
176
     0
 90
        0
176
     0
290
     0
176
     0
290
     1
176
     0
290
     1
176
     0
290
     0
176
     0
290
     0
176
     0
290
     0
176
     0
290
     0
176
     0
290
     0
176
     0
290
     0
176
     0
 90
       50
176
     0
 40
0.0
176
     0
 40
1.0
176
     0
 90
        0
176
     0
 62
    18
420
        0
176
     0
 90
       50
176
     0
 90
        3
176
     0
 62
     5
420
      255
176
     0
290
     0
176
     0
 90
       50
176
     0
 90
       50
176
     0
 90
       50
176
     0
290
     0
176
     0
 90
       50
176
     0
 62
   256
176
     0
 40
1.0
176
     0
 90
        2
176
     0
  1
strokes_ogs.tif
176
     0
290
     0
176
     0
 40
1.0
176
     0
 40
1.0
176
     0
  0
VISUALSTYLE
  5
12B
102
{ACAD_REACTORS
330
11D
102
}
330
11D
100
AcDbVisualStyle
  2
Linepattern
 70
    14
177
     3
291
     1
 70
    58
 90
        2
176
     1
 90
        2
176
     1
 90
        0
176
     1
 90
        0
176
     1
 40
-0.6
176
     1
 40
-30.0
176
     1
 62
     7
176
     1
 90
        1
176
     1
 90
        4
176
     1
 62
     7
176
     1
 62
   257
176
     1
 90
        7
176
     1
 90
        7
176
     1
 40
1.0
176
     1
 90
        8
176
     1
 62
     7
176
     1
 40
1.0
176
     1
 90
        1
176
     1
 90
        6
176
     1
 90
        2
176
     1
 62
     7
176
     1
 90
        5
176
     1
 90
        0
176
     1
 90
        0
176
     1
290
     0
176
     1
 90
        1
176
     1
 40
0.0
176
     1
 90
        0
176
     1
290
     0
176
     1
290
     1
176
     1
290
     1
176
     1
290
     0
176
     1
290
     0
176
     1
290
     0
176
     1
290
     0
176
     1
290
     0
176
     1
290
     0
176
     1
 90
       50
176
     1
 40
0.0
176
     1
 40
1.0
176
     1
 90
        0
176
     1
 62
    18
420
        0
176
     1
 90
       50
176
     1
 90
        3
176
     1
 62
     5
420
      255
176
     1
290
     0
176
     1
 90
       50
176
     1
 90
       50
176
     1
 90
       50
176
     1
290
     0
176
     1
 90
       50
176
     1
 62
   256
176
     0
 40
1.0
176
     0
 90
        2
176
     1
  1
strokes_ogs.tif
176
     1
290
     0
176
     1
 40
1.0
176
     1
 40
1.0
176
     1
  0
VISUALSTYLE
  5
17D
102
{ACAD_REACTORS
330
11D
102
}
330
11D
100
AcDbVisualStyle
  2
OverhangOff
 70
    21
177
     3
291
     1
 70
    58
 90
        2
176
     0
 90
        2
176
     0
 90
        0
176
     0
 90
        0
176
     0
 40
0.6
176
     0
 40
30.0
176
     0
 62
     7
420
 16777215
176
     0
 90
        1
176
     0
 90
        4
176
     0
 62
     7
176
     0
 62
   257
176
     0
 90
        1
176
     0
 90
        1
176
     0
 40
1.0
176
     0
 90
        9
176
     2
 62
     7
176
     0
 40
1.0
176
     0
 90
        1
176
     0
 90
        6
176
     0
 90
        2
176
     0
 62
     7
176
     0
 90
        5
176
     0
 90
        0
176
     0
 90
        0
176
     0
290
     0
176
     0
 90
        1
176
     0
 40
0.0
176
     0
 90
        0
176
     0
290
     0
176
     0
290
     1
176
     0
290
     1
176
     0
290
     0
176
     0
290
     0
176
     0
290
     0
176
     0
290
     0
176
     0
290
     0
176
     0
290
     0
176
     0
 90
       50
176
     0
 40
0.0
176
     0
 40
1.0
176
     0
 90
        0
176
     0
 62
    18
420
        0
176
     0
 90
       50
176
     0
 90
        3
176
     0
 62
     5
420
      255
176
     0
290
     0
176
     0
 90
       50
176
     0
 90
       50
176
     0
 90
       50
176
     0
290
     0
176
     0
 90
       50
176
     0
 62
   256
176
     0
 40
1.0
176
     0
 90
        2
176
     0
  1
strokes_ogs.tif
176
     0
290
     0
176
     0
 40
1.0
176
     0
 40
1.0
176
     0
  0
VISUALSTYLE
  5
126
102
{ACAD_REACTORS
330
11D
102
}
330
11D
100
AcDbVisualStyle
  2
Realistic
 70
     8
177
     3
291
     0
 70
    58
 90
        2
176
     1
 90
        2
176
     1
 90
        0
176
     1
 90
        0
176
     1
 40
-0.6
176
     1
 40
-30.0
176
     1
 62
     7
176
     1
 90
        1
176
     1
 90
        0
176
     1
 62
     7
176
     1
 62
   257
176
     1
 90
        1
176
     1
 90
        1
176
     1
 40
1.0
176
     1
 90
        8
176
     1
 62
     8
176
     1
 40
1.0
176
     1
 90
        1
176
     1
 90
        6
176
     1
 90
        2
176
     1
 62
     7
176
     1
 90
        5
176
     1
 90
        0
176
     1
 90
        0
176
     1
290
     0
176
     1
 90
       13
176
     1
 40
0.0
176
     1
 90
        0
176
     1
290
     0
176
     1
290
     1
176
     1
290
     1
176
     1
290
     0
176
     1
290
     0
176
     1
290
     0
176
     1
290
     0
176
     1
290
     0
176
     1
290
     0
176
     1
 90
       50
176
     1
 40
0.0
176
     1
 40
1.0
176
     1
 90
        0
176
     1
 62
    18
420
        0
176
     1
 90
       50
176
     1
 90
        3
176
     1
 62
     5
420
      255
176
     1
290
     0
176
     1
 90
       50
176
     1
 90
       50
176
     1
 90
       50
176
     1
290
     0
176
     1
 90
       50
176
     1
 62
   256
176
     0
 40
1.0
176
     0
 90
        2
176
     1
  1
strokes_ogs.tif
176
     1
290
     0
176
     1
 40
1.0
176
     1
 40
1.0
176
     1
  0
VISUALSTYLE
  5
183
102
{ACAD_REACTORS
330
11D
102
}
330
11D
100
AcDbVisualStyle
  2
Shaded
 70
    27
177
     3
291
     0
 70
    58
 90
        2
176
     1
 90
        2
176
     1
 90
        1
176
     1
 90
        2
176
     1
 40
0.6
176
     1
 40
30.0
176
     1
 62
     7
420
 16777215
176
     1
 90
        0
176
     1
 90
        4
176
     1
 62
     7
176
     1
 62
   257
176
     1
 90
        1
176
     1
 90
        1
176
     1
 40
1.0
176
     1
 90
        8
176
     1
 62
   257
176
     1
 40
1.0
176
     1
 90
        1
176
     1
 90
        6
176
     1
 90
        2
176
     1
 62
     8
420
  7895160
176
     1
 90
        3
176
     1
 90
        0
176
     1
 90
        0
176
     1
290
     0
176
     1
 90
        5
176
     1
 40
0.0
176
     1
 90
        0
176
     1
290
     0
176
     1
290
     1
176
     1
290
     1
176
     1
290
     0
176
     1
290
     0
176
     1
290
     0
176
     1
290
     0
176
     1
290
     0
176
     1
290
     0
176
     1
 90
       50
176
     1
 40
0.0
176
     1
 40
1.0
176
     1
 90
        0
176
     1
 62
    18
420
        0
176
     1
 90
       50
176
     1
 90
        3
176
     1
 62
     5
420
      255
176
     1
290
     0
176
     1
 90
       50
176
     1
 90
       50
176
     1
 90
       50
176
     1
290
     0
176
     1
 90
       50
176
     1
 62
   256
176
     0
 40
1.0
176
     0
 90
        2
176
     1
  1
strokes_ogs.tif
176
     1
290
     0
176
     1
 40
1.0
176
     1
 40
1.0
176
     1
  0
VISUALSTYLE
  5
182
102
{ACAD_REACTORS
330
11D
102
}
330
11D
100
AcDbVisualStyle
  2
Shaded with edges
 70
    26
177
     3
291
     0
 70
    58
 90
        2
176
     1
 90
        2
176
     1
 90
        1
176
     1
 90
        2
176
     1
 40
0.6
176
     1
 40
30.0
176
     1
 62
     7
420
 16777215
176
     1
 90
        1
176
     1
 90
       10
176
     1
 62
     7
176
     1
 62
   257
176
     1
 90
        2
176
     1
 90
        1
176
     1
 40
1.0
176
     1
 90
        8
176
     1
 62
   257
176
     1
 40
1.0
176
     1
 90
        1
176
     1
 90
        6
176
     1
 90
        2
176
     1
 62
     7
176
     1
 90
        3
176
     1
 90
        0
176
     1
 90
        0
176
     1
290
     0
176
     1
 90
        5
176
     1
 40
0.0
176
     1
 90
        0
176
     1
290
     0
176
     1
290
     1
176
     1
290
     1
176
     1
290
     0
176
     1
290
     0
176
     1
290
     0
176
     1
290
     0
176
     1
290
     0
176
     1
290
     0
176
     1
 90
       50
176
     1
 40
0.0
176
     1
 40
1.0
176
     1
 90
        0
176
     1
 62
    18
420
        0
176
     1
 90
       50
176
     1
 90
        3
176
     1
 62
     5
420
      255
176
     1
290
     0
176
     1
 90
       50
176
     1
 90
       50
176
     1
 90
       50
176
     1
290
     0
176
     1
 90
       50
176
     1
 62
   256
176
     0
 40
1.0
176
     0
 90
        2
176
     1
  1
strokes_ogs.tif
176
     1
290
     0
176
     1
 40
1.0
176
     1
 40
1.0
176
     1
  0
VISUALSTYLE
  5
17F
102
{ACAD_REACTORS
330
11D
102
}
330
11D
100
AcDbVisualStyle
  2
Shades of Gray
 70
    23
177
     3
291
     0
 70
    58
 90
        2
176
     1
 90
        2
176
     1
 90
        3
176
     1
 90
        0
176
     1
 40
0.6
176
     1
 40
30.0
176
     1
 62
     7
420
 16777215
176
     1
 90
        2
176
     1
 90
        2
176
     1
 62
     7
176
     1
 62
     7
176
     1
 90
        1
176
     1
 90
        1
176
     1
 40
40.0
176
     1
 90
        8
176
     1
 62
     7
176
     1
 40
1.0
176
     1
 90
        1
176
     1
 90
        6
176
     1
 90
        2
176
     1
 62
     7
176
     1
 90
        3
176
     1
 90
        0
176
     1
 90
        0
176
     1
290
     0
176
     1
 90
        1
176
     1
 40
0.0
176
     1
 90
        0
176
     1
290
     0
176
     1
290
     1
176
     1
290
     1
176
     1
290
     0
176
     1
290
     0
176
     1
290
     0
176
     1
290
     0
176
     1
290
     0
176
     1
290
     0
176
     1
 90
       50
176
     1
 40
0.0
176
     1
 40
1.0
176
     1
 90
        0
176
     1
 62
    18
420
        0
176
     1
 90
       50
176
     1
 90
        3
176
     1
 62
     5
420
      255
176
     1
290
     0
176
     1
 90
       50
176
     1
 90
       50
176
     1
 90
       50
176
     1
290
     0
176
     1
 90
       50
176
     1
 62
   256
176
     0
 40
1.0
176
     0
 90
        2
176
     1
  1
strokes_ogs.tif
176
     1
290
     0
176
     1
 40
1.0
176
     1
 40
1.0
176
     1
  0
VISUALSTYLE
  5
180
102
{ACAD_REACTORS
330
11D
102
}
330
11D
100
AcDbVisualStyle
  2
Sketchy
 70
    24
177
     3
291
     0
 70
    58
 90
        1
176
     1
 90
        2
176
     1
 90
        2
176
     1
 90
        0
176
     1
 40
0.6
176
     1
 40
30.0
176
     1
 62
     7
420
 16777215
176
     1
 90
        2
176
     1
 90
        2
176
     1
 62
     7
176
     1
 62
     7
176
     1
 90
        1
176
     1
 90
        1
176
     1
 40
40.0
176
     1
 90
       11
176
     1
 62
     7
176
     1
 40
1.0
176
     1
 90
        1
176
     1
 90
        6
176
     1
 90
        2
176
     1
 62
     7
176
     1
 90
        6
176
     1
 90
        0
176
     1
 90
        0
176
     1
290
     0
176
     1
 90
        1
176
     1
 40
0.0
176
     1
 90
        0
176
     1
290
     0
176
     1
290
     1
176
     1
290
     1
176
     1
290
     0
176
     1
290
     0
176
     1
290
     0
176
     1
290
     0
176
     1
290
     0
176
     1
290
     0
176
     1
 90
       50
176
     1
 40
0.0
176
     1
 40
1.0
176
     1
 90
        0
176
     1
 62
    18
420
        0
176
     1
 90
       50
176
     1
 90
        3
176
     1
 62
     5
420
      255
176
     1
290
     0
176
     1
 90
       50
176
     1
 90
       50
176
     1
 90
       50
176
     1
290
     0
176
     1
 90
       50
176
     1
 62
   256
176
     0
 40
1.0
176
     0
 90
        2
176
     1
  1
strokes_ogs.tif
176
     1
290
     0
176
     1
 40
1.0
176
     1
 40
1.0
176
     1
  0
VISUALSTYLE
  5
12A
102
{ACAD_REACTORS
330
11D
102
}
330
11D
100
AcDbVisualStyle
  2
Thicken
 70
    13
177
     3
291
     1
 70
    58
 90
        2
176
     1
 90
        2
176
     1
 90
        0
176
     1
 90
        0
176
     1
 40
-0.6
176
     1
 40
-30.0
176
     1
 62
     7
176
     1
 90
        1
176
     1
 90
        4
176
     1
 62
     7
176
     1
 62
   257
176
     1
 90
        1
176
     1
 90
        1
176
     1
 40
1.0
176
     1
 90
       12
176
     1
 62
     7
176
     1
 40
1.0
176
     1
 90
        1
176
     1
 90
        6
176
     1
 90
        2
176
     1
 62
     7
176
     1
 90
        5
176
     1
 90
        0
176
     1
 90
        0
176
     1
290
     0
176
     1
 90
        1
176
     1
 40
0.0
176
     1
 90
        0
176
     1
290
     0
176
     1
290
     1
176
     1
290
     1
176
     1
290
     0
176
     1
290
     0
176
     1
290
     0
176
     1
290
     0
176
     1
290
     0
176
     1
290
     0
176
     1
 90
       50
176
     1
 40
0.0
176
     1
 40
1.0
176
     1
 90
        0
176
     1
 62
    18
420
        0
176
     1
 90
       50
176
     1
 90
        3
176
     1
 62
     5
420
      255
176
     1
290
     0
176
     1
 90
       50
176
     1
 90
       50
176
     1
 90
       50
176
     1
290
     0
176
     1
 90
       50
176
     1
 62
   256
176
     0
 40
1.0
176
     0
 90
        2
176
     1
  1
strokes_ogs.tif
176
     1
290
     0
176
     1
 40
1.0
176
     1
 40
1.0
176
     1
  0
VISUALSTYLE
  5
17A
102
{ACAD_REACTORS
330
11D
102
}
330
11D
100
AcDbVisualStyle
  2
Wireframe
 70
     5
177
     3
291
     0
 70
    58
 90
        0
176
     1
 90
        2
176
     1
 90
        0
176
     1
 90
        0
176
     1
 40
0.6
176
     1
 40
30.0
176
     1
 62
     7
420
 16777215
176
     1
 90
        1
176
     1
 90
        4
176
     1
 62
     7
176
     1
 62
   257
176
     1
 90
        1
176
     1
 90
        1
176
     1
 40
1.0
176
     1
 90
        0
176
     1
 62
   257
176
     1
 40
1.0
176
     1
 90
        1
176
     1
 90
        6
176
     1
 90
        2
176
     1
 62
     7
176
     1
 90
        3
176
     1
 90
        0
176
     1
 90
        0
176
     1
290
     0
176
     1
 90
        1
176
     1
 40
0.0
176
     1
 90
        0
176
     1
290
     0
176
     1
290
     1
176
     1
290
     1
176
     1
290
     0
176
     1
290
     0
176
     1
290
     0
176
     1
290
     0
176
     1
290
     0
176
     1
290
     0
176
     1
 90
       50
176
     1
 40
0.0
176
     1
 40
1.0
176
     1
 90
        0
176
     1
 62
    18
420
        0
176
     1
 90
       50
176
     1
 90
        3
176
     1
 62
     5
420
      255
176
     1
290
     0
176
     1
 90
       50
176
     1
 90
       50
176
     1
 90
       50
176
     1
290
     0
176
     1
 90
       50
176
     1
 62
   256
176
     0
 40
1.0
176
     0
 90
        2
176
     1
  1
strokes_ogs.tif
176
     1
290
     0
176
     1
 40
1.0
176
     1
 40
1.0
176
     1
  0
VISUALSTYLE
  5
181
102
{ACAD_REACTORS
330
11D
102
}
330
11D
100
AcDbVisualStyle
  2
X-Ray
 70
    25
177
     3
291
     0
 70
    58
 90
        2
176
     1
 90
        2
176
     1
 90
        1
176
     1
 90
        1
176
     1
 40
0.5
176
     1
 40
30.0
176
     1
 62
     7
420
 16777215
176
     1
 90
        1
176
     1
 90
        0
176
     1
 62
     7
176
     1
 62
   257
176
     1
 90
        1
176
     1
 90
        1
176
     1
 40
1.0
176
     1
 90
        8
176
     1
 62
     7
176
     1
 40
1.0
176
     1
 90
        1
176
     1
 90
        6
176
     1
 90
        2
176
     1
 62
     7
176
     1
 90
        3
176
     1
 90
        0
176
     1
 90
        0
176
     1
290
     0
176
     1
 90
       13
176
     1
 40
0.0
176
     1
 90
        0
176
     1
290
     0
176
     1
290
     1
176
     1
290
     1
176
     1
290
     0
176
     1
290
     0
176
     1
290
     0
176
     1
290
     0
176
     1
290
     0
176
     1
290
     0
176
     1
 90
       50
176
     1
 40
0.0
176
     1
 40
1.0
176
     1
 90
        0
176
     1
 62
    18
420
        0
176
     1
 90
       50
176
     1
 90
        3
176
     1
 62
     5
420
      255
176
     1
290
     0
176
     1
 90
       50
176
     1
 90
       50
176
     1
 90
       50
176
     1
290
     0
176
     1
 90
       50
176
     1
 62
   256
176
     0
 40
1.0
176
     0
 90
        2
176
     1
  1
strokes_ogs.tif
176
     1
290
     0
176
     1
 40
1.0
176
     1
 40
1.0
176
     1
  0
DICTIONARYVAR
  5
1C0
102
{ACAD_REACTORS
330
139
102
}
330
139
100
DictionaryVariables
280
     0
  1
1:1
  0
DICTIONARYVAR
  5
1C2
102
{ACAD_REACTORS
330
139
102
}
330
139
100
DictionaryVariables
280
     0
  1
Standard
  0
DICTIONARYVAR
  5
1C1
102
{ACAD_REACTORS
330
139
102
}
330
139
100
DictionaryVariables
280
     0
  1
Standard
  0
DICTIONARYVAR
  5
13D
102
{ACAD_REACTORS
330
139
102
}
330
139
100
DictionaryVariables
280
     0
  1
2
  0
DICTIONARYVAR
  5
13E
102
{ACAD_REACTORS
330
139
102
}
330
139
100
DictionaryVariables
280
     0
  1
1
  0
DICTIONARYVAR
  5
13C
102
{ACAD_REACTORS
330
139
102
}
330
139
100
DictionaryVariables
280
     0
  1
0
  0
DICTIONARY
  5
1C8
330
185
100
AcDbDictionary
280
     1
281
     1
  3
ACAD_ROUNDTRIP_2008_TABLESTYLE_CELLSTYLEMAP
360
1C9
  0
CELLSTYLEMAP
  5
1C9
102
{ACAD_REACTORS
330
1C8
102
}
330
1C8
100
AcDbCellStyleMap
 90
        3
300
CELLSTYLE
  1
TABLEFORMAT_BEGIN
 90
        5
170
     1
 91
        0
 92
    32768
 62
   257
 93
        1
300
CONTENTFORMAT
  1
CONTENTFORMAT_BEGIN
 90
        0
 91
        0
 92
        4
 93
        0
300

 40
0.0
140
1.0
 94
        5
 62
     0
340
11
144
0.25
309
CONTENTFORMAT_END
171
     1
301
MARGIN
  1
CELLMARGIN_BEGIN
 40
0.06
 40
0.06
 40
0.06
 40
0.06
 40
0.06
 40
0.06
309
CELLMARGIN_END
 94
        6
 95
        1
302
GRIDFORMAT
  1
GRIDFORMAT_BEGIN
 90
        0
 91
        1
 62
     0
 92
       -2
340
14
 93
        0
 40
0.045
309
GRIDFORMAT_END
 95
        2
302
GRIDFORMAT
  1
GRIDFORMAT_BEGIN
 90
        0
 91
        1
 62
     0
 92
       -2
340
14
 93
        0
 40
0.045
309
GRIDFORMAT_END
 95
        4
302
GRIDFORMAT
  1
GRIDFORMAT_BEGIN
 90
        0
 91
        1
 62
     0
 92
       -2
340
14
 93
        0
 40
0.045
309
GRIDFORMAT_END
 95
        8
302
GRIDFORMAT
  1
GRIDFORMAT_BEGIN
 90
        0
 91
        1
 62
     0
 92
       -2
340
14
 93
        0
 40
0.045
309
GRIDFORMAT_END
 95
       16
302
GRIDFORMAT
  1
GRIDFORMAT_BEGIN
 90
        0
 91
        1
 62
     0
 92
       -2
340
14
 93
        0
 40
0.045
309
GRIDFORMAT_END
 95
       32
302
GRIDFORMAT
  1
GRIDFORMAT_BEGIN
 90
        0
 91
        1
 62
     0
 92
       -2
340
14
 93
        0
 40
0.045
309
GRIDFORMAT_END
309
TABLEFORMAT_END
  1
CELLSTYLE_BEGIN
 90
        1
 91
        1
300
_TITLE
309
CELLSTYLE_END
300
CELLSTYLE
  1
TABLEFORMAT_BEGIN
 90
        5
170
     1
 91
        0
 92
        0
 62
   257
 93
        1
300
CONTENTFORMAT
  1
CONTENTFORMAT_BEGIN
 90
        0
 91
        0
 92
        4
 93
        0
300

 40
0.0
140
1.0
 94
        5
 62
     0
340
11
144
0.18
309
CONTENTFORMAT_END
171
     1
301
MARGIN
  1
CELLMARGIN_BEGIN
 40
0.06
 40
0.06
 40
0.06
 40
0.06
 40
0.06
 40
0.06
309
CELLMARGIN_END
 94
        6
 95
        1
302
GRIDFORMAT
  1
GRIDFORMAT_BEGIN
 90
        0
 91
        1
 62
     0
 92
       -2
340
14
 93
        0
 40
0.045
309
GRIDFORMAT_END
 95
        2
302
GRIDFORMAT
  1
GRIDFORMAT_BEGIN
 90
        0
 91
        1
 62
     0
 92
       -2
340
14
 93
        0
 40
0.045
309
GRIDFORMAT_END
 95
        4
302
GRIDFORMAT
  1
GRIDFORMAT_BEGIN
 90
        0
 91
        1
 62
     0
 92
       -2
340
14
 93
        0
 40
0.045
309
GRIDFORMAT_END
 95
        8
302
GRIDFORMAT
  1
GRIDFORMAT_BEGIN
 90
        0
 91
        1
 62
     0
 92
       -2
340
14
 93
        0
 40
0.045
309
GRIDFORMAT_END
 95
       16
302
GRIDFORMAT
  1
GRIDFORMAT_BEGIN
 90
        0
 91
        1
 62
     0
 92
       -2
340
14
 93
        0
 40
0.045
309
GRIDFORMAT_END
 95
       32
302
GRIDFORMAT
  1
GRIDFORMAT_BEGIN
 90
        0
 91
        1
 62
     0
 92
       -2
340
14
 93
        0
 40
0.045
309
GRIDFORMAT_END
309
TABLEFORMAT_END
  1
CELLSTYLE_BEGIN
 90
        2
 91
        1
300
_HEADER
309
CELLSTYLE_END
300
CELLSTYLE
  1
TABLEFORMAT_BEGIN
 90
        5
170
     1
 91
        0
 92
        0
 62
   257
 93
        1
300
CONTENTFORMAT
  1
CONTENTFORMAT_BEGIN
 90
        0
 91
        0
 92
        4
 93
        0
300

 40
0.0
140
1.0
 94
        2
 62
     0
340
11
144
0.18
309
CONTENTFORMAT_END
171
     1
301
MARGIN
  1
CELLMARGIN_BEGIN
 40
0.06
 40
0.06
 40
0.06
 40
0.06
 40
0.06
 40
0.06
309
CELLMARGIN_END
 94
        6
 95
        1
302
GRIDFORMAT
  1
GRIDFORMAT_BEGIN
 90
        0
 91
        1
 62
     0
 92
       -2
340
14
 93
        0
 40
0.045
309
GRIDFORMAT_END
 95
        2
302
GRIDFORMAT
  1
GRIDFORMAT_BEGIN
 90
        0
 91
        1
 62
     0
 92
       -2
340
14
 93
        0
 40
0.045
309
GRIDFORMAT_END
 95
        4
302
GRIDFORMAT
  1
GRIDFORMAT_BEGIN
 90
        0
 91
        1
 62
     0
 92
       -2
340
14
 93
        0
 40
0.045
309
GRIDFORMAT_END
 95
        8
302
GRIDFORMAT
  1
GRIDFORMAT_BEGIN
 90
        0
 91
        1
 62
     0
 92
       -2
340
14
 93
        0
 40
0.045
309
GRIDFORMAT_END
 95
       16
302
GRIDFORMAT
  1
GRIDFORMAT_BEGIN
 90
        0
 91
        1
 62
     0
 92
       -2
340
14
 93
        0
 40
0.045
309
GRIDFORMAT_END
 95
       32
302
GRIDFORMAT
  1
GRIDFORMAT_BEGIN
 90
        0
 91
        1
 62
     0
 92
       -2
340
14
 93
        0
 40
0.045
309
GRIDFORMAT_END
309
TABLEFORMAT_END
  1
CELLSTYLE_BEGIN
 90
        3
 91
        2
300
_DATA
309
CELLSTYLE_END
  0
ENDSEC
  0
EOF
