  0
SECTION
  2
HEADER
  9
$ACADVER
  1
AC1027
  9
$ACADMAINTVER
 70
   105
  9
$DWGCODEPAGE
  3
ANSI_1252
  9
$REQUIREDVERSIONS
160
                 0
  9
$LASTSAVEDBY
  1
matthias.ochs
  9
$INSBASE
 10
0.0
 20
0.0
 30
0.0
  9
$EXTMIN
 10
-103.3790065543877
 20
-68.57300425876696
 30
0.0
  9
$EXTMAX
 10
159.8307373010928
 20
67.85120100717214
 30
0.0
  9
$LIMMIN
 10
-68.892623586
 20
-58.670780067
  9
$LIMMAX
 10
140.72454152
 20
46.026443367
  9
$ORTHOMODE
 70
     0
  9
$REGENMODE
 70
     1
  9
$FILLMODE
 70
     1
  9
$QTEXTMODE
 70
     0
  9
$MIRRTEXT
 70
     1
  9
$LTSCALE
 40
1.0
  9
$ATTMODE
 70
     1
  9
$TEXTSIZE
 40
0.2
  9
$TRACEWID
 40
0.05
  9
$TEXTSTYLE
  7
Standard
  9
$CLAYER
  8
4
  9
$CELTYPE
  6
ByLayer
  9
$CECOLOR
 62
   256
  9
$CELTSCALE
 40
1.0
  9
$DISPSILH
 70
     0
  9
$DIMSCALE
 40
1.0
  9
$DIMASZ
 40
0.18
  9
$DIMEXO
 40
0.0625
  9
$DIMDLI
 40
0.38
  9
$DIMRND
 40
0.0
  9
$DIMDLE
 40
0.0
  9
$DIMEXE
 40
0.18
  9
$DIMTP
 40
0.0
  9
$DIMTM
 40
0.0
  9
$DIMTXT
 40
0.18
  9
$DIMCEN
 40
0.09
  9
$DIMTSZ
 40
0.0
  9
$DIMTOL
 70
     0
  9
$DIMLIM
 70
     0
  9
$DIMTIH
 70
     1
  9
$DIMTOH
 70
     1
  9
$DIMSE1
 70
     0
  9
$DIMSE2
 70
     0
  9
$DIMTAD
 70
     0
  9
$DIMZIN
 70
     0
  9
$DIMBLK
  1

  9
$DIMASO
 70
     1
  9
$DIMSHO
 70
     1
  9
$DIMPOST
  1

  9
$DIMAPOST
  1

  9
$DIMALT
 70
     0
  9
$DIMALTD
 70
     2
  9
$DIMALTF
 40
25.4
  9
$DIMLFAC
 40
1.0
  9
$DIMTOFL
 70
     0
  9
$DIMTVP
 40
0.0
  9
$DIMTIX
 70
     0
  9
$DIMSOXD
 70
     0
  9
$DIMSAH
 70
     0
  9
$DIMBLK1
  1

  9
$DIMBLK2
  1

  9
$DIMSTYLE
  2
Standard
  9
$DIMCLRD
 70
     0
  9
$DIMCLRE
 70
     0
  9
$DIMCLRT
 70
     0
  9
$DIMTFAC
 40
1.0
  9
$DIMGAP
 40
0.09
  9
$DIMJUST
 70
     0
  9
$DIMSD1
 70
     0
  9
$DIMSD2
 70
     0
  9
$DIMTOLJ
 70
     1
  9
$DIMTZIN
 70
     0
  9
$DIMALTZ
 70
     0
  9
$DIMALTTZ
 70
     0
  9
$DIMUPT
 70
     0
  9
$DIMDEC
 70
     4
  9
$DIMTDEC
 70
     4
  9
$DIMALTU
 70
     2
  9
$DIMALTTD
 70
     2
  9
$DIMTXSTY
  7
Standard
  9
$DIMAUNIT
 70
     0
  9
$DIMADEC
 70
     0
  9
$DIMALTRND
 40
0.0
  9
$DIMAZIN
 70
     0
  9
$DIMDSEP
 70
    46
  9
$DIMATFIT
 70
     3
  9
$DIMFRAC
 70
     0
  9
$DIMLDRBLK
  1

  9
$DIMLUNIT
 70
     2
  9
$DIMLWD
 70
    -2
  9
$DIMLWE
 70
    -2
  9
$DIMTMOVE
 70
     2
  9
$DIMFXL
 40
1.0
  9
$DIMFXLON
 70
     0
  9
$DIMJOGANG
 40
0.7853981633974483
  9
$DIMTFILL
 70
     0
  9
$DIMTFILLCLR
 70
     0
  9
$DIMARCSYM
 70
     0
  9
$DIMLTYPE
  6

  9
$DIMLTEX1
  6

  9
$DIMLTEX2
  6

  9
$DIMTXTDIRECTION
 70
     0
  9
$LUNITS
 70
     2
  9
$LUPREC
 70
     4
  9
$SKETCHINC
 40
0.1
  9
$FILLETRAD
 40
0.5
  9
$AUNITS
 70
     2
  9
$AUPREC
 70
     0
  9
$MENU
  1
.
  9
$ELEVATION
 40
0.0
  9
$PELEVATION
 40
0.0
  9
$THICKNESS
 40
0.0
  9
$LIMCHECK
 70
     0
  9
$CHAMFERA
 40
0.5
  9
$CHAMFERB
 40
0.5
  9
$CHAMFERC
 40
1.0
  9
$CHAMFERD
 40
0.0
  9
$SKPOLY
 70
     0
  9
$TDCREATE
 40
2458327.549415579
  9
$TDUCREATE
 40
2458327.466082246
  9
$TDUPDATE
 40
2458575.682638275
  9
$TDUUPDATE
 40
2458575.599304942
  9
$TDINDWG
 40
0.0058767477
  9
$TDUSRTIMER
 40
0.0016920023
  9
$USRTIMER
 70
     1
  9
$ANGBASE
 50
0.0
  9
$ANGDIR
 70
     0
  9
$PDMODE
 70
     0
  9
$PDSIZE
 40
0.0
  9
$PLINEWID
 40
0.0
  9
$SPLFRAME
 70
     0
  9
$SPLINETYPE
 70
     6
  9
$SPLINESEGS
 70
     8
  9
$HANDSEED
  5
23A
  9
$SURFTAB1
 70
     6
  9
$SURFTAB2
 70
     6
  9
$SURFTYPE
 70
     6
  9
$SURFU
 70
     6
  9
$SURFV
 70
     6
  9
$UCSBASE
  2

  9
$UCSNAME
  2

  9
$UCSORG
 10
0.0
 20
0.0
 30
0.0
  9
$UCSXDIR
 10
1.0
 20
0.0
 30
0.0
  9
$UCSYDIR
 10
0.0
 20
1.0
 30
0.0
  9
$UCSORTHOREF
  2

  9
$UCSORTHOVIEW
 70
     0
  9
$UCSORGTOP
 10
0.0
 20
0.0
 30
0.0
  9
$UCSORGBOTTOM
 10
0.0
 20
0.0
 30
0.0
  9
$UCSORGLEFT
 10
0.0
 20
0.0
 30
0.0
  9
$UCSORGRIGHT
 10
0.0
 20
0.0
 30
0.0
  9
$UCSORGFRONT
 10
0.0
 20
0.0
 30
0.0
  9
$UCSORGBACK
 10
0.0
 20
0.0
 30
0.0
  9
$PUCSBASE
  2

  9
$PUCSNAME
  2

  9
$PUCSORG
 10
0.0
 20
0.0
 30
0.0
  9
$PUCSXDIR
 10
1.0
 20
0.0
 30
0.0
  9
$PUCSYDIR
 10
0.0
 20
1.0
 30
0.0
  9
$PUCSORTHOREF
  2

  9
$PUCSORTHOVIEW
 70
     0
  9
$PUCSORGTOP
 10
0.0
 20
0.0
 30
0.0
  9
$PUCSORGBOTTOM
 10
0.0
 20
0.0
 30
0.0
  9
$PUCSORGLEFT
 10
0.0
 20
0.0
 30
0.0
  9
$PUCSORGRIGHT
 10
0.0
 20
0.0
 30
0.0
  9
$PUCSORGFRONT
 10
0.0
 20
0.0
 30
0.0
  9
$PUCSORGBACK
 10
0.0
 20
0.0
 30
0.0
  9
$USERI1
 70
     0
  9
$USERI2
 70
     0
  9
$USERI3
 70
     0
  9
$USERI4
 70
     0
  9
$USERI5
 70
     0
  9
$USERR1
 40
0.0
  9
$USERR2
 40
0.0
  9
$USERR3
 40
0.0
  9
$USERR4
 40
0.0
  9
$USERR5
 40
0.0
  9
$WORLDVIEW
 70
     1
  9
$SHADEDGE
 70
     3
  9
$SHADEDIF
 70
    70
  9
$TILEMODE
 70
     1
  9
$MAXACTVP
 70
    64
  9
$PINSBASE
 10
0.0
 20
0.0
 30
0.0
  9
$PLIMCHECK
 70
     0
  9
$PEXTMIN
 10
1.000000000000000E+20
 20
1.000000000000000E+20
 30
1.000000000000000E+20
  9
$PEXTMAX
 10
-1.000000000000000E+20
 20
-1.000000000000000E+20
 30
-1.000000000000000E+20
  9
$PLIMMIN
 10
0.0
 20
0.0
  9
$PLIMMAX
 10
0.0
 20
0.0
  9
$UNITMODE
 70
     0
  9
$VISRETAIN
 70
     1
  9
$PLINEGEN
 70
     0
  9
$PSLTSCALE
 70
     1
  9
$TREEDEPTH
 70
  3020
  9
$CMLSTYLE
  2
Standard
  9
$CMLJUST
 70
     0
  9
$CMLSCALE
 40
1.0
  9
$PROXYGRAPHICS
 70
     1
  9
$MEASUREMENT
 70
     0
  9
$CELWEIGHT
370
    -1
  9
$ENDCAPS
280
     0
  9
$JOINSTYLE
280
     0
  9
$LWDISPLAY
290
     0
  9
$INSUNITS
 70
     0
  9
$HYPERLINKBASE
  1

  9
$STYLESHEET
  1

  9
$XEDIT
290
     1
  9
$CEPSNTYPE
380
     0
  9
$PSTYLEMODE
290
     1
  9
$FINGERPRINTGUID
  2
{C779628A-5B8B-4203-9574-4DF464D4C56B}
  9
$VERSIONGUID
  2
{FAEB1C32-E019-11D5-929B-00C0DF256EC4}
  9
$EXTNAMES
290
     1
  9
$PSVPSCALE
 40
0.0
  9
$OLESTARTUP
290
     0
  9
$SORTENTS
280
   127
  9
$INDEXCTL
280
     0
  9
$HIDETEXT
280
     1
  9
$XCLIPFRAME
280
     2
  9
$HALOGAP
280
     0
  9
$OBSCOLOR
 70
   257
  9
$OBSLTYPE
280
     0
  9
$INTERSECTIONDISPLAY
280
     0
  9
$INTERSECTIONCOLOR
 70
   257
  9
$DIMASSOC
280
     2
  9
$PROJECTNAME
  1

  9
$CAMERADISPLAY
290
     0
  9
$LENSLENGTH
 40
50.0
  9
$CAMERAHEIGHT
 40
0.0
  9
$STEPSPERSEC
 40
2.0
  9
$STEPSIZE
 40
6.0
  9
$3DDWFPREC
 40
2.0
  9
$PSOLWIDTH
 40
0.25
  9
$PSOLHEIGHT
 40
4.0
  9
$LOFTANG1
 40
1.570796326794897
  9
$LOFTANG2
 40
1.570796326794897
  9
$LOFTMAG1
 40
0.0
  9
$LOFTMAG2
 40
0.0
  9
$LOFTPARAM
 70
     7
  9
$LOFTNORMALS
280
     1
  9
$LATITUDE
 40
37.795
  9
$LONGITUDE
 40
-122.394
  9
$NORTHDIRECTION
 40
0.0
  9
$TIMEZONE
 70
 -8000
  9
$LIGHTGLYPHDISPLAY
280
     1
  9
$TILEMODELIGHTSYNCH
280
     1
  9
$SOLIDHIST
280
     0
  9
$SHOWHIST
280
     1
  9
$DWFFRAME
280
     2
  9
$DGNFRAME
280
     2
  9
$REALWORLDSCALE
290
     1
  9
$INTERFERECOLOR
 62
   256
  9
$CSHADOW
280
     0
  9
$SHADOWPLANELOCATION
 40
0.0
  0
ENDSEC
  0
SECTION
  2
CLASSES
  0
CLASS
  1
ACDBDICTIONARYWDFLT
  2
AcDbDictionaryWithDefault
  3
ObjectDBX Classes
 90
        0
 91
        9
280
     0
281
     0
  0
CLASS
  1
SCALE
  2
AcDbScale
  3
ObjectDBX Classes
 90
     1153
 91
        9
280
     0
281
     0
  0
CLASS
  1
VISUALSTYLE
  2
AcDbVisualStyle
  3
ObjectDBX Classes
 90
     4095
 91
        9
280
     0
281
     0
  0
CLASS
  1
MATERIAL
  2
AcDbMaterial
  3
ObjectDBX Classes
 90
     1153
 91
        9
280
     0
281
     0
  0
CLASS
  1
DICTIONARYVAR
  2
AcDbDictionaryVar
  3
ObjectDBX Classes
 90
        0
 91
        9
280
     0
281
     0
  0
CLASS
  1
ACDBPLACEHOLDER
  2
AcDbPlaceHolder
  3
ObjectDBX Classes
 90
        0
 91
        1
280
     0
281
     0
  0
CLASS
  1
LAYOUT
  2
AcDbLayout
  3
ObjectDBX Classes
 90
        0
 91
        1
280
     0
281
     0
  0
CLASS
  1
TABLESTYLE
  2
AcDbTableStyle
  3
ObjectDBX Classes
 90
     4095
 91
        9
280
     0
281
     0
  0
CLASS
  1
MLEADERSTYLE
  2
AcDbMLeaderStyle
  3
ACDB_MLEADERSTYLE_CLASS
 90
     4095
 91
        9
280
     0
281
     0
  0
CLASS
  1
SUN
  2
AcDbSun
  3
SCENEOE
 90
     1153
 91
        9
280
     0
281
     0
  0
CLASS
  1
CELLSTYLEMAP
  2
AcDbCellStyleMap
  3
ObjectDBX Classes
 90
     1152
 91
        4
280
     0
281
     0
  0
ENDSEC
  0
SECTION
  2
TABLES
  0
TABLE
  2
VPORT
  5
8
330
0
100
AcDbSymbolTable
 70
     1
  0
VPORT
  5
13B
330
8
100
AcDbSymbolTableRecord
100
AcDbViewportTableRecord
  2
*Active
 70
     0
 10
0.0
 20
0.0
 11
1.0
 21
1.0
 12
78.60580680378865
 22
-111.0599788677739
 13
0.0
 23
0.0
 14
0.5
 24
0.5
 15
0.5
 25
0.5
 16
0.0
 26
0.0
 36
1.0
 17
0.0
 27
0.0
 37
0.0
 40
499.6003610813196
 41
2.270231213872832
 42
50.0
 43
0.0
 44
0.0
 50
0.0
 51
0.0
 71
    16
 72
   100
 73
     1
 74
     3
 75
     0
 76
     0
 77
     0
 78
     0
281
     0
 65
     1
110
0.0
120
0.0
130
0.0
111
1.0
121
0.0
131
0.0
112
0.0
122
1.0
132
0.0
 79
     0
146
0.0
348
16C
 60
     3
 61
     5
292
     1
282
     1
141
0.0
142
0.0
 63
   256
361
215
  0
ENDTAB
  0
TABLE
  2
LTYPE
  5
5
330
0
100
AcDbSymbolTable
 70
     8
  0
LTYPE
  5
14
330
5
100
AcDbSymbolTableRecord
100
AcDbLinetypeTableRecord
  2
ByBlock
 70
     0
  3

 72
    65
 73
     0
 40
0.0
  0
LTYPE
  5
15
330
5
100
AcDbSymbolTableRecord
100
AcDbLinetypeTableRecord
  2
ByLayer
 70
     0
  3

 72
    65
 73
     0
 40
0.0
  0
LTYPE
  5
16
330
5
100
AcDbSymbolTableRecord
100
AcDbLinetypeTableRecord
  2
Continuous
 70
     0
  3
Solid line
 72
    65
 73
     0
 40
0.0
  0
LTYPE
  5
20
330
5
100
AcDbSymbolTableRecord
100
AcDbLinetypeTableRecord
  2
PUNKT
 70
     0
  3
..............
 72
    65
 73
     2
 40
1.5
 49
0.7
 74
     0
 49
-0.8
 74
     0
  0
LTYPE
  5
21
330
5
100
AcDbSymbolTableRecord
100
AcDbLinetypeTableRecord
  2
GESTRICHELT
 70
     0
  3
-- -- -- -- --
 72
    65
 73
     7
 40
2.8
 49
0.9
 74
     0
 49
0.0
 74
     0
 49
0.9
 74
     0
 49
0.0
 74
     0
 49
0.2
 74
     0
 49
0.0
 74
     0
 49
-0.8
 74
     0
  0
LTYPE
  5
22
330
5
100
AcDbSymbolTableRecord
100
AcDbLinetypeTableRecord
  2
STRICHPUNKT
 70
     0
  3
--.--.--.--.--
 72
    65
 73
     4
 40
8.8
 49
5.5
 74
     0
 49
-1.3
 74
     0
 49
0.7
 74
     0
 49
-1.3
 74
     0
  0
LTYPE
  5
25
330
5
100
AcDbSymbolTableRecord
100
AcDbLinetypeTableRecord
  2
PHANTOM
 70
     0
  3
--..--..--..--
 72
    65
 73
     6
 40
14.2
 49
7.0
 74
     0
 49
-1.8
 74
     0
 49
0.9
 74
     0
 49
-1.8
 74
     0
 49
0.9
 74
     0
 49
-1.8
 74
     0
  0
LTYPE
  5
1B3
330
5
100
AcDbSymbolTableRecord
100
AcDbLinetypeTableRecord
  2
DASH
 70
     0
  3
DASH _ _ _ _ _
 72
    65
 73
     2
 40
0.75
 49
0.4
 74
     0
 49
-0.35
 74
     0
  0
LTYPE
  5
1B4
330
5
100
AcDbSymbolTableRecord
100
AcDbLinetypeTableRecord
  2
LONGDASH_DASH
 70
     0
  3
LONGDASH_DASH __ . __ . __
 72
    65
 73
     4
 40
0.85
 49
0.4
 74
     0
 49
-0.2
 74
     0
 49
0.05
 74
     0
 49
-0.2
 74
     0
  0
LTYPE
  5
1B5
330
5
100
AcDbSymbolTableRecord
100
AcDbLinetypeTableRecord
  2
LONGDASH_DASH_DASH
 70
     0
  3
LONGDASH_DASH_DASH __ . . __ . . __
 72
    65
 73
     6
 40
1.1
 49
0.4
 74
     0
 49
-0.2
 74
     0
 49
0.05
 74
     0
 49
-0.2
 74
     0
 49
0.05
 74
     0
 49
-0.2
 74
     0
  0
ENDTAB
  0
TABLE
  2
LAYER
  5
2
102
{ACAD_XDICTIONARY
360
1D7
102
}
330
0
100
AcDbSymbolTable
 70
    15
  0
LAYER
  5
17D
330
2
100
AcDbSymbolTableRecord
100
AcDbLayerTableRecord
  2
200
 70
     0
 62
     2
  6
Continuous
370
    50
390
F
347
17B
348
0
  0
LAYER
  5
1B6
330
2
100
AcDbSymbolTableRecord
100
AcDbLayerTableRecord
  2
0
 70
     0
 62
     1
  6
Continuous
370
    -3
390
F
347
17B
348
0
  0
LAYER
  5
1B7
330
2
100
AcDbSymbolTableRecord
100
AcDbLayerTableRecord
  2
1
 70
     0
 62
     4
  6
Continuous
370
    50
390
F
347
17B
348
0
  0
LAYER
  5
1B8
330
2
100
AcDbSymbolTableRecord
100
AcDbLayerTableRecord
  2
2
 70
     0
 62
     7
  6
Continuous
370
    25
390
F
347
17B
348
0
  0
LAYER
  5
1B9
330
2
100
AcDbSymbolTableRecord
100
AcDbLayerTableRecord
  2
3
 70
     0
 62
     1
  6
DASH
370
    35
390
F
347
17B
348
0
  0
LAYER
  5
1BA
330
2
100
AcDbSymbolTableRecord
100
AcDbLayerTableRecord
  2
4
 70
     0
 62
     2
  6
LONGDASH_DASH
370
    25
390
F
347
17B
348
0
  0
LAYER
  5
1BB
330
2
100
AcDbSymbolTableRecord
100
AcDbLayerTableRecord
  2
6
 70
     0
 62
     5
  6
Continuous
370
    -3
390
F
347
17B
348
0
  0
LAYER
  5
1BC
330
2
100
AcDbSymbolTableRecord
100
AcDbLayerTableRecord
  2
CUT
 70
     0
 62
     1
  6
Continuous
370
    25
390
F
347
17B
348
0
  0
LAYER
  5
1BD
330
2
100
AcDbSymbolTableRecord
100
AcDbLayerTableRecord
  2
NOCUT
 70
     0
 62
     7
  6
Continuous
370
    25
390
F
347
17B
348
0
  0
LAYER
  5
1BE
330
2
100
AcDbSymbolTableRecord
100
AcDbLayerTableRecord
  2
SK1
 70
     0
 62
     4
  6
Continuous
370
    50
390
F
347
17B
348
0
  0
LAYER
  5
1BF
330
2
100
AcDbSymbolTableRecord
100
AcDbLayerTableRecord
  2
SK2
 70
     0
 62
     7
  6
Continuous
370
    25
390
F
347
17B
348
0
  0
LAYER
  5
1C0
330
2
100
AcDbSymbolTableRecord
100
AcDbLayerTableRecord
  2
SK3
 70
     0
 62
     1
  6
DASH
370
    35
390
F
347
17B
348
0
  0
LAYER
  5
1C1
330
2
100
AcDbSymbolTableRecord
100
AcDbLayerTableRecord
  2
SK4
 70
     0
 62
     2
  6
LONGDASH_DASH
370
    25
390
F
347
17B
348
0
  0
LAYER
  5
1C2
330
2
100
AcDbSymbolTableRecord
100
AcDbLayerTableRecord
  2
SK6
 70
     0
 62
     5
  6
Continuous
370
    -3
390
F
347
17B
348
0
  0
LAYER
  5
1C3
330
2
100
AcDbSymbolTableRecord
100
AcDbLayerTableRecord
  2
INFTOTAL
 70
     0
 62
     9
  6
Continuous
370
    18
390
F
347
17B
348
0
  0
ENDTAB
  0
TABLE
  2
STYLE
  5
3
330
0
100
AcDbSymbolTable
 70
     2
  0
STYLE
  5
11
330
3
100
AcDbSymbolTableRecord
100
AcDbTextStyleTableRecord
  2
Standard
 70
     0
 40
0.0
 41
1.0
 50
0.0
 71
     0
 42
0.2
  3
txt
  4

  0
STYLE
  5
17C
330
3
100
AcDbSymbolTableRecord
100
AcDbTextStyleTableRecord
  2
BMG_Text
 70
     0
 40
3.5
 41
1.0
 50
0.0
 71
     0
 42
0.2
  3
monos.ttf
  4

1001
ACAD
1000
Monospac821 BT
1071
       49
  0
ENDTAB
  0
TABLE
  2
VIEW
  5
6
330
0
100
AcDbSymbolTable
 70
     0
  0
ENDTAB
  0
TABLE
  2
UCS
  5
7
330
0
100
AcDbSymbolTable
 70
     0
  0
ENDTAB
  0
TABLE
  2
APPID
  5
9
330
0
100
AcDbSymbolTable
 70
     1
  0
APPID
  5
12
330
9
100
AcDbSymbolTableRecord
100
AcDbRegAppTableRecord
  2
ACAD
 70
     0
  0
ENDTAB
  0
TABLE
  2
DIMSTYLE
  5
A
330
0
100
AcDbSymbolTable
 70
     1
100
AcDbDimStyleTable
  0
DIMSTYLE
105
28
330
A
100
AcDbSymbolTableRecord
100
AcDbDimStyleTableRecord
  2
Standard
 70
     0
178
     0
340
11
  0
ENDTAB
  0
TABLE
  2
BLOCK_RECORD
  5
1
330
0
100
AcDbSymbolTable
 70
     0
  0
BLOCK_RECORD
  5
1D
330
1
100
AcDbSymbolTableRecord
100
AcDbBlockTableRecord
  2
*Model_Space
340
1E
 70
     0
280
     1
281
     0
  0
BLOCK_RECORD
  5
1B
330
1
100
AcDbSymbolTableRecord
100
AcDbBlockTableRecord
  2
*Paper_Space
340
1C
 70
     0
280
     1
281
     0
  0
ENDTAB
  0
ENDSEC
  0
SECTION
  2
BLOCKS
  0
BLOCK
  5
165
330
1D
100
AcDbEntity
  8
0
100
AcDbBlockBegin
  2
*Model_Space
 70
     0
 10
0.0
 20
0.0
 30
0.0
  3
*Model_Space
  1

  0
ENDBLK
  5
166
330
1D
100
AcDbEntity
  8
0
100
AcDbBlockEnd
  0
BLOCK
  5
163
330
1B
100
AcDbEntity
 67
     1
  8
0
100
AcDbBlockBegin
  2
*Paper_Space
 70
     0
 10
0.0
 20
0.0
 30
0.0
  3
*Paper_Space
  1

  0
ENDBLK
  5
164
330
1B
100
AcDbEntity
 67
     1
  8
0
100
AcDbBlockEnd
  0
ENDSEC
  0
SECTION
  2
ENTITIES
  0
LINE
  5
29
330
1D
100
AcDbEntity
  8
SK1
100
AcDbLine
 10
-44.0
 20
23.0
 30
0.0
 11
-2.555056733
 21
23.0
 31
0.0
  0
LINE
  5
2A
330
1D
100
AcDbEntity
  8
SK1
100
AcDbLine
 10
-2.555056733
 20
23.0
 30
0.0
 11
-2.555056733
 21
-23.0
 31
0.0
  0
LINE
  5
2B
330
1D
100
AcDbEntity
  8
SK1
100
AcDbLine
 10
-44.0
 20
-23.0
 30
0.0
 11
-44.0
 21
-0.3
 31
0.0
  0
LINE
  5
2C
330
1D
100
AcDbEntity
  8
SK1
100
AcDbLine
 10
-44.0
 20
0.3
 30
0.0
 11
-44.0
 21
23.0
 31
0.0
  0
LINE
  5
2D
330
1D
100
AcDbEntity
  8
1
100
AcDbLine
 10
94.0
 20
-23.0
 30
0.0
 11
52.555056733
 21
-23.0
 31
0.0
  0
LINE
  5
2E
330
1D
100
AcDbEntity
  8
1
100
AcDbLine
 10
52.555056733
 20
-23.0
 30
0.0
 11
50.379409523
 21
-22.417037087
 31
0.0
  0
ARC
  5
2F
330
1D
100
AcDbEntity
  8
1
100
AcDbCircle
 10
50.25
 20
-22.9
 30
0.0
 40
0.5
100
AcDbArc
 50
75.0
 51
120.0
  0
ARC
  5
30
330
1D
100
AcDbEntity
  8
1
100
AcDbCircle
 10
50.25
 20
22.9
 30
0.0
 40
0.5
100
AcDbArc
 50
240.0
 51
284.999999993
  0
LINE
  5
31
330
1D
100
AcDbEntity
  8
1
100
AcDbLine
 10
50.379409523
 20
22.417037087
 30
0.0
 11
52.555056733
 21
23.0
 31
0.0
  0
LINE
  5
32
330
1D
100
AcDbEntity
  8
1
100
AcDbLine
 10
52.555056733
 20
23.0
 30
0.0
 11
94.0
 21
23.0
 31
0.0
  0
LINE
  5
33
330
1D
100
AcDbEntity
  8
1
100
AcDbLine
 10
94.0
 20
23.0
 30
0.0
 11
96.605707514
 21
22.633791691
 31
0.0
  0
LINE
  5
34
330
1D
100
AcDbEntity
  8
1
100
AcDbLine
 10
96.605707514
 20
22.633791691
 30
0.0
 11
98.579186621
 21
22.981769304
 31
0.0
  0
ARC
  5
35
330
1D
100
AcDbEntity
  8
1
100
AcDbCircle
 10
98.787564435
 20
21.8
 30
0.0
 40
1.2
100
AcDbArc
 50
40.50379292699999
 51
100.0
  0
LINE
  5
36
330
1D
100
AcDbEntity
  8
1
100
AcDbLine
 10
99.7
 20
22.579398062
 30
0.0
 11
99.7
 21
-22.579398062
 31
0.0
  0
ARC
  5
37
330
1D
100
AcDbEntity
  8
1
100
AcDbCircle
 10
98.787564435
 20
-21.8
 30
0.0
 40
1.2
100
AcDbArc
 50
260.0
 51
319.496207073
  0
LINE
  5
38
330
1D
100
AcDbEntity
  8
1
100
AcDbLine
 10
98.579186622
 20
-22.981769304
 30
0.0
 11
96.605707514
 21
-22.633791691
 31
0.0
  0
LINE
  5
39
330
1D
100
AcDbEntity
  8
1
100
AcDbLine
 10
96.605707514
 20
-22.633791691
 30
0.0
 11
94.0
 21
-23.0
 31
0.0
  0
ARC
  5
3A
330
1D
100
AcDbEntity
  8
SK1
100
AcDbCircle
 10
-0.25
 20
-22.9
 30
0.0
 40
0.5
100
AcDbArc
 50
60.0
 51
105.000000007
  0
LINE
  5
3B
330
1D
100
AcDbEntity
  8
SK1
100
AcDbLine
 10
-0.379409523
 20
-22.417037087
 30
0.0
 11
-2.555056733
 21
-23.0
 31
0.0
  0
LINE
  5
3C
330
1D
100
AcDbEntity
  8
SK1
100
AcDbLine
 10
-2.555056733
 20
-23.0
 30
0.0
 11
-44.0
 21
-23.0
 31
0.0
  0
LINE
  5
3D
330
1D
100
AcDbEntity
  8
SK1
100
AcDbLine
 10
-44.0
 20
-23.0
 30
0.0
 11
-46.605707514
 21
-22.633791691
 31
0.0
  0
LINE
  5
3E
330
1D
100
AcDbEntity
  8
SK1
100
AcDbLine
 10
-46.605707514
 20
-22.633791691
 30
0.0
 11
-48.579186621
 21
-22.981769304
 31
0.0
  0
ARC
  5
3F
330
1D
100
AcDbEntity
  8
SK1
100
AcDbCircle
 10
-48.787564435
 20
-21.8
 30
0.0
 40
1.2
100
AcDbArc
 50
220.503792927
 51
280.0
  0
ARC
  5
40
330
1D
100
AcDbEntity
  8
SK1
100
AcDbCircle
 10
-48.787564435
 20
21.8
 30
0.0
 40
1.2
100
AcDbArc
 50
80.0
 51
139.496207073
  0
LINE
  5
41
330
1D
100
AcDbEntity
  8
SK1
100
AcDbLine
 10
-48.579186622
 20
22.981769304
 30
0.0
 11
-46.605707514
 21
22.633791691
 31
0.0
  0
LINE
  5
42
330
1D
100
AcDbEntity
  8
SK1
100
AcDbLine
 10
-46.605707514
 20
22.633791691
 30
0.0
 11
-44.0
 21
23.0
 31
0.0
  0
LINE
  5
43
330
1D
100
AcDbEntity
  8
SK1
100
AcDbLine
 10
-2.555056733
 20
23.0
 30
0.0
 11
-0.379409523
 21
22.417037087
 31
0.0
  0
ARC
  5
44
330
1D
100
AcDbEntity
  8
SK1
  6
LONGDASH_DASH
370
    25
100
AcDbCircle
 10
-0.25
 20
22.9
 30
0.0
 40
0.5
100
AcDbArc
 50
255.0
 51
300.0
  0
LINE
  5
45
330
1D
100
AcDbEntity
  8
1
100
AcDbLine
 10
94.0
 20
23.0
 30
0.0
 11
94.0
 21
0.3
 31
0.0
  0
LINE
  5
46
330
1D
100
AcDbEntity
  8
1
100
AcDbLine
 10
94.0
 20
-0.3
 30
0.0
 11
94.0
 21
-23.0
 31
0.0
  0
LINE
  5
47
330
1D
100
AcDbEntity
  8
1
100
AcDbLine
 10
52.555056733
 20
-23.0
 30
0.0
 11
52.555056733
 21
23.0
 31
0.0
  0
LINE
  5
48
330
1D
100
AcDbEntity
  8
1
  6
Continuous
370
    50
100
AcDbLine
 10
0.0
 20
0.0
 30
0.0
 11
0.0
 21
-44.5
 31
0.0
  0
LINE
  5
49
330
1D
100
AcDbEntity
  8
1
  6
Continuous
370
    50
100
AcDbLine
 10
0.0
 20
-44.5
 30
0.0
 11
0.5
 21
-45.0
 31
0.0
  0
LINE
  5
4A
330
1D
100
AcDbEntity
  8
1
  6
Continuous
370
    50
100
AcDbLine
 10
0.5
 20
-45.0
 30
0.0
 11
49.5
 21
-45.0
 31
0.0
  0
LINE
  5
4B
330
1D
100
AcDbEntity
  8
1
  6
Continuous
370
    50
100
AcDbLine
 10
49.5
 20
-45.0
 30
0.0
 11
50.0
 21
-44.5
 31
0.0
  0
LINE
  5
4C
330
1D
100
AcDbEntity
  8
1
  6
Continuous
370
    50
100
AcDbLine
 10
50.0
 20
-44.5
 30
0.0
 11
50.0
 21
0.0
 31
0.0
  0
LINE
  5
4D
330
1D
100
AcDbEntity
  8
1
  6
Continuous
370
    50
100
AcDbLine
 10
50.0
 20
0.0
 30
0.0
 11
50.0
 21
44.5
 31
0.0
  0
LINE
  5
4E
330
1D
100
AcDbEntity
  8
1
  6
Continuous
370
    50
100
AcDbLine
 10
50.0
 20
44.5
 30
0.0
 11
49.5
 21
45.0
 31
0.0
  0
LINE
  5
4F
330
1D
100
AcDbEntity
  8
1
  6
Continuous
370
    50
100
AcDbLine
 10
49.5
 20
45.0
 30
0.0
 11
0.5
 21
45.0
 31
0.0
  0
LINE
  5
50
330
1D
100
AcDbEntity
  8
1
  6
Continuous
370
    50
100
AcDbLine
 10
0.5
 20
45.0
 30
0.0
 11
0.0
 21
44.5
 31
0.0
  0
LINE
  5
51
330
1D
100
AcDbEntity
  8
1
  6
Continuous
370
    50
100
AcDbLine
 10
0.0
 20
44.5
 30
0.0
 11
0.0
 21
0.0
 31
0.0
  0
LINE
  5
52
330
1D
100
AcDbEntity
  8
1
100
AcDbLine
 10
96.605707514
 20
22.633791691
 30
0.0
 11
96.605707514
 21
-22.633791691
 31
0.0
  0
LINE
  5
53
330
1D
100
AcDbEntity
  8
SK1
100
AcDbLine
 10
-46.605707514
 20
-22.633791691
 30
0.0
 11
-46.605707514
 21
22.633791691
 31
0.0
  0
LINE
  5
54
330
1D
100
AcDbEntity
  8
SK3
  6
DASH
370
    35
100
AcDbLine
 10
-49.7
 20
-11.05
 30
0.0
 11
0.0
 21
-11.05
 31
0.0
  0
LINE
  5
55
330
1D
100
AcDbEntity
  8
SK3
100
AcDbLine
 10
-0.0000000000000284
 20
11.05
 30
0.0
 11
-49.7
 21
11.05
 31
0.0
  0
LINE
  5
56
330
1D
100
AcDbEntity
  8
SK1
100
AcDbLine
 10
-49.7
 20
22.579398062
 30
0.0
 11
-49.7
 21
-22.579398062
 31
0.0
  0
LINE
  5
57
330
1D
100
AcDbEntity
  8
SK4
  6
LONGDASH_DASH
370
    25
100
AcDbLine
 10
-52.290343113
 20
0.0
 30
0.0
 11
102.944228904
 21
0.0
 31
0.0
  0
LINE
  5
58
330
1D
100
AcDbEntity
  8
SK4
  6
LONGDASH_DASH
370
    25
100
AcDbLine
 10
-17.631728
 20
-9.130054256
 30
0.0
 11
-17.631728
 21
9.258744544
 31
0.0
  0
LINE
  5
59
330
1D
100
AcDbEntity
  8
SK4
100
AcDbLine
 10
67.631728
 20
-9.130054256
 30
0.0
 11
67.631728
 21
9.258744544
 31
0.0
  0
TEXT
  5
5A
330
1D
100
AcDbEntity
  8
SK6
100
AcDbText
 10
22.2595914755619
 20
-43.340024538
 30
0.0
 40
3.5
  1
331.876N
  7
BMG_Text
100
AcDbText
  0
LINE
  5
5B
330
1D
100
AcDbEntity
  8
2
  6
Continuous
370
    25
100
AcDbLine
 10
0.0
 20
-59.6443367
 30
0.0
 11
0.0
 21
-44.5
 31
0.0
  0
LINE
  5
5C
330
1D
100
AcDbEntity
  8
2
  6
Continuous
370
    25
100
AcDbLine
 10
0.0
 20
-57.6443367
 30
0.0
 11
3.5
 21
-57.1943367
 31
0.0
  0
LINE
  5
5D
330
1D
100
AcDbEntity
  8
2
  6
Continuous
370
    25
100
AcDbLine
 10
3.5
 20
-57.1943367
 30
0.0
 11
3.5
 21
-58.0943367
 31
0.0
  0
LINE
  5
5E
330
1D
100
AcDbEntity
  8
2
  6
Continuous
370
    25
100
AcDbLine
 10
3.5
 20
-58.0943367
 30
0.0
 11
0.0
 21
-57.6443367
 31
0.0
  0
LINE
  5
5F
330
1D
100
AcDbEntity
  8
2
  6
Continuous
370
    25
100
AcDbLine
 10
50.0
 20
-59.6443367
 30
0.0
 11
50.0
 21
-44.5
 31
0.0
  0
LINE
  5
60
330
1D
100
AcDbEntity
  8
2
  6
Continuous
370
    25
100
AcDbLine
 10
50.0
 20
-57.6443367
 30
0.0
 11
46.5
 21
-58.0943367
 31
0.0
  0
LINE
  5
61
330
1D
100
AcDbEntity
  8
2
  6
Continuous
370
    25
100
AcDbLine
 10
46.5
 20
-58.0943367
 30
0.0
 11
46.5
 21
-57.1943367
 31
0.0
  0
LINE
  5
62
330
1D
100
AcDbEntity
  8
2
  6
Continuous
370
    25
100
AcDbLine
 10
46.5
 20
-57.1943367
 30
0.0
 11
50.0
 21
-57.6443367
 31
0.0
  0
LINE
  5
63
330
1D
100
AcDbEntity
  8
2
  6
Continuous
370
    25
100
AcDbLine
 10
3.5
 20
-57.6443367
 30
0.0
 11
46.5
 21
-57.6443367
 31
0.0
  0
TEXT
  5
64
330
1D
100
AcDbEntity
  8
2
  6
Continuous
370
    25
100
AcDbText
 10
23.444686941
 20
-56.1443367
 30
0.0
 40
3.5
  1
50
  7
BMG_Text
100
AcDbText
  0
LINE
  5
65
330
1D
100
AcDbEntity
  8
2
  6
Continuous
370
    25
100
AcDbLine
 10
126.122261047
 20
-45.0
 30
0.0
 11
49.5
 21
-45.0
 31
0.0
  0
LINE
  5
66
330
1D
100
AcDbEntity
  8
2
  6
Continuous
370
    25
100
AcDbLine
 10
124.122261047
 20
-45.0
 30
0.0
 11
123.672261047
 21
-41.5
 31
0.0
  0
LINE
  5
67
330
1D
100
AcDbEntity
  8
2
  6
Continuous
370
    25
100
AcDbLine
 10
123.672261047
 20
-41.5
 30
0.0
 11
124.572261047
 21
-41.5
 31
0.0
  0
LINE
  5
68
330
1D
100
AcDbEntity
  8
2
  6
Continuous
370
    25
100
AcDbLine
 10
124.572261047
 20
-41.5
 30
0.0
 11
124.122261047
 21
-45.0
 31
0.0
  0
LINE
  5
69
330
1D
100
AcDbEntity
  8
2
  6
Continuous
370
    25
100
AcDbLine
 10
126.122261047
 20
45.0
 30
0.0
 11
49.5
 21
45.0
 31
0.0
  0
LINE
  5
6A
330
1D
100
AcDbEntity
  8
2
  6
Continuous
370
    25
100
AcDbLine
 10
124.122261047
 20
45.0
 30
0.0
 11
124.572261047
 21
41.5
 31
0.0
  0
LINE
  5
6B
330
1D
100
AcDbEntity
  8
2
  6
Continuous
370
    25
100
AcDbLine
 10
124.572261047
 20
41.5
 30
0.0
 11
123.672261047
 21
41.5
 31
0.0
  0
LINE
  5
6C
330
1D
100
AcDbEntity
  8
2
  6
Continuous
370
    25
100
AcDbLine
 10
123.672261047
 20
41.5
 30
0.0
 11
124.122261047
 21
45.0
 31
0.0
  0
LINE
  5
6D
330
1D
100
AcDbEntity
  8
2
  6
Continuous
370
    25
100
AcDbLine
 10
124.122261047
 20
-41.5
 30
0.0
 11
124.122261047
 21
41.5
 31
0.0
  0
TEXT
  5
6E
330
1D
100
AcDbEntity
  8
2
  6
Continuous
370
    25
100
AcDbText
 10
122.622261047
 20
0.139998994
 30
0.0
 40
3.5
  1
90
 50
90.0
  7
BMG_Text
100
AcDbText
  0
CIRCLE
  5
6F
330
1D
100
AcDbEntity
  8
2
  6
Continuous
370
    25
100
AcDbCircle
 10
121.372261047
 20
-2.110001006
 30
0.0
 40
1.25
  0
LINE
  5
70
330
1D
100
AcDbEntity
  8
2
  6
Continuous
370
    25
100
AcDbLine
 10
122.622261047
 20
-3.360001006
 30
0.0
 11
120.122261047
 21
-0.860001006
 31
0.0
  0
LINE
  5
71
330
1D
100
AcDbEntity
  8
2
  6
Continuous
370
    25
100
AcDbLine
 10
116.296581268
 20
-23.0
 30
0.0
 11
94.0
 21
-23.0
 31
0.0
  0
LINE
  5
72
330
1D
100
AcDbEntity
  8
2
  6
Continuous
370
    25
100
AcDbLine
 10
114.296581268
 20
-23.0
 30
0.0
 11
113.846581268
 21
-19.5
 31
0.0
  0
LINE
  5
73
330
1D
100
AcDbEntity
  8
2
  6
Continuous
370
    25
100
AcDbLine
 10
113.846581268
 20
-19.5
 30
0.0
 11
114.746581268
 21
-19.5
 31
0.0
  0
LINE
  5
74
330
1D
100
AcDbEntity
  8
2
  6
Continuous
370
    25
100
AcDbLine
 10
114.746581268
 20
-19.5
 30
0.0
 11
114.296581268
 21
-23.0
 31
0.0
  0
LINE
  5
75
330
1D
100
AcDbEntity
  8
2
  6
Continuous
370
    25
100
AcDbLine
 10
116.296581268
 20
23.0
 30
0.0
 11
94.0
 21
23.0
 31
0.0
  0
LINE
  5
76
330
1D
100
AcDbEntity
  8
2
  6
Continuous
370
    25
100
AcDbLine
 10
114.296581268
 20
23.0
 30
0.0
 11
114.746581268
 21
19.5
 31
0.0
  0
LINE
  5
77
330
1D
100
AcDbEntity
  8
2
  6
Continuous
370
    25
100
AcDbLine
 10
114.746581268
 20
19.5
 30
0.0
 11
113.846581268
 21
19.5
 31
0.0
  0
LINE
  5
78
330
1D
100
AcDbEntity
  8
2
  6
Continuous
370
    25
100
AcDbLine
 10
113.846581268
 20
19.5
 30
0.0
 11
114.296581268
 21
23.0
 31
0.0
  0
LINE
  5
79
330
1D
100
AcDbEntity
  8
2
  6
Continuous
370
    25
100
AcDbLine
 10
114.296581268
 20
-19.5
 30
0.0
 11
114.296581268
 21
19.5
 31
0.0
  0
TEXT
  5
7A
330
1D
100
AcDbEntity
  8
2
  6
Continuous
370
    25
100
AcDbText
 10
112.796581268
 20
0.139999486
 30
0.0
 40
3.5
  1
46
 50
90.0
  7
BMG_Text
100
AcDbText
  0
CIRCLE
  5
7B
330
1D
100
AcDbEntity
  8
2
  6
Continuous
370
    25
100
AcDbCircle
 10
111.546581268
 20
-2.110000514
 30
0.0
 40
1.25
  0
LINE
  5
7C
330
1D
100
AcDbEntity
  8
2
  6
Continuous
370
    25
100
AcDbLine
 10
112.796581268
 20
-3.360000514
 30
0.0
 11
110.296581268
 21
-0.860000514
 31
0.0
  0
LINE
  5
7D
330
1D
100
AcDbEntity
  8
1
100
AcDbLine
 10
69.049728
 20
9.672277701
 30
0.0
 11
69.049728
 21
9.527168709
 31
0.0
  0
LINE
  5
7E
330
1D
100
AcDbEntity
  8
1
100
AcDbLine
 10
69.049728
 20
-9.672277701
 30
0.0
 11
69.049728
 21
-9.527168709
 31
0.0
  0
LINE
  5
7F
330
1D
100
AcDbEntity
  8
1
100
AcDbLine
 10
67.549728
 20
-9.672277701
 30
0.0
 11
67.549728
 21
-9.527168709
 31
0.0
  0
LINE
  5
80
330
1D
100
AcDbEntity
  8
1
100
AcDbLine
 10
67.549728
 20
9.672277701
 30
0.0
 11
67.549728
 21
9.527168709
 31
0.0
  0
LINE
  5
81
330
1D
100
AcDbEntity
  8
1
100
AcDbLine
 10
78.706767284
 20
-0.3
 30
0.0
 11
80.772018649
 21
-0.3
 31
0.0
  0
LINE
  5
82
330
1D
100
AcDbEntity
  8
1
100
AcDbLine
 10
93.699728
 20
0.3
 30
0.0
 11
81.047454626
 21
0.3
 31
0.0
  0
LINE
  5
83
330
1D
100
AcDbEntity
  8
1
100
AcDbLine
 10
78.706767284
 20
0.3
 30
0.0
 11
75.570236335
 21
0.3
 31
0.0
  0
ARC
  5
84
330
1D
100
AcDbEntity
  8
1
100
AcDbCircle
 10
71.69035014
 20
-0.019596033
 30
0.0
 40
3.893026908
100
AcDbArc
 50
4.708966913
 51
38.541675852
  0
LINE
  5
85
330
1D
100
AcDbEntity
  8
1
100
AcDbLine
 10
74.735301165
 20
2.406085678
 30
0.0
 11
74.411104126
 21
3.207812235
 31
0.0
  0
LINE
  5
86
330
1D
100
AcDbEntity
  8
1
100
AcDbLine
 10
74.411104126
 20
3.207812235
 30
0.0
 11
75.881993906
 21
4.383279263
 31
0.0
  0
LINE
  5
87
330
1D
100
AcDbEntity
  8
1
100
AcDbLine
 10
75.881993906
 20
4.383279263
 30
0.0
 11
76.50007845
 21
4.874196165
 31
0.0
  0
ARC
  5
88
330
1D
100
AcDbEntity
  8
1
100
AcDbCircle
 10
69.042406315
 20
0.51076508
 30
0.0
 40
9.19856588
100
AcDbArc
 50
301.498294462
 51
315.0272668
  0
ARC
  5
89
330
1D
100
AcDbEntity
  8
1
100
AcDbCircle
 10
69.035752487
 20
0.517412578
 30
0.0
 40
9.207940956
100
AcDbArc
 50
315.0272668
 51
324.158782367
  0
ARC
  5
8A
330
1D
100
AcDbEntity
  8
1
100
AcDbCircle
 10
67.631728
 20
0.0
 30
0.0
 40
7.5
100
AcDbArc
 50
311.299958846
 51
334.677789343
  0
ARC
  5
8B
330
1D
100
AcDbEntity
  8
1
100
AcDbCircle
 10
67.631728
 20
0.0
 30
0.0
 40
7.5
100
AcDbArc
 50
18.712003447
 51
25.322210657
  0
ARC
  5
8C
330
1D
100
AcDbEntity
  8
1
100
AcDbCircle
 10
67.631728
 20
0.0
 30
0.0
 40
7.5
100
AcDbArc
 50
25.322210657
 51
48.700041154
  0
LINE
  5
8D
330
1D
100
AcDbEntity
  8
1
100
AcDbLine
 10
74.411104126
 20
-3.207812235
 30
0.0
 11
74.735301165
 21
-2.406085678
 31
0.0
  0
ARC
  5
8E
330
1D
100
AcDbEntity
  8
1
100
AcDbCircle
 10
71.695949478
 20
0.017376236
 30
0.0
 40
3.887264633
100
AcDbArc
 50
321.4324915089998
 51
355.316865727
  0
LINE
  5
8F
330
1D
100
AcDbEntity
  8
1
100
AcDbLine
 10
75.570236335
 20
-0.3
 30
0.0
 11
78.706767284
 21
-0.3
 31
0.0
  0
ARC
  5
90
330
1D
100
AcDbEntity
  8
1
100
AcDbCircle
 10
71.36904006
 20
0.41930688
 30
0.0
 40
7.37289924
100
AcDbArc
 50
333.803788154
 51
354.401265015
  0
ARC
  5
91
330
1D
100
AcDbEntity
  8
1
100
AcDbCircle
 10
71.380557188
 20
0.413574718
 30
0.0
 40
7.360029017
100
AcDbArc
 50
315.0272668
 51
333.804249021
  0
ARC
  5
92
330
1D
100
AcDbEntity
  8
1
100
AcDbCircle
 10
71.38587568
 20
0.408261285
 30
0.0
 40
7.352511109
100
AcDbArc
 50
314.0728328700001
 51
315.0272668
  0
LINE
  5
93
330
1D
100
AcDbEntity
  8
1
100
AcDbLine
 10
76.50007845
 20
-4.874196165
 30
0.0
 11
75.881993906
 21
-4.383279263
 31
0.0
  0
LINE
  5
94
330
1D
100
AcDbEntity
  8
1
100
AcDbLine
 10
75.881993906
 20
-4.383279263
 30
0.0
 11
74.411104126
 21
-3.207812235
 31
0.0
  0
ARC
  5
95
330
1D
100
AcDbEntity
  8
1
100
AcDbCircle
 10
67.685776356
 20
1.928443305
 30
0.0
 40
11.41009527
100
AcDbArc
 50
246.846672133
 51
261.446093866
  0
LINE
  5
96
330
1D
100
AcDbEntity
  8
1
100
AcDbLine
 10
81.047454626
 20
-0.3
 30
0.0
 11
93.699728
 21
-0.3
 31
0.0
  0
LINE
  5
97
330
1D
100
AcDbEntity
  8
1
100
AcDbLine
 10
93.699728
 20
-0.3
 30
0.0
 11
95.699728
 21
-0.3
 31
0.0
  0
ARC
  5
98
330
1D
100
AcDbEntity
  8
1
100
AcDbCircle
 10
95.699728
 20
0.0
 30
0.0
 40
0.3
100
AcDbArc
 50
270.0
 51
90.0
  0
LINE
  5
99
330
1D
100
AcDbEntity
  8
1
100
AcDbLine
 10
95.699728
 20
0.3
 30
0.0
 11
93.699728
 21
0.3
 31
0.0
  0
ARC
  5
9A
330
1D
100
AcDbEntity
  8
1
100
AcDbCircle
 10
67.549390225
 20
2.377737841
 30
0.0
 40
7.149430876
100
AcDbArc
 50
89.997293056
 51
102.60944137
  0
LINE
  5
9B
330
1D
100
AcDbEntity
  8
1
100
AcDbLine
 10
67.549728
 20
9.527168709
 30
0.0
 11
69.049728
 21
9.527168709
 31
0.0
  0
ARC
  5
9C
330
1D
100
AcDbEntity
  8
1
100
AcDbCircle
 10
69.142946939
 20
-2.414049037
 30
0.0
 40
11.941581597
100
AcDbArc
 50
13.136820998
 51
90.447269564
  0
LINE
  5
9D
330
1D
100
AcDbEntity
  8
1
100
AcDbLine
 10
80.772018649
 20
0.3
 30
0.0
 11
81.047454626
 21
0.3
 31
0.0
  0
LINE
  5
9E
330
1D
100
AcDbEntity
  8
1
100
AcDbLine
 10
81.047454626
 20
0.3
 30
0.0
 11
81.032058742
 21
0.753926827
 31
0.0
  0
LINE
  5
9F
330
1D
100
AcDbEntity
  8
1
100
AcDbLine
 10
81.032058742
 20
0.753926827
 30
0.0
 11
80.843386348
 21
2.05290142
 31
0.0
  0
LINE
  5
A0
330
1D
100
AcDbEntity
  8
1
100
AcDbLine
 10
80.843386348
 20
2.05290142
 30
0.0
 11
80.429756376
 21
3.335559644
 31
0.0
  0
LINE
  5
A1
330
1D
100
AcDbEntity
  8
1
100
AcDbLine
 10
80.429756376
 20
3.335559644
 30
0.0
 11
79.855410928
 21
4.457038262
 31
0.0
  0
LINE
  5
A2
330
1D
100
AcDbEntity
  8
1
100
AcDbLine
 10
79.855410928
 20
4.457038262
 30
0.0
 11
79.106498894
 21
5.499831142
 31
0.0
  0
LINE
  5
A3
330
1D
100
AcDbEntity
  8
1
100
AcDbLine
 10
79.106498894
 20
5.499831142
 30
0.0
 11
77.896743538
 21
6.711353622
 31
0.0
  0
LINE
  5
A4
330
1D
100
AcDbEntity
  8
1
100
AcDbLine
 10
77.896743538
 20
6.711353622
 30
0.0
 11
76.460615341
 21
7.733137676
 31
0.0
  0
LINE
  5
A5
330
1D
100
AcDbEntity
  8
1
100
AcDbLine
 10
76.460615341
 20
7.733137676
 30
0.0
 11
75.518389346
 21
8.243054325
 31
0.0
  0
LINE
  5
A6
330
1D
100
AcDbEntity
  8
1
100
AcDbLine
 10
75.518389346
 20
8.243054325
 30
0.0
 11
74.533463556
 21
8.672895754
 31
0.0
  0
LINE
  5
A7
330
1D
100
AcDbEntity
  8
1
100
AcDbLine
 10
74.533463556
 20
8.672895754
 30
0.0
 11
73.484521179
 21
9.033193565
 31
0.0
  0
LINE
  5
A8
330
1D
100
AcDbEntity
  8
1
100
AcDbLine
 10
73.484521179
 20
9.033193565
 30
0.0
 11
72.407376624
 21
9.31220219
 31
0.0
  0
LINE
  5
A9
330
1D
100
AcDbEntity
  8
1
100
AcDbLine
 10
72.407376624
 20
9.31220219
 30
0.0
 11
70.751919638
 21
9.581240126
 31
0.0
  0
LINE
  5
AA
330
1D
100
AcDbEntity
  8
1
100
AcDbLine
 10
70.751919638
 20
9.581240126
 30
0.0
 11
69.049728
 21
9.672277701
 31
0.0
  0
LINE
  5
AB
330
1D
100
AcDbEntity
  8
1
100
AcDbLine
 10
69.049728
 20
9.672277701
 30
0.0
 11
67.549728
 21
9.672277701
 31
0.0
  0
ARC
  5
AC
330
1D
100
AcDbEntity
  8
1
100
AcDbCircle
 10
67.489672393
 20
0.825236719
 30
0.0
 40
8.847244816
100
AcDbArc
 50
89.61106996500001
 51
119.007678726
  0
ARC
  5
AD
330
1D
100
AcDbEntity
  8
1
100
AcDbCircle
 10
67.043120033
 20
-0.125870481
 30
0.0
 40
9.500752119
100
AcDbArc
 50
113.864149332
 51
177.430860258
  0
LINE
  5
AE
330
1D
100
AcDbEntity
  8
1
100
AcDbLine
 10
57.55191752
 20
0.3
 30
0.0
 11
60.137730402
 21
0.3
 31
0.0
  0
ARC
  5
AF
330
1D
100
AcDbEntity
  8
1
100
AcDbCircle
 10
67.631728
 20
0.0
 30
0.0
 40
7.5
100
AcDbArc
 50
48.70004115300001
 51
177.707557224
  0
LINE
  5
B0
330
1D
100
AcDbEntity
  8
1
100
AcDbLine
 10
72.581736463
 20
5.634484557
 30
0.0
 11
73.461378564
 21
6.81398076
 31
0.0
  0
LINE
  5
B1
330
1D
100
AcDbEntity
  8
1
100
AcDbLine
 10
73.461378564
 20
6.81398076
 30
0.0
 11
73.848410316
 21
7.332444708
 31
0.0
  0
ARC
  5
B2
330
1D
100
AcDbEntity
  8
1
100
AcDbCircle
 10
67.625663458
 20
-0.555371892
 30
0.0
 40
10.046901472
100
AcDbArc
 50
51.729875085
 51
59.97631487499999
  0
ARC
  5
B3
330
1D
100
AcDbEntity
  8
1
100
AcDbCircle
 10
67.62900224
 20
-0.549594468
 30
0.0
 40
10.040247852
100
AcDbArc
 50
59.97631487499999
 51
71.741880154
  0
ARC
  5
B4
330
1D
100
AcDbEntity
  8
1
100
AcDbCircle
 10
67.631728
 20
-0.541328272
 30
0.0
 40
10.031543843
100
AcDbArc
 50
71.741872984
 51
90.0
  0
ARC
  5
B5
330
1D
100
AcDbEntity
  8
1
100
AcDbCircle
 10
67.631728
 20
-0.541328272
 30
0.0
 40
10.031543843
100
AcDbArc
 50
90.0
 51
99.42707927200001
  0
ARC
  5
B6
330
1D
100
AcDbEntity
  8
1
100
AcDbCircle
 10
67.685776356
 20
-1.928443306
 30
0.0
 40
11.41009527
100
AcDbArc
 50
98.55390613400002
 51
113.153327867
  0
LINE
  5
B7
330
1D
100
AcDbEntity
  8
1
100
AcDbLine
 10
57.55191752
 20
-0.3
 30
0.0
 11
60.137730402
 21
-0.3
 31
0.0
  0
ARC
  5
B8
330
1D
100
AcDbEntity
  8
1
100
AcDbCircle
 10
67.631728
 20
0.0
 30
0.0
 40
7.5
100
AcDbArc
 50
182.292442776
 51
311.299958846
  0
LINE
  5
B9
330
1D
100
AcDbEntity
  8
1
100
AcDbLine
 10
72.581736463
 20
-5.634484557
 30
0.0
 11
73.461378564
 21
-6.81398076
 31
0.0
  0
LINE
  5
BA
330
1D
100
AcDbEntity
  8
1
100
AcDbLine
 10
73.461378564
 20
-6.81398076
 30
0.0
 11
73.848410316
 21
-7.332444708
 31
0.0
  0
ARC
  5
BB
330
1D
100
AcDbEntity
  8
1
100
AcDbCircle
 10
67.625663458
 20
0.555371892
 30
0.0
 40
10.046901472
100
AcDbArc
 50
300.023685125
 51
308.270124915
  0
ARC
  5
BC
330
1D
100
AcDbEntity
  8
1
100
AcDbCircle
 10
67.62900224
 20
0.549594468
 30
0.0
 40
10.040247852
100
AcDbArc
 50
288.2581198459999
 51
300.023685125
  0
ARC
  5
BD
330
1D
100
AcDbEntity
  8
1
100
AcDbCircle
 10
67.631728
 20
0.541328271
 30
0.0
 40
10.031543843
100
AcDbArc
 50
270.0
 51
288.258127016
  0
ARC
  5
BE
330
1D
100
AcDbEntity
  8
1
100
AcDbCircle
 10
67.631728
 20
0.541328271
 30
0.0
 40
10.031543843
100
AcDbArc
 50
260.572920728
 51
270.0
  0
ARC
  5
BF
330
1D
100
AcDbEntity
  8
1
100
AcDbCircle
 10
67.549390225
 20
-2.377737841
 30
0.0
 40
7.149430876
100
AcDbArc
 50
257.39055863
 51
270.002706944
  0
LINE
  5
C0
330
1D
100
AcDbEntity
  8
1
100
AcDbLine
 10
67.549728
 20
-9.527168709
 30
0.0
 11
69.049728
 21
-9.527168709
 31
0.0
  0
ARC
  5
C1
330
1D
100
AcDbEntity
  8
1
100
AcDbCircle
 10
69.142946939
 20
2.414049037
 30
0.0
 40
11.941581597
100
AcDbArc
 50
269.552730436
 51
346.863179003
  0
LINE
  5
C2
330
1D
100
AcDbEntity
  8
1
100
AcDbLine
 10
80.772018649
 20
-0.3
 30
0.0
 11
81.047454626
 21
-0.3
 31
0.0
  0
LINE
  5
C3
330
1D
100
AcDbEntity
  8
1
100
AcDbLine
 10
81.047454626
 20
-0.3
 30
0.0
 11
81.032058742
 21
-0.753926827
 31
0.0
  0
LINE
  5
C4
330
1D
100
AcDbEntity
  8
1
100
AcDbLine
 10
81.032058742
 20
-0.753926827
 30
0.0
 11
80.83756807
 21
-2.072478339
 31
0.0
  0
LINE
  5
C5
330
1D
100
AcDbEntity
  8
1
100
AcDbLine
 10
80.83756807
 20
-2.072478339
 30
0.0
 11
80.429756376
 21
-3.335559644
 31
0.0
  0
LINE
  5
C6
330
1D
100
AcDbEntity
  8
1
100
AcDbLine
 10
80.429756376
 20
-3.335559644
 30
0.0
 11
79.847383117
 21
-4.468933496
 31
0.0
  0
LINE
  5
C7
330
1D
100
AcDbEntity
  8
1
100
AcDbLine
 10
79.847383117
 20
-4.468933496
 30
0.0
 11
79.106498894
 21
-5.499831142
 31
0.0
  0
LINE
  5
C8
330
1D
100
AcDbEntity
  8
1
100
AcDbLine
 10
79.106498894
 20
-5.499831142
 30
0.0
 11
78.312172865
 21
-6.34103301
 31
0.0
  0
LINE
  5
C9
330
1D
100
AcDbEntity
  8
1
100
AcDbLine
 10
78.312172865
 20
-6.34103301
 30
0.0
 11
77.422930322
 21
-7.086941342
 31
0.0
  0
LINE
  5
CA
330
1D
100
AcDbEntity
  8
1
100
AcDbLine
 10
77.422930322
 20
-7.086941342
 30
0.0
 11
76.460615341
 21
-7.733137676
 31
0.0
  0
LINE
  5
CB
330
1D
100
AcDbEntity
  8
1
100
AcDbLine
 10
76.460615341
 20
-7.733137676
 30
0.0
 11
75.177173379
 21
-8.402570432
 31
0.0
  0
LINE
  5
CC
330
1D
100
AcDbEntity
  8
1
100
AcDbLine
 10
75.177173379
 20
-8.402570432
 30
0.0
 11
73.816824347
 21
-8.928680635
 31
0.0
  0
LINE
  5
CD
330
1D
100
AcDbEntity
  8
1
100
AcDbLine
 10
73.816824347
 20
-8.928680635
 30
0.0
 11
72.407376624
 21
-9.31220219
 31
0.0
  0
LINE
  5
CE
330
1D
100
AcDbEntity
  8
1
100
AcDbLine
 10
72.407376624
 20
-9.31220219
 30
0.0
 11
70.740208473
 21
-9.582369417
 31
0.0
  0
LINE
  5
CF
330
1D
100
AcDbEntity
  8
1
100
AcDbLine
 10
70.740208473
 20
-9.582369417
 30
0.0
 11
69.049728
 21
-9.672277701
 31
0.0
  0
LINE
  5
D0
330
1D
100
AcDbEntity
  8
1
100
AcDbLine
 10
69.049728
 20
-9.672277701
 30
0.0
 11
67.549728
 21
-9.672277701
 31
0.0
  0
ARC
  5
D1
330
1D
100
AcDbEntity
  8
1
100
AcDbCircle
 10
67.489672393
 20
-0.825236719
 30
0.0
 40
8.847244816
100
AcDbArc
 50
240.992321274
 51
270.388930035
  0
ARC
  5
D2
330
1D
100
AcDbEntity
  8
1
100
AcDbCircle
 10
67.084444123
 20
0.154115379
 30
0.0
 40
9.543337164
100
AcDbArc
 50
182.727423672
 51
245.977566737
  0
LINE
  5
D3
330
1D
100
AcDbEntity
  8
1
100
AcDbLine
 10
57.55191752
 20
-0.3
 30
0.0
 11
54.299728
 21
-0.3
 31
0.0
  0
ARC
  5
D4
330
1D
100
AcDbEntity
  8
1
100
AcDbCircle
 10
54.299728
 20
0.0
 30
0.0
 40
0.3
100
AcDbArc
 50
90.0
 51
270.0
  0
LINE
  5
D5
330
1D
100
AcDbEntity
  8
1
100
AcDbLine
 10
54.299728
 20
0.3
 30
0.0
 11
57.55191752
 21
0.3
 31
0.0
  0
LINE
  5
D6
330
1D
100
AcDbEntity
  8
1
100
AcDbLine
 10
80.772018649
 20
0.3
 30
0.0
 11
78.706767284
 21
0.3
 31
0.0
  0
ARC
  5
D7
330
1D
100
AcDbEntity
  8
1
100
AcDbCircle
 10
71.36904006
 20
-0.41930688
 30
0.0
 40
7.37289924
100
AcDbArc
 50
5.598734985
 51
26.196211845
  0
ARC
  5
D8
330
1D
100
AcDbEntity
  8
1
100
AcDbCircle
 10
71.380557188
 20
-0.413574718
 30
0.0
 40
7.360029017
100
AcDbArc
 50
26.195750979
 51
44.97273319999999
  0
ARC
  5
D9
330
1D
100
AcDbEntity
  8
1
100
AcDbCircle
 10
71.38587568
 20
-0.408261286
 30
0.0
 40
7.352511109
100
AcDbArc
 50
44.97273319999999
 51
45.927167129
  0
ARC
  5
DA
330
1D
100
AcDbEntity
  8
1
100
AcDbCircle
 10
69.035752487
 20
-0.517412578
 30
0.0
 40
9.20791002
100
AcDbArc
 50
35.841217633
 51
44.97273319999999
  0
ARC
  5
DB
330
1D
100
AcDbEntity
  8
1
100
AcDbCircle
 10
69.042406315
 20
-0.51076508
 30
0.0
 40
9.198535498
100
AcDbArc
 50
44.97273319999999
 51
58.50170553800001
  0
LINE
  5
DC
330
1D
100
AcDbEntity
  8
SK1
100
AcDbLine
 10
-19.049728
 20
9.672277701
 30
0.0
 11
-19.049728
 21
9.527168709
 31
0.0
  0
LINE
  5
DD
330
1D
100
AcDbEntity
  8
SK1
100
AcDbLine
 10
-19.049728
 20
-9.672277701
 30
0.0
 11
-19.049728
 21
-9.527168709
 31
0.0
  0
LINE
  5
DE
330
1D
100
AcDbEntity
  8
4
  6
LONGDASH_DASH
370
    25
100
AcDbLine
 10
-17.549728
 20
-9.672277701
 30
0.0
 11
-17.549728
 21
-9.527168709
 31
0.0
  0
LINE
  5
DF
330
1D
100
AcDbEntity
  8
4
  6
LONGDASH_DASH
370
    25
100
AcDbLine
 10
-17.549728
 20
9.672277701
 30
0.0
 11
-17.549728
 21
9.527168709
 31
0.0
  0
LINE
  5
E0
330
1D
100
AcDbEntity
  8
SK1
100
AcDbLine
 10
-28.706767284
 20
-0.3
 30
0.0
 11
-30.772018649
 21
-0.3
 31
0.0
  0
LINE
  5
E1
330
1D
100
AcDbEntity
  8
SK1
100
AcDbLine
 10
-43.699728
 20
0.3
 30
0.0
 11
-31.047454626
 21
0.3
 31
0.0
  0
LINE
  5
E2
330
1D
100
AcDbEntity
  8
SK1
100
AcDbLine
 10
-28.706767284
 20
0.3
 30
0.0
 11
-25.570236335
 21
0.3
 31
0.0
  0
ARC
  5
E3
330
1D
100
AcDbEntity
  8
SK1
100
AcDbCircle
 10
-21.69035014
 20
-0.019596033
 30
0.0
 40
3.893026908
100
AcDbArc
 50
141.458324148
 51
175.291033087
  0
LINE
  5
E4
330
1D
100
AcDbEntity
  8
SK1
100
AcDbLine
 10
-24.735301165
 20
2.406085678
 30
0.0
 11
-24.411104126
 21
3.207812235
 31
0.0
  0
LINE
  5
E5
330
1D
100
AcDbEntity
  8
SK1
100
AcDbLine
 10
-24.411104126
 20
3.207812235
 30
0.0
 11
-25.881993906
 21
4.383279263
 31
0.0
  0
LINE
  5
E6
330
1D
100
AcDbEntity
  8
SK1
100
AcDbLine
 10
-25.881993906
 20
4.383279263
 30
0.0
 11
-26.50007845
 21
4.874196165
 31
0.0
  0
ARC
  5
E7
330
1D
100
AcDbEntity
  8
SK1
100
AcDbCircle
 10
-19.042406315
 20
0.51076508
 30
0.0
 40
9.19856588
100
AcDbArc
 50
224.9727332
 51
238.501705538
  0
ARC
  5
E8
330
1D
100
AcDbEntity
  8
SK1
100
AcDbCircle
 10
-19.035752487
 20
0.517412578
 30
0.0
 40
9.207940956
100
AcDbArc
 50
215.841217633
 51
224.9727332
  0
ARC
  5
E9
330
1D
100
AcDbEntity
  8
SK1
100
AcDbCircle
 10
-17.631728
 20
0.0
 30
0.0
 40
7.5
100
AcDbArc
 50
205.322210657
 51
228.700041154
  0
ARC
  5
EA
330
1D
100
AcDbEntity
  8
SK1
100
AcDbCircle
 10
-17.631728
 20
0.0
 30
0.0
 40
7.5
100
AcDbArc
 50
154.677789343
 51
161.287996553
  0
ARC
  5
EB
330
1D
100
AcDbEntity
  8
SK1
100
AcDbCircle
 10
-17.631728
 20
0.0
 30
0.0
 40
7.5
100
AcDbArc
 50
131.299958846
 51
154.677789343
  0
LINE
  5
EC
330
1D
100
AcDbEntity
  8
SK1
100
AcDbLine
 10
-24.411104126
 20
-3.207812235
 30
0.0
 11
-24.735301165
 21
-2.406085678
 31
0.0
  0
ARC
  5
ED
330
1D
100
AcDbEntity
  8
SK1
100
AcDbCircle
 10
-21.695949478
 20
0.017376236
 30
0.0
 40
3.887264633
100
AcDbArc
 50
184.683134273
 51
218.567508491
  0
LINE
  5
EE
330
1D
100
AcDbEntity
  8
SK1
100
AcDbLine
 10
-25.570236335
 20
-0.3
 30
0.0
 11
-28.706767284
 21
-0.3
 31
0.0
  0
ARC
  5
EF
330
1D
100
AcDbEntity
  8
SK1
100
AcDbCircle
 10
-21.36904006
 20
0.41930688
 30
0.0
 40
7.37289924
100
AcDbArc
 50
185.598734985
 51
206.196211846
  0
ARC
  5
F0
330
1D
100
AcDbEntity
  8
SK1
100
AcDbCircle
 10
-21.380557188
 20
0.413574718
 30
0.0
 40
7.360029017
100
AcDbArc
 50
206.195750979
 51
224.9727332
  0
ARC
  5
F1
330
1D
100
AcDbEntity
  8
SK1
100
AcDbCircle
 10
-21.38587568
 20
0.408261285
 30
0.0
 40
7.352511109
100
AcDbArc
 50
224.9727332
 51
225.92716713
  0
LINE
  5
F2
330
1D
100
AcDbEntity
  8
SK1
100
AcDbLine
 10
-26.50007845
 20
-4.874196165
 30
0.0
 11
-25.881993906
 21
-4.383279263
 31
0.0
  0
LINE
  5
F3
330
1D
100
AcDbEntity
  8
SK1
100
AcDbLine
 10
-25.881993906
 20
-4.383279263
 30
0.0
 11
-24.411104126
 21
-3.207812235
 31
0.0
  0
ARC
  5
F4
330
1D
100
AcDbEntity
  8
SK1
100
AcDbCircle
 10
-17.685776356
 20
1.928443305
 30
0.0
 40
11.41009527
100
AcDbArc
 50
278.553906134
 51
293.153327867
  0
LINE
  5
F5
330
1D
100
AcDbEntity
  8
SK1
100
AcDbLine
 10
-31.047454626
 20
-0.3
 30
0.0
 11
-43.699728
 21
-0.3
 31
0.0
  0
LINE
  5
F6
330
1D
100
AcDbEntity
  8
SK1
100
AcDbLine
 10
-43.699728
 20
-0.3
 30
0.0
 11
-45.699728
 21
-0.3
 31
0.0
  0
ARC
  5
F7
330
1D
100
AcDbEntity
  8
SK1
100
AcDbCircle
 10
-45.699728
 20
0.0
 30
0.0
 40
0.3
100
AcDbArc
 50
90.0
 51
270.0
  0
LINE
  5
F8
330
1D
100
AcDbEntity
  8
SK1
100
AcDbLine
 10
-45.699728
 20
0.3
 30
0.0
 11
-43.699728
 21
0.3
 31
0.0
  0
ARC
  5
F9
330
1D
100
AcDbEntity
  8
SK1
100
AcDbCircle
 10
-17.549390225
 20
2.377737841
 30
0.0
 40
7.149430876
100
AcDbArc
 50
77.39055863000002
 51
90.00270694400001
  0
LINE
  5
FA
330
1D
100
AcDbEntity
  8
SK1
100
AcDbLine
 10
-17.549728
 20
9.527168709
 30
0.0
 11
-19.049728
 21
9.527168709
 31
0.0
  0
ARC
  5
FB
330
1D
100
AcDbEntity
  8
SK1
100
AcDbCircle
 10
-19.142946939
 20
-2.414049037
 30
0.0
 40
11.941581597
100
AcDbArc
 50
89.552730436
 51
166.863179002
  0
LINE
  5
FC
330
1D
100
AcDbEntity
  8
SK1
100
AcDbLine
 10
-30.772018649
 20
0.3
 30
0.0
 11
-31.047454626
 21
0.3
 31
0.0
  0
LINE
  5
FD
330
1D
100
AcDbEntity
  8
SK1
100
AcDbLine
 10
-31.047454626
 20
0.3
 30
0.0
 11
-31.032058742
 21
0.753926827
 31
0.0
  0
LINE
  5
FE
330
1D
100
AcDbEntity
  8
SK1
100
AcDbLine
 10
-31.032058742
 20
0.753926827
 30
0.0
 11
-30.843386348
 21
2.05290142
 31
0.0
  0
LINE
  5
FF
330
1D
100
AcDbEntity
  8
SK1
100
AcDbLine
 10
-30.843386348
 20
2.05290142
 30
0.0
 11
-30.429756376
 21
3.335559644
 31
0.0
  0
LINE
  5
100
330
1D
100
AcDbEntity
  8
SK1
100
AcDbLine
 10
-30.429756376
 20
3.335559644
 30
0.0
 11
-29.855410928
 21
4.457038262
 31
0.0
  0
LINE
  5
101
330
1D
100
AcDbEntity
  8
SK1
100
AcDbLine
 10
-29.855410928
 20
4.457038262
 30
0.0
 11
-29.106498894
 21
5.499831142
 31
0.0
  0
LINE
  5
102
330
1D
100
AcDbEntity
  8
SK1
100
AcDbLine
 10
-29.106498894
 20
5.499831142
 30
0.0
 11
-27.896743538
 21
6.711353622
 31
0.0
  0
LINE
  5
103
330
1D
100
AcDbEntity
  8
SK1
100
AcDbLine
 10
-27.896743538
 20
6.711353622
 30
0.0
 11
-26.460615341
 21
7.733137676
 31
0.0
  0
LINE
  5
104
330
1D
100
AcDbEntity
  8
SK1
100
AcDbLine
 10
-26.460615341
 20
7.733137676
 30
0.0
 11
-25.518389346
 21
8.243054325
 31
0.0
  0
LINE
  5
105
330
1D
100
AcDbEntity
  8
SK1
100
AcDbLine
 10
-25.518389346
 20
8.243054325
 30
0.0
 11
-24.533463556
 21
8.672895754
 31
0.0
  0
LINE
  5
106
330
1D
100
AcDbEntity
  8
SK1
100
AcDbLine
 10
-24.533463556
 20
8.672895754
 30
0.0
 11
-23.484521179
 21
9.033193565
 31
0.0
  0
LINE
  5
107
330
1D
100
AcDbEntity
  8
SK1
100
AcDbLine
 10
-23.484521179
 20
9.033193565
 30
0.0
 11
-22.407376624
 21
9.31220219
 31
0.0
  0
LINE
  5
108
330
1D
100
AcDbEntity
  8
SK1
100
AcDbLine
 10
-22.407376624
 20
9.31220219
 30
0.0
 11
-20.751919638
 21
9.581240126
 31
0.0
  0
LINE
  5
109
330
1D
100
AcDbEntity
  8
SK1
100
AcDbLine
 10
-20.751919638
 20
9.581240126
 30
0.0
 11
-19.049728
 21
9.672277701
 31
0.0
  0
LINE
  5
10A
330
1D
100
AcDbEntity
  8
SK1
100
AcDbLine
 10
-19.049728
 20
9.672277701
 30
0.0
 11
-17.549728
 21
9.672277701
 31
0.0
  0
ARC
  5
10B
330
1D
100
AcDbEntity
  8
SK1
100
AcDbCircle
 10
-17.489672393
 20
0.825236719
 30
0.0
 40
8.847244816
100
AcDbArc
 50
60.99232127400001
 51
90.388930035
  0
ARC
  5
10C
330
1D
100
AcDbEntity
  8
SK1
100
AcDbCircle
 10
-17.043120033
 20
-0.125870481
 30
0.0
 40
9.500752119
100
AcDbArc
 50
2.569139742
 51
66.135850667
  0
LINE
  5
10D
330
1D
100
AcDbEntity
  8
SK1
100
AcDbLine
 10
-7.55191752
 20
0.3
 30
0.0
 11
-10.137730402
 21
0.3
 31
0.0
  0
ARC
  5
10E
330
1D
100
AcDbEntity
  8
SK1
100
AcDbCircle
 10
-17.631728
 20
0.0
 30
0.0
 40
7.5
100
AcDbArc
 50
2.292442776
 51
131.299958847
  0
LINE
  5
10F
330
1D
100
AcDbEntity
  8
SK1
100
AcDbLine
 10
-22.581736463
 20
5.634484557
 30
0.0
 11
-23.461378564
 21
6.81398076
 31
0.0
  0
LINE
  5
110
330
1D
100
AcDbEntity
  8
SK1
100
AcDbLine
 10
-23.461378564
 20
6.81398076
 30
0.0
 11
-23.848410316
 21
7.332444708
 31
0.0
  0
ARC
  5
111
330
1D
100
AcDbEntity
  8
SK1
100
AcDbCircle
 10
-17.625663458
 20
-0.555371892
 30
0.0
 40
10.046901472
100
AcDbArc
 50
120.023685125
 51
128.270124915
  0
ARC
  5
112
330
1D
100
AcDbEntity
  8
SK1
100
AcDbCircle
 10
-17.62900224
 20
-0.549594468
 30
0.0
 40
10.040247852
100
AcDbArc
 50
108.258119846
 51
120.023685125
  0
ARC
  5
113
330
1D
100
AcDbEntity
  8
SK1
100
AcDbCircle
 10
-17.631728
 20
-0.541328272
 30
0.0
 40
10.031543843
100
AcDbArc
 50
90.0
 51
108.258127016
  0
ARC
  5
114
330
1D
100
AcDbEntity
  8
SK1
100
AcDbCircle
 10
-17.631728
 20
-0.541328272
 30
0.0
 40
10.031543843
100
AcDbArc
 50
80.57292072800001
 51
90.0
  0
ARC
  5
115
330
1D
100
AcDbEntity
  8
SK1
100
AcDbCircle
 10
-17.685776356
 20
-1.928443306
 30
0.0
 40
11.41009527
100
AcDbArc
 50
66.84667213299998
 51
81.446093866
  0
LINE
  5
116
330
1D
100
AcDbEntity
  8
SK1
100
AcDbLine
 10
-7.55191752
 20
-0.3
 30
0.0
 11
-10.137730402
 21
-0.3
 31
0.0
  0
ARC
  5
117
330
1D
100
AcDbEntity
  8
SK1
100
AcDbCircle
 10
-17.631728
 20
0.0
 30
0.0
 40
7.5
100
AcDbArc
 50
228.700041154
 51
357.707557224
  0
LINE
  5
118
330
1D
100
AcDbEntity
  8
SK1
100
AcDbLine
 10
-22.581736463
 20
-5.634484557
 30
0.0
 11
-23.461378564
 21
-6.81398076
 31
0.0
  0
LINE
  5
119
330
1D
100
AcDbEntity
  8
SK1
100
AcDbLine
 10
-23.461378564
 20
-6.81398076
 30
0.0
 11
-23.848410316
 21
-7.332444708
 31
0.0
  0
ARC
  5
11A
330
1D
100
AcDbEntity
  8
SK1
100
AcDbCircle
 10
-17.625663458
 20
0.555371892
 30
0.0
 40
10.046901472
100
AcDbArc
 50
231.729875085
 51
239.976314875
  0
ARC
  5
11B
330
1D
100
AcDbEntity
  8
SK1
100
AcDbCircle
 10
-17.62900224
 20
0.549594468
 30
0.0
 40
10.040247852
100
AcDbArc
 50
239.976314875
 51
251.741880154
  0
ARC
  5
11C
330
1D
100
AcDbEntity
  8
SK1
100
AcDbCircle
 10
-17.631728
 20
0.541328271
 30
0.0
 40
10.031543843
100
AcDbArc
 50
251.741872984
 51
270.0
  0
ARC
  5
11D
330
1D
100
AcDbEntity
  8
SK1
100
AcDbCircle
 10
-17.631728
 20
0.541328271
 30
0.0
 40
10.031543843
100
AcDbArc
 50
270.0
 51
279.427079272
  0
ARC
  5
11E
330
1D
100
AcDbEntity
  8
SK1
100
AcDbCircle
 10
-17.549390225
 20
-2.377737841
 30
0.0
 40
7.149430876
100
AcDbArc
 50
269.997293056
 51
282.60944137
  0
LINE
  5
11F
330
1D
100
AcDbEntity
  8
SK1
100
AcDbLine
 10
-17.549728
 20
-9.527168709
 30
0.0
 11
-19.049728
 21
-9.527168709
 31
0.0
  0
ARC
  5
120
330
1D
100
AcDbEntity
  8
SK1
100
AcDbCircle
 10
-19.142946939
 20
2.414049037
 30
0.0
 40
11.941581597
100
AcDbArc
 50
193.136820997
 51
270.447269564
  0
LINE
  5
121
330
1D
100
AcDbEntity
  8
SK1
100
AcDbLine
 10
-30.772018649
 20
-0.3
 30
0.0
 11
-31.047454626
 21
-0.3
 31
0.0
  0
LINE
  5
122
330
1D
100
AcDbEntity
  8
SK1
100
AcDbLine
 10
-31.047454626
 20
-0.3
 30
0.0
 11
-31.032058742
 21
-0.753926827
 31
0.0
  0
LINE
  5
123
330
1D
100
AcDbEntity
  8
SK1
100
AcDbLine
 10
-31.032058742
 20
-0.753926827
 30
0.0
 11
-30.83756807
 21
-2.072478339
 31
0.0
  0
LINE
  5
124
330
1D
100
AcDbEntity
  8
SK1
100
AcDbLine
 10
-30.83756807
 20
-2.072478339
 30
0.0
 11
-30.429756376
 21
-3.335559644
 31
0.0
  0
LINE
  5
125
330
1D
100
AcDbEntity
  8
SK1
100
AcDbLine
 10
-30.429756376
 20
-3.335559644
 30
0.0
 11
-29.847383117
 21
-4.468933496
 31
0.0
  0
LINE
  5
126
330
1D
100
AcDbEntity
  8
SK1
100
AcDbLine
 10
-29.847383117
 20
-4.468933496
 30
0.0
 11
-29.106498894
 21
-5.499831142
 31
0.0
  0
LINE
  5
127
330
1D
100
AcDbEntity
  8
SK1
100
AcDbLine
 10
-29.106498894
 20
-5.499831142
 30
0.0
 11
-28.312172865
 21
-6.34103301
 31
0.0
  0
LINE
  5
128
330
1D
100
AcDbEntity
  8
SK1
100
AcDbLine
 10
-28.312172865
 20
-6.34103301
 30
0.0
 11
-27.422930322
 21
-7.086941342
 31
0.0
  0
LINE
  5
129
330
1D
100
AcDbEntity
  8
SK1
100
AcDbLine
 10
-27.422930322
 20
-7.086941342
 30
0.0
 11
-26.460615341
 21
-7.733137676
 31
0.0
  0
LINE
  5
12A
330
1D
100
AcDbEntity
  8
SK1
100
AcDbLine
 10
-26.460615341
 20
-7.733137676
 30
0.0
 11
-25.177173379
 21
-8.402570432
 31
0.0
  0
LINE
  5
12B
330
1D
100
AcDbEntity
  8
SK1
100
AcDbLine
 10
-25.177173379
 20
-8.402570432
 30
0.0
 11
-23.816824347
 21
-8.928680635
 31
0.0
  0
LINE
  5
12C
330
1D
100
AcDbEntity
  8
SK1
100
AcDbLine
 10
-23.816824347
 20
-8.928680635
 30
0.0
 11
-22.407376624
 21
-9.31220219
 31
0.0
  0
LINE
  5
12D
330
1D
100
AcDbEntity
  8
SK1
100
AcDbLine
 10
-22.407376624
 20
-9.31220219
 30
0.0
 11
-20.740208473
 21
-9.582369417
 31
0.0
  0
LINE
  5
12E
330
1D
100
AcDbEntity
  8
SK1
100
AcDbLine
 10
-20.740208473
 20
-9.582369417
 30
0.0
 11
-19.049728
 21
-9.672277701
 31
0.0
  0
LINE
  5
12F
330
1D
100
AcDbEntity
  8
SK1
100
AcDbLine
 10
-19.049728
 20
-9.672277701
 30
0.0
 11
-17.549728
 21
-9.672277701
 31
0.0
  0
ARC
  5
130
330
1D
100
AcDbEntity
  8
SK1
100
AcDbCircle
 10
-17.489672393
 20
-0.825236719
 30
0.0
 40
8.847244816
100
AcDbArc
 50
269.611069965
 51
299.007678726
  0
ARC
  5
131
330
1D
100
AcDbEntity
  8
SK1
100
AcDbCircle
 10
-17.084444123
 20
0.154115379
 30
0.0
 40
9.543337164
100
AcDbArc
 50
294.022433263
 51
357.272576328
  0
LINE
  5
132
330
1D
100
AcDbEntity
  8
SK1
100
AcDbLine
 10
-7.55191752
 20
-0.3
 30
0.0
 11
-4.299728
 21
-0.3
 31
0.0
  0
ARC
  5
133
330
1D
100
AcDbEntity
  8
SK1
100
AcDbCircle
 10
-4.299728
 20
0.0
 30
0.0
 40
0.3
100
AcDbArc
 50
270.0
 51
90.0
  0
LINE
  5
134
330
1D
100
AcDbEntity
  8
SK1
100
AcDbLine
 10
-4.299728
 20
0.3
 30
0.0
 11
-7.55191752
 21
0.3
 31
0.0
  0
LINE
  5
135
330
1D
100
AcDbEntity
  8
SK1
100
AcDbLine
 10
-30.772018649
 20
0.3
 30
0.0
 11
-28.706767284
 21
0.3
 31
0.0
  0
ARC
  5
136
330
1D
100
AcDbEntity
  8
SK1
100
AcDbCircle
 10
-21.36904006
 20
-0.41930688
 30
0.0
 40
7.37289924
100
AcDbArc
 50
153.803788155
 51
174.401265015
  0
ARC
  5
137
330
1D
100
AcDbEntity
  8
SK1
100
AcDbCircle
 10
-21.380557188
 20
-0.413574718
 30
0.0
 40
7.360029017
100
AcDbArc
 50
135.0272668
 51
153.804249021
  0
ARC
  5
138
330
1D
100
AcDbEntity
  8
SK1
100
AcDbCircle
 10
-21.38587568
 20
-0.408261286
 30
0.0
 40
7.352511109
100
AcDbArc
 50
134.072832871
 51
135.0272668
  0
ARC
  5
139
330
1D
100
AcDbEntity
  8
SK1
100
AcDbCircle
 10
-19.035752487
 20
-0.517412578
 30
0.0
 40
9.20791002
100
AcDbArc
 50
135.0272668
 51
144.158782367
  0
ARC
  5
13A
330
1D
100
AcDbEntity
  8
SK1
100
AcDbCircle
 10
-19.042406315
 20
-0.51076508
 30
0.0
 40
9.198535498
100
AcDbArc
 50
121.498294462
 51
135.0272668
  0
LINE
  5
1E1
330
1D
100
AcDbEntity
  8
NOCUT
100
AcDbLine
 10
0.0
 20
0.0
 30
0.0
 11
0.0
 21
44.5
 31
0.0
  0
LINE
  5
1E2
330
1D
100
AcDbEntity
  8
NOCUT
100
AcDbLine
 10
0.0
 20
44.5
 30
0.0
 11
0.5
 21
45.0
 31
0.0
  0
LINE
  5
1E3
330
1D
100
AcDbEntity
  8
NOCUT
100
AcDbLine
 10
0.5
 20
45.0
 30
0.0
 11
49.5
 21
45.0
 31
0.0
  0
LINE
  5
1E4
330
1D
100
AcDbEntity
  8
NOCUT
100
AcDbLine
 10
49.5
 20
45.0
 30
0.0
 11
50.0
 21
44.5
 31
0.0
  0
LINE
  5
1E5
330
1D
100
AcDbEntity
  8
NOCUT
100
AcDbLine
 10
50.0
 20
44.5
 30
0.0
 11
50.0
 21
22.46698729810778
 31
0.0
  0
ARC
  5
1E6
330
1D
100
AcDbEntity
  8
NOCUT
100
AcDbCircle
 10
50.24999999994948
 20
22.89999999985119
 30
0.0
 40
0.4999999998458639
100
AcDbArc
 50
239.9999999964873
 51
285.0000000639617
  0
LINE
  5
1E7
330
1D
100
AcDbEntity
  8
NOCUT
100
AcDbLine
 10
50.37940952249225
 20
22.41703708683965
 30
0.0
 11
52.555056733
 21
23.0
 31
0.0
  0
LINE
  5
1E8
330
1D
100
AcDbEntity
  8
NOCUT
100
AcDbLine
 10
52.555056733
 20
23.0
 30
0.0
 11
94.0
 21
23.0
 31
0.0
  0
LINE
  5
1E9
330
1D
100
AcDbEntity
  8
NOCUT
100
AcDbLine
 10
94.0
 20
23.0
 30
0.0
 11
96.605707514
 21
22.633791691
 31
0.0
  0
LINE
  5
1EA
330
1D
100
AcDbEntity
  8
NOCUT
100
AcDbLine
 10
96.605707514
 20
22.633791691
 30
0.0
 11
98.57918662179968
 21
22.98176930361465
 31
0.0
  0
ARC
  5
1EB
330
1D
100
AcDbEntity
  8
NOCUT
100
AcDbCircle
 10
98.787564435
 20
21.8
 30
0.0
 40
1.199999999999998
100
AcDbArc
 50
40.50379292699978
 51
99.99999999999994
  0
LINE
  5
1EC
330
1D
100
AcDbEntity
  8
NOCUT
100
AcDbLine
 10
99.70000000029682
 20
22.57939806208474
 30
0.0
 11
99.7
 21
0.0
 31
0.0
  0
LINE
  5
1ED
330
1D
100
AcDbEntity
  8
NOCUT
100
AcDbLine
 10
99.7
 20
0.0
 30
0.0
 11
0.0
 21
0.0
 31
0.0
  0
LWPOLYLINE
  5
214
330
1D
100
AcDbEntity
  8
INFTOTAL
100
AcDbPolyline
 90
        4
 70
     1
 43
0.0
 10
-103.3790065543877
 20
67.85120100717214
 10
-103.3790065543877
 20
-68.57300425876696
 10
159.8307373010928
 20
-68.57300425876696
 10
159.8307373010928
 20
67.85120100717214
  0
LINE
  5
218
330
1D
100
AcDbEntity
  8
3
100
AcDbLine
 10
99.7
 20
11.05
 30
0.0
 11
-0.0000000000000284
 21
11.05
 31
0.0
  0
LINE
  5
219
330
1D
100
AcDbEntity
  8
3
100
AcDbLine
 10
99.7
 20
-11.05
 30
0.0
 11
0.0
 21
-11.05
 31
0.0
  0
LINE
  5
21C
330
1D
100
AcDbEntity
  8
SK1
100
AcDbLine
 10
0.0000000000000001
 20
-22.46698729810778
 30
0.0
 11
0.0000000000000001
 21
22.46698729810778
 31
0.0
  0
LINE
  5
230
330
1D
100
AcDbEntity
  8
4
100
AcDbLine
 10
67.631728
 20
9.258744544
 30
0.0
 11
67.631728
 21
-9.130054256
 31
0.0
  0
LINE
  5
231
330
1D
100
AcDbEntity
  8
4
100
AcDbLine
 10
102.944228904
 20
0.0
 30
0.0
 11
0.0
 21
0.0
 31
0.0
  0
ENDSEC
  0
SECTION
  2
OBJECTS
  0
DICTIONARY
  5
C
330
0
100
AcDbDictionary
281
     1
  3
ACAD_DETAILVIEWSTYLE
350
1D5
  3
ACAD_GROUP
350
D
  3
ACAD_LAYOUT
350
1A
  3
ACAD_MATERIAL
350
178
  3
ACAD_MLEADERSTYLE
350
185
  3
ACAD_MLINESTYLE
350
17
  3
ACAD_PLOTSETTINGS
350
19
  3
ACAD_PLOTSTYLENAME
350
E
  3
ACAD_SCALELIST
350
141
  3
ACAD_SECTIONVIEWSTYLE
350
1D6
  3
ACAD_TABLESTYLE
350
1CE
  3
ACAD_VISUALSTYLE
350
167
  3
ACDB_RECOMPOSE_DATA
350
239
  3
AcDbVariableDictionary
350
183
  3
APPDATA
350
1D1
  0
SUN
  5
215
330
13B
100
AcDbSun
 90
        1
290
     0
 63
     7
421
 16777215
 40
1.0
291
     1
 91
  2455826
 92
 54000000
292
     0
 70
     2
 71
   256
280
     1
  0
DICTIONARY
  5
1D7
330
2
100
AcDbDictionary
280
     1
281
     1
  3
ACAD_LAYERSTATES
360
1D8
  0
DICTIONARY
  5
1D5
102
{ACAD_REACTORS
330
C
102
}
330
C
100
AcDbDictionary
281
     1
  0
DICTIONARY
  5
D
102
{ACAD_REACTORS
330
C
102
}
330
C
100
AcDbDictionary
281
     1
  0
DICTIONARY
  5
1A
102
{ACAD_REACTORS
330
C
102
}
330
C
100
AcDbDictionary
281
     1
  3
Layout1
350
1C
  3
Model
350
1E
  0
DICTIONARY
  5
178
102
{ACAD_REACTORS
330
C
102
}
330
C
100
AcDbDictionary
281
     1
  3
ByBlock
350
17A
  3
ByLayer
350
179
  3
Global
350
17B
  0
DICTIONARY
  5
185
102
{ACAD_REACTORS
330
C
102
}
330
C
100
AcDbDictionary
281
     1
  3
Standard
350
1D0
  0
DICTIONARY
  5
17
102
{ACAD_REACTORS
330
C
102
}
330
C
100
AcDbDictionary
281
     1
  3
Standard
350
18
  0
DICTIONARY
  5
19
102
{ACAD_REACTORS
330
C
102
}
330
C
100
AcDbDictionary
281
     1
  0
ACDBDICTIONARYWDFLT
  5
E
102
{ACAD_REACTORS
330
C
102
}
330
C
100
AcDbDictionary
281
     1
  3
Normal
350
F
100
AcDbDictionaryWithDefault
340
F
  0
DICTIONARY
  5
141
102
{ACAD_REACTORS
330
C
102
}
330
C
100
AcDbDictionary
281
     1
  3
A0
350
142
  3
A1
350
143
  3
A2
350
144
  3
A3
350
145
  3
A4
350
146
  3
A5
350
147
  3
A6
350
148
  3
A7
350
149
  3
A8
350
14A
  3
A9
350
14B
  3
B0
350
14C
  3
B1
350
14D
  3
B2
350
14E
  3
B3
350
14F
  3
B4
350
150
  3
B5
350
151
  3
B6
350
152
  3
B7
350
153
  3
B8
350
154
  3
B9
350
155
  3
C0
350
156
  3
C1
350
157
  3
C2
350
158
  3
C3
350
159
  3
C4
350
15A
  3
C5
350
15B
  3
C6
350
15C
  3
C7
350
15D
  3
C8
350
15E
  3
C9
350
15F
  3
D0
350
160
  3
D1
350
161
  3
D2
350
162
  0
DICTIONARY
  5
1D6
102
{ACAD_REACTORS
330
C
102
}
330
C
100
AcDbDictionary
281
     1
  0
DICTIONARY
  5
1CE
102
{ACAD_REACTORS
330
C
102
}
330
C
100
AcDbDictionary
281
     1
  3
Standard
350
1CF
  0
DICTIONARY
  5
167
102
{ACAD_REACTORS
330
C
102
}
330
C
100
AcDbDictionary
281
     1
  3
2dWireframe
350
16C
  3
3D Hidden
350
16E
  3
3dWireframe
350
16D
  3
Basic
350
16F
  3
Brighten
350
173
  3
ColorChange
350
177
  3
Conceptual
350
171
  3
Dim
350
172
  3
EdgeColorOff
350
1C8
  3
Facepattern
350
176
  3
Flat
350
168
  3
FlatWithEdges
350
169
  3
Gouraud
350
16A
  3
GouraudWithEdges
350
16B
  3
Hidden
350
1C5
  3
JitterOff
350
1C6
  3
Linepattern
350
175
  3
OverhangOff
350
1C7
  3
Realistic
350
170
  3
Shaded
350
1CD
  3
Shaded with edges
350
1CC
  3
Shades of Gray
350
1C9
  3
Sketchy
350
1CA
  3
Thicken
350
174
  3
Wireframe
350
1C4
  3
X-Ray
350
1CB
  0
XRECORD
  5
239
102
{ACAD_REACTORS
330
C
102
}
330
C
100
AcDbXrecord
280
     1
 90
        1
330
1CF
  0
DICTIONARY
  5
183
102
{ACAD_REACTORS
330
C
102
}
330
C
100
AcDbDictionary
281
     1
  3
CANNOSCALE
350
1D2
  3
CMLEADERSTYLE
350
1D4
  3
CTABLESTYLE
350
1D3
  3
DIMASSOC
350
187
  3
HIDETEXT
350
188
  3
MSLTSCALE
350
186
  0
DICTIONARY
  5
1D1
102
{ACAD_REACTORS
330
C
102
}
330
C
100
AcDbDictionary
281
     1
  0
DICTIONARY
  5
1D8
102
{ACAD_REACTORS
330
1D7
102
}
330
1D7
100
AcDbDictionary
281
     1
  0
LAYOUT
  5
1C
102
{ACAD_REACTORS
330
1A
102
}
330
1A
100
AcDbPlotSettings
  1

  2
none_device
  4

  6

 40
0.0
 41
0.0
 42
0.0
 43
0.0
 44
0.0
 45
0.0
 46
0.0
 47
0.0
 48
0.0
 49
0.0
140
0.0
141
0.0
142
1.0
143
1.0
 70
   688
 72
     0
 73
     0
 74
     5
  7

 75
    16
 76
     0
 77
     2
 78
   300
147
1.0
148
0.0
149
0.0
100
AcDbLayout
  1
Layout1
 70
     1
 71
     1
 10
0.0
 20
0.0
 11
12.0
 21
9.0
 12
0.0
 22
0.0
 32
0.0
 14
1.000000000000000E+20
 24
1.000000000000000E+20
 34
1.000000000000000E+20
 15
-1.000000000000000E+20
 25
-1.000000000000000E+20
 35
-1.000000000000000E+20
146
0.0
 13
0.0
 23
0.0
 33
0.0
 16
1.0
 26
0.0
 36
0.0
 17
0.0
 27
1.0
 37
0.0
 76
     0
330
1B
  0
LAYOUT
  5
1E
102
{ACAD_REACTORS
330
1A
102
}
330
1A
100
AcDbPlotSettings
  1

  2
none_device
  4

  6

 40
0.0
 41
0.0
 42
0.0
 43
0.0
 44
0.0
 45
0.0
 46
0.0
 47
0.0
 48
0.0
 49
0.0
140
0.0
141
0.0
142
1.0
143
1.0
 70
  1712
 72
     0
 73
     0
 74
     0
  7

 75
     0
 76
     0
 77
     2
 78
   300
147
1.0
148
0.0
149
0.0
100
AcDbLayout
  1
Model
 70
     1
 71
     0
 10
0.0
 20
0.0
 11
12.0
 21
9.0
 12
0.0
 22
0.0
 32
0.0
 14
-103.3790065543877
 24
-68.57300425876696
 34
0.0
 15
159.8307373010928
 25
67.85120100717214
 35
0.0
146
0.0
 13
0.0
 23
0.0
 33
0.0
 16
1.0
 26
0.0
 36
0.0
 17
0.0
 27
1.0
 37
0.0
 76
     0
330
1D
331
13B
  0
MATERIAL
  5
17A
102
{ACAD_REACTORS
330
178
102
}
330
178
100
AcDbMaterial
  1
ByBlock
 72
     1
 94
      127
  0
MATERIAL
  5
179
102
{ACAD_REACTORS
330
178
102
}
330
178
100
AcDbMaterial
  1
ByLayer
 72
     1
 94
      127
  0
MATERIAL
  5
17B
102
{ACAD_REACTORS
330
178
102
}
330
178
100
AcDbMaterial
  1
Global
 72
     1
 94
      127
  0
MLEADERSTYLE
  5
1D0
102
{ACAD_REACTORS
330
185
102
}
330
185
100
AcDbMLeaderStyle
179
     2
170
     2
171
     1
172
     0
 90
        2
 40
0.0
 41
0.0
173
     1
 91
-1056964608
340
14
 92
       -2
290
     1
 42
0.09
291
     1
 43
0.36
  3
Standard
341
0
 44
0.18
300

342
11
174
     1
178
     1
175
     1
176
     0
 93
-1056964608
 45
0.18
292
     0
297
     0
 46
0.18
343
0
 94
-1056964608
 47
1.0
 49
1.0
140
1.0
293
     1
141
0.0
294
     1
177
     0
142
1.0
295
     0
296
     0
143
0.125
271
     0
272
     9
273
     9
298
     0
  0
MLINESTYLE
  5
18
102
{ACAD_REACTORS
330
17
102
}
330
17
100
AcDbMlineStyle
  2
Standard
 70
     0
  3

 62
   256
 51
90.0
 52
90.0
 71
     2
 49
0.5
 62
   256
  6
BYLAYER
 49
-0.5
 62
   256
  6
BYLAYER
  0
ACDBPLACEHOLDER
  5
F
102
{ACAD_REACTORS
330
E
102
}
330
E
  0
SCALE
  5
142
102
{ACAD_REACTORS
330
141
102
}
330
141
100
AcDbScale
 70
     0
300
1:1
140
1.0
141
1.0
290
     1
  0
SCALE
  5
143
102
{ACAD_REACTORS
330
141
102
}
330
141
100
AcDbScale
 70
     0
300
1:2
140
1.0
141
2.0
290
     0
  0
SCALE
  5
144
102
{ACAD_REACTORS
330
141
102
}
330
141
100
AcDbScale
 70
     0
300
1:4
140
1.0
141
4.0
290
     0
  0
SCALE
  5
145
102
{ACAD_REACTORS
330
141
102
}
330
141
100
AcDbScale
 70
     0
300
1:5
140
1.0
141
5.0
290
     0
  0
SCALE
  5
146
102
{ACAD_REACTORS
330
141
102
}
330
141
100
AcDbScale
 70
     0
300
1:8
140
1.0
141
8.0
290
     0
  0
SCALE
  5
147
102
{ACAD_REACTORS
330
141
102
}
330
141
100
AcDbScale
 70
     0
300
1:10
140
1.0
141
10.0
290
     0
  0
SCALE
  5
148
102
{ACAD_REACTORS
330
141
102
}
330
141
100
AcDbScale
 70
     0
300
1:16
140
1.0
141
16.0
290
     0
  0
SCALE
  5
149
102
{ACAD_REACTORS
330
141
102
}
330
141
100
AcDbScale
 70
     0
300
1:20
140
1.0
141
20.0
290
     0
  0
SCALE
  5
14A
102
{ACAD_REACTORS
330
141
102
}
330
141
100
AcDbScale
 70
     0
300
1:30
140
1.0
141
30.0
290
     0
  0
SCALE
  5
14B
102
{ACAD_REACTORS
330
141
102
}
330
141
100
AcDbScale
 70
     0
300
1:40
140
1.0
141
40.0
290
     0
  0
SCALE
  5
14C
102
{ACAD_REACTORS
330
141
102
}
330
141
100
AcDbScale
 70
     0
300
1:50
140
1.0
141
50.0
290
     0
  0
SCALE
  5
14D
102
{ACAD_REACTORS
330
141
102
}
330
141
100
AcDbScale
 70
     0
300
1:100
140
1.0
141
100.0
290
     0
  0
SCALE
  5
14E
102
{ACAD_REACTORS
330
141
102
}
330
141
100
AcDbScale
 70
     0
300
2:1
140
2.0
141
1.0
290
     0
  0
SCALE
  5
14F
102
{ACAD_REACTORS
330
141
102
}
330
141
100
AcDbScale
 70
     0
300
4:1
140
4.0
141
1.0
290
     0
  0
SCALE
  5
150
102
{ACAD_REACTORS
330
141
102
}
330
141
100
AcDbScale
 70
     0
300
8:1
140
8.0
141
1.0
290
     0
  0
SCALE
  5
151
102
{ACAD_REACTORS
330
141
102
}
330
141
100
AcDbScale
 70
     0
300
10:1
140
10.0
141
1.0
290
     0
  0
SCALE
  5
152
102
{ACAD_REACTORS
330
141
102
}
330
141
100
AcDbScale
 70
     0
300
100:1
140
100.0
141
1.0
290
     0
  0
SCALE
  5
153
102
{ACAD_REACTORS
330
141
102
}
330
141
100
AcDbScale
 70
     0
300
1/128" = 1'-0"
140
0.0078125
141
12.0
290
     0
  0
SCALE
  5
154
102
{ACAD_REACTORS
330
141
102
}
330
141
100
AcDbScale
 70
     0
300
1/64" = 1'-0"
140
0.015625
141
12.0
290
     0
  0
SCALE
  5
155
102
{ACAD_REACTORS
330
141
102
}
330
141
100
AcDbScale
 70
     0
300
1/32" = 1'-0"
140
0.03125
141
12.0
290
     0
  0
SCALE
  5
156
102
{ACAD_REACTORS
330
141
102
}
330
141
100
AcDbScale
 70
     0
300
1/16" = 1'-0"
140
0.0625
141
12.0
290
     0
  0
SCALE
  5
157
102
{ACAD_REACTORS
330
141
102
}
330
141
100
AcDbScale
 70
     0
300
3/32" = 1'-0"
140
0.09375
141
12.0
290
     0
  0
SCALE
  5
158
102
{ACAD_REACTORS
330
141
102
}
330
141
100
AcDbScale
 70
     0
300
1/8" = 1'-0"
140
0.125
141
12.0
290
     0
  0
SCALE
  5
159
102
{ACAD_REACTORS
330
141
102
}
330
141
100
AcDbScale
 70
     0
300
3/16" = 1'-0"
140
0.1875
141
12.0
290
     0
  0
SCALE
  5
15A
102
{ACAD_REACTORS
330
141
102
}
330
141
100
AcDbScale
 70
     0
300
1/4" = 1'-0"
140
0.25
141
12.0
290
     0
  0
SCALE
  5
15B
102
{ACAD_REACTORS
330
141
102
}
330
141
100
AcDbScale
 70
     0
300
3/8" = 1'-0"
140
0.375
141
12.0
290
     0
  0
SCALE
  5
15C
102
{ACAD_REACTORS
330
141
102
}
330
141
100
AcDbScale
 70
     0
300
1/2" = 1'-0"
140
0.5
141
12.0
290
     0
  0
SCALE
  5
15D
102
{ACAD_REACTORS
330
141
102
}
330
141
100
AcDbScale
 70
     0
300
3/4" = 1'-0"
140
0.75
141
12.0
290
     0
  0
SCALE
  5
15E
102
{ACAD_REACTORS
330
141
102
}
330
141
100
AcDbScale
 70
     0
300
1" = 1'-0"
140
1.0
141
12.0
290
     0
  0
SCALE
  5
15F
102
{ACAD_REACTORS
330
141
102
}
330
141
100
AcDbScale
 70
     0
300
1-1/2" = 1'-0"
140
1.5
141
12.0
290
     0
  0
SCALE
  5
160
102
{ACAD_REACTORS
330
141
102
}
330
141
100
AcDbScale
 70
     0
300
3" = 1'-0"
140
3.0
141
12.0
290
     0
  0
SCALE
  5
161
102
{ACAD_REACTORS
330
141
102
}
330
141
100
AcDbScale
 70
     0
300
6" = 1'-0"
140
6.0
141
12.0
290
     0
  0
SCALE
  5
162
102
{ACAD_REACTORS
330
141
102
}
330
141
100
AcDbScale
 70
     0
300
1'-0" = 1'-0"
140
12.0
141
12.0
290
     0
  0
TABLESTYLE
  5
1CF
102
{ACAD_REACTORS
330
1CE
102
}
102
{ACAD_XDICTIONARY
360
237
102
}
330
1CE
100
AcDbTableStyle
  3
Standard
 70
     0
 71
     0
 40
0.06
 41
0.06
280
     0
281
     0
  7
Standard
140
0.18
170
     2
 62
     0
 63
   257
283
     0
 90
        4
 91
        0
  1

274
    -2
284
     1
 64
     0
275
    -2
285
     1
 65
     0
276
    -2
286
     1
 66
     0
277
    -2
287
     1
 67
     0
278
    -2
288
     1
 68
     0
279
    -2
289
     1
 69
     0
  7
Standard
140
0.25
170
     5
 62
     0
 63
   257
283
     0
 90
        4
 91
        0
  1

274
    -2
284
     1
 64
     0
275
    -2
285
     1
 65
     0
276
    -2
286
     1
 66
     0
277
    -2
287
     1
 67
     0
278
    -2
288
     1
 68
     0
279
    -2
289
     1
 69
     0
  7
Standard
140
0.18
170
     5
 62
     0
 63
   257
283
     0
 90
        4
 91
        0
  1

274
    -2
284
     1
 64
     0
275
    -2
285
     1
 65
     0
276
    -2
286
     1
 66
     0
277
    -2
287
     1
 67
     0
278
    -2
288
     1
 68
     0
279
    -2
289
     1
 69
     0
  0
VISUALSTYLE
  5
16C
102
{ACAD_REACTORS
330
167
102
}
330
167
100
AcDbVisualStyle
  2
2dWireframe
 70
     4
177
     3
291
     0
 70
    58
 90
        0
176
     1
 90
        2
176
     1
 90
        0
176
     1
 90
        0
176
     1
 40
-0.6
176
     1
 40
-30.0
176
     1
 62
     7
176
     1
 90
        1
176
     1
 90
        4
176
     1
 62
     7
176
     1
 62
   257
176
     1
 90
        1
176
     1
 90
        1
176
     1
 40
1.0
176
     1
 90
        0
176
     1
 62
   257
176
     1
 40
1.0
176
     1
 90
        1
176
     1
 90
        6
176
     1
 90
        2
176
     1
 62
     7
176
     1
 90
        5
176
     1
 90
        0
176
     1
 90
        0
176
     1
290
     0
176
     1
 90
        1
176
     1
 40
0.0
176
     1
 90
        0
176
     1
290
     1
176
     1
290
     1
176
     1
290
     0
176
     1
290
     0
176
     1
290
     0
176
     1
290
     0
176
     1
290
     0
176
     1
290
     0
176
     1
290
     0
176
     1
 90
       50
176
     1
 40
0.0
176
     1
 40
1.0
176
     1
 90
        0
176
     1
 62
    18
420
        0
176
     1
 90
       50
176
     1
 90
        3
176
     1
 62
     5
420
      255
176
     1
290
     0
176
     1
 90
       50
176
     1
 90
       50
176
     1
 90
       50
176
     1
290
     0
176
     1
 90
       50
176
     1
 62
   256
176
     0
 40
1.0
176
     0
 90
        2
176
     1
  1
strokes_ogs.tif
176
     1
290
     0
176
     1
 40
1.0
176
     1
 40
1.0
176
     1
  0
VISUALSTYLE
  5
16E
102
{ACAD_REACTORS
330
167
102
}
330
167
100
AcDbVisualStyle
  2
3D Hidden
 70
     6
177
     3
291
     0
 70
    58
 90
        1
176
     1
 90
        2
176
     1
 90
        2
176
     1
 90
        0
176
     1
 40
-0.6
176
     1
 40
-30.0
176
     1
 62
     7
176
     1
 90
        2
176
     1
 90
        2
176
     1
 62
     7
176
     1
 62
   257
176
     1
 90
        2
176
     1
 90
        1
176
     1
 40
40.0
176
     1
 90
        0
176
     1
 62
   257
176
     1
 40
1.0
176
     1
 90
        1
176
     1
 90
        6
176
     1
 90
        2
176
     1
 62
     7
176
     1
 90
        3
176
     1
 90
        0
176
     1
 90
        0
176
     1
290
     0
176
     1
 90
        1
176
     1
 40
0.0
176
     1
 90
        0
176
     1
290
     0
176
     1
290
     1
176
     1
290
     1
176
     1
290
     0
176
     1
290
     0
176
     1
290
     0
176
     1
290
     0
176
     1
290
     0
176
     1
290
     0
176
     1
 90
       50
176
     1
 40
0.0
176
     1
 40
1.0
176
     1
 90
        0
176
     1
 62
    18
420
        0
176
     1
 90
       50
176
     1
 90
        3
176
     1
 62
     5
420
      255
176
     1
290
     0
176
     1
 90
       50
176
     1
 90
       50
176
     1
 90
       50
176
     1
290
     0
176
     1
 90
       50
176
     1
 62
   256
176
     0
 40
1.0
176
     0
 90
        2
176
     1
  1
strokes_ogs.tif
176
     1
290
     0
176
     1
 40
1.0
176
     1
 40
1.0
176
     1
  0
VISUALSTYLE
  5
16D
102
{ACAD_REACTORS
330
167
102
}
330
167
100
AcDbVisualStyle
  2
3dWireframe
 70
     5
177
     3
291
     0
 70
    58
 90
        0
176
     1
 90
        2
176
     1
 90
        0
176
     1
 90
        0
176
     1
 40
-0.6
176
     1
 40
-30.0
176
     1
 62
     7
176
     1
 90
        1
176
     1
 90
        4
176
     1
 62
     7
176
     1
 62
   257
176
     1
 90
        1
176
     1
 90
        1
176
     1
 40
1.0
176
     1
 90
        0
176
     1
 62
   257
176
     1
 40
1.0
176
     1
 90
        1
176
     1
 90
        6
176
     1
 90
        2
176
     1
 62
     7
176
     1
 90
        5
176
     1
 90
        0
176
     1
 90
        0
176
     1
290
     0
176
     1
 90
        1
176
     1
 40
0.0
176
     1
 90
        0
176
     1
290
     0
176
     1
290
     1
176
     1
290
     1
176
     1
290
     0
176
     1
290
     0
176
     1
290
     0
176
     1
290
     0
176
     1
290
     0
176
     1
290
     0
176
     1
 90
       50
176
     1
 40
0.0
176
     1
 40
1.0
176
     1
 90
        0
176
     1
 62
    18
420
        0
176
     1
 90
       50
176
     1
 90
        3
176
     1
 62
     5
420
      255
176
     1
290
     0
176
     1
 90
       50
176
     1
 90
       50
176
     1
 90
       50
176
     1
290
     0
176
     1
 90
       50
176
     1
 62
   256
176
     0
 40
1.0
176
     0
 90
        2
176
     1
  1
strokes_ogs.tif
176
     1
290
     0
176
     1
 40
1.0
176
     1
 40
1.0
176
     1
  0
VISUALSTYLE
  5
16F
102
{ACAD_REACTORS
330
167
102
}
330
167
100
AcDbVisualStyle
  2
Basic
 70
     7
177
     3
291
     1
 70
    58
 90
        1
176
     1
 90
        0
176
     1
 90
        1
176
     1
 90
        0
176
     1
 40
-0.6
176
     1
 40
-30.0
176
     1
 62
     7
176
     1
 90
        0
176
     1
 90
        4
176
     1
 62
     7
176
     1
 62
   257
176
     1
 90
        1
176
     1
 90
        1
176
     1
 40
1.0
176
     1
 90
        8
176
     1
 62
     7
176
     1
 40
1.0
176
     1
 90
        1
176
     1
 90
        6
176
     1
 90
        2
176
     1
 62
     7
176
     1
 90
        5
176
     1
 90
        0
176
     1
 90
        0
176
     1
290
     0
176
     1
 90
        1
176
     1
 40
0.0
176
     1
 90
        0
176
     1
290
     0
176
     1
290
     1
176
     1
290
     1
176
     1
290
     0
176
     1
290
     0
176
     1
290
     0
176
     1
290
     0
176
     1
290
     0
176
     1
290
     0
176
     1
 90
       50
176
     1
 40
0.0
176
     1
 40
1.0
176
     1
 90
        0
176
     1
 62
    18
420
        0
176
     1
 90
       50
176
     1
 90
        3
176
     1
 62
     5
420
      255
176
     1
290
     0
176
     1
 90
       50
176
     1
 90
       50
176
     1
 90
       50
176
     1
290
     0
176
     1
 90
       50
176
     1
 62
   256
176
     0
 40
1.0
176
     0
 90
        2
176
     1
  1
strokes_ogs.tif
176
     1
290
     0
176
     1
 40
1.0
176
     1
 40
1.0
176
     1
  0
VISUALSTYLE
  5
173
102
{ACAD_REACTORS
330
167
102
}
330
167
100
AcDbVisualStyle
  2
Brighten
 70
    12
177
     3
291
     1
 70
    58
 90
        2
176
     1
 90
        2
176
     1
 90
        0
176
     1
 90
        0
176
     1
 40
-0.6
176
     1
 40
-30.0
176
     1
 62
     7
176
     1
 90
        1
176
     1
 90
        4
176
     1
 62
     7
176
     1
 62
   257
176
     1
 90
        1
176
     1
 90
        1
176
     1
 40
1.0
176
     1
 90
        8
176
     1
 62
     7
176
     1
 40
1.0
176
     1
 90
        1
176
     1
 90
        6
176
     1
 90
        2
176
     1
 62
     7
176
     1
 90
        5
176
     1
 90
        0
176
     1
 90
        0
176
     1
290
     0
176
     1
 90
        1
176
     1
 40
50.0
176
     1
 90
        0
176
     1
290
     0
176
     1
290
     1
176
     1
290
     1
176
     1
290
     0
176
     1
290
     0
176
     1
290
     0
176
     1
290
     0
176
     1
290
     0
176
     1
290
     0
176
     1
 90
       50
176
     1
 40
0.0
176
     1
 40
1.0
176
     1
 90
        0
176
     1
 62
    18
420
        0
176
     1
 90
       50
176
     1
 90
        3
176
     1
 62
     5
420
      255
176
     1
290
     0
176
     1
 90
       50
176
     1
 90
       50
176
     1
 90
       50
176
     1
290
     0
176
     1
 90
       50
176
     1
 62
   256
176
     0
 40
1.0
176
     0
 90
        2
176
     1
  1
strokes_ogs.tif
176
     1
290
     0
176
     1
 40
1.0
176
     1
 40
1.0
176
     1
  0
VISUALSTYLE
  5
177
102
{ACAD_REACTORS
330
167
102
}
330
167
100
AcDbVisualStyle
  2
ColorChange
 70
    16
177
     3
291
     1
 70
    58
 90
        2
176
     1
 90
        2
176
     1
 90
        3
176
     1
 90
        0
176
     1
 40
-0.6
176
     1
 40
-30.0
176
     1
 62
     8
176
     1
 90
        1
176
     1
 90
        4
176
     1
 62
     7
176
     1
 62
   257
176
     1
 90
        1
176
     1
 90
        1
176
     1
 40
1.0
176
     1
 90
        8
176
     1
 62
     8
176
     1
 40
1.0
176
     1
 90
        1
176
     1
 90
        6
176
     1
 90
        2
176
     1
 62
     7
176
     1
 90
        5
176
     1
 90
        0
176
     1
 90
        0
176
     1
290
     0
176
     1
 90
        1
176
     1
 40
0.0
176
     1
 90
        0
176
     1
290
     0
176
     1
290
     1
176
     1
290
     1
176
     1
290
     0
176
     1
290
     0
176
     1
290
     0
176
     1
290
     0
176
     1
290
     0
176
     1
290
     0
176
     1
 90
       50
176
     1
 40
0.0
176
     1
 40
1.0
176
     1
 90
        0
176
     1
 62
    18
420
        0
176
     1
 90
       50
176
     1
 90
        3
176
     1
 62
     5
420
      255
176
     1
290
     0
176
     1
 90
       50
176
     1
 90
       50
176
     1
 90
       50
176
     1
290
     0
176
     1
 90
       50
176
     1
 62
   256
176
     0
 40
1.0
176
     0
 90
        2
176
     1
  1
strokes_ogs.tif
176
     1
290
     0
176
     1
 40
1.0
176
     1
 40
1.0
176
     1
  0
VISUALSTYLE
  5
171
102
{ACAD_REACTORS
330
167
102
}
330
167
100
AcDbVisualStyle
  2
Conceptual
 70
     9
177
     3
291
     0
 70
    58
 90
        3
176
     1
 90
        2
176
     1
 90
        0
176
     1
 90
        0
176
     1
 40
-0.6
176
     1
 40
-30.0
176
     1
 62
     7
176
     1
 90
        2
176
     1
 90
        2
176
     1
 62
     7
176
     1
 62
   257
176
     1
 90
        1
176
     1
 90
        1
176
     1
 40
40.0
176
     1
 90
        8
176
     1
 62
     7
176
     1
 40
1.0
176
     1
 90
        1
176
     1
 90
        6
176
     1
 90
        2
176
     1
 62
     7
176
     1
 90
        3
176
     1
 90
        0
176
     1
 90
        0
176
     1
290
     0
176
     1
 90
        1
176
     1
 40
0.0
176
     1
 90
        0
176
     1
290
     0
176
     1
290
     1
176
     1
290
     1
176
     1
290
     0
176
     1
290
     0
176
     1
290
     0
176
     1
290
     0
176
     1
290
     0
176
     1
290
     0
176
     1
 90
       50
176
     1
 40
0.0
176
     1
 40
1.0
176
     1
 90
        0
176
     1
 62
    18
420
        0
176
     1
 90
       50
176
     1
 90
        3
176
     1
 62
     5
420
      255
176
     1
290
     0
176
     1
 90
       50
176
     1
 90
       50
176
     1
 90
       50
176
     1
290
     0
176
     1
 90
       50
176
     1
 62
   256
176
     0
 40
1.0
176
     0
 90
        2
176
     1
  1
strokes_ogs.tif
176
     1
290
     0
176
     1
 40
1.0
176
     1
 40
1.0
176
     1
  0
VISUALSTYLE
  5
172
102
{ACAD_REACTORS
330
167
102
}
330
167
100
AcDbVisualStyle
  2
Dim
 70
    11
177
     3
291
     1
 70
    58
 90
        2
176
     1
 90
        2
176
     1
 90
        0
176
     1
 90
        0
176
     1
 40
-0.6
176
     1
 40
-30.0
176
     1
 62
     7
176
     1
 90
        1
176
     1
 90
        4
176
     1
 62
     7
176
     1
 62
   257
176
     1
 90
        1
176
     1
 90
        1
176
     1
 40
1.0
176
     1
 90
        8
176
     1
 62
     7
176
     1
 40
1.0
176
     1
 90
        1
176
     1
 90
        6
176
     1
 90
        2
176
     1
 62
     7
176
     1
 90
        5
176
     1
 90
        0
176
     1
 90
        0
176
     1
290
     0
176
     1
 90
        1
176
     1
 40
-50.0
176
     1
 90
        0
176
     1
290
     0
176
     1
290
     1
176
     1
290
     1
176
     1
290
     0
176
     1
290
     0
176
     1
290
     0
176
     1
290
     0
176
     1
290
     0
176
     1
290
     0
176
     1
 90
       50
176
     1
 40
0.0
176
     1
 40
1.0
176
     1
 90
        0
176
     1
 62
    18
420
        0
176
     1
 90
       50
176
     1
 90
        3
176
     1
 62
     5
420
      255
176
     1
290
     0
176
     1
 90
       50
176
     1
 90
       50
176
     1
 90
       50
176
     1
290
     0
176
     1
 90
       50
176
     1
 62
   256
176
     0
 40
1.0
176
     0
 90
        2
176
     1
  1
strokes_ogs.tif
176
     1
290
     0
176
     1
 40
1.0
176
     1
 40
1.0
176
     1
  0
VISUALSTYLE
  5
1C8
102
{ACAD_REACTORS
330
167
102
}
330
167
100
AcDbVisualStyle
  2
EdgeColorOff
 70
    22
177
     3
291
     1
 70
    58
 90
        2
176
     0
 90
        2
176
     0
 90
        0
176
     0
 90
        0
176
     0
 40
0.6
176
     0
 40
30.0
176
     0
 62
     7
420
 16777215
176
     0
 90
        1
176
     0
 90
        4
176
     0
 62
     7
176
     0
 62
   257
176
     0
 90
        1
176
     0
 90
        1
176
     0
 40
1.0
176
     0
 90
        8
176
     2
 62
     7
176
     0
 40
1.0
176
     0
 90
        1
176
     0
 90
        6
176
     0
 90
        2
176
     0
 62
     7
176
     0
 90
        5
176
     0
 90
        0
176
     0
 90
        0
176
     0
290
     0
176
     0
 90
        1
176
     0
 40
0.0
176
     0
 90
        0
176
     0
290
     0
176
     0
290
     1
176
     0
290
     1
176
     0
290
     0
176
     0
290
     0
176
     0
290
     0
176
     0
290
     0
176
     0
290
     0
176
     0
290
     0
176
     0
 90
       50
176
     0
 40
0.0
176
     0
 40
1.0
176
     0
 90
        0
176
     0
 62
    18
420
        0
176
     0
 90
       50
176
     0
 90
        3
176
     0
 62
     5
420
      255
176
     0
290
     0
176
     0
 90
       50
176
     0
 90
       50
176
     0
 90
       50
176
     0
290
     0
176
     0
 90
       50
176
     0
 62
   256
176
     0
 40
1.0
176
     0
 90
        2
176
     0
  1
strokes_ogs.tif
176
     0
290
     0
176
     0
 40
1.0
176
     0
 40
1.0
176
     0
  0
VISUALSTYLE
  5
176
102
{ACAD_REACTORS
330
167
102
}
330
167
100
AcDbVisualStyle
  2
Facepattern
 70
    15
177
     3
291
     1
 70
    58
 90
        2
176
     1
 90
        2
176
     1
 90
        0
176
     1
 90
        0
176
     1
 40
-0.6
176
     1
 40
-30.0
176
     1
 62
     7
176
     1
 90
        1
176
     1
 90
        4
176
     1
 62
     7
176
     1
 62
   257
176
     1
 90
        1
176
     1
 90
        1
176
     1
 40
1.0
176
     1
 90
        8
176
     1
 62
     7
176
     1
 40
1.0
176
     1
 90
        1
176
     1
 90
        6
176
     1
 90
        2
176
     1
 62
     7
176
     1
 90
        5
176
     1
 90
        0
176
     1
 90
        0
176
     1
290
     0
176
     1
 90
        1
176
     1
 40
0.0
176
     1
 90
        0
176
     1
290
     0
176
     1
290
     1
176
     1
290
     1
176
     1
290
     0
176
     1
290
     0
176
     1
290
     0
176
     1
290
     0
176
     1
290
     0
176
     1
290
     0
176
     1
 90
       50
176
     1
 40
0.0
176
     1
 40
1.0
176
     1
 90
        0
176
     1
 62
    18
420
        0
176
     1
 90
       50
176
     1
 90
        3
176
     1
 62
     5
420
      255
176
     1
290
     0
176
     1
 90
       50
176
     1
 90
       50
176
     1
 90
       50
176
     1
290
     0
176
     1
 90
       50
176
     1
 62
   256
176
     0
 40
1.0
176
     0
 90
        2
176
     1
  1
strokes_ogs.tif
176
     1
290
     0
176
     1
 40
1.0
176
     1
 40
1.0
176
     1
  0
VISUALSTYLE
  5
168
102
{ACAD_REACTORS
330
167
102
}
330
167
100
AcDbVisualStyle
  2
Flat
 70
     0
177
     3
291
     1
 70
    58
 90
        2
176
     1
 90
        1
176
     1
 90
        1
176
     1
 90
        2
176
     1
 40
-0.6
176
     1
 40
30.0
176
     1
 62
     7
176
     1
 90
        0
176
     1
 90
        4
176
     1
 62
     7
176
     1
 62
   257
176
     1
 90
        1
176
     1
 90
        1
176
     1
 40
1.0
176
     1
 90
        8
176
     1
 62
     7
176
     1
 40
1.0
176
     1
 90
        1
176
     1
 90
        6
176
     1
 90
        2
176
     1
 62
     7
176
     1
 90
        5
176
     1
 90
        0
176
     1
 90
        0
176
     1
290
     0
176
     1
 90
       13
176
     1
 40
0.0
176
     1
 90
        0
176
     1
290
     0
176
     1
290
     1
176
     1
290
     1
176
     1
290
     0
176
     1
290
     0
176
     1
290
     0
176
     1
290
     0
176
     1
290
     0
176
     1
290
     0
176
     1
 90
       50
176
     1
 40
0.0
176
     1
 40
1.0
176
     1
 90
        0
176
     1
 62
    18
420
        0
176
     1
 90
       50
176
     1
 90
        3
176
     1
 62
     5
420
      255
176
     1
290
     0
176
     1
 90
       50
176
     1
 90
       50
176
     1
 90
       50
176
     1
290
     0
176
     1
 90
       50
176
     1
 62
   256
176
     0
 40
1.0
176
     0
 90
        2
176
     1
  1
strokes_ogs.tif
176
     1
290
     0
176
     1
 40
1.0
176
     1
 40
1.0
176
     1
  0
VISUALSTYLE
  5
169
102
{ACAD_REACTORS
330
167
102
}
330
167
100
AcDbVisualStyle
  2
FlatWithEdges
 70
     1
177
     3
291
     1
 70
    58
 90
        2
176
     1
 90
        1
176
     1
 90
        1
176
     1
 90
        2
176
     1
 40
-0.6
176
     1
 40
30.0
176
     1
 62
     7
176
     1
 90
        1
176
     1
 90
        4
176
     1
 62
     7
176
     1
 62
   257
176
     1
 90
        1
176
     1
 90
        1
176
     1
 40
1.0
176
     1
 90
        0
176
     1
 62
   257
176
     1
 40
1.0
176
     1
 90
        1
176
     1
 90
        6
176
     1
 90
        2
176
     1
 62
     7
176
     1
 90
        5
176
     1
 90
        0
176
     1
 90
        0
176
     1
290
     0
176
     1
 90
       13
176
     1
 40
0.0
176
     1
 90
        0
176
     1
290
     0
176
     1
290
     1
176
     1
290
     1
176
     1
290
     0
176
     1
290
     0
176
     1
290
     0
176
     1
290
     0
176
     1
290
     0
176
     1
290
     0
176
     1
 90
       50
176
     1
 40
0.0
176
     1
 40
1.0
176
     1
 90
        0
176
     1
 62
    18
420
        0
176
     1
 90
       50
176
     1
 90
        3
176
     1
 62
     5
420
      255
176
     1
290
     0
176
     1
 90
       50
176
     1
 90
       50
176
     1
 90
       50
176
     1
290
     0
176
     1
 90
       50
176
     1
 62
   256
176
     0
 40
1.0
176
     0
 90
        2
176
     1
  1
strokes_ogs.tif
176
     1
290
     0
176
     1
 40
1.0
176
     1
 40
1.0
176
     1
  0
VISUALSTYLE
  5
16A
102
{ACAD_REACTORS
330
167
102
}
330
167
100
AcDbVisualStyle
  2
Gouraud
 70
     2
177
     3
291
     1
 70
    58
 90
        2
176
     1
 90
        2
176
     1
 90
        1
176
     1
 90
        2
176
     1
 40
-0.6
176
     1
 40
30.0
176
     1
 62
     7
176
     1
 90
        0
176
     1
 90
        4
176
     1
 62
     7
176
     1
 62
   257
176
     1
 90
        1
176
     1
 90
        1
176
     1
 40
1.0
176
     1
 90
        0
176
     1
 62
     7
176
     1
 40
1.0
176
     1
 90
        1
176
     1
 90
        6
176
     1
 90
        2
176
     1
 62
     7
176
     1
 90
        5
176
     1
 90
        0
176
     1
 90
        0
176
     1
290
     0
176
     1
 90
       13
176
     1
 40
0.0
176
     1
 90
        0
176
     1
290
     0
176
     1
290
     1
176
     1
290
     1
176
     1
290
     0
176
     1
290
     0
176
     1
290
     0
176
     1
290
     0
176
     1
290
     0
176
     1
290
     0
176
     1
 90
       50
176
     1
 40
0.0
176
     1
 40
1.0
176
     1
 90
        0
176
     1
 62
    18
420
        0
176
     1
 90
       50
176
     1
 90
        3
176
     1
 62
     5
420
      255
176
     1
290
     0
176
     1
 90
       50
176
     1
 90
       50
176
     1
 90
       50
176
     1
290
     0
176
     1
 90
       50
176
     1
 62
   256
176
     0
 40
1.0
176
     0
 90
        2
176
     1
  1
strokes_ogs.tif
176
     1
290
     0
176
     1
 40
1.0
176
     1
 40
1.0
176
     1
  0
VISUALSTYLE
  5
16B
102
{ACAD_REACTORS
330
167
102
}
330
167
100
AcDbVisualStyle
  2
GouraudWithEdges
 70
     3
177
     3
291
     1
 70
    58
 90
        2
176
     1
 90
        2
176
     1
 90
        1
176
     1
 90
        2
176
     1
 40
-0.6
176
     1
 40
30.0
176
     1
 62
     7
176
     1
 90
        1
176
     1
 90
        4
176
     1
 62
     7
176
     1
 62
   257
176
     1
 90
        1
176
     1
 90
        1
176
     1
 40
1.0
176
     1
 90
        0
176
     1
 62
   257
176
     1
 40
1.0
176
     1
 90
        1
176
     1
 90
        6
176
     1
 90
        2
176
     1
 62
     7
176
     1
 90
        5
176
     1
 90
        0
176
     1
 90
        0
176
     1
290
     0
176
     1
 90
       13
176
     1
 40
0.0
176
     1
 90
        0
176
     1
290
     0
176
     1
290
     1
176
     1
290
     1
176
     1
290
     0
176
     1
290
     0
176
     1
290
     0
176
     1
290
     0
176
     1
290
     0
176
     1
290
     0
176
     1
 90
       50
176
     1
 40
0.0
176
     1
 40
1.0
176
     1
 90
        0
176
     1
 62
    18
420
        0
176
     1
 90
       50
176
     1
 90
        3
176
     1
 62
     5
420
      255
176
     1
290
     0
176
     1
 90
       50
176
     1
 90
       50
176
     1
 90
       50
176
     1
290
     0
176
     1
 90
       50
176
     1
 62
   256
176
     0
 40
1.0
176
     0
 90
        2
176
     1
  1
strokes_ogs.tif
176
     1
290
     0
176
     1
 40
1.0
176
     1
 40
1.0
176
     1
  0
VISUALSTYLE
  5
1C5
102
{ACAD_REACTORS
330
167
102
}
330
167
100
AcDbVisualStyle
  2
Hidden
 70
     6
177
     3
291
     0
 70
    58
 90
        1
176
     1
 90
        2
176
     1
 90
        2
176
     1
 90
        0
176
     1
 40
0.6
176
     1
 40
30.0
176
     1
 62
     7
420
 16777215
176
     1
 90
        2
176
     1
 90
        2
176
     1
 62
     7
176
     1
 62
   257
176
     1
 90
        2
176
     1
 90
        1
176
     1
 40
40.0
176
     1
 90
        0
176
     1
 62
   257
176
     1
 40
1.0
176
     1
 90
        1
176
     1
 90
        6
176
     1
 90
        2
176
     1
 62
     7
176
     1
 90
        3
176
     1
 90
        0
176
     1
 90
        0
176
     1
290
     0
176
     1
 90
        1
176
     1
 40
0.0
176
     1
 90
        0
176
     1
290
     0
176
     1
290
     1
176
     1
290
     1
176
     1
290
     0
176
     1
290
     0
176
     1
290
     0
176
     1
290
     0
176
     1
290
     0
176
     1
290
     0
176
     1
 90
       50
176
     1
 40
0.0
176
     1
 40
1.0
176
     1
 90
        0
176
     1
 62
    18
420
        0
176
     1
 90
       50
176
     1
 90
        3
176
     1
 62
     5
420
      255
176
     1
290
     0
176
     1
 90
       50
176
     1
 90
       50
176
     1
 90
       50
176
     1
290
     0
176
     1
 90
       50
176
     1
 62
   256
176
     0
 40
1.0
176
     0
 90
        2
176
     1
  1
strokes_ogs.tif
176
     1
290
     0
176
     1
 40
1.0
176
     1
 40
1.0
176
     1
  0
VISUALSTYLE
  5
1C6
102
{ACAD_REACTORS
330
167
102
}
330
167
100
AcDbVisualStyle
  2
JitterOff
 70
    20
177
     3
291
     1
 70
    58
 90
        2
176
     0
 90
        2
176
     0
 90
        0
176
     0
 90
        0
176
     0
 40
0.6
176
     0
 40
30.0
176
     0
 62
     7
420
 16777215
176
     0
 90
        1
176
     0
 90
        4
176
     0
 62
     7
176
     0
 62
   257
176
     0
 90
        1
176
     0
 90
        1
176
     0
 40
1.0
176
     0
 90
       10
176
     2
 62
     7
176
     0
 40
1.0
176
     0
 90
        1
176
     0
 90
        6
176
     0
 90
        2
176
     0
 62
     7
176
     0
 90
        5
176
     0
 90
        0
176
     0
 90
        0
176
     0
290
     0
176
     0
 90
        1
176
     0
 40
0.0
176
     0
 90
        0
176
     0
290
     0
176
     0
290
     1
176
     0
290
     1
176
     0
290
     0
176
     0
290
     0
176
     0
290
     0
176
     0
290
     0
176
     0
290
     0
176
     0
290
     0
176
     0
 90
       50
176
     0
 40
0.0
176
     0
 40
1.0
176
     0
 90
        0
176
     0
 62
    18
420
        0
176
     0
 90
       50
176
     0
 90
        3
176
     0
 62
     5
420
      255
176
     0
290
     0
176
     0
 90
       50
176
     0
 90
       50
176
     0
 90
       50
176
     0
290
     0
176
     0
 90
       50
176
     0
 62
   256
176
     0
 40
1.0
176
     0
 90
        2
176
     0
  1
strokes_ogs.tif
176
     0
290
     0
176
     0
 40
1.0
176
     0
 40
1.0
176
     0
  0
VISUALSTYLE
  5
175
102
{ACAD_REACTORS
330
167
102
}
330
167
100
AcDbVisualStyle
  2
Linepattern
 70
    14
177
     3
291
     1
 70
    58
 90
        2
176
     1
 90
        2
176
     1
 90
        0
176
     1
 90
        0
176
     1
 40
-0.6
176
     1
 40
-30.0
176
     1
 62
     7
176
     1
 90
        1
176
     1
 90
        4
176
     1
 62
     7
176
     1
 62
   257
176
     1
 90
        7
176
     1
 90
        7
176
     1
 40
1.0
176
     1
 90
        8
176
     1
 62
     7
176
     1
 40
1.0
176
     1
 90
        1
176
     1
 90
        6
176
     1
 90
        2
176
     1
 62
     7
176
     1
 90
        5
176
     1
 90
        0
176
     1
 90
        0
176
     1
290
     0
176
     1
 90
        1
176
     1
 40
0.0
176
     1
 90
        0
176
     1
290
     0
176
     1
290
     1
176
     1
290
     1
176
     1
290
     0
176
     1
290
     0
176
     1
290
     0
176
     1
290
     0
176
     1
290
     0
176
     1
290
     0
176
     1
 90
       50
176
     1
 40
0.0
176
     1
 40
1.0
176
     1
 90
        0
176
     1
 62
    18
420
        0
176
     1
 90
       50
176
     1
 90
        3
176
     1
 62
     5
420
      255
176
     1
290
     0
176
     1
 90
       50
176
     1
 90
       50
176
     1
 90
       50
176
     1
290
     0
176
     1
 90
       50
176
     1
 62
   256
176
     0
 40
1.0
176
     0
 90
        2
176
     1
  1
strokes_ogs.tif
176
     1
290
     0
176
     1
 40
1.0
176
     1
 40
1.0
176
     1
  0
VISUALSTYLE
  5
1C7
102
{ACAD_REACTORS
330
167
102
}
330
167
100
AcDbVisualStyle
  2
OverhangOff
 70
    21
177
     3
291
     1
 70
    58
 90
        2
176
     0
 90
        2
176
     0
 90
        0
176
     0
 90
        0
176
     0
 40
0.6
176
     0
 40
30.0
176
     0
 62
     7
420
 16777215
176
     0
 90
        1
176
     0
 90
        4
176
     0
 62
     7
176
     0
 62
   257
176
     0
 90
        1
176
     0
 90
        1
176
     0
 40
1.0
176
     0
 90
        9
176
     2
 62
     7
176
     0
 40
1.0
176
     0
 90
        1
176
     0
 90
        6
176
     0
 90
        2
176
     0
 62
     7
176
     0
 90
        5
176
     0
 90
        0
176
     0
 90
        0
176
     0
290
     0
176
     0
 90
        1
176
     0
 40
0.0
176
     0
 90
        0
176
     0
290
     0
176
     0
290
     1
176
     0
290
     1
176
     0
290
     0
176
     0
290
     0
176
     0
290
     0
176
     0
290
     0
176
     0
290
     0
176
     0
290
     0
176
     0
 90
       50
176
     0
 40
0.0
176
     0
 40
1.0
176
     0
 90
        0
176
     0
 62
    18
420
        0
176
     0
 90
       50
176
     0
 90
        3
176
     0
 62
     5
420
      255
176
     0
290
     0
176
     0
 90
       50
176
     0
 90
       50
176
     0
 90
       50
176
     0
290
     0
176
     0
 90
       50
176
     0
 62
   256
176
     0
 40
1.0
176
     0
 90
        2
176
     0
  1
strokes_ogs.tif
176
     0
290
     0
176
     0
 40
1.0
176
     0
 40
1.0
176
     0
  0
VISUALSTYLE
  5
170
102
{ACAD_REACTORS
330
167
102
}
330
167
100
AcDbVisualStyle
  2
Realistic
 70
     8
177
     3
291
     0
 70
    58
 90
        2
176
     1
 90
        2
176
     1
 90
        0
176
     1
 90
        0
176
     1
 40
-0.6
176
     1
 40
-30.0
176
     1
 62
     7
176
     1
 90
        1
176
     1
 90
        0
176
     1
 62
     7
176
     1
 62
   257
176
     1
 90
        1
176
     1
 90
        1
176
     1
 40
1.0
176
     1
 90
        8
176
     1
 62
     8
176
     1
 40
1.0
176
     1
 90
        1
176
     1
 90
        6
176
     1
 90
        2
176
     1
 62
     7
176
     1
 90
        5
176
     1
 90
        0
176
     1
 90
        0
176
     1
290
     0
176
     1
 90
       13
176
     1
 40
0.0
176
     1
 90
        0
176
     1
290
     0
176
     1
290
     1
176
     1
290
     1
176
     1
290
     0
176
     1
290
     0
176
     1
290
     0
176
     1
290
     0
176
     1
290
     0
176
     1
290
     0
176
     1
 90
       50
176
     1
 40
0.0
176
     1
 40
1.0
176
     1
 90
        0
176
     1
 62
    18
420
        0
176
     1
 90
       50
176
     1
 90
        3
176
     1
 62
     5
420
      255
176
     1
290
     0
176
     1
 90
       50
176
     1
 90
       50
176
     1
 90
       50
176
     1
290
     0
176
     1
 90
       50
176
     1
 62
   256
176
     0
 40
1.0
176
     0
 90
        2
176
     1
  1
strokes_ogs.tif
176
     1
290
     0
176
     1
 40
1.0
176
     1
 40
1.0
176
     1
  0
VISUALSTYLE
  5
1CD
102
{ACAD_REACTORS
330
167
102
}
330
167
100
AcDbVisualStyle
  2
Shaded
 70
    27
177
     3
291
     0
 70
    58
 90
        2
176
     1
 90
        2
176
     1
 90
        1
176
     1
 90
        2
176
     1
 40
0.6
176
     1
 40
30.0
176
     1
 62
     7
420
 16777215
176
     1
 90
        0
176
     1
 90
        4
176
     1
 62
     7
176
     1
 62
   257
176
     1
 90
        1
176
     1
 90
        1
176
     1
 40
1.0
176
     1
 90
        8
176
     1
 62
   257
176
     1
 40
1.0
176
     1
 90
        1
176
     1
 90
        6
176
     1
 90
        2
176
     1
 62
     8
420
  7895160
176
     1
 90
        3
176
     1
 90
        0
176
     1
 90
        0
176
     1
290
     0
176
     1
 90
        5
176
     1
 40
0.0
176
     1
 90
        0
176
     1
290
     0
176
     1
290
     1
176
     1
290
     1
176
     1
290
     0
176
     1
290
     0
176
     1
290
     0
176
     1
290
     0
176
     1
290
     0
176
     1
290
     0
176
     1
 90
       50
176
     1
 40
0.0
176
     1
 40
1.0
176
     1
 90
        0
176
     1
 62
    18
420
        0
176
     1
 90
       50
176
     1
 90
        3
176
     1
 62
     5
420
      255
176
     1
290
     0
176
     1
 90
       50
176
     1
 90
       50
176
     1
 90
       50
176
     1
290
     0
176
     1
 90
       50
176
     1
 62
   256
176
     0
 40
1.0
176
     0
 90
        2
176
     1
  1
strokes_ogs.tif
176
     1
290
     0
176
     1
 40
1.0
176
     1
 40
1.0
176
     1
  0
VISUALSTYLE
  5
1CC
102
{ACAD_REACTORS
330
167
102
}
330
167
100
AcDbVisualStyle
  2
Shaded with edges
 70
    26
177
     3
291
     0
 70
    58
 90
        2
176
     1
 90
        2
176
     1
 90
        1
176
     1
 90
        2
176
     1
 40
0.6
176
     1
 40
30.0
176
     1
 62
     7
420
 16777215
176
     1
 90
        1
176
     1
 90
       10
176
     1
 62
     7
176
     1
 62
   257
176
     1
 90
        2
176
     1
 90
        1
176
     1
 40
1.0
176
     1
 90
        8
176
     1
 62
   257
176
     1
 40
1.0
176
     1
 90
        1
176
     1
 90
        6
176
     1
 90
        2
176
     1
 62
     7
176
     1
 90
        3
176
     1
 90
        0
176
     1
 90
        0
176
     1
290
     0
176
     1
 90
        5
176
     1
 40
0.0
176
     1
 90
        0
176
     1
290
     0
176
     1
290
     1
176
     1
290
     1
176
     1
290
     0
176
     1
290
     0
176
     1
290
     0
176
     1
290
     0
176
     1
290
     0
176
     1
290
     0
176
     1
 90
       50
176
     1
 40
0.0
176
     1
 40
1.0
176
     1
 90
        0
176
     1
 62
    18
420
        0
176
     1
 90
       50
176
     1
 90
        3
176
     1
 62
     5
420
      255
176
     1
290
     0
176
     1
 90
       50
176
     1
 90
       50
176
     1
 90
       50
176
     1
290
     0
176
     1
 90
       50
176
     1
 62
   256
176
     0
 40
1.0
176
     0
 90
        2
176
     1
  1
strokes_ogs.tif
176
     1
290
     0
176
     1
 40
1.0
176
     1
 40
1.0
176
     1
  0
VISUALSTYLE
  5
1C9
102
{ACAD_REACTORS
330
167
102
}
330
167
100
AcDbVisualStyle
  2
Shades of Gray
 70
    23
177
     3
291
     0
 70
    58
 90
        2
176
     1
 90
        2
176
     1
 90
        3
176
     1
 90
        0
176
     1
 40
0.6
176
     1
 40
30.0
176
     1
 62
     7
420
 16777215
176
     1
 90
        2
176
     1
 90
        2
176
     1
 62
     7
176
     1
 62
     7
176
     1
 90
        1
176
     1
 90
        1
176
     1
 40
40.0
176
     1
 90
        8
176
     1
 62
     7
176
     1
 40
1.0
176
     1
 90
        1
176
     1
 90
        6
176
     1
 90
        2
176
     1
 62
     7
176
     1
 90
        3
176
     1
 90
        0
176
     1
 90
        0
176
     1
290
     0
176
     1
 90
        1
176
     1
 40
0.0
176
     1
 90
        0
176
     1
290
     0
176
     1
290
     1
176
     1
290
     1
176
     1
290
     0
176
     1
290
     0
176
     1
290
     0
176
     1
290
     0
176
     1
290
     0
176
     1
290
     0
176
     1
 90
       50
176
     1
 40
0.0
176
     1
 40
1.0
176
     1
 90
        0
176
     1
 62
    18
420
        0
176
     1
 90
       50
176
     1
 90
        3
176
     1
 62
     5
420
      255
176
     1
290
     0
176
     1
 90
       50
176
     1
 90
       50
176
     1
 90
       50
176
     1
290
     0
176
     1
 90
       50
176
     1
 62
   256
176
     0
 40
1.0
176
     0
 90
        2
176
     1
  1
strokes_ogs.tif
176
     1
290
     0
176
     1
 40
1.0
176
     1
 40
1.0
176
     1
  0
VISUALSTYLE
  5
1CA
102
{ACAD_REACTORS
330
167
102
}
330
167
100
AcDbVisualStyle
  2
Sketchy
 70
    24
177
     3
291
     0
 70
    58
 90
        1
176
     1
 90
        2
176
     1
 90
        2
176
     1
 90
        0
176
     1
 40
0.6
176
     1
 40
30.0
176
     1
 62
     7
420
 16777215
176
     1
 90
        2
176
     1
 90
        2
176
     1
 62
     7
176
     1
 62
     7
176
     1
 90
        1
176
     1
 90
        1
176
     1
 40
40.0
176
     1
 90
       11
176
     1
 62
     7
176
     1
 40
1.0
176
     1
 90
        1
176
     1
 90
        6
176
     1
 90
        2
176
     1
 62
     7
176
     1
 90
        6
176
     1
 90
        0
176
     1
 90
        0
176
     1
290
     0
176
     1
 90
        1
176
     1
 40
0.0
176
     1
 90
        0
176
     1
290
     0
176
     1
290
     1
176
     1
290
     1
176
     1
290
     0
176
     1
290
     0
176
     1
290
     0
176
     1
290
     0
176
     1
290
     0
176
     1
290
     0
176
     1
 90
       50
176
     1
 40
0.0
176
     1
 40
1.0
176
     1
 90
        0
176
     1
 62
    18
420
        0
176
     1
 90
       50
176
     1
 90
        3
176
     1
 62
     5
420
      255
176
     1
290
     0
176
     1
 90
       50
176
     1
 90
       50
176
     1
 90
       50
176
     1
290
     0
176
     1
 90
       50
176
     1
 62
   256
176
     0
 40
1.0
176
     0
 90
        2
176
     1
  1
strokes_ogs.tif
176
     1
290
     0
176
     1
 40
1.0
176
     1
 40
1.0
176
     1
  0
VISUALSTYLE
  5
174
102
{ACAD_REACTORS
330
167
102
}
330
167
100
AcDbVisualStyle
  2
Thicken
 70
    13
177
     3
291
     1
 70
    58
 90
        2
176
     1
 90
        2
176
     1
 90
        0
176
     1
 90
        0
176
     1
 40
-0.6
176
     1
 40
-30.0
176
     1
 62
     7
176
     1
 90
        1
176
     1
 90
        4
176
     1
 62
     7
176
     1
 62
   257
176
     1
 90
        1
176
     1
 90
        1
176
     1
 40
1.0
176
     1
 90
       12
176
     1
 62
     7
176
     1
 40
1.0
176
     1
 90
        1
176
     1
 90
        6
176
     1
 90
        2
176
     1
 62
     7
176
     1
 90
        5
176
     1
 90
        0
176
     1
 90
        0
176
     1
290
     0
176
     1
 90
        1
176
     1
 40
0.0
176
     1
 90
        0
176
     1
290
     0
176
     1
290
     1
176
     1
290
     1
176
     1
290
     0
176
     1
290
     0
176
     1
290
     0
176
     1
290
     0
176
     1
290
     0
176
     1
290
     0
176
     1
 90
       50
176
     1
 40
0.0
176
     1
 40
1.0
176
     1
 90
        0
176
     1
 62
    18
420
        0
176
     1
 90
       50
176
     1
 90
        3
176
     1
 62
     5
420
      255
176
     1
290
     0
176
     1
 90
       50
176
     1
 90
       50
176
     1
 90
       50
176
     1
290
     0
176
     1
 90
       50
176
     1
 62
   256
176
     0
 40
1.0
176
     0
 90
        2
176
     1
  1
strokes_ogs.tif
176
     1
290
     0
176
     1
 40
1.0
176
     1
 40
1.0
176
     1
  0
VISUALSTYLE
  5
1C4
102
{ACAD_REACTORS
330
167
102
}
330
167
100
AcDbVisualStyle
  2
Wireframe
 70
     5
177
     3
291
     0
 70
    58
 90
        0
176
     1
 90
        2
176
     1
 90
        0
176
     1
 90
        0
176
     1
 40
0.6
176
     1
 40
30.0
176
     1
 62
     7
420
 16777215
176
     1
 90
        1
176
     1
 90
        4
176
     1
 62
     7
176
     1
 62
   257
176
     1
 90
        1
176
     1
 90
        1
176
     1
 40
1.0
176
     1
 90
        0
176
     1
 62
   257
176
     1
 40
1.0
176
     1
 90
        1
176
     1
 90
        6
176
     1
 90
        2
176
     1
 62
     7
176
     1
 90
        3
176
     1
 90
        0
176
     1
 90
        0
176
     1
290
     0
176
     1
 90
        1
176
     1
 40
0.0
176
     1
 90
        0
176
     1
290
     0
176
     1
290
     1
176
     1
290
     1
176
     1
290
     0
176
     1
290
     0
176
     1
290
     0
176
     1
290
     0
176
     1
290
     0
176
     1
290
     0
176
     1
 90
       50
176
     1
 40
0.0
176
     1
 40
1.0
176
     1
 90
        0
176
     1
 62
    18
420
        0
176
     1
 90
       50
176
     1
 90
        3
176
     1
 62
     5
420
      255
176
     1
290
     0
176
     1
 90
       50
176
     1
 90
       50
176
     1
 90
       50
176
     1
290
     0
176
     1
 90
       50
176
     1
 62
   256
176
     0
 40
1.0
176
     0
 90
        2
176
     1
  1
strokes_ogs.tif
176
     1
290
     0
176
     1
 40
1.0
176
     1
 40
1.0
176
     1
  0
VISUALSTYLE
  5
1CB
102
{ACAD_REACTORS
330
167
102
}
330
167
100
AcDbVisualStyle
  2
X-Ray
 70
    25
177
     3
291
     0
 70
    58
 90
        2
176
     1
 90
        2
176
     1
 90
        1
176
     1
 90
        1
176
     1
 40
0.5
176
     1
 40
30.0
176
     1
 62
     7
420
 16777215
176
     1
 90
        1
176
     1
 90
        0
176
     1
 62
     7
176
     1
 62
   257
176
     1
 90
        1
176
     1
 90
        1
176
     1
 40
1.0
176
     1
 90
        8
176
     1
 62
     7
176
     1
 40
1.0
176
     1
 90
        1
176
     1
 90
        6
176
     1
 90
        2
176
     1
 62
     7
176
     1
 90
        3
176
     1
 90
        0
176
     1
 90
        0
176
     1
290
     0
176
     1
 90
       13
176
     1
 40
0.0
176
     1
 90
        0
176
     1
290
     0
176
     1
290
     1
176
     1
290
     1
176
     1
290
     0
176
     1
290
     0
176
     1
290
     0
176
     1
290
     0
176
     1
290
     0
176
     1
290
     0
176
     1
 90
       50
176
     1
 40
0.0
176
     1
 40
1.0
176
     1
 90
        0
176
     1
 62
    18
420
        0
176
     1
 90
       50
176
     1
 90
        3
176
     1
 62
     5
420
      255
176
     1
290
     0
176
     1
 90
       50
176
     1
 90
       50
176
     1
 90
       50
176
     1
290
     0
176
     1
 90
       50
176
     1
 62
   256
176
     0
 40
1.0
176
     0
 90
        2
176
     1
  1
strokes_ogs.tif
176
     1
290
     0
176
     1
 40
1.0
176
     1
 40
1.0
176
     1
  0
DICTIONARYVAR
  5
1D2
102
{ACAD_REACTORS
330
183
102
}
330
183
100
DictionaryVariables
280
     0
  1
1:1
  0
DICTIONARYVAR
  5
1D4
102
{ACAD_REACTORS
330
183
102
}
330
183
100
DictionaryVariables
280
     0
  1
Standard
  0
DICTIONARYVAR
  5
1D3
102
{ACAD_REACTORS
330
183
102
}
330
183
100
DictionaryVariables
280
     0
  1
Standard
  0
DICTIONARYVAR
  5
187
102
{ACAD_REACTORS
330
183
102
}
330
183
100
DictionaryVariables
280
     0
  1
2
  0
DICTIONARYVAR
  5
188
102
{ACAD_REACTORS
330
183
102
}
330
183
100
DictionaryVariables
280
     0
  1
1
  0
DICTIONARYVAR
  5
186
102
{ACAD_REACTORS
330
183
102
}
330
183
100
DictionaryVariables
280
     0
  1
0
  0
DICTIONARY
  5
237
330
1CF
100
AcDbDictionary
280
     1
281
     1
  3
ACAD_ROUNDTRIP_2008_TABLESTYLE_CELLSTYLEMAP
360
238
  0
CELLSTYLEMAP
  5
238
102
{ACAD_REACTORS
330
237
102
}
330
237
100
AcDbCellStyleMap
 90
        3
300
CELLSTYLE
  1
TABLEFORMAT_BEGIN
 90
        5
170
     1
 91
        0
 92
    32768
 62
   257
 93
        1
300
CONTENTFORMAT
  1
CONTENTFORMAT_BEGIN
 90
        0
 91
        0
 92
        4
 93
        0
300

 40
0.0
140
1.0
 94
        5
 62
     0
340
11
144
0.25
309
CONTENTFORMAT_END
171
     1
301
MARGIN
  1
CELLMARGIN_BEGIN
 40
0.06
 40
0.06
 40
0.06
 40
0.06
 40
0.06
 40
0.06
309
CELLMARGIN_END
 94
        6
 95
        1
302
GRIDFORMAT
  1
GRIDFORMAT_BEGIN
 90
        0
 91
        1
 62
     0
 92
       -2
340
14
 93
        0
 40
0.045
309
GRIDFORMAT_END
 95
        2
302
GRIDFORMAT
  1
GRIDFORMAT_BEGIN
 90
        0
 91
        1
 62
     0
 92
       -2
340
14
 93
        0
 40
0.045
309
GRIDFORMAT_END
 95
        4
302
GRIDFORMAT
  1
GRIDFORMAT_BEGIN
 90
        0
 91
        1
 62
     0
 92
       -2
340
14
 93
        0
 40
0.045
309
GRIDFORMAT_END
 95
        8
302
GRIDFORMAT
  1
GRIDFORMAT_BEGIN
 90
        0
 91
        1
 62
     0
 92
       -2
340
14
 93
        0
 40
0.045
309
GRIDFORMAT_END
 95
       16
302
GRIDFORMAT
  1
GRIDFORMAT_BEGIN
 90
        0
 91
        1
 62
     0
 92
       -2
340
14
 93
        0
 40
0.045
309
GRIDFORMAT_END
 95
       32
302
GRIDFORMAT
  1
GRIDFORMAT_BEGIN
 90
        0
 91
        1
 62
     0
 92
       -2
340
14
 93
        0
 40
0.045
309
GRIDFORMAT_END
309
TABLEFORMAT_END
  1
CELLSTYLE_BEGIN
 90
        1
 91
        1
300
_TITLE
309
CELLSTYLE_END
300
CELLSTYLE
  1
TABLEFORMAT_BEGIN
 90
        5
170
     1
 91
        0
 92
        0
 62
   257
 93
        1
300
CONTENTFORMAT
  1
CONTENTFORMAT_BEGIN
 90
        0
 91
        0
 92
        4
 93
        0
300

 40
0.0
140
1.0
 94
        5
 62
     0
340
11
144
0.18
309
CONTENTFORMAT_END
171
     1
301
MARGIN
  1
CELLMARGIN_BEGIN
 40
0.06
 40
0.06
 40
0.06
 40
0.06
 40
0.06
 40
0.06
309
CELLMARGIN_END
 94
        6
 95
        1
302
GRIDFORMAT
  1
GRIDFORMAT_BEGIN
 90
        0
 91
        1
 62
     0
 92
       -2
340
14
 93
        0
 40
0.045
309
GRIDFORMAT_END
 95
        2
302
GRIDFORMAT
  1
GRIDFORMAT_BEGIN
 90
        0
 91
        1
 62
     0
 92
       -2
340
14
 93
        0
 40
0.045
309
GRIDFORMAT_END
 95
        4
302
GRIDFORMAT
  1
GRIDFORMAT_BEGIN
 90
        0
 91
        1
 62
     0
 92
       -2
340
14
 93
        0
 40
0.045
309
GRIDFORMAT_END
 95
        8
302
GRIDFORMAT
  1
GRIDFORMAT_BEGIN
 90
        0
 91
        1
 62
     0
 92
       -2
340
14
 93
        0
 40
0.045
309
GRIDFORMAT_END
 95
       16
302
GRIDFORMAT
  1
GRIDFORMAT_BEGIN
 90
        0
 91
        1
 62
     0
 92
       -2
340
14
 93
        0
 40
0.045
309
GRIDFORMAT_END
 95
       32
302
GRIDFORMAT
  1
GRIDFORMAT_BEGIN
 90
        0
 91
        1
 62
     0
 92
       -2
340
14
 93
        0
 40
0.045
309
GRIDFORMAT_END
309
TABLEFORMAT_END
  1
CELLSTYLE_BEGIN
 90
        2
 91
        1
300
_HEADER
309
CELLSTYLE_END
300
CELLSTYLE
  1
TABLEFORMAT_BEGIN
 90
        5
170
     1
 91
        0
 92
        0
 62
   257
 93
        1
300
CONTENTFORMAT
  1
CONTENTFORMAT_BEGIN
 90
        0
 91
        0
 92
        4
 93
        0
300

 40
0.0
140
1.0
 94
        2
 62
     0
340
11
144
0.18
309
CONTENTFORMAT_END
171
     1
301
MARGIN
  1
CELLMARGIN_BEGIN
 40
0.06
 40
0.06
 40
0.06
 40
0.06
 40
0.06
 40
0.06
309
CELLMARGIN_END
 94
        6
 95
        1
302
GRIDFORMAT
  1
GRIDFORMAT_BEGIN
 90
        0
 91
        1
 62
     0
 92
       -2
340
14
 93
        0
 40
0.045
309
GRIDFORMAT_END
 95
        2
302
GRIDFORMAT
  1
GRIDFORMAT_BEGIN
 90
        0
 91
        1
 62
     0
 92
       -2
340
14
 93
        0
 40
0.045
309
GRIDFORMAT_END
 95
        4
302
GRIDFORMAT
  1
GRIDFORMAT_BEGIN
 90
        0
 91
        1
 62
     0
 92
       -2
340
14
 93
        0
 40
0.045
309
GRIDFORMAT_END
 95
        8
302
GRIDFORMAT
  1
GRIDFORMAT_BEGIN
 90
        0
 91
        1
 62
     0
 92
       -2
340
14
 93
        0
 40
0.045
309
GRIDFORMAT_END
 95
       16
302
GRIDFORMAT
  1
GRIDFORMAT_BEGIN
 90
        0
 91
        1
 62
     0
 92
       -2
340
14
 93
        0
 40
0.045
309
GRIDFORMAT_END
 95
       32
302
GRIDFORMAT
  1
GRIDFORMAT_BEGIN
 90
        0
 91
        1
 62
     0
 92
       -2
340
14
 93
        0
 40
0.045
309
GRIDFORMAT_END
309
TABLEFORMAT_END
  1
CELLSTYLE_BEGIN
 90
        3
 91
        2
300
_DATA
309
CELLSTYLE_END
  0
ENDSEC
  0
EOF
