  0
SECTION
  2
HEADER
  9
$ACADVER
  1
AC1027
  9
$ACADMAINTVER
 70
   105
  9
$DWGCODEPAGE
  3
ANSI_1252
  9
$REQUIREDVERSIONS
160
                 0
  9
$LASTSAVEDBY
  1
christoph.stuessi
  9
$INSBASE
 10
0.0
 20
0.0
 30
0.0
  9
$EXTMIN
 10
-133.8842870426452
 20
-113.7270276833959
 30
0.0
  9
$EXTMAX
 10
174.7395640702238
 20
89.12751707268848
 30
0.0
  9
$LIMMIN
 10
-156.374161562
 20
-100.648909728
  9
$LIMMAX
 10
212.515069595
 20
66.135133909
  9
$ORTHOMODE
 70
     0
  9
$REGENMODE
 70
     1
  9
$FILLMODE
 70
     1
  9
$QTEXTMODE
 70
     0
  9
$MIRRTEXT
 70
     1
  9
$LTSCALE
 40
1.0
  9
$ATTMODE
 70
     1
  9
$TEXTSIZE
 40
0.2
  9
$TRACEWID
 40
0.05
  9
$TEXTSTYLE
  7
Standard
  9
$CLAYER
  8
INFTOTAL
  9
$CELTYPE
  6
ByLayer
  9
$CECOLOR
 62
   256
  9
$CELTSCALE
 40
1.0
  9
$DISPSILH
 70
     0
  9
$DIMSCALE
 40
1.0
  9
$DIMASZ
 40
0.18
  9
$DIMEXO
 40
0.0625
  9
$DIMDLI
 40
0.38
  9
$DIMRND
 40
0.0
  9
$DIMDLE
 40
0.0
  9
$DIMEXE
 40
0.18
  9
$DIMTP
 40
0.0
  9
$DIMTM
 40
0.0
  9
$DIMTXT
 40
0.18
  9
$DIMCEN
 40
0.09
  9
$DIMTSZ
 40
0.0
  9
$DIMTOL
 70
     0
  9
$DIMLIM
 70
     0
  9
$DIMTIH
 70
     1
  9
$DIMTOH
 70
     1
  9
$DIMSE1
 70
     0
  9
$DIMSE2
 70
     0
  9
$DIMTAD
 70
     0
  9
$DIMZIN
 70
     0
  9
$DIMBLK
  1

  9
$DIMASO
 70
     1
  9
$DIMSHO
 70
     1
  9
$DIMPOST
  1

  9
$DIMAPOST
  1

  9
$DIMALT
 70
     0
  9
$DIMALTD
 70
     2
  9
$DIMALTF
 40
25.4
  9
$DIMLFAC
 40
1.0
  9
$DIMTOFL
 70
     0
  9
$DIMTVP
 40
0.0
  9
$DIMTIX
 70
     0
  9
$DIMSOXD
 70
     0
  9
$DIMSAH
 70
     0
  9
$DIMBLK1
  1

  9
$DIMBLK2
  1

  9
$DIMSTYLE
  2
Standard
  9
$DIMCLRD
 70
     0
  9
$DIMCLRE
 70
     0
  9
$DIMCLRT
 70
     0
  9
$DIMTFAC
 40
1.0
  9
$DIMGAP
 40
0.09
  9
$DIMJUST
 70
     0
  9
$DIMSD1
 70
     0
  9
$DIMSD2
 70
     0
  9
$DIMTOLJ
 70
     1
  9
$DIMTZIN
 70
     0
  9
$DIMALTZ
 70
     0
  9
$DIMALTTZ
 70
     0
  9
$DIMUPT
 70
     0
  9
$DIMDEC
 70
     4
  9
$DIMTDEC
 70
     4
  9
$DIMALTU
 70
     2
  9
$DIMALTTD
 70
     2
  9
$DIMTXSTY
  7
Standard
  9
$DIMAUNIT
 70
     0
  9
$DIMADEC
 70
     0
  9
$DIMALTRND
 40
0.0
  9
$DIMAZIN
 70
     0
  9
$DIMDSEP
 70
    46
  9
$DIMATFIT
 70
     3
  9
$DIMFRAC
 70
     0
  9
$DIMLDRBLK
  1

  9
$DIMLUNIT
 70
     2
  9
$DIMLWD
 70
    -2
  9
$DIMLWE
 70
    -2
  9
$DIMTMOVE
 70
     2
  9
$DIMFXL
 40
1.0
  9
$DIMFXLON
 70
     0
  9
$DIMJOGANG
 40
0.7853981633974483
  9
$DIMTFILL
 70
     0
  9
$DIMTFILLCLR
 70
     0
  9
$DIMARCSYM
 70
     0
  9
$DIMLTYPE
  6

  9
$DIMLTEX1
  6

  9
$DIMLTEX2
  6

  9
$DIMTXTDIRECTION
 70
     0
  9
$LUNITS
 70
     2
  9
$LUPREC
 70
     4
  9
$SKETCHINC
 40
0.1
  9
$FILLETRAD
 40
0.5
  9
$AUNITS
 70
     2
  9
$AUPREC
 70
     0
  9
$MENU
  1
.
  9
$ELEVATION
 40
0.0
  9
$PELEVATION
 40
0.0
  9
$THICKNESS
 40
0.0
  9
$LIMCHECK
 70
     0
  9
$CHAMFERA
 40
0.5
  9
$CHAMFERB
 40
0.5
  9
$CHAMFERC
 40
1.0
  9
$CHAMFERD
 40
0.0
  9
$SKPOLY
 70
     0
  9
$TDCREATE
 40
2458327.549400324
  9
$TDUCREATE
 40
2458327.466066991
  9
$TDUPDATE
 40
2458359.614398229
  9
$TDUUPDATE
 40
2458359.531064896
  9
$TDINDWG
 40
0.0049704167
  9
$TDUSRTIMER
 40
0.008989294
  9
$USRTIMER
 70
     1
  9
$ANGBASE
 50
0.0
  9
$ANGDIR
 70
     0
  9
$PDMODE
 70
     0
  9
$PDSIZE
 40
0.0
  9
$PLINEWID
 40
0.0
  9
$SPLFRAME
 70
     0
  9
$SPLINETYPE
 70
     6
  9
$SPLINESEGS
 70
     8
  9
$HANDSEED
  5
2B2
  9
$SURFTAB1
 70
     6
  9
$SURFTAB2
 70
     6
  9
$SURFTYPE
 70
     6
  9
$SURFU
 70
     6
  9
$SURFV
 70
     6
  9
$UCSBASE
  2

  9
$UCSNAME
  2

  9
$UCSORG
 10
0.0
 20
0.0
 30
0.0
  9
$UCSXDIR
 10
1.0
 20
0.0
 30
0.0
  9
$UCSYDIR
 10
0.0
 20
1.0
 30
0.0
  9
$UCSORTHOREF
  2

  9
$UCSORTHOVIEW
 70
     0
  9
$UCSORGTOP
 10
0.0
 20
0.0
 30
0.0
  9
$UCSORGBOTTOM
 10
0.0
 20
0.0
 30
0.0
  9
$UCSORGLEFT
 10
0.0
 20
0.0
 30
0.0
  9
$UCSORGRIGHT
 10
0.0
 20
0.0
 30
0.0
  9
$UCSORGFRONT
 10
0.0
 20
0.0
 30
0.0
  9
$UCSORGBACK
 10
0.0
 20
0.0
 30
0.0
  9
$PUCSBASE
  2

  9
$PUCSNAME
  2

  9
$PUCSORG
 10
0.0
 20
0.0
 30
0.0
  9
$PUCSXDIR
 10
1.0
 20
0.0
 30
0.0
  9
$PUCSYDIR
 10
0.0
 20
1.0
 30
0.0
  9
$PUCSORTHOREF
  2

  9
$PUCSORTHOVIEW
 70
     0
  9
$PUCSORGTOP
 10
0.0
 20
0.0
 30
0.0
  9
$PUCSORGBOTTOM
 10
0.0
 20
0.0
 30
0.0
  9
$PUCSORGLEFT
 10
0.0
 20
0.0
 30
0.0
  9
$PUCSORGRIGHT
 10
0.0
 20
0.0
 30
0.0
  9
$PUCSORGFRONT
 10
0.0
 20
0.0
 30
0.0
  9
$PUCSORGBACK
 10
0.0
 20
0.0
 30
0.0
  9
$USERI1
 70
     0
  9
$USERI2
 70
     0
  9
$USERI3
 70
     0
  9
$USERI4
 70
     0
  9
$USERI5
 70
     0
  9
$USERR1
 40
0.0
  9
$USERR2
 40
0.0
  9
$USERR3
 40
0.0
  9
$USERR4
 40
0.0
  9
$USERR5
 40
0.0
  9
$WORLDVIEW
 70
     1
  9
$SHADEDGE
 70
     3
  9
$SHADEDIF
 70
    70
  9
$TILEMODE
 70
     1
  9
$MAXACTVP
 70
    64
  9
$PINSBASE
 10
0.0
 20
0.0
 30
0.0
  9
$PLIMCHECK
 70
     0
  9
$PEXTMIN
 10
1.000000000000000E+20
 20
1.000000000000000E+20
 30
1.000000000000000E+20
  9
$PEXTMAX
 10
-1.000000000000000E+20
 20
-1.000000000000000E+20
 30
-1.000000000000000E+20
  9
$PLIMMIN
 10
0.0
 20
0.0
  9
$PLIMMAX
 10
0.0
 20
0.0
  9
$UNITMODE
 70
     0
  9
$VISRETAIN
 70
     1
  9
$PLINEGEN
 70
     0
  9
$PSLTSCALE
 70
     1
  9
$TREEDEPTH
 70
  3020
  9
$CMLSTYLE
  2
Standard
  9
$CMLJUST
 70
     0
  9
$CMLSCALE
 40
1.0
  9
$PROXYGRAPHICS
 70
     1
  9
$MEASUREMENT
 70
     0
  9
$CELWEIGHT
370
    -1
  9
$ENDCAPS
280
     0
  9
$JOINSTYLE
280
     0
  9
$LWDISPLAY
290
     0
  9
$INSUNITS
 70
     0
  9
$HYPERLINKBASE
  1

  9
$STYLESHEET
  1

  9
$XEDIT
290
     1
  9
$CEPSNTYPE
380
     0
  9
$PSTYLEMODE
290
     1
  9
$FINGERPRINTGUID
  2
{4AAB88AC-82A0-43F4-9AFB-732F1A6A5E5C}
  9
$VERSIONGUID
  2
{FAEB1C32-E019-11D5-929B-00C0DF256EC4}
  9
$EXTNAMES
290
     1
  9
$PSVPSCALE
 40
0.0
  9
$OLESTARTUP
290
     0
  9
$SORTENTS
280
   127
  9
$INDEXCTL
280
     0
  9
$HIDETEXT
280
     1
  9
$XCLIPFRAME
280
     2
  9
$HALOGAP
280
     0
  9
$OBSCOLOR
 70
   257
  9
$OBSLTYPE
280
     0
  9
$INTERSECTIONDISPLAY
280
     0
  9
$INTERSECTIONCOLOR
 70
   257
  9
$DIMASSOC
280
     2
  9
$PROJECTNAME
  1

  9
$CAMERADISPLAY
290
     0
  9
$LENSLENGTH
 40
50.0
  9
$CAMERAHEIGHT
 40
0.0
  9
$STEPSPERSEC
 40
2.0
  9
$STEPSIZE
 40
6.0
  9
$3DDWFPREC
 40
2.0
  9
$PSOLWIDTH
 40
0.25
  9
$PSOLHEIGHT
 40
4.0
  9
$LOFTANG1
 40
1.570796326794897
  9
$LOFTANG2
 40
1.570796326794897
  9
$LOFTMAG1
 40
0.0
  9
$LOFTMAG2
 40
0.0
  9
$LOFTPARAM
 70
     7
  9
$LOFTNORMALS
280
     1
  9
$LATITUDE
 40
37.795
  9
$LONGITUDE
 40
-122.394
  9
$NORTHDIRECTION
 40
0.0
  9
$TIMEZONE
 70
 -8000
  9
$LIGHTGLYPHDISPLAY
280
     1
  9
$TILEMODELIGHTSYNCH
280
     1
  9
$SOLIDHIST
280
     0
  9
$SHOWHIST
280
     1
  9
$DWFFRAME
280
     2
  9
$DGNFRAME
280
     2
  9
$REALWORLDSCALE
290
     1
  9
$INTERFERECOLOR
 62
   256
  9
$CSHADOW
280
     0
  9
$SHADOWPLANELOCATION
 40
0.0
  0
ENDSEC
  0
SECTION
  2
CLASSES
  0
CLASS
  1
ACDBDICTIONARYWDFLT
  2
AcDbDictionaryWithDefault
  3
ObjectDBX Classes
 90
        0
 91
        5
280
     0
281
     0
  0
CLASS
  1
SCALE
  2
AcDbScale
  3
ObjectDBX Classes
 90
     1153
 91
        5
280
     0
281
     0
  0
CLASS
  1
VISUALSTYLE
  2
AcDbVisualStyle
  3
ObjectDBX Classes
 90
     4095
 91
        5
280
     0
281
     0
  0
CLASS
  1
MATERIAL
  2
AcDbMaterial
  3
ObjectDBX Classes
 90
     1153
 91
        5
280
     0
281
     0
  0
CLASS
  1
DICTIONARYVAR
  2
AcDbDictionaryVar
  3
ObjectDBX Classes
 90
        0
 91
        5
280
     0
281
     0
  0
CLASS
  1
ACDBPLACEHOLDER
  2
AcDbPlaceHolder
  3
ObjectDBX Classes
 90
        0
 91
        1
280
     0
281
     0
  0
CLASS
  1
LAYOUT
  2
AcDbLayout
  3
ObjectDBX Classes
 90
        0
 91
        1
280
     0
281
     0
  0
CLASS
  1
TABLESTYLE
  2
AcDbTableStyle
  3
ObjectDBX Classes
 90
     4095
 91
        5
280
     0
281
     0
  0
CLASS
  1
MLEADERSTYLE
  2
AcDbMLeaderStyle
  3
ACDB_MLEADERSTYLE_CLASS
 90
     4095
 91
        5
280
     0
281
     0
  0
CLASS
  1
CELLSTYLEMAP
  2
AcDbCellStyleMap
  3
ObjectDBX Classes
 90
     1152
 91
        5
280
     0
281
     0
  0
ENDSEC
  0
SECTION
  2
TABLES
  0
TABLE
  2
VPORT
  5
8
330
0
100
AcDbSymbolTable
 70
     1
  0
VPORT
  5
197
330
8
100
AcDbSymbolTableRecord
100
AcDbViewportTableRecord
  2
*Active
 70
     0
 10
0.0
 20
0.0
 11
1.0
 21
1.0
 12
162.4921146387881
 22
-28.28993549978247
 13
0.0
 23
0.0
 14
0.5
 24
0.5
 15
0.5
 25
0.5
 16
0.0
 26
0.0
 36
1.0
 17
0.0
 27
0.0
 37
0.0
 40
319.7442310920447
 41
2.246376811594203
 42
50.0
 43
0.0
 44
0.0
 50
0.0
 51
0.0
 71
    16
 72
   100
 73
     1
 74
     3
 75
     0
 76
     0
 77
     0
 78
     0
281
     0
 65
     1
110
0.0
120
0.0
130
0.0
111
1.0
121
0.0
131
0.0
112
0.0
122
1.0
132
0.0
 79
     0
146
0.0
348
1C8
 60
     3
 61
     5
292
     1
282
     1
141
0.0
142
0.0
 63
   256
  0
ENDTAB
  0
TABLE
  2
LTYPE
  5
5
330
0
100
AcDbSymbolTable
 70
     8
  0
LTYPE
  5
14
330
5
100
AcDbSymbolTableRecord
100
AcDbLinetypeTableRecord
  2
ByBlock
 70
     0
  3

 72
    65
 73
     0
 40
0.0
  0
LTYPE
  5
15
330
5
100
AcDbSymbolTableRecord
100
AcDbLinetypeTableRecord
  2
ByLayer
 70
     0
  3

 72
    65
 73
     0
 40
0.0
  0
LTYPE
  5
16
330
5
100
AcDbSymbolTableRecord
100
AcDbLinetypeTableRecord
  2
Continuous
 70
     0
  3
Solid line
 72
    65
 73
     0
 40
0.0
  0
LTYPE
  5
20
330
5
100
AcDbSymbolTableRecord
100
AcDbLinetypeTableRecord
  2
PUNKT
 70
     0
  3
..............
 72
    65
 73
     2
 40
1.5
 49
0.7
 74
     0
 49
-0.8
 74
     0
  0
LTYPE
  5
21
330
5
100
AcDbSymbolTableRecord
100
AcDbLinetypeTableRecord
  2
GESTRICHELT
 70
     0
  3
-- -- -- -- --
 72
    65
 73
     7
 40
2.8
 49
0.9
 74
     0
 49
0.0
 74
     0
 49
0.9
 74
     0
 49
0.0
 74
     0
 49
0.2
 74
     0
 49
0.0
 74
     0
 49
-0.8
 74
     0
  0
LTYPE
  5
22
330
5
100
AcDbSymbolTableRecord
100
AcDbLinetypeTableRecord
  2
STRICHPUNKT
 70
     0
  3
--.--.--.--.--
 72
    65
 73
     4
 40
8.8
 49
5.5
 74
     0
 49
-1.3
 74
     0
 49
0.7
 74
     0
 49
-1.3
 74
     0
  0
LTYPE
  5
25
330
5
100
AcDbSymbolTableRecord
100
AcDbLinetypeTableRecord
  2
PHANTOM
 70
     0
  3
--..--..--..--
 72
    65
 73
     6
 40
14.2
 49
7.0
 74
     0
 49
-1.8
 74
     0
 49
0.9
 74
     0
 49
-1.8
 74
     0
 49
0.9
 74
     0
 49
-1.8
 74
     0
  0
LTYPE
  5
20F
330
5
100
AcDbSymbolTableRecord
100
AcDbLinetypeTableRecord
  2
DASH
 70
     0
  3
DASH _ _ _ _ _
 72
    65
 73
     2
 40
0.75
 49
0.4
 74
     0
 49
-0.35
 74
     0
  0
LTYPE
  5
210
330
5
100
AcDbSymbolTableRecord
100
AcDbLinetypeTableRecord
  2
LONGDASH_DASH
 70
     0
  3
LONGDASH_DASH __ . __ . __
 72
    65
 73
     4
 40
0.85
 49
0.4
 74
     0
 49
-0.2
 74
     0
 49
0.05
 74
     0
 49
-0.2
 74
     0
  0
LTYPE
  5
211
330
5
100
AcDbSymbolTableRecord
100
AcDbLinetypeTableRecord
  2
LONGDASH_DASH_DASH
 70
     0
  3
LONGDASH_DASH_DASH __ . . __ . . __
 72
    65
 73
     6
 40
1.1
 49
0.4
 74
     0
 49
-0.2
 74
     0
 49
0.05
 74
     0
 49
-0.2
 74
     0
 49
0.05
 74
     0
 49
-0.2
 74
     0
  0
ENDTAB
  0
TABLE
  2
LAYER
  5
2
102
{ACAD_XDICTIONARY
360
22E
102
}
330
0
100
AcDbSymbolTable
 70
    15
  0
LAYER
  5
1D9
330
2
100
AcDbSymbolTableRecord
100
AcDbLayerTableRecord
  2
200
 70
     0
 62
     2
  6
Continuous
370
    50
390
F
347
1D7
348
0
  0
LAYER
  5
212
330
2
100
AcDbSymbolTableRecord
100
AcDbLayerTableRecord
  2
0
 70
     0
 62
    -1
  6
Continuous
370
    -3
390
F
347
1D7
348
0
  0
LAYER
  5
213
330
2
100
AcDbSymbolTableRecord
100
AcDbLayerTableRecord
  2
1
 70
     0
 62
     4
  6
Continuous
370
    50
390
F
347
1D7
348
0
  0
LAYER
  5
214
330
2
100
AcDbSymbolTableRecord
100
AcDbLayerTableRecord
  2
2
 70
     0
 62
     7
  6
Continuous
370
    25
390
F
347
1D7
348
0
  0
LAYER
  5
215
330
2
100
AcDbSymbolTableRecord
100
AcDbLayerTableRecord
  2
3
 70
     0
 62
     1
  6
DASH
370
    35
390
F
347
1D7
348
0
  0
LAYER
  5
216
330
2
100
AcDbSymbolTableRecord
100
AcDbLayerTableRecord
  2
4
 70
     0
 62
     2
  6
LONGDASH_DASH
370
    25
390
F
347
1D7
348
0
  0
LAYER
  5
217
330
2
100
AcDbSymbolTableRecord
100
AcDbLayerTableRecord
  2
6
 70
     0
 62
     5
  6
Continuous
370
    -3
390
F
347
1D7
348
0
  0
LAYER
  5
218
330
2
100
AcDbSymbolTableRecord
100
AcDbLayerTableRecord
  2
CUT
 70
     0
 62
     1
  6
Continuous
370
    25
390
F
347
1D7
348
0
  0
LAYER
  5
219
330
2
100
AcDbSymbolTableRecord
100
AcDbLayerTableRecord
  2
NOCUT
 70
     0
 62
     7
  6
Continuous
370
    25
390
F
347
1D7
348
0
  0
LAYER
  5
21A
330
2
100
AcDbSymbolTableRecord
100
AcDbLayerTableRecord
  2
SK1
 70
     0
 62
     4
  6
Continuous
370
    50
390
F
347
1D7
348
0
  0
LAYER
  5
21B
330
2
100
AcDbSymbolTableRecord
100
AcDbLayerTableRecord
  2
SK2
 70
     0
 62
     7
  6
Continuous
370
    25
390
F
347
1D7
348
0
  0
LAYER
  5
21C
330
2
100
AcDbSymbolTableRecord
100
AcDbLayerTableRecord
  2
SK3
 70
     0
 62
     1
  6
DASH
370
    35
390
F
347
1D7
348
0
  0
LAYER
  5
21D
330
2
100
AcDbSymbolTableRecord
100
AcDbLayerTableRecord
  2
SK4
 70
     0
 62
     2
  6
LONGDASH_DASH
370
    25
390
F
347
1D7
348
0
  0
LAYER
  5
21E
330
2
100
AcDbSymbolTableRecord
100
AcDbLayerTableRecord
  2
SK6
 70
     0
 62
     5
  6
Continuous
370
    -3
390
F
347
1D7
348
0
  0
LAYER
  5
21F
330
2
100
AcDbSymbolTableRecord
100
AcDbLayerTableRecord
  2
INFTOTAL
 70
     0
 62
     9
  6
Continuous
370
    18
390
F
347
1D7
348
0
  0
ENDTAB
  0
TABLE
  2
STYLE
  5
3
330
0
100
AcDbSymbolTable
 70
     2
  0
STYLE
  5
11
330
3
100
AcDbSymbolTableRecord
100
AcDbTextStyleTableRecord
  2
Standard
 70
     0
 40
0.0
 41
1.0
 50
0.0
 71
     0
 42
0.2
  3
txt
  4

  0
STYLE
  5
1D8
330
3
100
AcDbSymbolTableRecord
100
AcDbTextStyleTableRecord
  2
BMG_Text
 70
     0
 40
3.5
 41
1.0
 50
0.0
 71
     0
 42
0.2
  3
monos.ttf
  4

1001
ACAD
1000
Monospac821 BT
1071
       49
  0
ENDTAB
  0
TABLE
  2
VIEW
  5
6
330
0
100
AcDbSymbolTable
 70
     0
  0
ENDTAB
  0
TABLE
  2
UCS
  5
7
330
0
100
AcDbSymbolTable
 70
     0
  0
ENDTAB
  0
TABLE
  2
APPID
  5
9
330
0
100
AcDbSymbolTable
 70
     1
  0
APPID
  5
12
330
9
100
AcDbSymbolTableRecord
100
AcDbRegAppTableRecord
  2
ACAD
 70
     0
  0
ENDTAB
  0
TABLE
  2
DIMSTYLE
  5
A
330
0
100
AcDbSymbolTable
 70
     1
100
AcDbDimStyleTable
  0
DIMSTYLE
105
28
330
A
100
AcDbSymbolTableRecord
100
AcDbDimStyleTableRecord
  2
Standard
 70
     0
178
     0
340
11
  0
ENDTAB
  0
TABLE
  2
BLOCK_RECORD
  5
1
330
0
100
AcDbSymbolTable
 70
     0
  0
BLOCK_RECORD
  5
1D
330
1
100
AcDbSymbolTableRecord
100
AcDbBlockTableRecord
  2
*Model_Space
340
1E
 70
     0
280
     1
281
     0
  0
BLOCK_RECORD
  5
1B
330
1
100
AcDbSymbolTableRecord
100
AcDbBlockTableRecord
  2
*Paper_Space
340
1C
 70
     0
280
     1
281
     0
  0
ENDTAB
  0
ENDSEC
  0
SECTION
  2
BLOCKS
  0
BLOCK
  5
1C1
330
1D
100
AcDbEntity
  8
0
100
AcDbBlockBegin
  2
*Model_Space
 70
     0
 10
0.0
 20
0.0
 30
0.0
  3
*Model_Space
  1

  0
ENDBLK
  5
1C2
330
1D
100
AcDbEntity
  8
0
100
AcDbBlockEnd
  0
BLOCK
  5
1BF
330
1B
100
AcDbEntity
 67
     1
  8
0
100
AcDbBlockBegin
  2
*Paper_Space
 70
     0
 10
0.0
 20
0.0
 30
0.0
  3
*Paper_Space
  1

  0
ENDBLK
  5
1C0
330
1B
100
AcDbEntity
 67
     1
  8
0
100
AcDbBlockEnd
  0
ENDSEC
  0
SECTION
  2
ENTITIES
  0
LINE
  5
29
330
1D
100
AcDbEntity
  8
6
100
AcDbLine
 10
-35.519515126
 20
-83.263756785
 30
0.0
 11
-35.519515126
 21
-85.333748845
 31
0.0
  0
ARC
  5
2A
330
1D
100
AcDbEntity
  8
6
100
AcDbCircle
 10
-38.399504756
 20
-86.413758315
 30
0.0
 40
1.08000004
100
AcDbArc
 50
90.00000763
 51
206.54360962
  0
LINE
  5
2B
330
1D
100
AcDbEntity
  8
6
100
AcDbLine
 10
-38.399504756
 20
-85.333779365
 30
0.0
 11
-35.519499866
 21
-85.333779365
 31
0.0
  0
ARC
  5
2C
330
1D
100
AcDbEntity
  8
6
100
AcDbCircle
 10
-39.569510556
 20
-85.963753735
 30
0.0
 40
2.70000005
100
AcDbArc
 50
90.00000763
 51
206.5436554
  0
ARC
  5
2D
330
1D
100
AcDbEntity
  8
6
100
AcDbCircle
 10
-38.849494076
 20
-95.863762885
 30
0.0
 40
1.08000004
100
AcDbArc
 50
270.0
 51
26.54360962
  0
LINE
  5
2E
330
1D
100
AcDbEntity
  8
6
100
AcDbLine
 10
-38.849494076
 20
-96.943764715
 30
0.0
 11
-42.269492246
 21
-96.943764715
 31
0.0
  0
LINE
  5
2F
330
1D
100
AcDbEntity
  8
6
100
AcDbLine
 10
-41.984908196
 20
-87.170327215
 30
0.0
 11
-37.883345696
 21
-95.381119765
 31
0.0
  0
ARC
  5
30
330
1D
100
AcDbEntity
  8
6
100
AcDbCircle
 10
-37.679503536
 20
-96.313767465
 30
0.0
 40
2.70000005
100
AcDbArc
 50
270.0
 51
26.54364014
  0
LINE
  5
31
330
1D
100
AcDbEntity
  8
6
100
AcDbLine
 10
-39.365668386
 20
-86.896386175
 30
0.0
 11
-35.264098256
 21
-95.107186345
 31
0.0
  0
LINE
  5
32
330
1D
100
AcDbEntity
  8
6
100
AcDbLine
 10
-42.269515126
 20
-96.943764715
 30
0.0
 11
-42.269515126
 21
-99.013772045
 31
0.0
  0
LINE
  5
33
330
1D
100
AcDbEntity
  8
6
100
AcDbLine
 10
-42.269515126
 20
-99.013772045
 30
0.0
 11
-37.679511166
 21
-99.013772045
 31
0.0
  0
LINE
  5
34
330
1D
100
AcDbEntity
  8
6
100
AcDbLine
 10
-32.819510556
 20
-99.013772045
 30
0.0
 11
-32.819510556
 21
-83.263772045
 31
0.0
  0
LINE
  5
35
330
1D
100
AcDbEntity
  8
6
100
AcDbLine
 10
-24.539504146
 20
-99.013772045
 30
0.0
 11
-24.539504146
 21
-83.263772045
 31
0.0
  0
LINE
  5
36
330
1D
100
AcDbEntity
  8
6
100
AcDbLine
 10
-24.539504146
 20
-99.013772045
 30
0.0
 11
-21.839511006
 21
-99.013772045
 31
0.0
  0
LINE
  5
37
330
1D
100
AcDbEntity
  8
6
100
AcDbLine
 10
-21.839511006
 20
-99.013772045
 30
0.0
 11
-21.839511006
 21
-92.173775705
 31
0.0
  0
ARC
  5
38
330
1D
100
AcDbEntity
  8
6
100
AcDbCircle
 10
-20.489497276
 20
-93.253762275
 30
0.0
 40
1.08000004
100
AcDbArc
 50
0.0
 51
90.00000763
  0
LINE
  5
39
330
1D
100
AcDbEntity
  8
6
100
AcDbLine
 10
-20.489497276
 20
-92.173760445
 30
0.0
 11
-21.839499566
 21
-92.173760445
 31
0.0
  0
LINE
  5
3A
330
1D
100
AcDbEntity
  8
6
100
AcDbLine
 10
-19.409518336
 20
-96.493767775
 30
0.0
 11
-19.409518336
 21
-97.483758005
 31
0.0
  0
ARC
  5
3B
330
1D
100
AcDbEntity
  8
6
100
AcDbCircle
 10
-14.279521076
 20
-97.483765635
 30
0.0
 40
2.51999998
100
AcDbArc
 50
180.0
 51
217.38319397
  0
ARC
  5
3C
330
1D
100
AcDbEntity
  8
6
100
AcDbCircle
 10
-16.889529316
 20
-97.483765635
 30
0.0
 40
2.51999998
100
AcDbArc
 50
180.0
 51
217.38319397
  0
LINE
  5
3D
330
1D
100
AcDbEntity
  8
6
100
AcDbLine
 10
-16.371913046
 20
-99.013772045
 30
0.0
 11
-18.891913506
 21
-99.013772045
 31
0.0
  0
LINE
  5
3E
330
1D
100
AcDbEntity
  8
6
100
AcDbLine
 10
-19.409518336
 20
-93.253777535
 30
0.0
 11
-19.409518336
 21
-97.483765635
 31
0.0
  0
ARC
  5
3F
330
1D
100
AcDbEntity
  8
6
100
AcDbCircle
 10
-19.319499106
 20
-93.433770215
 30
0.0
 40
2.51999998
100
AcDbArc
 50
358.70883179
 51
93.06652832
  0
ARC
  5
40
330
1D
100
AcDbEntity
  8
6
100
AcDbCircle
 10
-19.589511006
 20
-88.393769295
 30
0.0
 40
2.51999998
100
AcDbArc
 50
273.06652832
 51
0.0
  0
ARC
  5
41
330
1D
100
AcDbEntity
  8
6
100
AcDbCircle
 10
-19.589511006
 20
-85.783776315
 30
0.0
 40
2.51999998
100
AcDbArc
 50
0.0
 51
90.00000763
  0
LINE
  5
42
330
1D
100
AcDbEntity
  8
6
100
AcDbLine
 10
-17.069499106
 20
-85.783776315
 30
0.0
 11
-17.069499106
 21
-88.393776925
 31
0.0
  0
ARC
  5
43
330
1D
100
AcDbEntity
  8
6
100
AcDbCircle
 10
-20.219508266
 20
-86.233773265
 30
0.0
 40
0.90000004
100
AcDbArc
 50
0.0
 51
90.00000763
  0
LINE
  5
44
330
1D
100
AcDbEntity
  8
6
100
AcDbLine
 10
-20.219508266
 20
-85.333779365
 30
0.0
 11
-21.839511006
 21
-85.333779365
 31
0.0
  0
ARC
  5
45
330
1D
100
AcDbEntity
  8
6
100
AcDbCircle
 10
-20.219508266
 20
-89.113762885
 30
0.0
 40
0.90000004
100
AcDbArc
 50
270.0
 51
0.0
  0
LINE
  5
46
330
1D
100
AcDbEntity
  8
6
100
AcDbLine
 10
-19.319499106
 20
-86.233773265
 30
0.0
 11
-19.319499106
 21
-89.113770515
 31
0.0
  0
LINE
  5
47
330
1D
100
AcDbEntity
  8
6
100
AcDbLine
 10
-21.839511006
 20
-85.333779365
 30
0.0
 11
-21.839511006
 21
-90.013772045
 31
0.0
  0
LINE
  5
48
330
1D
100
AcDbEntity
  8
6
100
AcDbLine
 10
-20.219508266
 20
-90.013772045
 30
0.0
 11
-21.839511006
 21
-90.013772045
 31
0.0
  0
LINE
  5
49
330
1D
100
AcDbEntity
  8
6
100
AcDbLine
 10
-16.800150966
 20
-93.490555795
 30
0.0
 11
-16.799521536
 21
-97.484169995
 31
0.0
  0
LINE
  5
4A
330
1D
100
AcDbEntity
  8
6
100
AcDbLine
 10
-16.371913046
 20
-99.013772045
 30
0.0
 11
-16.281916706
 21
-99.013772045
 31
0.0
  0
LINE
  5
4B
330
1D
100
AcDbEntity
  8
6
100
AcDbLine
 10
-39.569510556
 20
-83.263756785
 30
0.0
 11
-35.519507496
 21
-83.263756785
 31
0.0
  0
LINE
  5
4C
330
1D
100
AcDbEntity
  8
6
100
AcDbLine
 10
-19.589511006
 20
-83.263756785
 30
0.0
 11
-24.539515586
 21
-83.263756785
 31
0.0
  0
LINE
  5
4D
330
1D
100
AcDbEntity
  8
6
100
AcDbLine
 10
-66.569510556
 20
-99.013772045
 30
0.0
 11
-69.359511466
 21
-99.013772045
 31
0.0
  0
LINE
  5
4E
330
1D
100
AcDbEntity
  8
6
100
AcDbLine
 10
-66.569510556
 20
-95.593773875
 30
0.0
 11
-66.569510556
 21
-99.013772045
 31
0.0
  0
LINE
  5
4F
330
1D
100
AcDbEntity
  8
6
100
AcDbLine
 10
-65.489508716
 20
-93.523766545
 30
0.0
 11
-66.569510556
 21
-95.593773875
 31
0.0
  0
LINE
  5
50
330
1D
100
AcDbEntity
  8
6
100
AcDbLine
 10
-63.059516046
 20
-99.013772045
 30
0.0
 11
-65.489508716
 21
-93.523766545
 31
0.0
  0
LINE
  5
51
330
1D
100
AcDbEntity
  8
6
100
AcDbLine
 10
-60.269515126
 20
-99.013772045
 30
0.0
 11
-63.059508416
 21
-99.013772045
 31
0.0
  0
LINE
  5
52
330
1D
100
AcDbEntity
  8
6
100
AcDbLine
 10
-63.869521236
 20
-90.013772045
 30
0.0
 11
-60.269515126
 21
-99.013772045
 31
0.0
  0
LINE
  5
53
330
1D
100
AcDbEntity
  8
6
100
AcDbLine
 10
-60.809516046
 20
-83.263772045
 30
0.0
 11
-63.869505976
 21
-90.013772045
 31
0.0
  0
LINE
  5
54
330
1D
100
AcDbEntity
  8
6
100
AcDbLine
 10
-66.569510556
 20
-90.373780285
 30
0.0
 11
-63.599516956
 21
-83.263787305
 31
0.0
  0
LINE
  5
55
330
1D
100
AcDbEntity
  8
6
100
AcDbLine
 10
-66.569510556
 20
-83.263772045
 30
0.0
 11
-66.569510556
 21
-90.373780285
 31
0.0
  0
LINE
  5
56
330
1D
100
AcDbEntity
  8
6
100
AcDbLine
 10
-69.359511466
 20
-99.013772045
 30
0.0
 11
-69.359511466
 21
-83.263772045
 31
0.0
  0
LINE
  5
57
330
1D
100
AcDbEntity
  8
6
100
AcDbLine
 10
-63.599516956
 20
-83.263772045
 30
0.0
 11
-60.809516046
 21
-83.263772045
 31
0.0
  0
LINE
  5
58
330
1D
100
AcDbEntity
  8
6
100
AcDbLine
 10
-69.359511466
 20
-83.263772045
 30
0.0
 11
-66.569510556
 21
-83.263772045
 31
0.0
  0
LINE
  5
59
330
1D
100
AcDbEntity
  8
6
100
AcDbLine
 10
-47.309508416
 20
-83.263772045
 30
0.0
 11
-47.309508416
 21
-99.013772045
 31
0.0
  0
LINE
  5
5A
330
1D
100
AcDbEntity
  8
6
100
AcDbLine
 10
-44.429503536
 20
-99.013772045
 30
0.0
 11
-44.429503536
 21
-83.263772045
 31
0.0
  0
LINE
  5
5B
330
1D
100
AcDbEntity
  8
6
100
AcDbLine
 10
-47.309508416
 20
-99.013772045
 30
0.0
 11
-44.429503536
 21
-99.013772045
 31
0.0
  0
LINE
  5
5C
330
1D
100
AcDbEntity
  8
6
100
AcDbLine
 10
-44.429503536
 20
-83.263772045
 30
0.0
 11
-47.309516046
 21
-83.263772045
 31
0.0
  0
LINE
  5
5D
330
1D
100
AcDbEntity
  8
6
100
AcDbLine
 10
-26.969508266
 20
-99.013772045
 30
0.0
 11
-26.969508266
 21
-96.943764715
 31
0.0
  0
LINE
  5
5E
330
1D
100
AcDbEntity
  8
6
100
AcDbLine
 10
-32.819510556
 20
-99.013772045
 30
0.0
 11
-26.969508266
 21
-99.013772045
 31
0.0
  0
LINE
  5
5F
330
1D
100
AcDbEntity
  8
6
100
AcDbLine
 10
-26.969519706
 20
-85.333764105
 30
0.0
 11
-26.969519706
 21
-83.263772045
 31
0.0
  0
LINE
  5
60
330
1D
100
AcDbEntity
  8
6
100
AcDbLine
 10
-29.939536186
 20
-85.333764105
 30
0.0
 11
-26.969531146
 21
-85.333764105
 31
0.0
  0
LINE
  5
61
330
1D
100
AcDbEntity
  8
6
100
AcDbLine
 10
-29.939536186
 20
-90.013772045
 30
0.0
 11
-29.939536186
 21
-85.333779365
 31
0.0
  0
LINE
  5
62
330
1D
100
AcDbEntity
  8
6
100
AcDbLine
 10
-26.969519706
 20
-90.013772045
 30
0.0
 11
-29.939524746
 21
-90.013772045
 31
0.0
  0
LINE
  5
63
330
1D
100
AcDbEntity
  8
6
100
AcDbLine
 10
-26.969519706
 20
-92.173752815
 30
0.0
 11
-26.969519706
 21
-90.013749155
 31
0.0
  0
LINE
  5
64
330
1D
100
AcDbEntity
  8
6
100
AcDbLine
 10
-29.939536186
 20
-92.173752815
 30
0.0
 11
-26.969531146
 21
-92.173752815
 31
0.0
  0
LINE
  5
65
330
1D
100
AcDbEntity
  8
6
100
AcDbLine
 10
-29.939536186
 20
-96.943764715
 30
0.0
 11
-29.939536186
 21
-92.173752815
 31
0.0
  0
LINE
  5
66
330
1D
100
AcDbEntity
  8
6
100
AcDbLine
 10
-26.969519706
 20
-96.943764715
 30
0.0
 11
-29.939524746
 21
-96.943764715
 31
0.0
  0
LINE
  5
67
330
1D
100
AcDbEntity
  8
6
100
AcDbLine
 10
-26.969519706
 20
-83.263772045
 30
0.0
 11
-32.819518186
 21
-83.263772045
 31
0.0
  0
LINE
  5
68
330
1D
100
AcDbEntity
  8
6
100
AcDbLine
 10
-52.889510246
 20
-99.013772045
 30
0.0
 11
-59.189513296
 21
-99.013772045
 31
0.0
  0
LINE
  5
69
330
1D
100
AcDbEntity
  8
6
100
AcDbLine
 10
-53.339499566
 20
-96.493760145
 30
0.0
 11
-52.889510246
 21
-99.013756785
 31
0.0
  0
LINE
  5
6A
330
1D
100
AcDbEntity
  8
6
100
AcDbLine
 10
-56.219519706
 20
-96.493760145
 30
0.0
 11
-53.339522456
 21
-96.493760145
 31
0.0
  0
LINE
  5
6B
330
1D
100
AcDbEntity
  8
6
100
AcDbLine
 10
-54.689513296
 20
-87.133774785
 30
0.0
 11
-56.219512076
 21
-96.493783025
 31
0.0
  0
LINE
  5
6C
330
1D
100
AcDbEntity
  8
6
100
AcDbLine
 10
-51.629515736
 20
-99.013772045
 30
0.0
 11
-54.689513296
 21
-87.133774785
 31
0.0
  0
LINE
  5
6D
330
1D
100
AcDbEntity
  8
6
100
AcDbLine
 10
-48.659506886
 20
-99.013772045
 30
0.0
 11
-51.629500476
 21
-99.013772045
 31
0.0
  0
LINE
  5
6E
330
1D
100
AcDbEntity
  8
6
100
AcDbLine
 10
-53.069510556
 20
-82.813767465
 30
0.0
 11
-48.659514516
 21
-99.013772045
 31
0.0
  0
LINE
  5
6F
330
1D
100
AcDbEntity
  8
6
100
AcDbLine
 10
-56.129515736
 20
-82.813767465
 30
0.0
 11
-53.069518186
 21
-82.813767465
 31
0.0
  0
LINE
  5
70
330
1D
100
AcDbEntity
  8
6
100
AcDbLine
 10
-59.189513296
 20
-99.013772045
 30
0.0
 11
-56.129515736
 21
-82.813767465
 31
0.0
  0
LINE
  5
71
330
1D
100
AcDbEntity
  8
4
  6
LONGDASH_DASH
370
    25
100
AcDbLine
 10
47.296726598
 20
-7.369465229
 30
0.0
 11
118.114954335
 21
-23.719142738
 31
0.0
  0
LINE
  5
72
330
1D
100
AcDbEntity
  8
SK3
  6
DASH
370
    35
100
AcDbLine
 10
107.363052666
 20
8.749999661
 30
0.0
 11
35.000000149
 21
8.749999661
 31
0.0
  0
LINE
  5
73
330
1D
100
AcDbEntity
  8
1
  6
Continuous
370
    50
100
AcDbLine
 10
66.612705588
 20
8.749999661
 30
0.0
 11
66.579051316
 21
8.748055059
 31
0.0
  0
LINE
  5
74
330
1D
100
AcDbEntity
  8
SK3
  6
DASH
370
    35
100
AcDbLine
 10
40.057770908
 20
8.736505728
 30
0.0
 11
39.951018989
 21
8.749999661
 31
0.0
  0
LINE
  5
75
330
1D
100
AcDbEntity
  8
SK3
  6
DASH
370
    35
100
AcDbLine
 10
35.000000149
 20
8.749999661
 30
0.0
 11
35.000000149
 21
-8.750000414
 31
0.0
  0
LINE
  5
76
330
1D
100
AcDbEntity
  8
SK3
  6
DASH
370
    35
100
AcDbLine
 10
35.000000149
 20
-8.750000414
 30
0.0
 11
107.363052666
 21
-8.750000414
 31
0.0
  0
LINE
  5
77
330
1D
100
AcDbEntity
  8
SK3
  6
DASH
370
    35
100
AcDbLine
 10
107.363052666
 20
-8.750000414
 30
0.0
 11
107.363052666
 21
8.749999661
 31
0.0
  0
LINE
  5
78
330
1D
100
AcDbEntity
  8
SK3
  6
DASH
370
    35
100
AcDbLine
 10
107.363052666
 20
8.749999661
 30
0.0
 11
108.000002801
 21
10.499999482
 31
0.0
  0
LINE
  5
79
330
1D
100
AcDbEntity
  8
SK3
  6
DASH
370
    35
100
AcDbLine
 10
108.000002801
 20
10.499999482
 30
0.0
 11
108.000002801
 21
-10.500000235
 31
0.0
  0
LINE
  5
7A
330
1D
100
AcDbEntity
  8
SK3
  6
DASH
370
    35
100
AcDbLine
 10
-9.000000544
 20
37.109046798
 30
0.0
 11
-8.529208241
 21
37.58018689
 31
0.0
  0
LINE
  5
7B
330
1D
100
AcDbEntity
  8
SK3
  6
DASH
370
    35
100
AcDbLine
 10
-0.158527386
 20
-26.529999826
 30
0.0
 11
-0.158527386
 21
-0.000000376
 31
0.0
  0
LINE
  5
7C
330
1D
100
AcDbEntity
  8
SK3
  6
DASH
370
    35
100
AcDbLine
 10
-0.158527386
 20
-0.000000376
 30
0.0
 11
-0.158527391
 21
26.529999624
 31
0.0
  0
ARC
  5
7D
330
1D
100
AcDbEntity
  8
SK3
  6
DASH
370
    35
100
AcDbCircle
 10
-9.933925081
 20
19.569999624
 30
0.0
 40
12.0
100
AcDbArc
 50
35.450542639
 51
85.633609561
  0
ARC
  5
7E
330
1D
100
AcDbEntity
  8
SK3
  6
DASH
370
    35
100
AcDbCircle
 10
-6.826954379
 20
12.163644302
 30
0.0
 40
19.491468864
100
AcDbArc
 50
96.462017448
 51
99.172163269
  0
LINE
  5
7F
330
1D
100
AcDbEntity
  8
SK3
  6
DASH
370
    35
100
AcDbLine
 10
-9.933925234
 20
31.405891847
 30
0.0
 11
-10.537954979
 21
31.314130496
 31
0.0
  0
LINE
  5
80
330
1D
100
AcDbEntity
  8
SK3
  6
DASH
370
    35
100
AcDbLine
 10
-10.537954979
 20
31.314130496
 30
0.0
 11
-11.288342997
 21
31.21604174
 31
0.0
  0
LINE
  5
81
330
1D
100
AcDbEntity
  8
SK3
  6
DASH
370
    35
100
AcDbLine
 10
-11.288342997
 20
31.21604174
 30
0.0
 11
-12.12279126
 21
31.127852943
 31
0.0
  0
LINE
  5
82
330
1D
100
AcDbEntity
  8
SK3
  6
DASH
370
    35
100
AcDbLine
 10
-12.12279126
 20
31.127852943
 30
0.0
 11
-13.066300191
 21
31.054855879
 31
0.0
  0
LINE
  5
83
330
1D
100
AcDbEntity
  8
SK3
  6
DASH
370
    35
100
AcDbLine
 10
-13.066300191
 20
31.054855879
 30
0.0
 11
-14.033074491
 21
31.009673696
 31
0.0
  0
LINE
  5
84
330
1D
100
AcDbEntity
  8
SK3
  6
DASH
370
    35
100
AcDbLine
 10
-14.033074491
 20
31.009673696
 30
0.0
 11
-15.057411976
 21
30.994647737
 31
0.0
  0
LINE
  5
85
330
1D
100
AcDbEntity
  8
SK3
  6
DASH
370
    35
100
AcDbLine
 10
-15.057411976
 20
30.994647737
 30
0.0
 11
-16.035065055
 21
31.011871617
 31
0.0
  0
LINE
  5
86
330
1D
100
AcDbEntity
  8
SK3
  6
DASH
370
    35
100
AcDbLine
 10
-16.035065055
 20
31.011871617
 30
0.0
 11
-17.011057585
 21
31.059769537
 31
0.0
  0
LINE
  5
87
330
1D
100
AcDbEntity
  8
SK3
  6
DASH
370
    35
100
AcDbLine
 10
-17.011057585
 20
31.059769537
 30
0.0
 11
-17.904169857
 21
31.130356338
 31
0.0
  0
LINE
  5
88
330
1D
100
AcDbEntity
  8
SK3
  6
DASH
370
    35
100
AcDbLine
 10
-17.904169857
 20
31.130356338
 30
0.0
 11
-18.740465865
 21
31.219480183
 31
0.0
  0
LINE
  5
89
330
1D
100
AcDbEntity
  8
SK3
  6
DASH
370
    35
100
AcDbLine
 10
-18.740465865
 20
31.219480183
 30
0.0
 11
-19.463149831
 21
31.314286958
 31
0.0
  0
LINE
  5
8A
330
1D
100
AcDbEntity
  8
SK3
  6
DASH
370
    35
100
AcDbLine
 10
-19.463149831
 20
31.314286958
 30
0.0
 11
-20.078934729
 21
31.407966833
 31
0.0
  0
LINE
  5
8B
330
1D
100
AcDbEntity
  8
SK3
  6
DASH
370
    35
100
AcDbLine
 10
-20.078934729
 20
31.407966833
 30
0.0
 11
-20.539546385
 21
31.485735994
 31
0.0
  0
LINE
  5
8C
330
1D
100
AcDbEntity
  8
SK3
  6
DASH
370
    35
100
AcDbLine
 10
-20.539546385
 20
31.485735994
 30
0.0
 11
-20.852796733
 21
31.542352956
 31
0.0
  0
LINE
  5
8D
330
1D
100
AcDbEntity
  8
SK3
  6
DASH
370
    35
100
AcDbLine
 10
-20.852796733
 20
31.542352956
 30
0.0
 11
-20.980689675
 21
31.569998335
 31
0.0
  0
LINE
  5
8E
330
1D
100
AcDbEntity
  8
SK3
  6
DASH
370
    35
100
AcDbLine
 10
-20.980689675
 20
31.569998335
 30
0.0
 11
-26.340861161
 21
31.569999624
 31
0.0
  0
ARC
  5
8F
330
1D
100
AcDbEntity
  8
SK3
  6
DASH
370
    35
100
AcDbCircle
 10
-26.340861161
 20
30.569999624
 30
0.0
 40
1.0
100
AcDbArc
 50
90.0
 51
124.374481519
  0
ARC
  5
90
330
1D
100
AcDbEntity
  8
SK3
  6
DASH
370
    35
100
AcDbCircle
 10
-26.340861161
 20
-30.570000376
 30
0.0
 40
1.0
100
AcDbArc
 50
235.625511414
 51
270.000016473
  0
LINE
  5
91
330
1D
100
AcDbEntity
  8
SK3
  6
DASH
370
    35
100
AcDbLine
 10
-26.340860873
 20
-31.569999088
 30
0.0
 11
-20.980689675
 21
-31.566340853
 31
0.0
  0
ARC
  5
92
330
1D
100
AcDbEntity
  8
SK3
  6
DASH
370
    35
100
AcDbCircle
 10
-15.004233801
 20
-62.679961617
 30
0.0
 40
31.682415026
100
AcDbArc
 50
80.79104792099999
 51
100.873215206
  0
LINE
  5
93
330
1D
100
AcDbEntity
  8
SK3
  6
DASH
370
    35
100
AcDbLine
 10
-9.933925234
 20
-31.405892599
 30
0.0
 11
-9.476576001
 21
-31.474158544
 31
0.0
  0
LINE
  5
94
330
1D
100
AcDbEntity
  8
SK3
  6
DASH
370
    35
100
AcDbLine
 10
-9.476576001
 20
-31.474158544
 30
0.0
 11
-9.160738438
 21
-31.514887143
 31
0.0
  0
LINE
  5
95
330
1D
100
AcDbEntity
  8
SK3
  6
DASH
370
    35
100
AcDbLine
 10
-9.160738438
 20
-31.514887143
 30
0.0
 11
-9.02112122
 21
-31.53523289
 31
0.0
  0
ARC
  5
96
330
1D
100
AcDbEntity
  8
SK3
  6
DASH
370
    35
100
AcDbCircle
 10
-9.933925081
 20
-19.570000376
 30
0.0
 40
12.0
100
AcDbArc
 50
274.362531384
 51
324.549457361
  0
ARC
  5
97
330
1D
100
AcDbEntity
  8
SK1
100
AcDbCircle
 10
-36.7
 20
-34.125000376
 30
0.0
 40
1.9
100
AcDbArc
 50
41.953754059
 51
89.999973578
  0
LINE
  5
98
330
1D
100
AcDbEntity
  8
SK1
100
AcDbLine
 10
-36.699999124
 20
-32.22500198
 30
0.0
 11
-48.250000924
 21
-32.219674815
 31
0.0
  0
LINE
  5
99
330
1D
100
AcDbEntity
  8
SK1
100
AcDbLine
 10
-48.250000924
 20
-32.219674815
 30
0.0
 11
-48.331551254
 21
-32.125186551
 31
0.0
  0
LINE
  5
9A
330
1D
100
AcDbEntity
  8
SK1
100
AcDbLine
 10
-48.331551254
 20
-32.125186551
 30
0.0
 11
-48.331551254
 21
32.125185799
 31
0.0
  0
LINE
  5
9B
330
1D
100
AcDbEntity
  8
SK3
  6
DASH
370
    35
100
AcDbLine
 10
-8.52892678
 20
-37.580201195
 30
0.0
 11
-9.000132792
 21
-37.10423075
 31
0.0
  0
LINE
  5
9C
330
1D
100
AcDbEntity
  8
SK3
  6
DASH
370
    35
100
AcDbLine
 10
-20.999995992
 20
-36.440816153
 30
0.0
 11
-21.559465677
 21
-36.949605126
 31
0.0
  0
LINE
  5
9D
330
1D
100
AcDbEntity
  8
SK1
100
AcDbLine
 10
-49.899999052
 20
30.575140592
 30
0.0
 11
-48.250000924
 21
32.219674062
 31
0.0
  0
LINE
  5
9E
330
1D
100
AcDbEntity
  8
SK1
100
AcDbLine
 10
-39.367925376
 20
36.035161089
 30
0.0
 11
-21.518405527
 21
36.926239353
 31
0.0
  0
LINE
  5
9F
330
1D
100
AcDbEntity
  8
SK1
100
AcDbLine
 10
-21.518405527
 20
36.926239353
 30
0.0
 11
-21.358041093
 21
36.905780058
 31
0.0
  0
LINE
  5
A0
330
1D
100
AcDbEntity
  8
SK1
100
AcDbLine
 10
-21.358041093
 20
36.905780058
 30
0.0
 11
-21.046310663
 21
36.867603283
 31
0.0
  0
LINE
  5
A1
330
1D
100
AcDbEntity
  8
SK1
100
AcDbLine
 10
-21.046310663
 20
36.867603283
 30
0.0
 11
-20.576136187
 21
36.814670633
 31
0.0
  0
LINE
  5
A2
330
1D
100
AcDbEntity
  8
SK1
100
AcDbLine
 10
-20.576136187
 20
36.814670633
 30
0.0
 11
-19.980130717
 21
36.756183576
 31
0.0
  0
LINE
  5
A3
330
1D
100
AcDbEntity
  8
SK1
100
AcDbLine
 10
-19.980130717
 20
36.756183576
 30
0.0
 11
-19.63596791
 21
36.726962399
 31
0.0
  0
ARC
  5
A4
330
1D
100
AcDbEntity
  8
SK1
100
AcDbCircle
 10
-16.867045583
 20
73.396645373
 30
0.0
 40
36.774074839
100
AcDbArc
 50
265.681798822
 51
283.086109644
  0
LINE
  5
A5
330
1D
100
AcDbEntity
  8
SK1
100
AcDbLine
 10
-8.541306481
 20
37.579580765
 30
0.0
 11
-1.923412201
 21
37.911139052
 31
0.0
  0
LINE
  5
A6
330
1D
100
AcDbEntity
  8
SK1
100
AcDbLine
 10
-1.923412201
 20
37.911139052
 30
0.0
 11
-1.008819045
 21
37.666073797
 31
0.0
  0
ARC
  5
A7
330
1D
100
AcDbEntity
  8
SK1
100
AcDbCircle
 10
-0.75
 20
38.631999624
 30
0.0
 40
1.0
100
AcDbArc
 50
255.0
 51
318.590377891
  0
LINE
  5
A8
330
1D
100
AcDbEntity
  8
SK1
100
AcDbLine
 10
-49.899999052
 20
-30.575141345
 30
0.0
 11
-48.250000924
 21
-32.219674815
 31
0.0
  0
ARC
  5
A9
330
1D
100
AcDbEntity
  8
SK1
100
AcDbCircle
 10
-13.655726385
 20
-20.352957362
 30
0.0
 40
24.984151728
100
AcDbArc
 50
210.025845969
 51
211.985435605
  0
LINE
  5
AA
330
1D
100
AcDbEntity
  8
SK1
100
AcDbLine
 10
-34.367926419
 20
-36.285661537
 30
0.0
 11
-21.521477029
 21
-36.926653613
 31
0.0
  0
LINE
  5
AB
330
1D
100
AcDbEntity
  8
SK1
100
AcDbLine
 10
-21.521477029
 20
-36.926653613
 30
0.0
 11
-21.347727627
 21
-36.904514212
 31
0.0
  0
LINE
  5
AC
330
1D
100
AcDbEntity
  8
SK1
100
AcDbLine
 10
-21.347727627
 20
-36.904514212
 30
0.0
 11
-21.002773195
 21
-36.862504114
 31
0.0
  0
LINE
  5
AD
330
1D
100
AcDbEntity
  8
SK1
100
AcDbLine
 10
-21.002773195
 20
-36.862504114
 30
0.0
 11
-20.476859063
 21
-36.804281551
 31
0.0
  0
LINE
  5
AE
330
1D
100
AcDbEntity
  8
SK1
100
AcDbLine
 10
-20.476859063
 20
-36.804281551
 30
0.0
 11
-19.635887817
 21
-36.726978053
 31
0.0
  0
ARC
  5
AF
330
1D
100
AcDbEntity
  8
SK1
100
AcDbCircle
 10
-16.866977612
 20
-73.395667584
 30
0.0
 40
36.773083304
100
AcDbArc
 50
76.915914958
 51
94.31829889099998
  0
LINE
  5
B0
330
1D
100
AcDbEntity
  8
SK1
100
AcDbLine
 10
-8.542782627
 20
-37.579507012
 30
0.0
 11
-1.923412201
 21
-37.911139805
 31
0.0
  0
LINE
  5
B1
330
1D
100
AcDbEntity
  8
SK1
100
AcDbLine
 10
-1.923412201
 20
-37.911139805
 30
0.0
 11
-1.008819045
 21
-37.66607455
 31
0.0
  0
ARC
  5
B2
330
1D
100
AcDbEntity
  8
SK1
100
AcDbCircle
 10
-0.75
 20
-38.632000376
 30
0.0
 40
1.0
100
AcDbArc
 50
41.409622109
 51
105.0
  0
LINE
  5
B3
330
1D
100
AcDbEntity
  8
1
  6
Continuous
370
    50
100
AcDbLine
 10
16.694780439
 20
-48.638210077
 30
0.0
 11
14.94999975
 21
-48.638210077
 31
0.0
  0
ARC
  5
B4
330
1D
100
AcDbEntity
  8
1
  6
Continuous
370
    50
100
AcDbCircle
 10
14.024106765
 20
-82.433234638
 30
0.0
 40
33.807705674
100
AcDbArc
 50
88.430641975
 51
106.077165992
  0
LINE
  5
B5
330
1D
100
AcDbEntity
  8
1
  6
Continuous
370
    50
100
AcDbLine
 10
4.66179708
 20
-49.948167432
 30
0.0
 11
4.64930525
 21
-49.965002019
 31
0.0
  0
LINE
  5
B6
330
1D
100
AcDbEntity
  8
1
  6
Continuous
370
    50
100
AcDbLine
 10
4.64930525
 20
-49.965002019
 30
0.0
 11
0.469999999
 21
-49.965002019
 31
0.0
  0
LINE
  5
B7
330
1D
100
AcDbEntity
  8
1
  6
Continuous
370
    50
100
AcDbLine
 10
0.469999999
 20
-49.965002019
 30
0.0
 11
0.0
 21
-49.495000769
 31
0.0
  0
LINE
  5
B8
330
1D
100
AcDbEntity
  8
1
  6
Continuous
370
    50
100
AcDbLine
 10
0.0
 20
-49.495000769
 30
0.0
 11
0.0
 21
49.495000016
 31
0.0
  0
LINE
  5
B9
330
1D
100
AcDbEntity
  8
1
  6
Continuous
370
    50
100
AcDbLine
 10
0.0
 20
49.495000016
 30
0.0
 11
0.469999999
 21
49.965001266
 31
0.0
  0
LINE
  5
BA
330
1D
100
AcDbEntity
  8
1
  6
Continuous
370
    50
100
AcDbLine
 10
0.469999999
 20
49.965001266
 30
0.0
 11
4.681224935
 21
49.964993816
 31
0.0
  0
ARC
  5
BB
330
1D
100
AcDbEntity
  8
1
  6
Continuous
370
    50
100
AcDbCircle
 10
15.051570939
 20
98.703579065
 30
0.0
 40
49.829647483
100
AcDbArc
 50
257.9880332320001
 51
269.8832100010001
  0
LINE
  5
BC
330
1D
100
AcDbEntity
  8
1
  6
Continuous
370
    50
100
AcDbLine
 10
14.94999975
 20
48.874035101
 30
0.0
 11
16.694780439
 21
48.874035101
 31
0.0
  0
LINE
  5
BD
330
1D
100
AcDbEntity
  8
1
  6
Continuous
370
    50
100
AcDbLine
 10
16.694780439
 20
48.874035101
 30
0.0
 11
16.694780439
 21
38.90602253
 31
0.0
  0
LINE
  5
BE
330
1D
100
AcDbEntity
  8
1
  6
Continuous
370
    50
100
AcDbLine
 10
16.694780439
 20
38.90602253
 30
0.0
 11
16.844781116
 21
38.713197779
 31
0.0
  0
LINE
  5
BF
330
1D
100
AcDbEntity
  8
1
  6
Continuous
370
    50
100
AcDbLine
 10
16.844781116
 20
38.713197779
 30
0.0
 11
17.921138555
 21
36.282870542
 31
0.0
  0
LINE
  5
C0
330
1D
100
AcDbEntity
  8
1
  6
Continuous
370
    50
100
AcDbLine
 10
17.921138555
 20
36.282870542
 30
0.0
 11
18.087500706
 21
35.901195925
 31
0.0
  0
LINE
  5
C1
330
1D
100
AcDbEntity
  8
1
  6
Continuous
370
    50
100
AcDbLine
 10
18.087500706
 20
35.901195925
 30
0.0
 11
18.087500706
 21
34.646834802
 31
0.0
  0
ARC
  5
C2
330
1D
100
AcDbEntity
  8
1
  6
Continuous
370
    50
100
AcDbCircle
 10
18.978049587
 20
34.517393847
 30
0.0
 40
0.899906811
100
AcDbArc
 50
171.729993649
 51
261.014646652
  0
LINE
  5
C3
330
1D
100
AcDbEntity
  8
1
  6
Continuous
370
    50
100
AcDbLine
 10
18.837500364
 20
33.628530424
 30
0.0
 11
21.162500605
 21
33.628530424
 31
0.0
  0
ARC
  5
C4
330
1D
100
AcDbEntity
  8
1
  6
Continuous
370
    50
100
AcDbCircle
 10
21.02567585
 20
34.514650709
 30
0.0
 40
0.896621533
100
AcDbArc
 50
278.777650562
 51
8.477709138
  0
LINE
  5
C5
330
1D
100
AcDbEntity
  8
1
  6
Continuous
370
    50
100
AcDbLine
 10
21.912500262
 20
34.646834802
 30
0.0
 11
21.912500262
 21
35.901195925
 31
0.0
  0
LINE
  5
C6
330
1D
100
AcDbEntity
  8
1
  6
Continuous
370
    50
100
AcDbLine
 10
21.912500262
 20
35.901195925
 30
0.0
 11
22.114723921
 21
36.364916336
 31
0.0
  0
LINE
  5
C7
330
1D
100
AcDbEntity
  8
1
  6
Continuous
370
    50
100
AcDbLine
 10
22.114723921
 20
36.364916336
 30
0.0
 11
23.155219853
 21
38.713197779
 31
0.0
  0
LINE
  5
C8
330
1D
100
AcDbEntity
  8
1
  6
Continuous
370
    50
100
AcDbLine
 10
23.155219853
 20
38.713197779
 30
0.0
 11
23.305218667
 21
38.90602253
 31
0.0
  0
LINE
  5
C9
330
1D
100
AcDbEntity
  8
1
  6
Continuous
370
    50
100
AcDbLine
 10
23.305218667
 20
38.90602253
 30
0.0
 11
28.55999954
 21
38.90602253
 31
0.0
  0
LINE
  5
CA
330
1D
100
AcDbEntity
  8
1
  6
Continuous
370
    50
100
AcDbLine
 10
28.55999954
 20
38.90602253
 30
0.0
 11
28.950000182
 21
38.403879475
 31
0.0
  0
LINE
  5
CB
330
1D
100
AcDbEntity
  8
1
  6
Continuous
370
    50
100
AcDbLine
 10
28.950000182
 20
38.403879475
 30
0.0
 11
28.950000182
 21
31.350001316
 31
0.0
  0
LINE
  5
CC
330
1D
100
AcDbEntity
  8
1
  6
Continuous
370
    50
100
AcDbLine
 10
28.950000182
 20
31.350001316
 30
0.0
 11
28.950000182
 21
-48.313357312
 31
0.0
  0
LINE
  5
CD
330
1D
100
AcDbEntity
  8
1
  6
Continuous
370
    50
100
AcDbLine
 10
28.950000182
 20
-48.313357312
 30
0.0
 11
28.55999954
 21
-48.638210077
 31
0.0
  0
LINE
  5
CE
330
1D
100
AcDbEntity
  8
1
  6
Continuous
370
    50
100
AcDbLine
 10
28.55999954
 20
31.350001316
 30
0.0
 11
28.950000182
 21
31.350001316
 31
0.0
  0
LINE
  5
CF
330
1D
100
AcDbEntity
  8
SK1
100
AcDbLine
 10
-39.911472841
 20
33.191754109
 30
0.0
 11
-39.799999446
 21
33.539153259
 31
0.0
  0
LINE
  5
D0
330
1D
100
AcDbEntity
  8
SK3
  6
DASH
370
    35
100
AcDbLine
 10
-49.899999052
 20
26.529999073
 30
0.0
 11
-29.971720651
 21
26.529999073
 31
0.0
  0
LINE
  5
D1
330
1D
100
AcDbEntity
  8
SK3
  6
DASH
370
    35
100
AcDbLine
 10
-29.971720651
 20
26.529999073
 30
0.0
 11
-29.971720651
 21
-26.529999826
 31
0.0
  0
LINE
  5
D2
330
1D
100
AcDbEntity
  8
SK3
  6
DASH
370
    35
100
AcDbLine
 10
-29.971720651
 20
-26.529999826
 30
0.0
 11
-27.447645626
 21
-30.94621688
 31
0.0
  0
ARC
  5
D3
330
1D
100
AcDbEntity
  8
SK3
  6
DASH
370
    35
100
AcDbCircle
 10
-26.579446812
 20
-30.450000376
 30
0.0
 40
1.0
100
AcDbArc
 50
209.75
 51
250.972986363
  0
LINE
  5
D4
330
1D
100
AcDbEntity
  8
SK1
100
AcDbLine
 10
-34.800000489
 20
-33.714063842
 30
0.0
 11
-34.846853465
 21
-33.587154377
 31
0.0
  0
LINE
  5
D5
330
1D
100
AcDbEntity
  8
1
  6
Continuous
370
    50
100
AcDbLine
 10
16.694780439
 20
38.90602253
 30
0.0
 11
14.646750875
 21
38.90602253
 31
0.0
  0
ARC
  5
D6
330
1D
100
AcDbEntity
  8
1
  6
Continuous
370
    50
100
AcDbCircle
 10
14.08568508
 20
29.626045664
 30
0.0
 40
9.296922365
100
AcDbArc
 50
86.540118725
 51
169.313625184
  0
LINE
  5
D7
330
1D
100
AcDbEntity
  8
1
  6
Continuous
370
    50
100
AcDbLine
 10
4.949999973
 20
31.350001316
 30
0.0
 11
16.694780439
 21
31.350001316
 31
0.0
  0
LINE
  5
D8
330
1D
100
AcDbEntity
  8
1
  6
Continuous
370
    50
100
AcDbLine
 10
16.694780439
 20
-48.638210077
 30
0.0
 11
16.694780439
 21
31.350001316
 31
0.0
  0
LINE
  5
D9
330
1D
100
AcDbEntity
  8
1
  6
Continuous
370
    50
100
AcDbLine
 10
16.694780439
 20
31.350001316
 30
0.0
 11
16.844781116
 21
31.350001316
 31
0.0
  0
LINE
  5
DA
330
1D
100
AcDbEntity
  8
1
  6
Continuous
370
    50
100
AcDbLine
 10
16.844781116
 20
-48.51338305
 30
0.0
 11
16.694780439
 21
-48.638210077
 31
0.0
  0
ARC
  5
DB
330
1D
100
AcDbEntity
  8
1
  6
Continuous
370
    50
100
AcDbCircle
 10
35.25
 20
-40.750000376
 30
0.0
 40
0.75
100
AcDbArc
 50
0.0
 51
89.999949916
  0
LINE
  5
DC
330
1D
100
AcDbEntity
  8
1
  6
Continuous
370
    50
100
AcDbLine
 10
35.250000656
 20
-39.999999482
 30
0.0
 11
29.7
 21
-40.000000376
 31
0.0
  0
ARC
  5
DD
330
1D
100
AcDbEntity
  8
1
  6
Continuous
370
    50
100
AcDbCircle
 10
29.7
 20
-40.750000376
 30
0.0
 40
0.75
100
AcDbArc
 50
90.0
 51
180.0
  0
ARC
  5
DE
330
1D
100
AcDbEntity
  8
1
  6
Continuous
370
    50
100
AcDbCircle
 10
29.7
 20
40.749999624
 30
0.0
 40
0.75
100
AcDbArc
 50
180.0
 51
269.999987708
  0
LINE
  5
DF
330
1D
100
AcDbEntity
  8
1
  6
Continuous
370
    50
100
AcDbLine
 10
29.699999839
 20
39.99999873
 30
0.0
 11
35.25
 21
39.999999624
 31
0.0
  0
ARC
  5
E0
330
1D
100
AcDbEntity
  8
1
  6
Continuous
370
    50
100
AcDbCircle
 10
35.25
 20
40.749999624
 30
0.0
 40
0.75
100
AcDbArc
 50
270.0
 51
0.0
  0
ARC
  5
E1
330
1D
100
AcDbEntity
  8
1
100
AcDbCircle
 10
75.55
 20
30.599999624
 30
0.0
 40
1.0
100
AcDbArc
 50
236.632987031
 51
284.999800731
  0
LINE
  5
E2
330
1D
100
AcDbEntity
  8
1
100
AcDbLine
 10
75.808815658
 20
29.634073
 30
0.0
 11
77.174469829
 21
29.999998953
 31
0.0
  0
LINE
  5
E3
330
1D
100
AcDbEntity
  8
1
100
AcDbLine
 10
77.174469829
 20
29.999998953
 30
0.0
 11
114.00000006
 21
29.999998953
 31
0.0
  0
LINE
  5
E4
330
1D
100
AcDbEntity
  8
1
100
AcDbLine
 10
114.00000006
 20
29.999998953
 30
0.0
 11
115.000002086
 21
28.999998789
 31
0.0
  0
LINE
  5
E5
330
1D
100
AcDbEntity
  8
1
100
AcDbLine
 10
115.000002086
 20
28.999998789
 30
0.0
 11
115.000002086
 21
-28.999999542
 31
0.0
  0
LINE
  5
E6
330
1D
100
AcDbEntity
  8
1
100
AcDbLine
 10
115.000002086
 20
-28.999999542
 30
0.0
 11
114.00000006
 21
-29.999999706
 31
0.0
  0
LINE
  5
E7
330
1D
100
AcDbEntity
  8
1
100
AcDbLine
 10
114.00000006
 20
-29.999999706
 30
0.0
 11
77.174469829
 21
-29.999999706
 31
0.0
  0
LINE
  5
E8
330
1D
100
AcDbEntity
  8
1
100
AcDbLine
 10
77.174469829
 20
-29.999999706
 30
0.0
 11
75.808819045
 21
-29.63407455
 31
0.0
  0
ARC
  5
E9
330
1D
100
AcDbEntity
  8
1
100
AcDbCircle
 10
75.55
 20
-30.600000376
 30
0.0
 40
1.0
100
AcDbArc
 50
75.0
 51
123.367012969
  0
LINE
  5
EA
330
1D
100
AcDbEntity
  8
SK1
100
AcDbLine
 10
-48.331551254
 20
32.125185799
 30
0.0
 11
-48.250000924
 21
32.225001227
 31
0.0
  0
LINE
  5
EB
330
1D
100
AcDbEntity
  8
SK1
100
AcDbLine
 10
-48.250000924
 20
32.225001227
 30
0.0
 11
-41.7
 21
32.224999624
 31
0.0
  0
ARC
  5
EC
330
1D
100
AcDbEntity
  8
SK1
100
AcDbCircle
 10
-41.7
 20
34.124999624
 30
0.0
 40
1.9
100
AcDbArc
 50
270.0
 51
311.91185089
  0
LINE
  5
ED
330
1D
100
AcDbEntity
  8
SK1
100
AcDbLine
 10
-40.430825204
 20
32.711069655
 30
0.0
 11
-39.911472841
 21
33.191754109
 31
0.0
  0
LINE
  5
EE
330
1D
100
AcDbEntity
  8
1
100
AcDbLine
 10
75.00000298
 20
-36.49999984
 30
0.0
 11
85.400000215
 21
-36.49999984
 31
0.0
  0
LINE
  5
EF
330
1D
100
AcDbEntity
  8
1
100
AcDbLine
 10
85.400000215
 20
-62.500000376
 30
0.0
 11
73.244594038
 21
-62.500000376
 31
0.0
  0
LINE
  5
F0
330
1D
100
AcDbEntity
  8
1
  6
Continuous
370
    50
100
AcDbLine
 10
28.55999954
 20
-48.638210077
 30
0.0
 11
23.305218667
 21
-48.638210077
 31
0.0
  0
LINE
  5
F1
330
1D
100
AcDbEntity
  8
1
  6
Continuous
370
    50
100
AcDbLine
 10
23.305218667
 20
-48.638210077
 30
0.0
 11
23.155219853
 21
-48.51338305
 31
0.0
  0
LINE
  5
F2
330
1D
100
AcDbEntity
  8
1
  6
Continuous
370
    50
100
AcDbLine
 10
23.155219853
 20
31.350001316
 30
0.0
 11
23.305218667
 21
31.350001316
 31
0.0
  0
LINE
  5
F3
330
1D
100
AcDbEntity
  8
1
  6
Continuous
370
    50
100
AcDbLine
 10
23.305218667
 20
31.350001316
 30
0.0
 11
23.305218667
 21
-48.638210077
 31
0.0
  0
ARC
  5
F4
330
1D
100
AcDbEntity
  8
1
  6
Continuous
370
    50
100
AcDbCircle
 10
21.151921074
 20
-45.395088689
 30
0.0
 40
0.760666957
100
AcDbArc
 50
359.129609146
 51
89.203091448
  0
LINE
  5
F5
330
1D
100
AcDbEntity
  8
1
  6
Continuous
370
    50
100
AcDbLine
 10
21.162500605
 20
-44.634495307
 30
0.0
 11
18.837500364
 21
-44.634495307
 31
0.0
  0
ARC
  5
F6
330
1D
100
AcDbEntity
  8
1
  6
Continuous
370
    50
100
AcDbCircle
 10
18.849568195
 20
-45.396534298
 30
0.0
 40
0.76213454
100
AcDbArc
 50
90.90727378600002
 51
180.76002562
  0
ARC
  5
F7
330
1D
100
AcDbEntity
  8
1
  6
Continuous
370
    50
100
AcDbCircle
 10
18.848039874
 20
45.630094939
 30
0.0
 40
0.760577792
100
AcDbArc
 50
179.422571405
 51
269.2060131000001
  0
LINE
  5
F8
330
1D
100
AcDbEntity
  8
1
  6
Continuous
370
    50
100
AcDbLine
 10
18.837500364
 20
44.869590174
 30
0.0
 11
21.162500605
 21
44.869590174
 31
0.0
  0
ARC
  5
F9
330
1D
100
AcDbEntity
  8
1
  6
Continuous
370
    50
100
AcDbCircle
 10
21.153293249
 20
45.628794294
 30
0.0
 40
0.75925995
100
AcDbArc
 50
270.694828616
 51
0.676586884
  0
LINE
  5
FA
330
1D
100
AcDbEntity
  8
1
  6
Continuous
370
    50
100
AcDbLine
 10
71.9999969
 20
63.233308118
 30
0.0
 11
74.58217442
 21
61.711895835
 31
0.0
  0
LINE
  5
FB
330
1D
100
AcDbEntity
  8
1
  6
Continuous
370
    50
100
AcDbLine
 10
74.58217442
 20
61.711895835
 30
0.0
 11
75.00000298
 21
61.465575915
 31
0.0
  0
LINE
  5
FC
330
1D
100
AcDbEntity
  8
1
  6
Continuous
370
    50
100
AcDbLine
 10
75.00000298
 20
-12.720000375
 30
0.0
 11
71.9999969
 21
-12.720000375
 31
0.0
  0
LINE
  5
FD
330
1D
100
AcDbEntity
  8
1
  6
Continuous
370
    50
100
AcDbLine
 10
71.9999969
 20
-12.720000375
 30
0.0
 11
62.399998307
 21
-12.720000375
 31
0.0
  0
LINE
  5
FE
330
1D
100
AcDbEntity
  8
1
  6
Continuous
370
    50
100
AcDbLine
 10
62.399998307
 20
-12.720000375
 30
0.0
 11
62.399998307
 21
12.719999622
 31
0.0
  0
LINE
  5
FF
330
1D
100
AcDbEntity
  8
1
  6
Continuous
370
    50
100
AcDbLine
 10
62.399998307
 20
12.719999622
 30
0.0
 11
71.9999969
 21
12.719999622
 31
0.0
  0
LINE
  5
100
330
1D
100
AcDbEntity
  8
1
  6
Continuous
370
    50
100
AcDbLine
 10
71.9999969
 20
12.719999622
 30
0.0
 11
71.9999969
 21
63.233308118
 31
0.0
  0
LINE
  5
101
330
1D
100
AcDbEntity
  8
1
  6
Continuous
370
    50
100
AcDbLine
 10
71.9999969
 20
63.233308118
 30
0.0
 11
62.399998307
 21
63.233308118
 31
0.0
  0
LINE
  5
102
330
1D
100
AcDbEntity
  8
1
  6
Continuous
370
    50
100
AcDbLine
 10
62.399998307
 20
63.233308118
 30
0.0
 11
62.399998307
 21
64.499996226
 31
0.0
  0
LINE
  5
103
330
1D
100
AcDbEntity
  8
1
  6
Continuous
370
    50
100
AcDbLine
 10
62.399998307
 20
64.499996226
 30
0.0
 11
37.000000477
 21
64.499996226
 31
0.0
  0
LINE
  5
104
330
1D
100
AcDbEntity
  8
1
  6
Continuous
370
    50
100
AcDbLine
 10
37.000000477
 20
64.499996226
 30
0.0
 11
35.99999845
 21
63.50000165
 31
0.0
  0
LINE
  5
105
330
1D
100
AcDbEntity
  8
1
  6
Continuous
370
    50
100
AcDbLine
 10
35.99999845
 20
63.50000165
 30
0.0
 11
35.99999845
 21
-63.500002403
 31
0.0
  0
LINE
  5
106
330
1D
100
AcDbEntity
  8
1
  6
Continuous
370
    50
100
AcDbLine
 10
35.99999845
 20
-63.500002403
 30
0.0
 11
37.000000477
 21
-64.499996979
 31
0.0
  0
LINE
  5
107
330
1D
100
AcDbEntity
  8
1
  6
Continuous
370
    50
100
AcDbLine
 10
37.000000477
 20
-64.499996979
 30
0.0
 11
62.399998307
 21
-64.499996979
 31
0.0
  0
LINE
  5
108
330
1D
100
AcDbEntity
  8
1
  6
Continuous
370
    50
100
AcDbLine
 10
62.399998307
 20
-64.499996979
 30
0.0
 11
62.399998307
 21
-63.23330887
 31
0.0
  0
LINE
  5
109
330
1D
100
AcDbEntity
  8
1
  6
Continuous
370
    50
100
AcDbLine
 10
62.399998307
 20
-63.23330887
 30
0.0
 11
71.9999969
 21
-63.23330887
 31
0.0
  0
LINE
  5
10A
330
1D
100
AcDbEntity
  8
1
  6
Continuous
370
    50
100
AcDbLine
 10
71.9999969
 20
-63.23330887
 30
0.0
 11
71.9999969
 21
-12.720000375
 31
0.0
  0
LINE
  5
10B
330
1D
100
AcDbEntity
  8
SK3
  6
DASH
370
    35
100
AcDbLine
 10
-29.971720651
 20
-26.529999826
 30
0.0
 11
-49.899999052
 21
-26.529999826
 31
0.0
  0
LINE
  5
10C
330
1D
100
AcDbEntity
  8
SK3
  6
DASH
370
    35
100
AcDbLine
 10
-21.533077203
 20
36.925506918
 30
0.0
 11
-20.999932662
 21
36.440640312
 31
0.0
  0
ARC
  5
10D
330
1D
100
AcDbEntity
  8
SK3
  6
DASH
370
    35
100
AcDbCircle
 10
-26.579446812
 20
30.449999624
 30
0.0
 40
1.0
100
AcDbArc
 50
109.027013637
 51
150.25006861
  0
LINE
  5
10E
330
1D
100
AcDbEntity
  8
SK3
  6
DASH
370
    35
100
AcDbLine
 10
-27.447646484
 20
30.946215238
 30
0.0
 11
-29.971720651
 21
26.529999073
 31
0.0
  0
ARC
  5
10F
330
1D
100
AcDbEntity
  8
SK3
  6
DASH
370
    35
100
AcDbCircle
 10
10.45
 20
-24.875000376
 30
0.0
 40
2.0
100
AcDbArc
 50
245.0
 51
359.999996585
  0
LINE
  5
110
330
1D
100
AcDbEntity
  8
SK3
  6
DASH
370
    35
100
AcDbLine
 10
12.450000271
 20
-24.875000496
 30
0.0
 11
12.45
 21
24.874999624
 31
0.0
  0
ARC
  5
111
330
1D
100
AcDbEntity
  8
SK3
  6
DASH
370
    35
100
AcDbCircle
 10
10.45
 20
24.874999624
 30
0.0
 40
2.0
100
AcDbArc
 50
0.0
 51
114.999995154
  0
LINE
  5
112
330
1D
100
AcDbEntity
  8
SK3
  6
DASH
370
    35
100
AcDbLine
 10
9.60476324
 20
26.687616106
 30
0.0
 11
9.266755544
 21
26.529999073
 31
0.0
  0
LINE
  5
113
330
1D
100
AcDbEntity
  8
SK3
  6
DASH
370
    35
100
AcDbLine
 10
9.266755544
 20
26.529999073
 30
0.0
 11
9.266755544
 21
-26.529999826
 31
0.0
  0
LINE
  5
114
330
1D
100
AcDbEntity
  8
SK3
  6
DASH
370
    35
100
AcDbLine
 10
9.266755544
 20
-26.529999826
 30
0.0
 11
9.60476324
 21
-26.687616859
 31
0.0
  0
LINE
  5
115
330
1D
100
AcDbEntity
  8
1
100
AcDbLine
 10
85.400000215
 20
-62.500000376
 30
0.0
 11
87.399996817
 21
-60.500000049
 31
0.0
  0
LINE
  5
116
330
1D
100
AcDbEntity
  8
1
100
AcDbLine
 10
87.399996817
 20
-38.500000168
 30
0.0
 11
87.399996817
 21
-60.500000049
 31
0.0
  0
LINE
  5
117
330
1D
100
AcDbEntity
  8
1
100
AcDbLine
 10
85.400000215
 20
62.499999624
 30
0.0
 11
87.399996817
 21
60.499999296
 31
0.0
  0
LINE
  5
118
330
1D
100
AcDbEntity
  8
1
100
AcDbLine
 10
87.399996817
 20
60.499999296
 30
0.0
 11
87.399996817
 21
38.499999415
 31
0.0
  0
LINE
  5
119
330
1D
100
AcDbEntity
  8
1
100
AcDbLine
 10
85.400000215
 20
36.499999087
 30
0.0
 11
75.00000298
 21
36.499999087
 31
0.0
  0
LINE
  5
11A
330
1D
100
AcDbEntity
  8
1
  6
Continuous
370
    50
100
AcDbLine
 10
71.9999969
 20
-63.23330887
 30
0.0
 11
74.58217442
 21
-61.711896587
 31
0.0
  0
LINE
  5
11B
330
1D
100
AcDbEntity
  8
1
  6
Continuous
370
    50
100
AcDbLine
 10
74.58217442
 20
-61.711896587
 30
0.0
 11
75.00000298
 21
-61.465576667
 31
0.0
  0
LINE
  5
11C
330
1D
100
AcDbEntity
  8
1
  6
Continuous
370
    50
100
AcDbLine
 10
75.00000298
 20
-61.465576667
 30
0.0
 11
75.00000298
 21
61.465575915
 31
0.0
  0
LINE
  5
11D
330
1D
100
AcDbEntity
  8
1
  6
Continuous
370
    50
100
AcDbLine
 10
23.155219853
 20
-48.51338305
 30
0.0
 11
22.952970117
 21
-48.221297938
 31
0.0
  0
LINE
  5
11E
330
1D
100
AcDbEntity
  8
1
  6
Continuous
370
    50
100
AcDbLine
 10
22.952970117
 20
-48.221297938
 30
0.0
 11
21.912500262
 21
-46.370853115
 31
0.0
  0
LINE
  5
11F
330
1D
100
AcDbEntity
  8
1
  6
Continuous
370
    50
100
AcDbLine
 10
21.912500262
 20
-46.370853115
 30
0.0
 11
21.912500262
 21
31.350001316
 31
0.0
  0
LINE
  5
120
330
1D
100
AcDbEntity
  8
1
  6
Continuous
370
    50
100
AcDbLine
 10
21.912500262
 20
31.350001316
 30
0.0
 11
22.996684536
 21
31.350001316
 31
0.0
  0
LINE
  5
121
330
1D
100
AcDbEntity
  8
1
  6
Continuous
370
    50
100
AcDbLine
 10
21.912500262
 20
35.901195925
 30
0.0
 11
21.912500262
 21
46.597189825
 31
0.0
  0
LINE
  5
122
330
1D
100
AcDbEntity
  8
1
  6
Continuous
370
    50
100
AcDbLine
 10
21.912500262
 20
46.597189825
 30
0.0
 11
23.06323126
 21
48.633992296
 31
0.0
  0
LINE
  5
123
330
1D
100
AcDbEntity
  8
1
  6
Continuous
370
    50
100
AcDbLine
 10
23.06323126
 20
48.633992296
 30
0.0
 11
23.155219853
 21
48.75781722
 31
0.0
  0
LINE
  5
124
330
1D
100
AcDbEntity
  8
1
  6
Continuous
370
    50
100
AcDbLine
 10
16.694780439
 20
48.874035101
 30
0.0
 11
16.844781116
 21
48.75781722
 31
0.0
  0
LINE
  5
125
330
1D
100
AcDbEntity
  8
SK3
  6
DASH
370
    35
100
AcDbLine
 10
107.363052666
 20
-8.750000414
 30
0.0
 11
108.000002801
 21
-10.500000235
 31
0.0
  0
LINE
  5
126
330
1D
100
AcDbEntity
  8
SK3
  6
DASH
370
    35
100
AcDbLine
 10
108.000002801
 20
-10.500000235
 30
0.0
 11
115.000002086
 21
-10.500000235
 31
0.0
  0
LINE
  5
127
330
1D
100
AcDbEntity
  8
SK1
100
AcDbLine
 10
-34.800000489
 20
-33.714063842
 30
0.0
 11
-34.800000489
 21
-34.000806887
 31
0.0
  0
LINE
  5
128
330
1D
100
AcDbEntity
  8
SK1
100
AcDbLine
 10
-34.800000489
 20
-34.000806887
 30
0.0
 11
-34.800000489
 21
-35.853587467
 31
0.0
  0
LINE
  5
129
330
1D
100
AcDbEntity
  8
SK1
100
AcDbLine
 10
-34.800000489
 20
-35.853587467
 30
0.0
 11
-34.367926419
 21
-36.285661537
 31
0.0
  0
LINE
  5
12A
330
1D
100
AcDbEntity
  8
SK1
100
AcDbLine
 10
-39.367925376
 20
36.035161089
 30
0.0
 11
-39.799999446
 21
35.603087019
 31
0.0
  0
LINE
  5
12B
330
1D
100
AcDbEntity
  8
SK1
100
AcDbLine
 10
-39.799999446
 20
35.603087019
 30
0.0
 11
-39.799999446
 21
33.763248097
 31
0.0
  0
LINE
  5
12C
330
1D
100
AcDbEntity
  8
SK1
100
AcDbLine
 10
-39.799999446
 20
33.763248097
 30
0.0
 11
-39.799999446
 21
33.539153259
 31
0.0
  0
LINE
  5
12D
330
1D
100
AcDbEntity
  8
1
100
AcDbLine
 10
85.400000215
 20
-36.49999984
 30
0.0
 11
87.399996817
 21
-38.500000168
 31
0.0
  0
LINE
  5
12E
330
1D
100
AcDbEntity
  8
1
100
AcDbLine
 10
73.244594038
 20
62.499999624
 30
0.0
 11
85.400000215
 21
62.499999624
 31
0.0
  0
LINE
  5
12F
330
1D
100
AcDbEntity
  8
1
100
AcDbLine
 10
87.399996817
 20
38.499999415
 30
0.0
 11
85.400000215
 21
36.499999087
 31
0.0
  0
LINE
  5
130
330
1D
100
AcDbEntity
  8
1
  6
Continuous
370
    50
100
AcDbLine
 10
37.000000477
 20
-64.499996979
 30
0.0
 11
37.000000477
 21
64.499996226
 31
0.0
  0
LINE
  5
131
330
1D
100
AcDbEntity
  8
1
  6
Continuous
370
    50
100
AcDbLine
 10
71.9999969
 20
12.719999622
 30
0.0
 11
75.00000298
 21
12.719999622
 31
0.0
  0
LINE
  5
132
330
1D
100
AcDbEntity
  8
1
  6
Continuous
370
    50
100
AcDbLine
 10
23.155219853
 20
48.75781722
 30
0.0
 11
23.305218667
 21
48.874035101
 31
0.0
  0
LINE
  5
133
330
1D
100
AcDbEntity
  8
1
  6
Continuous
370
    50
100
AcDbLine
 10
23.305218667
 20
48.874035101
 30
0.0
 11
23.305218667
 21
38.90602253
 31
0.0
  0
LINE
  5
134
330
1D
100
AcDbEntity
  8
1
  6
Continuous
370
    50
100
AcDbLine
 10
23.305218667
 20
31.350001316
 30
0.0
 11
28.55999954
 21
31.350001316
 31
0.0
  0
LINE
  5
135
330
1D
100
AcDbEntity
  8
1
  6
Continuous
370
    50
100
AcDbLine
 10
28.55999954
 20
48.874035101
 30
0.0
 11
28.869327158
 21
48.633992296
 31
0.0
  0
LINE
  5
136
330
1D
100
AcDbEntity
  8
1
  6
Continuous
370
    50
100
AcDbLine
 10
28.869327158
 20
48.633992296
 30
0.0
 11
28.950000182
 21
48.551622402
 31
0.0
  0
LINE
  5
137
330
1D
100
AcDbEntity
  8
1
  6
Continuous
370
    50
100
AcDbLine
 10
28.950000182
 20
48.551622402
 30
0.0
 11
28.950000182
 21
38.403879475
 31
0.0
  0
LINE
  5
138
330
1D
100
AcDbEntity
  8
1
  6
Continuous
370
    50
100
AcDbLine
 10
17.00331457
 20
31.350001316
 30
0.0
 11
18.087500706
 21
31.350001316
 31
0.0
  0
LINE
  5
139
330
1D
100
AcDbEntity
  8
1
  6
Continuous
370
    50
100
AcDbLine
 10
18.087500706
 20
31.350001316
 30
0.0
 11
18.087500706
 21
-46.370853115
 31
0.0
  0
LINE
  5
13A
330
1D
100
AcDbEntity
  8
1
  6
Continuous
370
    50
100
AcDbLine
 10
18.087500706
 20
-46.370853115
 30
0.0
 11
17.047030851
 21
-48.221297938
 31
0.0
  0
LINE
  5
13B
330
1D
100
AcDbEntity
  8
1
  6
Continuous
370
    50
100
AcDbLine
 10
17.047030851
 20
-48.221297938
 30
0.0
 11
16.844781116
 21
-48.51338305
 31
0.0
  0
LINE
  5
13C
330
1D
100
AcDbEntity
  8
1
  6
Continuous
370
    50
100
AcDbLine
 10
21.912500262
 20
31.350001316
 30
0.0
 11
21.162500605
 21
31.350001316
 31
0.0
  0
LINE
  5
13D
330
1D
100
AcDbEntity
  8
1
  6
Continuous
370
    50
100
AcDbLine
 10
21.162500605
 20
31.350001316
 30
0.0
 11
18.837500364
 21
31.350001316
 31
0.0
  0
LINE
  5
13E
330
1D
100
AcDbEntity
  8
1
  6
Continuous
370
    50
100
AcDbLine
 10
18.837500364
 20
31.350001316
 30
0.0
 11
18.087500706
 21
31.350001316
 31
0.0
  0
LINE
  5
13F
330
1D
100
AcDbEntity
  8
SK1
100
AcDbLine
 10
-1.923412201
 20
37.911139052
 30
0.0
 11
-1.923412201
 21
-37.911139805
 31
0.0
  0
LINE
  5
140
330
1D
100
AcDbEntity
  8
SK1
100
AcDbLine
 10
-49.899999052
 20
30.575140592
 30
0.0
 11
-49.899999052
 21
-30.575141345
 31
0.0
  0
LINE
  5
141
330
1D
100
AcDbEntity
  8
1
  6
Continuous
370
    50
100
AcDbLine
 10
16.844781116
 20
48.75781722
 30
0.0
 11
16.936767846
 21
48.633992296
 31
0.0
  0
LINE
  5
142
330
1D
100
AcDbEntity
  8
1
  6
Continuous
370
    50
100
AcDbLine
 10
16.936767846
 20
48.633992296
 30
0.0
 11
18.087500706
 21
46.597189825
 31
0.0
  0
LINE
  5
143
330
1D
100
AcDbEntity
  8
1
  6
Continuous
370
    50
100
AcDbLine
 10
18.087500706
 20
46.597189825
 30
0.0
 11
18.087500706
 21
35.901195925
 31
0.0
  0
LINE
  5
144
330
1D
100
AcDbEntity
  8
1
  6
Continuous
370
    50
100
AcDbLine
 10
23.305218667
 20
48.874035101
 30
0.0
 11
28.55999954
 21
48.874035101
 31
0.0
  0
LINE
  5
145
330
1D
100
AcDbEntity
  8
1
100
AcDbLine
 10
77.174469829
 20
-29.999999706
 30
0.0
 11
77.174469829
 21
29.999998953
 31
0.0
  0
LINE
  5
146
330
1D
100
AcDbEntity
  8
1
100
AcDbLine
 10
114.00000006
 20
29.999998953
 30
0.0
 11
114.00000006
 21
-29.999999706
 31
0.0
  0
LINE
  5
147
330
1D
100
AcDbEntity
  8
SK3
  6
DASH
370
    35
100
AcDbLine
 10
12.450000271
 20
12.249999303
 30
0.0
 11
13.450000435
 21
11.250000071
 31
0.0
  0
LINE
  5
148
330
1D
100
AcDbEntity
  8
SK3
  6
DASH
370
    35
100
AcDbLine
 10
13.450000435
 20
11.250000071
 30
0.0
 11
13.450000435
 21
-11.250000823
 31
0.0
  0
LINE
  5
149
330
1D
100
AcDbEntity
  8
SK3
  6
DASH
370
    35
100
AcDbLine
 10
13.450000435
 20
-11.250000823
 30
0.0
 11
12.450000271
 21
-12.250000056
 31
0.0
  0
LINE
  5
14A
330
1D
100
AcDbEntity
  8
SK3
  6
DASH
370
    35
100
AcDbLine
 10
28.300000355
 20
-12.250000056
 30
0.0
 11
28.300000355
 21
12.249999303
 31
0.0
  0
LINE
  5
14B
330
1D
100
AcDbEntity
  8
SK3
  6
DASH
370
    35
100
AcDbLine
 10
28.300000355
 20
12.249999303
 30
0.0
 11
25.800000876
 21
12.249999303
 31
0.0
  0
LINE
  5
14C
330
1D
100
AcDbEntity
  8
SK3
  6
DASH
370
    35
100
AcDbLine
 10
25.800000876
 20
12.249999303
 30
0.0
 11
25.800000876
 21
-12.250000056
 31
0.0
  0
LINE
  5
14D
330
1D
100
AcDbEntity
  8
SK3
  6
DASH
370
    35
100
AcDbLine
 10
25.800000876
 20
-12.250000056
 30
0.0
 11
28.300000355
 21
-12.250000056
 31
0.0
  0
LINE
  5
14E
330
1D
100
AcDbEntity
  8
SK3
  6
DASH
370
    35
100
AcDbLine
 10
25.800000876
 20
12.249999303
 30
0.0
 11
24.067949504
 21
11.250000071
 31
0.0
  0
LINE
  5
14F
330
1D
100
AcDbEntity
  8
SK3
  6
DASH
370
    35
100
AcDbLine
 10
24.067949504
 20
11.250000071
 30
0.0
 11
24.067949504
 21
-11.250000823
 31
0.0
  0
LINE
  5
150
330
1D
100
AcDbEntity
  8
SK3
  6
DASH
370
    35
100
AcDbLine
 10
24.067949504
 20
-11.250000823
 30
0.0
 11
25.800000876
 21
-12.250000056
 31
0.0
  0
LINE
  5
151
330
1D
100
AcDbEntity
  8
1
  6
Continuous
370
    50
100
AcDbLine
 10
4.949999973
 20
-49.559831996
 30
0.0
 11
4.949999973
 21
-49.549315501
 31
0.0
  0
LINE
  5
152
330
1D
100
AcDbEntity
  8
SK3
  6
DASH
370
    35
100
AcDbLine
 10
35.000000149
 20
-8.750000414
 30
0.0
 11
33.999081701
 21
-6.000000429
 31
0.0
  0
LINE
  5
153
330
1D
100
AcDbEntity
  8
SK3
  6
DASH
370
    35
100
AcDbLine
 10
33.999081701
 20
-6.000000429
 30
0.0
 11
33.999081701
 21
5.999999676
 31
0.0
  0
LINE
  5
154
330
1D
100
AcDbEntity
  8
SK3
  6
DASH
370
    35
100
AcDbLine
 10
33.999081701
 20
5.999999676
 30
0.0
 11
35.000000149
 21
8.749999661
 31
0.0
  0
LINE
  5
155
330
1D
100
AcDbEntity
  8
SK3
  6
DASH
370
    35
100
AcDbLine
 10
9.266755544
 20
26.529999073
 30
0.0
 11
-0.158527386
 21
26.529999073
 31
0.0
  0
LINE
  5
156
330
1D
100
AcDbEntity
  8
SK3
  6
DASH
370
    35
100
AcDbLine
 10
-0.158527386
 20
-26.529999826
 30
0.0
 11
9.266755544
 21
-26.529999826
 31
0.0
  0
LINE
  5
157
330
1D
100
AcDbEntity
  8
SK3
  6
DASH
370
    35
100
AcDbLine
 10
24.067949504
 20
11.250000071
 30
0.0
 11
13.450000435
 21
11.250000071
 31
0.0
  0
LINE
  5
158
330
1D
100
AcDbEntity
  8
SK3
  6
DASH
370
    35
100
AcDbLine
 10
13.450000435
 20
-11.250000823
 30
0.0
 11
24.067949504
 21
-11.250000823
 31
0.0
  0
LINE
  5
159
330
1D
100
AcDbEntity
  8
SK3
  6
DASH
370
    35
100
AcDbLine
 10
115.000002086
 20
10.499999482
 30
0.0
 11
108.000002801
 21
10.499999482
 31
0.0
  0
LINE
  5
15A
330
1D
100
AcDbEntity
  8
SK3
  6
DASH
370
    35
100
AcDbLine
 10
-8.999999613
 20
31.531277668
 30
0.0
 11
-8.999999613
 21
37.108782302
 31
0.0
  0
LINE
  5
15B
330
1D
100
AcDbEntity
  8
SK3
  6
DASH
370
    35
100
AcDbLine
 10
-20.999999717
 20
36.440584432
 30
0.0
 11
-20.999999717
 21
31.5663401
 31
0.0
  0
LINE
  5
15C
330
1D
100
AcDbEntity
  8
SK3
  6
DASH
370
    35
100
AcDbLine
 10
-8.999999613
 20
-37.10332178
 30
0.0
 11
-8.999999613
 21
-31.53127842
 31
0.0
  0
LINE
  5
15D
330
1D
100
AcDbEntity
  8
SK3
  6
DASH
370
    35
100
AcDbLine
 10
-20.999999717
 20
-31.566340853
 30
0.0
 11
-20.999999717
 21
-36.440737922
 31
0.0
  0
LINE
  5
15E
330
1D
100
AcDbEntity
  8
SK3
  6
DASH
370
    35
100
AcDbLine
 10
33.999081701
 20
5.999999676
 30
0.0
 11
28.300000355
 21
5.999999676
 31
0.0
  0
LINE
  5
15F
330
1D
100
AcDbEntity
  8
SK3
  6
DASH
370
    35
100
AcDbLine
 10
28.300000355
 20
-6.000000429
 30
0.0
 11
33.999081701
 21
-6.000000429
 31
0.0
  0
LINE
  5
160
330
1D
100
AcDbEntity
  8
SK3
  6
DASH
370
    35
100
AcDbLine
 10
39.950188249
 20
-8.752297986
 30
0.0
 11
115.000002086
 21
-26.078911875
 31
0.0
  0
LINE
  5
161
330
1D
100
AcDbEntity
  8
SK3
  6
DASH
370
    35
100
AcDbLine
 10
115.000002086
 20
-19.921088968
 30
0.0
 11
66.612705588
 21
-8.750000414
 31
0.0
  0
LINE
  5
162
330
1D
100
AcDbEntity
  8
SK3
  6
DASH
370
    35
100
AcDbLine
 10
66.612705588
 20
8.749999661
 30
0.0
 11
115.000002086
 21
19.921088215
 31
0.0
  0
LINE
  5
163
330
1D
100
AcDbEntity
  8
SK3
  6
DASH
370
    35
100
AcDbLine
 10
115.000002086
 20
26.078911122
 30
0.0
 11
39.950188249
 21
8.752297234
 31
0.0
  0
LINE
  5
164
330
1D
100
AcDbEntity
  8
1
  6
Continuous
370
    50
100
AcDbLine
 10
4.629713483
 20
-49.978483845
 30
0.0
 11
4.64930525
 21
-49.965002019
 31
0.0
  0
LINE
  5
165
330
1D
100
AcDbEntity
  8
SK1
100
AcDbLine
 10
-19.63596791
 20
36.726962399
 30
0.0
 11
-19.493408501
 21
36.717775833
 31
0.0
  0
LINE
  5
166
330
1D
100
AcDbEntity
  8
4
  6
LONGDASH_DASH
370
    25
100
AcDbLine
 10
47.296726598
 20
7.369465981
 30
0.0
 11
118.114954335
 21
23.719143491
 31
0.0
  0
LINE
  5
167
330
1D
100
AcDbEntity
  8
4
  6
LONGDASH_DASH
370
    25
100
AcDbLine
 10
-55.476242571
 20
0.000000376
 30
0.0
 11
122.616438129
 21
0.000000376
 31
0.0
  0
TEXT
  5
168
330
1D
100
AcDbEntity
  8
SK6
  6
Continuous
370
    35
100
AcDbText
 10
41.095541605
 20
-61.559875511
 30
0.0
 40
3.5
  1
328.214
  7
BMG_Text
100
AcDbText
  0
LINE
  5
169
330
1D
100
AcDbEntity
  8
2
  6
Continuous
370
    25
100
AcDbLine
 10
0.0
 20
-81.339607168
 30
0.0
 11
0.0
 21
-49.495000769
 31
0.0
  0
LINE
  5
16A
330
1D
100
AcDbEntity
  8
2
  6
Continuous
370
    25
100
AcDbLine
 10
0.0
 20
-79.339607168
 30
0.0
 11
3.500000003
 21
-78.889607195
 31
0.0
  0
LINE
  5
16B
330
1D
100
AcDbEntity
  8
2
  6
Continuous
370
    25
100
AcDbLine
 10
3.500000003
 20
-78.889607195
 30
0.0
 11
3.499999997
 21
-79.789607195
 31
0.0
  0
LINE
  5
16C
330
1D
100
AcDbEntity
  8
2
  6
Continuous
370
    25
100
AcDbLine
 10
3.499999997
 20
-79.789607195
 30
0.0
 11
0.0
 21
-79.339607168
 31
0.0
  0
LINE
  5
16D
330
1D
100
AcDbEntity
  8
2
  6
Continuous
370
    25
100
AcDbLine
 10
75.00000298
 20
-81.339607734
 30
0.0
 11
75.00000298
 21
-61.465576667
 31
0.0
  0
LINE
  5
16E
330
1D
100
AcDbEntity
  8
2
  6
Continuous
370
    25
100
AcDbLine
 10
75.00000298
 20
-79.339607734
 30
0.0
 11
71.500002977
 21
-79.789607708
 31
0.0
  0
LINE
  5
16F
330
1D
100
AcDbEntity
  8
2
  6
Continuous
370
    25
100
AcDbLine
 10
71.500002977
 20
-79.789607708
 30
0.0
 11
71.500002984
 21
-78.889607708
 31
0.0
  0
LINE
  5
170
330
1D
100
AcDbEntity
  8
2
  6
Continuous
370
    25
100
AcDbLine
 10
71.500002984
 20
-78.889607708
 30
0.0
 11
75.00000298
 21
-79.339607734
 31
0.0
  0
LINE
  5
171
330
1D
100
AcDbEntity
  8
2
  6
Continuous
370
    25
100
AcDbLine
 10
3.5
 20
-79.339607195
 30
0.0
 11
71.50000298
 21
-79.339607708
 31
0.0
  0
TEXT
  5
172
330
1D
100
AcDbEntity
  8
2
  6
Continuous
370
    25
100
AcDbText
 10
35.944688163
 20
-77.83960744
 30
0.0
 40
3.5
  1
75
 50
359.999999567
  7
BMG_Text
100
AcDbText
  0
LINE
  5
173
330
1D
100
AcDbEntity
  8
2
  6
Continuous
370
    25
100
AcDbLine
 10
75.00000298
 20
-81.339607734
 30
0.0
 11
75.00000298
 21
-61.465576667
 31
0.0
  0
LINE
  5
174
330
1D
100
AcDbEntity
  8
2
  6
Continuous
370
    25
100
AcDbLine
 10
75.00000298
 20
-79.339607734
 30
0.0
 11
78.500002969
 21
-78.889607651
 31
0.0
  0
LINE
  5
175
330
1D
100
AcDbEntity
  8
2
  6
Continuous
370
    25
100
AcDbLine
 10
78.500002969
 20
-78.889607651
 30
0.0
 11
78.500002991
 21
-79.789607651
 31
0.0
  0
LINE
  5
176
330
1D
100
AcDbEntity
  8
2
  6
Continuous
370
    25
100
AcDbLine
 10
78.500002991
 20
-79.789607651
 30
0.0
 11
75.00000298
 21
-79.339607734
 31
0.0
  0
LINE
  5
177
330
1D
100
AcDbEntity
  8
2
  6
Continuous
370
    25
100
AcDbLine
 10
115.000002086
 20
-81.339606781
 30
0.0
 11
115.000002086
 21
-28.999999542
 31
0.0
  0
LINE
  5
178
330
1D
100
AcDbEntity
  8
2
  6
Continuous
370
    25
100
AcDbLine
 10
115.000002086
 20
-79.339606781
 30
0.0
 11
111.500002097
 21
-79.789606864
 31
0.0
  0
LINE
  5
179
330
1D
100
AcDbEntity
  8
2
  6
Continuous
370
    25
100
AcDbLine
 10
111.500002097
 20
-79.789606864
 30
0.0
 11
111.500002075
 21
-78.889606864
 31
0.0
  0
LINE
  5
17A
330
1D
100
AcDbEntity
  8
2
  6
Continuous
370
    25
100
AcDbLine
 10
111.500002075
 20
-78.889606864
 30
0.0
 11
115.000002086
 21
-79.339606781
 31
0.0
  0
LINE
  5
17B
330
1D
100
AcDbEntity
  8
2
  6
Continuous
370
    25
100
AcDbLine
 10
78.50000298
 20
-79.339607651
 30
0.0
 11
111.500002086
 21
-79.339606864
 31
0.0
  0
TEXT
  5
17C
330
1D
100
AcDbEntity
  8
2
  6
Continuous
370
    25
100
AcDbText
 10
93.33531455
 20
-77.839607297
 30
0.0
 40
3.5
  1
40
 50
0.000001366
  7
BMG_Text
100
AcDbText
  0
LINE
  5
17D
330
1D
100
AcDbEntity
  8
2
  6
Continuous
370
    25
100
AcDbLine
 10
132.09195143
 20
-29.999999706
 30
0.0
 11
114.00000006
 21
-29.999999706
 31
0.0
  0
LINE
  5
17E
330
1D
100
AcDbEntity
  8
2
  6
Continuous
370
    25
100
AcDbLine
 10
130.09195143
 20
-29.999999706
 30
0.0
 11
129.64195143
 21
-26.499999706
 31
0.0
  0
LINE
  5
17F
330
1D
100
AcDbEntity
  8
2
  6
Continuous
370
    25
100
AcDbLine
 10
129.64195143
 20
-26.499999706
 30
0.0
 11
130.54195143
 21
-26.499999706
 31
0.0
  0
LINE
  5
180
330
1D
100
AcDbEntity
  8
2
  6
Continuous
370
    25
100
AcDbLine
 10
130.54195143
 20
-26.499999706
 30
0.0
 11
130.09195143
 21
-29.999999706
 31
0.0
  0
LINE
  5
181
330
1D
100
AcDbEntity
  8
2
  6
Continuous
370
    25
100
AcDbLine
 10
132.09195143
 20
29.999998953
 30
0.0
 11
114.00000006
 21
29.999998953
 31
0.0
  0
LINE
  5
182
330
1D
100
AcDbEntity
  8
2
  6
Continuous
370
    25
100
AcDbLine
 10
130.09195143
 20
29.999998953
 30
0.0
 11
130.54195143
 21
26.499998953
 31
0.0
  0
LINE
  5
183
330
1D
100
AcDbEntity
  8
2
  6
Continuous
370
    25
100
AcDbLine
 10
130.54195143
 20
26.499998953
 30
0.0
 11
129.64195143
 21
26.499998953
 31
0.0
  0
LINE
  5
184
330
1D
100
AcDbEntity
  8
2
  6
Continuous
370
    25
100
AcDbLine
 10
129.64195143
 20
26.499998953
 30
0.0
 11
130.09195143
 21
29.999998953
 31
0.0
  0
LINE
  5
185
330
1D
100
AcDbEntity
  8
2
  6
Continuous
370
    25
100
AcDbLine
 10
130.09195143
 20
-26.499999706
 30
0.0
 11
130.09195143
 21
26.499998953
 31
0.0
  0
TEXT
  5
186
330
1D
100
AcDbEntity
  8
2
  6
Continuous
370
    25
100
AcDbText
 10
128.59195143
 20
0.139998953
 30
0.0
 40
3.5
  1
60
 50
90.0
  7
BMG_Text
100
AcDbText
  0
CIRCLE
  5
187
330
1D
100
AcDbEntity
  8
2
  6
Continuous
370
    25
100
AcDbCircle
 10
127.34195143
 20
-2.110001047
 30
0.0
 40
1.25
  0
LINE
  5
188
330
1D
100
AcDbEntity
  8
2
  6
Continuous
370
    25
100
AcDbLine
 10
128.59195143
 20
-3.360001047
 30
0.0
 11
126.09195143
 21
-0.860001047
 31
0.0
  0
LINE
  5
189
330
1D
100
AcDbEntity
  8
2
  6
Continuous
370
    25
100
AcDbLine
 10
-70.951043397
 20
-49.965002019
 30
0.0
 11
0.469999999
 21
-49.965002019
 31
0.0
  0
LINE
  5
18A
330
1D
100
AcDbEntity
  8
2
  6
Continuous
370
    25
100
AcDbLine
 10
-68.951043397
 20
-49.965002019
 30
0.0
 11
-69.401043397
 21
-46.465002019
 31
0.0
  0
LINE
  5
18B
330
1D
100
AcDbEntity
  8
2
  6
Continuous
370
    25
100
AcDbLine
 10
-69.401043397
 20
-46.465002019
 30
0.0
 11
-68.501043397
 21
-46.465002019
 31
0.0
  0
LINE
  5
18C
330
1D
100
AcDbEntity
  8
2
  6
Continuous
370
    25
100
AcDbLine
 10
-68.501043397
 20
-46.465002019
 30
0.0
 11
-68.951043397
 21
-49.965002019
 31
0.0
  0
LINE
  5
18D
330
1D
100
AcDbEntity
  8
2
  6
Continuous
370
    25
100
AcDbLine
 10
-70.951043397
 20
49.965001266
 30
0.0
 11
0.469999999
 21
49.965001266
 31
0.0
  0
LINE
  5
18E
330
1D
100
AcDbEntity
  8
2
  6
Continuous
370
    25
100
AcDbLine
 10
-68.951043397
 20
49.965001266
 30
0.0
 11
-68.501043397
 21
46.465001266
 31
0.0
  0
LINE
  5
18F
330
1D
100
AcDbEntity
  8
2
  6
Continuous
370
    25
100
AcDbLine
 10
-68.501043397
 20
46.465001266
 30
0.0
 11
-69.401043397
 21
46.465001266
 31
0.0
  0
LINE
  5
190
330
1D
100
AcDbEntity
  8
2
  6
Continuous
370
    25
100
AcDbLine
 10
-69.401043397
 20
46.465001266
 30
0.0
 11
-68.951043397
 21
49.965001266
 31
0.0
  0
LINE
  5
191
330
1D
100
AcDbEntity
  8
2
  6
Continuous
370
    25
100
AcDbLine
 10
-68.951043397
 20
-46.465002019
 30
0.0
 11
-68.951043397
 21
46.465001266
 31
0.0
  0
TEXT
  5
192
330
1D
100
AcDbEntity
  8
2
  6
Continuous
370
    25
100
AcDbText
 10
-70.451043397
 20
-0.652970243
 30
0.0
 40
3.5
  1
100
 50
90.0
  7
BMG_Text
100
AcDbText
  0
CIRCLE
  5
193
330
1D
100
AcDbEntity
  8
2
  6
Continuous
370
    25
100
AcDbCircle
 10
-71.701043397
 20
-2.902970243
 30
0.0
 40
1.25
  0
LINE
  5
194
330
1D
100
AcDbEntity
  8
2
  6
Continuous
370
    25
100
AcDbLine
 10
-70.451043397
 20
-4.152970243
 30
0.0
 11
-72.951043397
 21
-1.652970243
 31
0.0
  0
LINE
  5
195
330
1D
100
AcDbEntity
  8
SK3
  6
DASH
370
    35
100
AcDbLine
 10
72.027053076
 20
10.000000376
 30
0.0
 11
107.818017355
 21
10.000000376
 31
0.0
  0
LINE
  5
196
330
1D
100
AcDbEntity
  8
SK3
  6
DASH
370
    35
100
AcDbLine
 10
72.027046554
 20
-9.999999624
 30
0.0
 11
107.818016807
 21
-9.999999624
 31
0.0
  0
LINE
  5
237
330
1D
100
AcDbEntity
  8
NOCUT
100
AcDbLine
 10
0.0
 20
-0.0000003764999974
 30
0.0
 11
0.0
 21
49.495000016
 31
0.0
  0
LINE
  5
238
330
1D
100
AcDbEntity
  8
NOCUT
100
AcDbLine
 10
0.0
 20
49.495000016
 30
0.0
 11
0.469999999
 21
49.965001266
 31
0.0
  0
LINE
  5
239
330
1D
100
AcDbEntity
  8
NOCUT
100
AcDbLine
 10
0.469999999
 20
49.965001266
 30
0.0
 11
4.608754271082358
 21
49.965001266
 31
0.0
  0
LINE
  5
23A
330
1D
100
AcDbEntity
  8
NOCUT
100
AcDbLine
 10
14.94999975
 20
48.874035101
 30
0.0
 11
16.694780439
 21
48.874035101
 31
0.0
  0
LINE
  5
23B
330
1D
100
AcDbEntity
  8
NOCUT
100
AcDbLine
 10
16.694780439
 20
48.874035101
 30
0.0
 11
16.844781116
 21
48.75781722
 31
0.0
  0
LINE
  5
23C
330
1D
100
AcDbEntity
  8
NOCUT
100
AcDbLine
 10
16.844781116
 20
48.75781722
 30
0.0
 11
18.087500706
 21
46.597189825
 31
0.0
  0
LINE
  5
23D
330
1D
100
AcDbEntity
  8
NOCUT
100
AcDbLine
 10
18.087500706
 20
46.597189825
 30
0.0
 11
18.087500706
 21
45.62242997836989
 31
0.0
  0
LINE
  5
23E
330
1D
100
AcDbEntity
  8
NOCUT
100
AcDbLine
 10
18.83750036340103
 20
44.86959017478092
 30
0.0
 11
21.162500605
 21
44.869590174
 31
0.0
  0
LINE
  5
23F
330
1D
100
AcDbEntity
  8
NOCUT
100
AcDbLine
 10
21.91250026224279
 20
45.63775993491203
 30
0.0
 11
21.912500262
 21
46.597189825
 31
0.0
  0
LINE
  5
240
330
1D
100
AcDbEntity
  8
NOCUT
100
AcDbLine
 10
21.912500262
 20
46.597189825
 30
0.0
 11
23.1092255565
 21
48.695904758
 31
0.0
  0
LINE
  5
241
330
1D
100
AcDbEntity
  8
NOCUT
100
AcDbLine
 10
23.1092255565
 20
48.695904758
 30
0.0
 11
23.305218667
 21
48.874035101
 31
0.0
  0
LINE
  5
242
330
1D
100
AcDbEntity
  8
NOCUT
100
AcDbLine
 10
23.305218667
 20
48.874035101
 30
0.0
 11
28.55999954
 21
48.874035101
 31
0.0
  0
LINE
  5
243
330
1D
100
AcDbEntity
  8
NOCUT
100
AcDbLine
 10
28.55999954
 20
48.874035101
 30
0.0
 11
28.950000182
 21
48.551622402
 31
0.0
  0
LINE
  5
244
330
1D
100
AcDbEntity
  8
NOCUT
100
AcDbLine
 10
28.950000182
 20
48.551622402
 30
0.0
 11
28.950000182
 21
40.74013114410128
 31
0.0
  0
LINE
  5
245
330
1D
100
AcDbEntity
  8
NOCUT
100
AcDbLine
 10
29.69999983909809
 20
39.99999962400001
 30
0.0
 11
35.25
 21
39.999999624
 31
0.0
  0
LINE
  5
246
330
1D
100
AcDbEntity
  8
NOCUT
100
AcDbLine
 10
36.0
 20
40.749999624
 30
0.0
 11
36.0
 21
63.43960689477158
 31
0.0
  0
LINE
  5
247
330
1D
100
AcDbEntity
  8
NOCUT
100
AcDbLine
 10
36.0
 20
63.43960689477158
 30
0.0
 11
37.000000477
 21
64.499996226
 31
0.0
  0
LINE
  5
248
330
1D
100
AcDbEntity
  8
NOCUT
100
AcDbLine
 10
37.000000477
 20
64.499996226
 30
0.0
 11
62.399998307
 21
64.499996226
 31
0.0
  0
LINE
  5
249
330
1D
100
AcDbEntity
  8
NOCUT
100
AcDbLine
 10
62.399998307
 20
64.499996226
 30
0.0
 11
62.399998307
 21
63.233308118
 31
0.0
  0
LINE
  5
24A
330
1D
100
AcDbEntity
  8
NOCUT
100
AcDbLine
 10
62.399998307
 20
63.233308118
 30
0.0
 11
71.9999969
 21
63.233308118
 31
0.0
  0
LINE
  5
24B
330
1D
100
AcDbEntity
  8
NOCUT
100
AcDbLine
 10
71.9999969
 20
63.233308118
 30
0.0
 11
73.244594038
 21
62.499999624
 31
0.0
  0
LINE
  5
24C
330
1D
100
AcDbEntity
  8
NOCUT
100
AcDbLine
 10
73.244594038
 20
62.499999624
 30
0.0
 11
85.400000215
 21
62.499999624
 31
0.0
  0
LINE
  5
24D
330
1D
100
AcDbEntity
  8
NOCUT
100
AcDbLine
 10
85.400000215
 20
62.499999624
 30
0.0
 11
87.399996817
 21
60.499999296
 31
0.0
  0
LINE
  5
24E
330
1D
100
AcDbEntity
  8
NOCUT
100
AcDbLine
 10
87.399996817
 20
60.499999296
 30
0.0
 11
87.399996817
 21
38.499999415
 31
0.0
  0
LINE
  5
24F
330
1D
100
AcDbEntity
  8
NOCUT
100
AcDbLine
 10
87.399996817
 20
38.499999415
 30
0.0
 11
85.400000215
 21
36.499999087
 31
0.0
  0
LINE
  5
250
330
1D
100
AcDbEntity
  8
NOCUT
100
AcDbLine
 10
85.400000215
 20
36.499999087
 30
0.0
 11
75.00000298
 21
36.499999087
 31
0.0
  0
LINE
  5
251
330
1D
100
AcDbEntity
  8
NOCUT
100
AcDbLine
 10
75.00000298
 20
36.499999087
 30
0.0
 11
75.00000298
 21
29.76258622815278
 31
0.0
  0
LINE
  5
257
330
1D
100
AcDbEntity
  8
NOCUT
100
AcDbLine
 10
75.808815658
 20
29.634073
 30
0.0
 11
77.174469829
 21
29.999998953
 31
0.0
  0
LINE
  5
258
330
1D
100
AcDbEntity
  8
NOCUT
100
AcDbLine
 10
77.174469829
 20
29.999998953
 30
0.0
 11
114.00000006
 21
29.999998953
 31
0.0
  0
LINE
  5
259
330
1D
100
AcDbEntity
  8
NOCUT
100
AcDbLine
 10
114.00000006
 20
29.999998953
 30
0.0
 11
115.000002086
 21
28.999998789
 31
0.0
  0
LINE
  5
25A
330
1D
100
AcDbEntity
  8
NOCUT
100
AcDbLine
 10
115.000002086
 20
28.999998789
 30
0.0
 11
115.000002086
 21
-0.000000376500001
 31
0.0
  0
LINE
  5
25B
330
1D
100
AcDbEntity
  8
NOCUT
100
AcDbLine
 10
115.000002086
 20
-0.000000376500001
 30
0.0
 11
0.0
 21
-0.0000003764999974
 31
0.0
  0
ARC
  5
25C
330
1D
100
AcDbEntity
  8
NOCUT
100
AcDbCircle
 10
15.12798836624978
 20
100.1188934484597
 30
0.0
 40
51.24516745019691
100
AcDbArc
 50
258.1545366502643
 51
269.8009955372537
  0
ARC
  5
25D
330
1D
100
AcDbEntity
  8
NOCUT
100
AcDbCircle
 10
18.848039874
 20
45.630094939
 30
0.0
 40
0.7605777919999961
100
AcDbArc
 50
180.5774259162573
 51
269.2060131000004
  0
ARC
  5
25E
330
1D
100
AcDbEntity
  8
NOCUT
100
AcDbCircle
 10
21.15329324899999
 20
45.62879429400001
 30
0.0
 40
0.7592599500000079
100
AcDbArc
 50
270.6948286160005
 51
359.3234115644087
  0
ARC
  5
25F
330
1D
100
AcDbEntity
  8
NOCUT
100
AcDbCircle
 10
29.70004683189116
 20
40.75011268613532
 30
0.0
 40
0.7501130636073013
100
AcDbArc
 50
180.7624412082402
 51
269.9964105561646
  0
ARC
  5
260
330
1D
100
AcDbEntity
  8
NOCUT
100
AcDbCircle
 10
35.24999999999999
 20
40.749999624
 30
0.0
 40
0.7500000000000097
100
AcDbArc
 50
270.0000000000005
 51
359.9999999999994
  0
ARC
  5
261
330
1D
100
AcDbEntity
  8
NOCUT
100
AcDbCircle
 10
75.54999999999998
 20
30.59999962399992
 30
0.0
 40
0.999999999999929
100
AcDbArc
 50
236.6329870309986
 51
284.9998007310016
  0
LWPOLYLINE
  5
288
330
1D
100
AcDbEntity
  8
INFTOTAL
100
AcDbPolyline
 90
        4
 70
     1
 43
0.0
 10
-133.8842870426452
 20
89.12751707268849
 10
-133.8842870426452
 20
-113.7270276833959
 10
174.7395640702238
 20
-113.7270276833959
 10
174.7395640702238
 20
89.12751707268849
  0
ENDSEC
  0
SECTION
  2
OBJECTS
  0
DICTIONARY
  5
C
330
0
100
AcDbDictionary
281
     1
  3
ACAD_DETAILVIEWSTYLE
350
255
  3
ACAD_GROUP
350
D
  3
ACAD_LAYOUT
350
1A
  3
ACAD_MATERIAL
350
1D4
  3
ACAD_MLEADERSTYLE
350
1E1
  3
ACAD_MLINESTYLE
350
17
  3
ACAD_PLOTSETTINGS
350
19
  3
ACAD_PLOTSTYLENAME
350
E
  3
ACAD_SCALELIST
350
19D
  3
ACAD_SECTIONVIEWSTYLE
350
256
  3
ACAD_TABLESTYLE
350
22A
  3
ACAD_VISUALSTYLE
350
1C3
  3
ACDB_RECOMPOSE_DATA
350
2B1
  3
AcDbVariableDictionary
350
1DF
  3
APPDATA
350
22D
  0
DICTIONARY
  5
22E
330
2
100
AcDbDictionary
280
     1
281
     1
  3
ACAD_LAYERSTATES
360
22F
  0
DICTIONARY
  5
255
102
{ACAD_REACTORS
330
C
102
}
330
C
100
AcDbDictionary
281
     1
  0
DICTIONARY
  5
D
102
{ACAD_REACTORS
330
C
102
}
330
C
100
AcDbDictionary
281
     1
  0
DICTIONARY
  5
1A
102
{ACAD_REACTORS
330
C
102
}
330
C
100
AcDbDictionary
281
     1
  3
Layout1
350
1C
  3
Model
350
1E
  0
DICTIONARY
  5
1D4
102
{ACAD_REACTORS
330
C
102
}
330
C
100
AcDbDictionary
281
     1
  3
ByBlock
350
1D6
  3
ByLayer
350
1D5
  3
Global
350
1D7
  0
DICTIONARY
  5
1E1
102
{ACAD_REACTORS
330
C
102
}
330
C
100
AcDbDictionary
281
     1
  3
Standard
350
22C
  0
DICTIONARY
  5
17
102
{ACAD_REACTORS
330
C
102
}
330
C
100
AcDbDictionary
281
     1
  3
Standard
350
18
  0
DICTIONARY
  5
19
102
{ACAD_REACTORS
330
C
102
}
330
C
100
AcDbDictionary
281
     1
  0
ACDBDICTIONARYWDFLT
  5
E
102
{ACAD_REACTORS
330
C
102
}
330
C
100
AcDbDictionary
281
     1
  3
Normal
350
F
100
AcDbDictionaryWithDefault
340
F
  0
DICTIONARY
  5
19D
102
{ACAD_REACTORS
330
C
102
}
330
C
100
AcDbDictionary
281
     1
  3
A0
350
19E
  3
A1
350
19F
  3
A2
350
1A0
  3
A3
350
1A1
  3
A4
350
1A2
  3
A5
350
1A3
  3
A6
350
1A4
  3
A7
350
1A5
  3
A8
350
1A6
  3
A9
350
1A7
  3
B0
350
1A8
  3
B1
350
1A9
  3
B2
350
1AA
  3
B3
350
1AB
  3
B4
350
1AC
  3
B5
350
1AD
  3
B6
350
1AE
  3
B7
350
1AF
  3
B8
350
1B0
  3
B9
350
1B1
  3
C0
350
1B2
  3
C1
350
1B3
  3
C2
350
1B4
  3
C3
350
1B5
  3
C4
350
1B6
  3
C5
350
1B7
  3
C6
350
1B8
  3
C7
350
1B9
  3
C8
350
1BA
  3
C9
350
1BB
  3
D0
350
1BC
  3
D1
350
1BD
  3
D2
350
1BE
  0
DICTIONARY
  5
256
102
{ACAD_REACTORS
330
C
102
}
330
C
100
AcDbDictionary
281
     1
  0
DICTIONARY
  5
22A
102
{ACAD_REACTORS
330
C
102
}
330
C
100
AcDbDictionary
281
     1
  3
Standard
350
22B
  0
DICTIONARY
  5
1C3
102
{ACAD_REACTORS
330
C
102
}
330
C
100
AcDbDictionary
281
     1
  3
2dWireframe
350
1C8
  3
3D Hidden
350
1CA
  3
3dWireframe
350
1C9
  3
Basic
350
1CB
  3
Brighten
350
1CF
  3
ColorChange
350
1D3
  3
Conceptual
350
1CD
  3
Dim
350
1CE
  3
EdgeColorOff
350
224
  3
Facepattern
350
1D2
  3
Flat
350
1C4
  3
FlatWithEdges
350
1C5
  3
Gouraud
350
1C6
  3
GouraudWithEdges
350
1C7
  3
Hidden
350
221
  3
JitterOff
350
222
  3
Linepattern
350
1D1
  3
OverhangOff
350
223
  3
Realistic
350
1CC
  3
Shaded
350
229
  3
Shaded with edges
350
228
  3
Shades of Gray
350
225
  3
Sketchy
350
226
  3
Thicken
350
1D0
  3
Wireframe
350
220
  3
X-Ray
350
227
  0
XRECORD
  5
2B1
102
{ACAD_REACTORS
330
C
102
}
330
C
100
AcDbXrecord
280
     1
 90
        1
330
22B
  0
DICTIONARY
  5
1DF
102
{ACAD_REACTORS
330
C
102
}
330
C
100
AcDbDictionary
281
     1
  3
CANNOSCALE
350
252
  3
CMLEADERSTYLE
350
254
  3
CTABLESTYLE
350
253
  3
DIMASSOC
350
1E3
  3
HIDETEXT
350
1E4
  3
MSLTSCALE
350
1E2
  0
DICTIONARY
  5
22D
102
{ACAD_REACTORS
330
C
102
}
330
C
100
AcDbDictionary
281
     1
  0
DICTIONARY
  5
22F
102
{ACAD_REACTORS
330
22E
102
}
330
22E
100
AcDbDictionary
281
     1
  0
LAYOUT
  5
1C
102
{ACAD_REACTORS
330
1A
102
}
330
1A
100
AcDbPlotSettings
  1

  2
none_device
  4

  6

 40
0.0
 41
0.0
 42
0.0
 43
0.0
 44
0.0
 45
0.0
 46
0.0
 47
0.0
 48
0.0
 49
0.0
140
0.0
141
0.0
142
1.0
143
1.0
 70
   688
 72
     0
 73
     0
 74
     5
  7

 75
    16
 76
     0
 77
     2
 78
   300
147
1.0
148
0.0
149
0.0
100
AcDbLayout
  1
Layout1
 70
     1
 71
     1
 10
0.0
 20
0.0
 11
12.0
 21
9.0
 12
0.0
 22
0.0
 32
0.0
 14
1.000000000000000E+20
 24
1.000000000000000E+20
 34
1.000000000000000E+20
 15
-1.000000000000000E+20
 25
-1.000000000000000E+20
 35
-1.000000000000000E+20
146
0.0
 13
0.0
 23
0.0
 33
0.0
 16
1.0
 26
0.0
 36
0.0
 17
0.0
 27
1.0
 37
0.0
 76
     0
330
1B
  0
LAYOUT
  5
1E
102
{ACAD_REACTORS
330
1A
102
}
330
1A
100
AcDbPlotSettings
  1

  2
none_device
  4

  6

 40
0.0
 41
0.0
 42
0.0
 43
0.0
 44
0.0
 45
0.0
 46
0.0
 47
0.0
 48
0.0
 49
0.0
140
0.0
141
0.0
142
1.0
143
1.0
 70
  1712
 72
     0
 73
     0
 74
     0
  7

 75
     0
 76
     0
 77
     2
 78
   300
147
1.0
148
0.0
149
0.0
100
AcDbLayout
  1
Model
 70
     1
 71
     0
 10
0.0
 20
0.0
 11
12.0
 21
9.0
 12
0.0
 22
0.0
 32
0.0
 14
-133.8842870426452
 24
-113.7270276833959
 34
0.0
 15
174.7395640702238
 25
89.12751707268848
 35
0.0
146
0.0
 13
0.0
 23
0.0
 33
0.0
 16
1.0
 26
0.0
 36
0.0
 17
0.0
 27
1.0
 37
0.0
 76
     0
330
1D
331
197
  0
MATERIAL
  5
1D6
102
{ACAD_REACTORS
330
1D4
102
}
330
1D4
100
AcDbMaterial
  1
ByBlock
 72
     1
 94
      127
  0
MATERIAL
  5
1D5
102
{ACAD_REACTORS
330
1D4
102
}
330
1D4
100
AcDbMaterial
  1
ByLayer
 72
     1
 94
      127
  0
MATERIAL
  5
1D7
102
{ACAD_REACTORS
330
1D4
102
}
330
1D4
100
AcDbMaterial
  1
Global
 72
     1
 94
      127
  0
MLEADERSTYLE
  5
22C
102
{ACAD_REACTORS
330
1E1
102
}
330
1E1
100
AcDbMLeaderStyle
179
     2
170
     2
171
     1
172
     0
 90
        2
 40
0.0
 41
0.0
173
     1
 91
-1056964608
340
14
 92
       -2
290
     1
 42
0.09
291
     1
 43
0.36
  3
Standard
341
0
 44
0.18
300

342
11
174
     1
178
     1
175
     1
176
     0
 93
-1056964608
 45
0.18
292
     0
297
     0
 46
0.18
343
0
 94
-1056964608
 47
1.0
 49
1.0
140
1.0
293
     1
141
0.0
294
     1
177
     0
142
1.0
295
     0
296
     0
143
0.125
271
     0
272
     9
273
     9
298
     0
  0
MLINESTYLE
  5
18
102
{ACAD_REACTORS
330
17
102
}
330
17
100
AcDbMlineStyle
  2
Standard
 70
     0
  3

 62
   256
 51
90.0
 52
90.0
 71
     2
 49
0.5
 62
   256
  6
BYLAYER
 49
-0.5
 62
   256
  6
BYLAYER
  0
ACDBPLACEHOLDER
  5
F
102
{ACAD_REACTORS
330
E
102
}
330
E
  0
SCALE
  5
19E
102
{ACAD_REACTORS
330
19D
102
}
330
19D
100
AcDbScale
 70
     0
300
1:1
140
1.0
141
1.0
290
     1
  0
SCALE
  5
19F
102
{ACAD_REACTORS
330
19D
102
}
330
19D
100
AcDbScale
 70
     0
300
1:2
140
1.0
141
2.0
290
     0
  0
SCALE
  5
1A0
102
{ACAD_REACTORS
330
19D
102
}
330
19D
100
AcDbScale
 70
     0
300
1:4
140
1.0
141
4.0
290
     0
  0
SCALE
  5
1A1
102
{ACAD_REACTORS
330
19D
102
}
330
19D
100
AcDbScale
 70
     0
300
1:5
140
1.0
141
5.0
290
     0
  0
SCALE
  5
1A2
102
{ACAD_REACTORS
330
19D
102
}
330
19D
100
AcDbScale
 70
     0
300
1:8
140
1.0
141
8.0
290
     0
  0
SCALE
  5
1A3
102
{ACAD_REACTORS
330
19D
102
}
330
19D
100
AcDbScale
 70
     0
300
1:10
140
1.0
141
10.0
290
     0
  0
SCALE
  5
1A4
102
{ACAD_REACTORS
330
19D
102
}
330
19D
100
AcDbScale
 70
     0
300
1:16
140
1.0
141
16.0
290
     0
  0
SCALE
  5
1A5
102
{ACAD_REACTORS
330
19D
102
}
330
19D
100
AcDbScale
 70
     0
300
1:20
140
1.0
141
20.0
290
     0
  0
SCALE
  5
1A6
102
{ACAD_REACTORS
330
19D
102
}
330
19D
100
AcDbScale
 70
     0
300
1:30
140
1.0
141
30.0
290
     0
  0
SCALE
  5
1A7
102
{ACAD_REACTORS
330
19D
102
}
330
19D
100
AcDbScale
 70
     0
300
1:40
140
1.0
141
40.0
290
     0
  0
SCALE
  5
1A8
102
{ACAD_REACTORS
330
19D
102
}
330
19D
100
AcDbScale
 70
     0
300
1:50
140
1.0
141
50.0
290
     0
  0
SCALE
  5
1A9
102
{ACAD_REACTORS
330
19D
102
}
330
19D
100
AcDbScale
 70
     0
300
1:100
140
1.0
141
100.0
290
     0
  0
SCALE
  5
1AA
102
{ACAD_REACTORS
330
19D
102
}
330
19D
100
AcDbScale
 70
     0
300
2:1
140
2.0
141
1.0
290
     0
  0
SCALE
  5
1AB
102
{ACAD_REACTORS
330
19D
102
}
330
19D
100
AcDbScale
 70
     0
300
4:1
140
4.0
141
1.0
290
     0
  0
SCALE
  5
1AC
102
{ACAD_REACTORS
330
19D
102
}
330
19D
100
AcDbScale
 70
     0
300
8:1
140
8.0
141
1.0
290
     0
  0
SCALE
  5
1AD
102
{ACAD_REACTORS
330
19D
102
}
330
19D
100
AcDbScale
 70
     0
300
10:1
140
10.0
141
1.0
290
     0
  0
SCALE
  5
1AE
102
{ACAD_REACTORS
330
19D
102
}
330
19D
100
AcDbScale
 70
     0
300
100:1
140
100.0
141
1.0
290
     0
  0
SCALE
  5
1AF
102
{ACAD_REACTORS
330
19D
102
}
330
19D
100
AcDbScale
 70
     0
300
1/128" = 1'-0"
140
0.0078125
141
12.0
290
     0
  0
SCALE
  5
1B0
102
{ACAD_REACTORS
330
19D
102
}
330
19D
100
AcDbScale
 70
     0
300
1/64" = 1'-0"
140
0.015625
141
12.0
290
     0
  0
SCALE
  5
1B1
102
{ACAD_REACTORS
330
19D
102
}
330
19D
100
AcDbScale
 70
     0
300
1/32" = 1'-0"
140
0.03125
141
12.0
290
     0
  0
SCALE
  5
1B2
102
{ACAD_REACTORS
330
19D
102
}
330
19D
100
AcDbScale
 70
     0
300
1/16" = 1'-0"
140
0.0625
141
12.0
290
     0
  0
SCALE
  5
1B3
102
{ACAD_REACTORS
330
19D
102
}
330
19D
100
AcDbScale
 70
     0
300
3/32" = 1'-0"
140
0.09375
141
12.0
290
     0
  0
SCALE
  5
1B4
102
{ACAD_REACTORS
330
19D
102
}
330
19D
100
AcDbScale
 70
     0
300
1/8" = 1'-0"
140
0.125
141
12.0
290
     0
  0
SCALE
  5
1B5
102
{ACAD_REACTORS
330
19D
102
}
330
19D
100
AcDbScale
 70
     0
300
3/16" = 1'-0"
140
0.1875
141
12.0
290
     0
  0
SCALE
  5
1B6
102
{ACAD_REACTORS
330
19D
102
}
330
19D
100
AcDbScale
 70
     0
300
1/4" = 1'-0"
140
0.25
141
12.0
290
     0
  0
SCALE
  5
1B7
102
{ACAD_REACTORS
330
19D
102
}
330
19D
100
AcDbScale
 70
     0
300
3/8" = 1'-0"
140
0.375
141
12.0
290
     0
  0
SCALE
  5
1B8
102
{ACAD_REACTORS
330
19D
102
}
330
19D
100
AcDbScale
 70
     0
300
1/2" = 1'-0"
140
0.5
141
12.0
290
     0
  0
SCALE
  5
1B9
102
{ACAD_REACTORS
330
19D
102
}
330
19D
100
AcDbScale
 70
     0
300
3/4" = 1'-0"
140
0.75
141
12.0
290
     0
  0
SCALE
  5
1BA
102
{ACAD_REACTORS
330
19D
102
}
330
19D
100
AcDbScale
 70
     0
300
1" = 1'-0"
140
1.0
141
12.0
290
     0
  0
SCALE
  5
1BB
102
{ACAD_REACTORS
330
19D
102
}
330
19D
100
AcDbScale
 70
     0
300
1-1/2" = 1'-0"
140
1.5
141
12.0
290
     0
  0
SCALE
  5
1BC
102
{ACAD_REACTORS
330
19D
102
}
330
19D
100
AcDbScale
 70
     0
300
3" = 1'-0"
140
3.0
141
12.0
290
     0
  0
SCALE
  5
1BD
102
{ACAD_REACTORS
330
19D
102
}
330
19D
100
AcDbScale
 70
     0
300
6" = 1'-0"
140
6.0
141
12.0
290
     0
  0
SCALE
  5
1BE
102
{ACAD_REACTORS
330
19D
102
}
330
19D
100
AcDbScale
 70
     0
300
1'-0" = 1'-0"
140
12.0
141
12.0
290
     0
  0
TABLESTYLE
  5
22B
102
{ACAD_REACTORS
330
22A
102
}
102
{ACAD_XDICTIONARY
360
2AF
102
}
330
22A
100
AcDbTableStyle
  3
Standard
 70
     0
 71
     0
 40
0.06
 41
0.06
280
     0
281
     0
  7
Standard
140
0.18
170
     2
 62
     0
 63
   257
283
     0
 90
        4
 91
        0
  1

274
    -2
284
     1
 64
     0
275
    -2
285
     1
 65
     0
276
    -2
286
     1
 66
     0
277
    -2
287
     1
 67
     0
278
    -2
288
     1
 68
     0
279
    -2
289
     1
 69
     0
  7
Standard
140
0.25
170
     5
 62
     0
 63
   257
283
     0
 90
        4
 91
        0
  1

274
    -2
284
     1
 64
     0
275
    -2
285
     1
 65
     0
276
    -2
286
     1
 66
     0
277
    -2
287
     1
 67
     0
278
    -2
288
     1
 68
     0
279
    -2
289
     1
 69
     0
  7
Standard
140
0.18
170
     5
 62
     0
 63
   257
283
     0
 90
        4
 91
        0
  1

274
    -2
284
     1
 64
     0
275
    -2
285
     1
 65
     0
276
    -2
286
     1
 66
     0
277
    -2
287
     1
 67
     0
278
    -2
288
     1
 68
     0
279
    -2
289
     1
 69
     0
  0
VISUALSTYLE
  5
1C8
102
{ACAD_REACTORS
330
1C3
102
}
330
1C3
100
AcDbVisualStyle
  2
2dWireframe
 70
     4
177
     3
291
     0
 70
    58
 90
        0
176
     1
 90
        2
176
     1
 90
        0
176
     1
 90
        0
176
     1
 40
-0.6
176
     1
 40
-30.0
176
     1
 62
     7
176
     1
 90
        1
176
     1
 90
        4
176
     1
 62
     7
176
     1
 62
   257
176
     1
 90
        1
176
     1
 90
        1
176
     1
 40
1.0
176
     1
 90
        0
176
     1
 62
   257
176
     1
 40
1.0
176
     1
 90
        1
176
     1
 90
        6
176
     1
 90
        2
176
     1
 62
     7
176
     1
 90
        5
176
     1
 90
        0
176
     1
 90
        0
176
     1
290
     0
176
     1
 90
        1
176
     1
 40
0.0
176
     1
 90
        0
176
     1
290
     1
176
     1
290
     1
176
     1
290
     0
176
     1
290
     0
176
     1
290
     0
176
     1
290
     0
176
     1
290
     0
176
     1
290
     0
176
     1
290
     0
176
     1
 90
       50
176
     1
 40
0.0
176
     1
 40
1.0
176
     1
 90
        0
176
     1
 62
    18
420
        0
176
     1
 90
       50
176
     1
 90
        3
176
     1
 62
     5
420
      255
176
     1
290
     0
176
     1
 90
       50
176
     1
 90
       50
176
     1
 90
       50
176
     1
290
     0
176
     1
 90
       50
176
     1
 62
   256
176
     0
 40
1.0
176
     0
 90
        2
176
     1
  1
strokes_ogs.tif
176
     1
290
     0
176
     1
 40
1.0
176
     1
 40
1.0
176
     1
  0
VISUALSTYLE
  5
1CA
102
{ACAD_REACTORS
330
1C3
102
}
330
1C3
100
AcDbVisualStyle
  2
3D Hidden
 70
     6
177
     3
291
     0
 70
    58
 90
        1
176
     1
 90
        2
176
     1
 90
        2
176
     1
 90
        0
176
     1
 40
-0.6
176
     1
 40
-30.0
176
     1
 62
     7
176
     1
 90
        2
176
     1
 90
        2
176
     1
 62
     7
176
     1
 62
   257
176
     1
 90
        2
176
     1
 90
        1
176
     1
 40
40.0
176
     1
 90
        0
176
     1
 62
   257
176
     1
 40
1.0
176
     1
 90
        1
176
     1
 90
        6
176
     1
 90
        2
176
     1
 62
     7
176
     1
 90
        3
176
     1
 90
        0
176
     1
 90
        0
176
     1
290
     0
176
     1
 90
        1
176
     1
 40
0.0
176
     1
 90
        0
176
     1
290
     0
176
     1
290
     1
176
     1
290
     1
176
     1
290
     0
176
     1
290
     0
176
     1
290
     0
176
     1
290
     0
176
     1
290
     0
176
     1
290
     0
176
     1
 90
       50
176
     1
 40
0.0
176
     1
 40
1.0
176
     1
 90
        0
176
     1
 62
    18
420
        0
176
     1
 90
       50
176
     1
 90
        3
176
     1
 62
     5
420
      255
176
     1
290
     0
176
     1
 90
       50
176
     1
 90
       50
176
     1
 90
       50
176
     1
290
     0
176
     1
 90
       50
176
     1
 62
   256
176
     0
 40
1.0
176
     0
 90
        2
176
     1
  1
strokes_ogs.tif
176
     1
290
     0
176
     1
 40
1.0
176
     1
 40
1.0
176
     1
  0
VISUALSTYLE
  5
1C9
102
{ACAD_REACTORS
330
1C3
102
}
330
1C3
100
AcDbVisualStyle
  2
3dWireframe
 70
     5
177
     3
291
     0
 70
    58
 90
        0
176
     1
 90
        2
176
     1
 90
        0
176
     1
 90
        0
176
     1
 40
-0.6
176
     1
 40
-30.0
176
     1
 62
     7
176
     1
 90
        1
176
     1
 90
        4
176
     1
 62
     7
176
     1
 62
   257
176
     1
 90
        1
176
     1
 90
        1
176
     1
 40
1.0
176
     1
 90
        0
176
     1
 62
   257
176
     1
 40
1.0
176
     1
 90
        1
176
     1
 90
        6
176
     1
 90
        2
176
     1
 62
     7
176
     1
 90
        5
176
     1
 90
        0
176
     1
 90
        0
176
     1
290
     0
176
     1
 90
        1
176
     1
 40
0.0
176
     1
 90
        0
176
     1
290
     0
176
     1
290
     1
176
     1
290
     1
176
     1
290
     0
176
     1
290
     0
176
     1
290
     0
176
     1
290
     0
176
     1
290
     0
176
     1
290
     0
176
     1
 90
       50
176
     1
 40
0.0
176
     1
 40
1.0
176
     1
 90
        0
176
     1
 62
    18
420
        0
176
     1
 90
       50
176
     1
 90
        3
176
     1
 62
     5
420
      255
176
     1
290
     0
176
     1
 90
       50
176
     1
 90
       50
176
     1
 90
       50
176
     1
290
     0
176
     1
 90
       50
176
     1
 62
   256
176
     0
 40
1.0
176
     0
 90
        2
176
     1
  1
strokes_ogs.tif
176
     1
290
     0
176
     1
 40
1.0
176
     1
 40
1.0
176
     1
  0
VISUALSTYLE
  5
1CB
102
{ACAD_REACTORS
330
1C3
102
}
330
1C3
100
AcDbVisualStyle
  2
Basic
 70
     7
177
     3
291
     1
 70
    58
 90
        1
176
     1
 90
        0
176
     1
 90
        1
176
     1
 90
        0
176
     1
 40
-0.6
176
     1
 40
-30.0
176
     1
 62
     7
176
     1
 90
        0
176
     1
 90
        4
176
     1
 62
     7
176
     1
 62
   257
176
     1
 90
        1
176
     1
 90
        1
176
     1
 40
1.0
176
     1
 90
        8
176
     1
 62
     7
176
     1
 40
1.0
176
     1
 90
        1
176
     1
 90
        6
176
     1
 90
        2
176
     1
 62
     7
176
     1
 90
        5
176
     1
 90
        0
176
     1
 90
        0
176
     1
290
     0
176
     1
 90
        1
176
     1
 40
0.0
176
     1
 90
        0
176
     1
290
     0
176
     1
290
     1
176
     1
290
     1
176
     1
290
     0
176
     1
290
     0
176
     1
290
     0
176
     1
290
     0
176
     1
290
     0
176
     1
290
     0
176
     1
 90
       50
176
     1
 40
0.0
176
     1
 40
1.0
176
     1
 90
        0
176
     1
 62
    18
420
        0
176
     1
 90
       50
176
     1
 90
        3
176
     1
 62
     5
420
      255
176
     1
290
     0
176
     1
 90
       50
176
     1
 90
       50
176
     1
 90
       50
176
     1
290
     0
176
     1
 90
       50
176
     1
 62
   256
176
     0
 40
1.0
176
     0
 90
        2
176
     1
  1
strokes_ogs.tif
176
     1
290
     0
176
     1
 40
1.0
176
     1
 40
1.0
176
     1
  0
VISUALSTYLE
  5
1CF
102
{ACAD_REACTORS
330
1C3
102
}
330
1C3
100
AcDbVisualStyle
  2
Brighten
 70
    12
177
     3
291
     1
 70
    58
 90
        2
176
     1
 90
        2
176
     1
 90
        0
176
     1
 90
        0
176
     1
 40
-0.6
176
     1
 40
-30.0
176
     1
 62
     7
176
     1
 90
        1
176
     1
 90
        4
176
     1
 62
     7
176
     1
 62
   257
176
     1
 90
        1
176
     1
 90
        1
176
     1
 40
1.0
176
     1
 90
        8
176
     1
 62
     7
176
     1
 40
1.0
176
     1
 90
        1
176
     1
 90
        6
176
     1
 90
        2
176
     1
 62
     7
176
     1
 90
        5
176
     1
 90
        0
176
     1
 90
        0
176
     1
290
     0
176
     1
 90
        1
176
     1
 40
50.0
176
     1
 90
        0
176
     1
290
     0
176
     1
290
     1
176
     1
290
     1
176
     1
290
     0
176
     1
290
     0
176
     1
290
     0
176
     1
290
     0
176
     1
290
     0
176
     1
290
     0
176
     1
 90
       50
176
     1
 40
0.0
176
     1
 40
1.0
176
     1
 90
        0
176
     1
 62
    18
420
        0
176
     1
 90
       50
176
     1
 90
        3
176
     1
 62
     5
420
      255
176
     1
290
     0
176
     1
 90
       50
176
     1
 90
       50
176
     1
 90
       50
176
     1
290
     0
176
     1
 90
       50
176
     1
 62
   256
176
     0
 40
1.0
176
     0
 90
        2
176
     1
  1
strokes_ogs.tif
176
     1
290
     0
176
     1
 40
1.0
176
     1
 40
1.0
176
     1
  0
VISUALSTYLE
  5
1D3
102
{ACAD_REACTORS
330
1C3
102
}
330
1C3
100
AcDbVisualStyle
  2
ColorChange
 70
    16
177
     3
291
     1
 70
    58
 90
        2
176
     1
 90
        2
176
     1
 90
        3
176
     1
 90
        0
176
     1
 40
-0.6
176
     1
 40
-30.0
176
     1
 62
     8
176
     1
 90
        1
176
     1
 90
        4
176
     1
 62
     7
176
     1
 62
   257
176
     1
 90
        1
176
     1
 90
        1
176
     1
 40
1.0
176
     1
 90
        8
176
     1
 62
     8
176
     1
 40
1.0
176
     1
 90
        1
176
     1
 90
        6
176
     1
 90
        2
176
     1
 62
     7
176
     1
 90
        5
176
     1
 90
        0
176
     1
 90
        0
176
     1
290
     0
176
     1
 90
        1
176
     1
 40
0.0
176
     1
 90
        0
176
     1
290
     0
176
     1
290
     1
176
     1
290
     1
176
     1
290
     0
176
     1
290
     0
176
     1
290
     0
176
     1
290
     0
176
     1
290
     0
176
     1
290
     0
176
     1
 90
       50
176
     1
 40
0.0
176
     1
 40
1.0
176
     1
 90
        0
176
     1
 62
    18
420
        0
176
     1
 90
       50
176
     1
 90
        3
176
     1
 62
     5
420
      255
176
     1
290
     0
176
     1
 90
       50
176
     1
 90
       50
176
     1
 90
       50
176
     1
290
     0
176
     1
 90
       50
176
     1
 62
   256
176
     0
 40
1.0
176
     0
 90
        2
176
     1
  1
strokes_ogs.tif
176
     1
290
     0
176
     1
 40
1.0
176
     1
 40
1.0
176
     1
  0
VISUALSTYLE
  5
1CD
102
{ACAD_REACTORS
330
1C3
102
}
330
1C3
100
AcDbVisualStyle
  2
Conceptual
 70
     9
177
     3
291
     0
 70
    58
 90
        3
176
     1
 90
        2
176
     1
 90
        0
176
     1
 90
        0
176
     1
 40
-0.6
176
     1
 40
-30.0
176
     1
 62
     7
176
     1
 90
        2
176
     1
 90
        2
176
     1
 62
     7
176
     1
 62
   257
176
     1
 90
        1
176
     1
 90
        1
176
     1
 40
40.0
176
     1
 90
        8
176
     1
 62
     7
176
     1
 40
1.0
176
     1
 90
        1
176
     1
 90
        6
176
     1
 90
        2
176
     1
 62
     7
176
     1
 90
        3
176
     1
 90
        0
176
     1
 90
        0
176
     1
290
     0
176
     1
 90
        1
176
     1
 40
0.0
176
     1
 90
        0
176
     1
290
     0
176
     1
290
     1
176
     1
290
     1
176
     1
290
     0
176
     1
290
     0
176
     1
290
     0
176
     1
290
     0
176
     1
290
     0
176
     1
290
     0
176
     1
 90
       50
176
     1
 40
0.0
176
     1
 40
1.0
176
     1
 90
        0
176
     1
 62
    18
420
        0
176
     1
 90
       50
176
     1
 90
        3
176
     1
 62
     5
420
      255
176
     1
290
     0
176
     1
 90
       50
176
     1
 90
       50
176
     1
 90
       50
176
     1
290
     0
176
     1
 90
       50
176
     1
 62
   256
176
     0
 40
1.0
176
     0
 90
        2
176
     1
  1
strokes_ogs.tif
176
     1
290
     0
176
     1
 40
1.0
176
     1
 40
1.0
176
     1
  0
VISUALSTYLE
  5
1CE
102
{ACAD_REACTORS
330
1C3
102
}
330
1C3
100
AcDbVisualStyle
  2
Dim
 70
    11
177
     3
291
     1
 70
    58
 90
        2
176
     1
 90
        2
176
     1
 90
        0
176
     1
 90
        0
176
     1
 40
-0.6
176
     1
 40
-30.0
176
     1
 62
     7
176
     1
 90
        1
176
     1
 90
        4
176
     1
 62
     7
176
     1
 62
   257
176
     1
 90
        1
176
     1
 90
        1
176
     1
 40
1.0
176
     1
 90
        8
176
     1
 62
     7
176
     1
 40
1.0
176
     1
 90
        1
176
     1
 90
        6
176
     1
 90
        2
176
     1
 62
     7
176
     1
 90
        5
176
     1
 90
        0
176
     1
 90
        0
176
     1
290
     0
176
     1
 90
        1
176
     1
 40
-50.0
176
     1
 90
        0
176
     1
290
     0
176
     1
290
     1
176
     1
290
     1
176
     1
290
     0
176
     1
290
     0
176
     1
290
     0
176
     1
290
     0
176
     1
290
     0
176
     1
290
     0
176
     1
 90
       50
176
     1
 40
0.0
176
     1
 40
1.0
176
     1
 90
        0
176
     1
 62
    18
420
        0
176
     1
 90
       50
176
     1
 90
        3
176
     1
 62
     5
420
      255
176
     1
290
     0
176
     1
 90
       50
176
     1
 90
       50
176
     1
 90
       50
176
     1
290
     0
176
     1
 90
       50
176
     1
 62
   256
176
     0
 40
1.0
176
     0
 90
        2
176
     1
  1
strokes_ogs.tif
176
     1
290
     0
176
     1
 40
1.0
176
     1
 40
1.0
176
     1
  0
VISUALSTYLE
  5
224
102
{ACAD_REACTORS
330
1C3
102
}
330
1C3
100
AcDbVisualStyle
  2
EdgeColorOff
 70
    22
177
     3
291
     1
 70
    58
 90
        2
176
     0
 90
        2
176
     0
 90
        0
176
     0
 90
        0
176
     0
 40
0.6
176
     0
 40
30.0
176
     0
 62
     7
420
 16777215
176
     0
 90
        1
176
     0
 90
        4
176
     0
 62
     7
176
     0
 62
   257
176
     0
 90
        1
176
     0
 90
        1
176
     0
 40
1.0
176
     0
 90
        8
176
     2
 62
     7
176
     0
 40
1.0
176
     0
 90
        1
176
     0
 90
        6
176
     0
 90
        2
176
     0
 62
     7
176
     0
 90
        5
176
     0
 90
        0
176
     0
 90
        0
176
     0
290
     0
176
     0
 90
        1
176
     0
 40
0.0
176
     0
 90
        0
176
     0
290
     0
176
     0
290
     1
176
     0
290
     1
176
     0
290
     0
176
     0
290
     0
176
     0
290
     0
176
     0
290
     0
176
     0
290
     0
176
     0
290
     0
176
     0
 90
       50
176
     0
 40
0.0
176
     0
 40
1.0
176
     0
 90
        0
176
     0
 62
    18
420
        0
176
     0
 90
       50
176
     0
 90
        3
176
     0
 62
     5
420
      255
176
     0
290
     0
176
     0
 90
       50
176
     0
 90
       50
176
     0
 90
       50
176
     0
290
     0
176
     0
 90
       50
176
     0
 62
   256
176
     0
 40
1.0
176
     0
 90
        2
176
     0
  1
strokes_ogs.tif
176
     0
290
     0
176
     0
 40
1.0
176
     0
 40
1.0
176
     0
  0
VISUALSTYLE
  5
1D2
102
{ACAD_REACTORS
330
1C3
102
}
330
1C3
100
AcDbVisualStyle
  2
Facepattern
 70
    15
177
     3
291
     1
 70
    58
 90
        2
176
     1
 90
        2
176
     1
 90
        0
176
     1
 90
        0
176
     1
 40
-0.6
176
     1
 40
-30.0
176
     1
 62
     7
176
     1
 90
        1
176
     1
 90
        4
176
     1
 62
     7
176
     1
 62
   257
176
     1
 90
        1
176
     1
 90
        1
176
     1
 40
1.0
176
     1
 90
        8
176
     1
 62
     7
176
     1
 40
1.0
176
     1
 90
        1
176
     1
 90
        6
176
     1
 90
        2
176
     1
 62
     7
176
     1
 90
        5
176
     1
 90
        0
176
     1
 90
        0
176
     1
290
     0
176
     1
 90
        1
176
     1
 40
0.0
176
     1
 90
        0
176
     1
290
     0
176
     1
290
     1
176
     1
290
     1
176
     1
290
     0
176
     1
290
     0
176
     1
290
     0
176
     1
290
     0
176
     1
290
     0
176
     1
290
     0
176
     1
 90
       50
176
     1
 40
0.0
176
     1
 40
1.0
176
     1
 90
        0
176
     1
 62
    18
420
        0
176
     1
 90
       50
176
     1
 90
        3
176
     1
 62
     5
420
      255
176
     1
290
     0
176
     1
 90
       50
176
     1
 90
       50
176
     1
 90
       50
176
     1
290
     0
176
     1
 90
       50
176
     1
 62
   256
176
     0
 40
1.0
176
     0
 90
        2
176
     1
  1
strokes_ogs.tif
176
     1
290
     0
176
     1
 40
1.0
176
     1
 40
1.0
176
     1
  0
VISUALSTYLE
  5
1C4
102
{ACAD_REACTORS
330
1C3
102
}
330
1C3
100
AcDbVisualStyle
  2
Flat
 70
     0
177
     3
291
     1
 70
    58
 90
        2
176
     1
 90
        1
176
     1
 90
        1
176
     1
 90
        2
176
     1
 40
-0.6
176
     1
 40
30.0
176
     1
 62
     7
176
     1
 90
        0
176
     1
 90
        4
176
     1
 62
     7
176
     1
 62
   257
176
     1
 90
        1
176
     1
 90
        1
176
     1
 40
1.0
176
     1
 90
        8
176
     1
 62
     7
176
     1
 40
1.0
176
     1
 90
        1
176
     1
 90
        6
176
     1
 90
        2
176
     1
 62
     7
176
     1
 90
        5
176
     1
 90
        0
176
     1
 90
        0
176
     1
290
     0
176
     1
 90
       13
176
     1
 40
0.0
176
     1
 90
        0
176
     1
290
     0
176
     1
290
     1
176
     1
290
     1
176
     1
290
     0
176
     1
290
     0
176
     1
290
     0
176
     1
290
     0
176
     1
290
     0
176
     1
290
     0
176
     1
 90
       50
176
     1
 40
0.0
176
     1
 40
1.0
176
     1
 90
        0
176
     1
 62
    18
420
        0
176
     1
 90
       50
176
     1
 90
        3
176
     1
 62
     5
420
      255
176
     1
290
     0
176
     1
 90
       50
176
     1
 90
       50
176
     1
 90
       50
176
     1
290
     0
176
     1
 90
       50
176
     1
 62
   256
176
     0
 40
1.0
176
     0
 90
        2
176
     1
  1
strokes_ogs.tif
176
     1
290
     0
176
     1
 40
1.0
176
     1
 40
1.0
176
     1
  0
VISUALSTYLE
  5
1C5
102
{ACAD_REACTORS
330
1C3
102
}
330
1C3
100
AcDbVisualStyle
  2
FlatWithEdges
 70
     1
177
     3
291
     1
 70
    58
 90
        2
176
     1
 90
        1
176
     1
 90
        1
176
     1
 90
        2
176
     1
 40
-0.6
176
     1
 40
30.0
176
     1
 62
     7
176
     1
 90
        1
176
     1
 90
        4
176
     1
 62
     7
176
     1
 62
   257
176
     1
 90
        1
176
     1
 90
        1
176
     1
 40
1.0
176
     1
 90
        0
176
     1
 62
   257
176
     1
 40
1.0
176
     1
 90
        1
176
     1
 90
        6
176
     1
 90
        2
176
     1
 62
     7
176
     1
 90
        5
176
     1
 90
        0
176
     1
 90
        0
176
     1
290
     0
176
     1
 90
       13
176
     1
 40
0.0
176
     1
 90
        0
176
     1
290
     0
176
     1
290
     1
176
     1
290
     1
176
     1
290
     0
176
     1
290
     0
176
     1
290
     0
176
     1
290
     0
176
     1
290
     0
176
     1
290
     0
176
     1
 90
       50
176
     1
 40
0.0
176
     1
 40
1.0
176
     1
 90
        0
176
     1
 62
    18
420
        0
176
     1
 90
       50
176
     1
 90
        3
176
     1
 62
     5
420
      255
176
     1
290
     0
176
     1
 90
       50
176
     1
 90
       50
176
     1
 90
       50
176
     1
290
     0
176
     1
 90
       50
176
     1
 62
   256
176
     0
 40
1.0
176
     0
 90
        2
176
     1
  1
strokes_ogs.tif
176
     1
290
     0
176
     1
 40
1.0
176
     1
 40
1.0
176
     1
  0
VISUALSTYLE
  5
1C6
102
{ACAD_REACTORS
330
1C3
102
}
330
1C3
100
AcDbVisualStyle
  2
Gouraud
 70
     2
177
     3
291
     1
 70
    58
 90
        2
176
     1
 90
        2
176
     1
 90
        1
176
     1
 90
        2
176
     1
 40
-0.6
176
     1
 40
30.0
176
     1
 62
     7
176
     1
 90
        0
176
     1
 90
        4
176
     1
 62
     7
176
     1
 62
   257
176
     1
 90
        1
176
     1
 90
        1
176
     1
 40
1.0
176
     1
 90
        0
176
     1
 62
     7
176
     1
 40
1.0
176
     1
 90
        1
176
     1
 90
        6
176
     1
 90
        2
176
     1
 62
     7
176
     1
 90
        5
176
     1
 90
        0
176
     1
 90
        0
176
     1
290
     0
176
     1
 90
       13
176
     1
 40
0.0
176
     1
 90
        0
176
     1
290
     0
176
     1
290
     1
176
     1
290
     1
176
     1
290
     0
176
     1
290
     0
176
     1
290
     0
176
     1
290
     0
176
     1
290
     0
176
     1
290
     0
176
     1
 90
       50
176
     1
 40
0.0
176
     1
 40
1.0
176
     1
 90
        0
176
     1
 62
    18
420
        0
176
     1
 90
       50
176
     1
 90
        3
176
     1
 62
     5
420
      255
176
     1
290
     0
176
     1
 90
       50
176
     1
 90
       50
176
     1
 90
       50
176
     1
290
     0
176
     1
 90
       50
176
     1
 62
   256
176
     0
 40
1.0
176
     0
 90
        2
176
     1
  1
strokes_ogs.tif
176
     1
290
     0
176
     1
 40
1.0
176
     1
 40
1.0
176
     1
  0
VISUALSTYLE
  5
1C7
102
{ACAD_REACTORS
330
1C3
102
}
330
1C3
100
AcDbVisualStyle
  2
GouraudWithEdges
 70
     3
177
     3
291
     1
 70
    58
 90
        2
176
     1
 90
        2
176
     1
 90
        1
176
     1
 90
        2
176
     1
 40
-0.6
176
     1
 40
30.0
176
     1
 62
     7
176
     1
 90
        1
176
     1
 90
        4
176
     1
 62
     7
176
     1
 62
   257
176
     1
 90
        1
176
     1
 90
        1
176
     1
 40
1.0
176
     1
 90
        0
176
     1
 62
   257
176
     1
 40
1.0
176
     1
 90
        1
176
     1
 90
        6
176
     1
 90
        2
176
     1
 62
     7
176
     1
 90
        5
176
     1
 90
        0
176
     1
 90
        0
176
     1
290
     0
176
     1
 90
       13
176
     1
 40
0.0
176
     1
 90
        0
176
     1
290
     0
176
     1
290
     1
176
     1
290
     1
176
     1
290
     0
176
     1
290
     0
176
     1
290
     0
176
     1
290
     0
176
     1
290
     0
176
     1
290
     0
176
     1
 90
       50
176
     1
 40
0.0
176
     1
 40
1.0
176
     1
 90
        0
176
     1
 62
    18
420
        0
176
     1
 90
       50
176
     1
 90
        3
176
     1
 62
     5
420
      255
176
     1
290
     0
176
     1
 90
       50
176
     1
 90
       50
176
     1
 90
       50
176
     1
290
     0
176
     1
 90
       50
176
     1
 62
   256
176
     0
 40
1.0
176
     0
 90
        2
176
     1
  1
strokes_ogs.tif
176
     1
290
     0
176
     1
 40
1.0
176
     1
 40
1.0
176
     1
  0
VISUALSTYLE
  5
221
102
{ACAD_REACTORS
330
1C3
102
}
330
1C3
100
AcDbVisualStyle
  2
Hidden
 70
     6
177
     3
291
     0
 70
    58
 90
        1
176
     1
 90
        2
176
     1
 90
        2
176
     1
 90
        0
176
     1
 40
0.6
176
     1
 40
30.0
176
     1
 62
     7
420
 16777215
176
     1
 90
        2
176
     1
 90
        2
176
     1
 62
     7
176
     1
 62
   257
176
     1
 90
        2
176
     1
 90
        1
176
     1
 40
40.0
176
     1
 90
        0
176
     1
 62
   257
176
     1
 40
1.0
176
     1
 90
        1
176
     1
 90
        6
176
     1
 90
        2
176
     1
 62
     7
176
     1
 90
        3
176
     1
 90
        0
176
     1
 90
        0
176
     1
290
     0
176
     1
 90
        1
176
     1
 40
0.0
176
     1
 90
        0
176
     1
290
     0
176
     1
290
     1
176
     1
290
     1
176
     1
290
     0
176
     1
290
     0
176
     1
290
     0
176
     1
290
     0
176
     1
290
     0
176
     1
290
     0
176
     1
 90
       50
176
     1
 40
0.0
176
     1
 40
1.0
176
     1
 90
        0
176
     1
 62
    18
420
        0
176
     1
 90
       50
176
     1
 90
        3
176
     1
 62
     5
420
      255
176
     1
290
     0
176
     1
 90
       50
176
     1
 90
       50
176
     1
 90
       50
176
     1
290
     0
176
     1
 90
       50
176
     1
 62
   256
176
     0
 40
1.0
176
     0
 90
        2
176
     1
  1
strokes_ogs.tif
176
     1
290
     0
176
     1
 40
1.0
176
     1
 40
1.0
176
     1
  0
VISUALSTYLE
  5
222
102
{ACAD_REACTORS
330
1C3
102
}
330
1C3
100
AcDbVisualStyle
  2
JitterOff
 70
    20
177
     3
291
     1
 70
    58
 90
        2
176
     0
 90
        2
176
     0
 90
        0
176
     0
 90
        0
176
     0
 40
0.6
176
     0
 40
30.0
176
     0
 62
     7
420
 16777215
176
     0
 90
        1
176
     0
 90
        4
176
     0
 62
     7
176
     0
 62
   257
176
     0
 90
        1
176
     0
 90
        1
176
     0
 40
1.0
176
     0
 90
       10
176
     2
 62
     7
176
     0
 40
1.0
176
     0
 90
        1
176
     0
 90
        6
176
     0
 90
        2
176
     0
 62
     7
176
     0
 90
        5
176
     0
 90
        0
176
     0
 90
        0
176
     0
290
     0
176
     0
 90
        1
176
     0
 40
0.0
176
     0
 90
        0
176
     0
290
     0
176
     0
290
     1
176
     0
290
     1
176
     0
290
     0
176
     0
290
     0
176
     0
290
     0
176
     0
290
     0
176
     0
290
     0
176
     0
290
     0
176
     0
 90
       50
176
     0
 40
0.0
176
     0
 40
1.0
176
     0
 90
        0
176
     0
 62
    18
420
        0
176
     0
 90
       50
176
     0
 90
        3
176
     0
 62
     5
420
      255
176
     0
290
     0
176
     0
 90
       50
176
     0
 90
       50
176
     0
 90
       50
176
     0
290
     0
176
     0
 90
       50
176
     0
 62
   256
176
     0
 40
1.0
176
     0
 90
        2
176
     0
  1
strokes_ogs.tif
176
     0
290
     0
176
     0
 40
1.0
176
     0
 40
1.0
176
     0
  0
VISUALSTYLE
  5
1D1
102
{ACAD_REACTORS
330
1C3
102
}
330
1C3
100
AcDbVisualStyle
  2
Linepattern
 70
    14
177
     3
291
     1
 70
    58
 90
        2
176
     1
 90
        2
176
     1
 90
        0
176
     1
 90
        0
176
     1
 40
-0.6
176
     1
 40
-30.0
176
     1
 62
     7
176
     1
 90
        1
176
     1
 90
        4
176
     1
 62
     7
176
     1
 62
   257
176
     1
 90
        7
176
     1
 90
        7
176
     1
 40
1.0
176
     1
 90
        8
176
     1
 62
     7
176
     1
 40
1.0
176
     1
 90
        1
176
     1
 90
        6
176
     1
 90
        2
176
     1
 62
     7
176
     1
 90
        5
176
     1
 90
        0
176
     1
 90
        0
176
     1
290
     0
176
     1
 90
        1
176
     1
 40
0.0
176
     1
 90
        0
176
     1
290
     0
176
     1
290
     1
176
     1
290
     1
176
     1
290
     0
176
     1
290
     0
176
     1
290
     0
176
     1
290
     0
176
     1
290
     0
176
     1
290
     0
176
     1
 90
       50
176
     1
 40
0.0
176
     1
 40
1.0
176
     1
 90
        0
176
     1
 62
    18
420
        0
176
     1
 90
       50
176
     1
 90
        3
176
     1
 62
     5
420
      255
176
     1
290
     0
176
     1
 90
       50
176
     1
 90
       50
176
     1
 90
       50
176
     1
290
     0
176
     1
 90
       50
176
     1
 62
   256
176
     0
 40
1.0
176
     0
 90
        2
176
     1
  1
strokes_ogs.tif
176
     1
290
     0
176
     1
 40
1.0
176
     1
 40
1.0
176
     1
  0
VISUALSTYLE
  5
223
102
{ACAD_REACTORS
330
1C3
102
}
330
1C3
100
AcDbVisualStyle
  2
OverhangOff
 70
    21
177
     3
291
     1
 70
    58
 90
        2
176
     0
 90
        2
176
     0
 90
        0
176
     0
 90
        0
176
     0
 40
0.6
176
     0
 40
30.0
176
     0
 62
     7
420
 16777215
176
     0
 90
        1
176
     0
 90
        4
176
     0
 62
     7
176
     0
 62
   257
176
     0
 90
        1
176
     0
 90
        1
176
     0
 40
1.0
176
     0
 90
        9
176
     2
 62
     7
176
     0
 40
1.0
176
     0
 90
        1
176
     0
 90
        6
176
     0
 90
        2
176
     0
 62
     7
176
     0
 90
        5
176
     0
 90
        0
176
     0
 90
        0
176
     0
290
     0
176
     0
 90
        1
176
     0
 40
0.0
176
     0
 90
        0
176
     0
290
     0
176
     0
290
     1
176
     0
290
     1
176
     0
290
     0
176
     0
290
     0
176
     0
290
     0
176
     0
290
     0
176
     0
290
     0
176
     0
290
     0
176
     0
 90
       50
176
     0
 40
0.0
176
     0
 40
1.0
176
     0
 90
        0
176
     0
 62
    18
420
        0
176
     0
 90
       50
176
     0
 90
        3
176
     0
 62
     5
420
      255
176
     0
290
     0
176
     0
 90
       50
176
     0
 90
       50
176
     0
 90
       50
176
     0
290
     0
176
     0
 90
       50
176
     0
 62
   256
176
     0
 40
1.0
176
     0
 90
        2
176
     0
  1
strokes_ogs.tif
176
     0
290
     0
176
     0
 40
1.0
176
     0
 40
1.0
176
     0
  0
VISUALSTYLE
  5
1CC
102
{ACAD_REACTORS
330
1C3
102
}
330
1C3
100
AcDbVisualStyle
  2
Realistic
 70
     8
177
     3
291
     0
 70
    58
 90
        2
176
     1
 90
        2
176
     1
 90
        0
176
     1
 90
        0
176
     1
 40
-0.6
176
     1
 40
-30.0
176
     1
 62
     7
176
     1
 90
        1
176
     1
 90
        0
176
     1
 62
     7
176
     1
 62
   257
176
     1
 90
        1
176
     1
 90
        1
176
     1
 40
1.0
176
     1
 90
        8
176
     1
 62
     8
176
     1
 40
1.0
176
     1
 90
        1
176
     1
 90
        6
176
     1
 90
        2
176
     1
 62
     7
176
     1
 90
        5
176
     1
 90
        0
176
     1
 90
        0
176
     1
290
     0
176
     1
 90
       13
176
     1
 40
0.0
176
     1
 90
        0
176
     1
290
     0
176
     1
290
     1
176
     1
290
     1
176
     1
290
     0
176
     1
290
     0
176
     1
290
     0
176
     1
290
     0
176
     1
290
     0
176
     1
290
     0
176
     1
 90
       50
176
     1
 40
0.0
176
     1
 40
1.0
176
     1
 90
        0
176
     1
 62
    18
420
        0
176
     1
 90
       50
176
     1
 90
        3
176
     1
 62
     5
420
      255
176
     1
290
     0
176
     1
 90
       50
176
     1
 90
       50
176
     1
 90
       50
176
     1
290
     0
176
     1
 90
       50
176
     1
 62
   256
176
     0
 40
1.0
176
     0
 90
        2
176
     1
  1
strokes_ogs.tif
176
     1
290
     0
176
     1
 40
1.0
176
     1
 40
1.0
176
     1
  0
VISUALSTYLE
  5
229
102
{ACAD_REACTORS
330
1C3
102
}
330
1C3
100
AcDbVisualStyle
  2
Shaded
 70
    27
177
     3
291
     0
 70
    58
 90
        2
176
     1
 90
        2
176
     1
 90
        1
176
     1
 90
        2
176
     1
 40
0.6
176
     1
 40
30.0
176
     1
 62
     7
420
 16777215
176
     1
 90
        0
176
     1
 90
        4
176
     1
 62
     7
176
     1
 62
   257
176
     1
 90
        1
176
     1
 90
        1
176
     1
 40
1.0
176
     1
 90
        8
176
     1
 62
   257
176
     1
 40
1.0
176
     1
 90
        1
176
     1
 90
        6
176
     1
 90
        2
176
     1
 62
     8
420
  7895160
176
     1
 90
        3
176
     1
 90
        0
176
     1
 90
        0
176
     1
290
     0
176
     1
 90
        5
176
     1
 40
0.0
176
     1
 90
        0
176
     1
290
     0
176
     1
290
     1
176
     1
290
     1
176
     1
290
     0
176
     1
290
     0
176
     1
290
     0
176
     1
290
     0
176
     1
290
     0
176
     1
290
     0
176
     1
 90
       50
176
     1
 40
0.0
176
     1
 40
1.0
176
     1
 90
        0
176
     1
 62
    18
420
        0
176
     1
 90
       50
176
     1
 90
        3
176
     1
 62
     5
420
      255
176
     1
290
     0
176
     1
 90
       50
176
     1
 90
       50
176
     1
 90
       50
176
     1
290
     0
176
     1
 90
       50
176
     1
 62
   256
176
     0
 40
1.0
176
     0
 90
        2
176
     1
  1
strokes_ogs.tif
176
     1
290
     0
176
     1
 40
1.0
176
     1
 40
1.0
176
     1
  0
VISUALSTYLE
  5
228
102
{ACAD_REACTORS
330
1C3
102
}
330
1C3
100
AcDbVisualStyle
  2
Shaded with edges
 70
    26
177
     3
291
     0
 70
    58
 90
        2
176
     1
 90
        2
176
     1
 90
        1
176
     1
 90
        2
176
     1
 40
0.6
176
     1
 40
30.0
176
     1
 62
     7
420
 16777215
176
     1
 90
        1
176
     1
 90
       10
176
     1
 62
     7
176
     1
 62
   257
176
     1
 90
        2
176
     1
 90
        1
176
     1
 40
1.0
176
     1
 90
        8
176
     1
 62
   257
176
     1
 40
1.0
176
     1
 90
        1
176
     1
 90
        6
176
     1
 90
        2
176
     1
 62
     7
176
     1
 90
        3
176
     1
 90
        0
176
     1
 90
        0
176
     1
290
     0
176
     1
 90
        5
176
     1
 40
0.0
176
     1
 90
        0
176
     1
290
     0
176
     1
290
     1
176
     1
290
     1
176
     1
290
     0
176
     1
290
     0
176
     1
290
     0
176
     1
290
     0
176
     1
290
     0
176
     1
290
     0
176
     1
 90
       50
176
     1
 40
0.0
176
     1
 40
1.0
176
     1
 90
        0
176
     1
 62
    18
420
        0
176
     1
 90
       50
176
     1
 90
        3
176
     1
 62
     5
420
      255
176
     1
290
     0
176
     1
 90
       50
176
     1
 90
       50
176
     1
 90
       50
176
     1
290
     0
176
     1
 90
       50
176
     1
 62
   256
176
     0
 40
1.0
176
     0
 90
        2
176
     1
  1
strokes_ogs.tif
176
     1
290
     0
176
     1
 40
1.0
176
     1
 40
1.0
176
     1
  0
VISUALSTYLE
  5
225
102
{ACAD_REACTORS
330
1C3
102
}
330
1C3
100
AcDbVisualStyle
  2
Shades of Gray
 70
    23
177
     3
291
     0
 70
    58
 90
        2
176
     1
 90
        2
176
     1
 90
        3
176
     1
 90
        0
176
     1
 40
0.6
176
     1
 40
30.0
176
     1
 62
     7
420
 16777215
176
     1
 90
        2
176
     1
 90
        2
176
     1
 62
     7
176
     1
 62
     7
176
     1
 90
        1
176
     1
 90
        1
176
     1
 40
40.0
176
     1
 90
        8
176
     1
 62
     7
176
     1
 40
1.0
176
     1
 90
        1
176
     1
 90
        6
176
     1
 90
        2
176
     1
 62
     7
176
     1
 90
        3
176
     1
 90
        0
176
     1
 90
        0
176
     1
290
     0
176
     1
 90
        1
176
     1
 40
0.0
176
     1
 90
        0
176
     1
290
     0
176
     1
290
     1
176
     1
290
     1
176
     1
290
     0
176
     1
290
     0
176
     1
290
     0
176
     1
290
     0
176
     1
290
     0
176
     1
290
     0
176
     1
 90
       50
176
     1
 40
0.0
176
     1
 40
1.0
176
     1
 90
        0
176
     1
 62
    18
420
        0
176
     1
 90
       50
176
     1
 90
        3
176
     1
 62
     5
420
      255
176
     1
290
     0
176
     1
 90
       50
176
     1
 90
       50
176
     1
 90
       50
176
     1
290
     0
176
     1
 90
       50
176
     1
 62
   256
176
     0
 40
1.0
176
     0
 90
        2
176
     1
  1
strokes_ogs.tif
176
     1
290
     0
176
     1
 40
1.0
176
     1
 40
1.0
176
     1
  0
VISUALSTYLE
  5
226
102
{ACAD_REACTORS
330
1C3
102
}
330
1C3
100
AcDbVisualStyle
  2
Sketchy
 70
    24
177
     3
291
     0
 70
    58
 90
        1
176
     1
 90
        2
176
     1
 90
        2
176
     1
 90
        0
176
     1
 40
0.6
176
     1
 40
30.0
176
     1
 62
     7
420
 16777215
176
     1
 90
        2
176
     1
 90
        2
176
     1
 62
     7
176
     1
 62
     7
176
     1
 90
        1
176
     1
 90
        1
176
     1
 40
40.0
176
     1
 90
       11
176
     1
 62
     7
176
     1
 40
1.0
176
     1
 90
        1
176
     1
 90
        6
176
     1
 90
        2
176
     1
 62
     7
176
     1
 90
        6
176
     1
 90
        0
176
     1
 90
        0
176
     1
290
     0
176
     1
 90
        1
176
     1
 40
0.0
176
     1
 90
        0
176
     1
290
     0
176
     1
290
     1
176
     1
290
     1
176
     1
290
     0
176
     1
290
     0
176
     1
290
     0
176
     1
290
     0
176
     1
290
     0
176
     1
290
     0
176
     1
 90
       50
176
     1
 40
0.0
176
     1
 40
1.0
176
     1
 90
        0
176
     1
 62
    18
420
        0
176
     1
 90
       50
176
     1
 90
        3
176
     1
 62
     5
420
      255
176
     1
290
     0
176
     1
 90
       50
176
     1
 90
       50
176
     1
 90
       50
176
     1
290
     0
176
     1
 90
       50
176
     1
 62
   256
176
     0
 40
1.0
176
     0
 90
        2
176
     1
  1
strokes_ogs.tif
176
     1
290
     0
176
     1
 40
1.0
176
     1
 40
1.0
176
     1
  0
VISUALSTYLE
  5
1D0
102
{ACAD_REACTORS
330
1C3
102
}
330
1C3
100
AcDbVisualStyle
  2
Thicken
 70
    13
177
     3
291
     1
 70
    58
 90
        2
176
     1
 90
        2
176
     1
 90
        0
176
     1
 90
        0
176
     1
 40
-0.6
176
     1
 40
-30.0
176
     1
 62
     7
176
     1
 90
        1
176
     1
 90
        4
176
     1
 62
     7
176
     1
 62
   257
176
     1
 90
        1
176
     1
 90
        1
176
     1
 40
1.0
176
     1
 90
       12
176
     1
 62
     7
176
     1
 40
1.0
176
     1
 90
        1
176
     1
 90
        6
176
     1
 90
        2
176
     1
 62
     7
176
     1
 90
        5
176
     1
 90
        0
176
     1
 90
        0
176
     1
290
     0
176
     1
 90
        1
176
     1
 40
0.0
176
     1
 90
        0
176
     1
290
     0
176
     1
290
     1
176
     1
290
     1
176
     1
290
     0
176
     1
290
     0
176
     1
290
     0
176
     1
290
     0
176
     1
290
     0
176
     1
290
     0
176
     1
 90
       50
176
     1
 40
0.0
176
     1
 40
1.0
176
     1
 90
        0
176
     1
 62
    18
420
        0
176
     1
 90
       50
176
     1
 90
        3
176
     1
 62
     5
420
      255
176
     1
290
     0
176
     1
 90
       50
176
     1
 90
       50
176
     1
 90
       50
176
     1
290
     0
176
     1
 90
       50
176
     1
 62
   256
176
     0
 40
1.0
176
     0
 90
        2
176
     1
  1
strokes_ogs.tif
176
     1
290
     0
176
     1
 40
1.0
176
     1
 40
1.0
176
     1
  0
VISUALSTYLE
  5
220
102
{ACAD_REACTORS
330
1C3
102
}
330
1C3
100
AcDbVisualStyle
  2
Wireframe
 70
     5
177
     3
291
     0
 70
    58
 90
        0
176
     1
 90
        2
176
     1
 90
        0
176
     1
 90
        0
176
     1
 40
0.6
176
     1
 40
30.0
176
     1
 62
     7
420
 16777215
176
     1
 90
        1
176
     1
 90
        4
176
     1
 62
     7
176
     1
 62
   257
176
     1
 90
        1
176
     1
 90
        1
176
     1
 40
1.0
176
     1
 90
        0
176
     1
 62
   257
176
     1
 40
1.0
176
     1
 90
        1
176
     1
 90
        6
176
     1
 90
        2
176
     1
 62
     7
176
     1
 90
        3
176
     1
 90
        0
176
     1
 90
        0
176
     1
290
     0
176
     1
 90
        1
176
     1
 40
0.0
176
     1
 90
        0
176
     1
290
     0
176
     1
290
     1
176
     1
290
     1
176
     1
290
     0
176
     1
290
     0
176
     1
290
     0
176
     1
290
     0
176
     1
290
     0
176
     1
290
     0
176
     1
 90
       50
176
     1
 40
0.0
176
     1
 40
1.0
176
     1
 90
        0
176
     1
 62
    18
420
        0
176
     1
 90
       50
176
     1
 90
        3
176
     1
 62
     5
420
      255
176
     1
290
     0
176
     1
 90
       50
176
     1
 90
       50
176
     1
 90
       50
176
     1
290
     0
176
     1
 90
       50
176
     1
 62
   256
176
     0
 40
1.0
176
     0
 90
        2
176
     1
  1
strokes_ogs.tif
176
     1
290
     0
176
     1
 40
1.0
176
     1
 40
1.0
176
     1
  0
VISUALSTYLE
  5
227
102
{ACAD_REACTORS
330
1C3
102
}
330
1C3
100
AcDbVisualStyle
  2
X-Ray
 70
    25
177
     3
291
     0
 70
    58
 90
        2
176
     1
 90
        2
176
     1
 90
        1
176
     1
 90
        1
176
     1
 40
0.5
176
     1
 40
30.0
176
     1
 62
     7
420
 16777215
176
     1
 90
        1
176
     1
 90
        0
176
     1
 62
     7
176
     1
 62
   257
176
     1
 90
        1
176
     1
 90
        1
176
     1
 40
1.0
176
     1
 90
        8
176
     1
 62
     7
176
     1
 40
1.0
176
     1
 90
        1
176
     1
 90
        6
176
     1
 90
        2
176
     1
 62
     7
176
     1
 90
        3
176
     1
 90
        0
176
     1
 90
        0
176
     1
290
     0
176
     1
 90
       13
176
     1
 40
0.0
176
     1
 90
        0
176
     1
290
     0
176
     1
290
     1
176
     1
290
     1
176
     1
290
     0
176
     1
290
     0
176
     1
290
     0
176
     1
290
     0
176
     1
290
     0
176
     1
290
     0
176
     1
 90
       50
176
     1
 40
0.0
176
     1
 40
1.0
176
     1
 90
        0
176
     1
 62
    18
420
        0
176
     1
 90
       50
176
     1
 90
        3
176
     1
 62
     5
420
      255
176
     1
290
     0
176
     1
 90
       50
176
     1
 90
       50
176
     1
 90
       50
176
     1
290
     0
176
     1
 90
       50
176
     1
 62
   256
176
     0
 40
1.0
176
     0
 90
        2
176
     1
  1
strokes_ogs.tif
176
     1
290
     0
176
     1
 40
1.0
176
     1
 40
1.0
176
     1
  0
DICTIONARYVAR
  5
252
102
{ACAD_REACTORS
330
1DF
102
}
330
1DF
100
DictionaryVariables
280
     0
  1
1:1
  0
DICTIONARYVAR
  5
254
102
{ACAD_REACTORS
330
1DF
102
}
330
1DF
100
DictionaryVariables
280
     0
  1
Standard
  0
DICTIONARYVAR
  5
253
102
{ACAD_REACTORS
330
1DF
102
}
330
1DF
100
DictionaryVariables
280
     0
  1
Standard
  0
DICTIONARYVAR
  5
1E3
102
{ACAD_REACTORS
330
1DF
102
}
330
1DF
100
DictionaryVariables
280
     0
  1
2
  0
DICTIONARYVAR
  5
1E4
102
{ACAD_REACTORS
330
1DF
102
}
330
1DF
100
DictionaryVariables
280
     0
  1
1
  0
DICTIONARYVAR
  5
1E2
102
{ACAD_REACTORS
330
1DF
102
}
330
1DF
100
DictionaryVariables
280
     0
  1
0
  0
DICTIONARY
  5
2AF
330
22B
100
AcDbDictionary
280
     1
281
     1
  3
ACAD_ROUNDTRIP_2008_TABLESTYLE_CELLSTYLEMAP
360
2B0
  0
CELLSTYLEMAP
  5
2B0
102
{ACAD_REACTORS
330
2AF
102
}
330
2AF
100
AcDbCellStyleMap
 90
        3
300
CELLSTYLE
  1
TABLEFORMAT_BEGIN
 90
        5
170
     1
 91
        0
 92
    32768
 62
   257
 93
        1
300
CONTENTFORMAT
  1
CONTENTFORMAT_BEGIN
 90
        0
 91
        0
 92
        4
 93
        0
300

 40
0.0
140
1.0
 94
        5
 62
     0
340
11
144
0.25
309
CONTENTFORMAT_END
171
     1
301
MARGIN
  1
CELLMARGIN_BEGIN
 40
0.06
 40
0.06
 40
0.06
 40
0.06
 40
0.06
 40
0.06
309
CELLMARGIN_END
 94
        6
 95
        1
302
GRIDFORMAT
  1
GRIDFORMAT_BEGIN
 90
        0
 91
        1
 62
     0
 92
       -2
340
14
 93
        0
 40
0.045
309
GRIDFORMAT_END
 95
        2
302
GRIDFORMAT
  1
GRIDFORMAT_BEGIN
 90
        0
 91
        1
 62
     0
 92
       -2
340
14
 93
        0
 40
0.045
309
GRIDFORMAT_END
 95
        4
302
GRIDFORMAT
  1
GRIDFORMAT_BEGIN
 90
        0
 91
        1
 62
     0
 92
       -2
340
14
 93
        0
 40
0.045
309
GRIDFORMAT_END
 95
        8
302
GRIDFORMAT
  1
GRIDFORMAT_BEGIN
 90
        0
 91
        1
 62
     0
 92
       -2
340
14
 93
        0
 40
0.045
309
GRIDFORMAT_END
 95
       16
302
GRIDFORMAT
  1
GRIDFORMAT_BEGIN
 90
        0
 91
        1
 62
     0
 92
       -2
340
14
 93
        0
 40
0.045
309
GRIDFORMAT_END
 95
       32
302
GRIDFORMAT
  1
GRIDFORMAT_BEGIN
 90
        0
 91
        1
 62
     0
 92
       -2
340
14
 93
        0
 40
0.045
309
GRIDFORMAT_END
309
TABLEFORMAT_END
  1
CELLSTYLE_BEGIN
 90
        1
 91
        1
300
_TITLE
309
CELLSTYLE_END
300
CELLSTYLE
  1
TABLEFORMAT_BEGIN
 90
        5
170
     1
 91
        0
 92
        0
 62
   257
 93
        1
300
CONTENTFORMAT
  1
CONTENTFORMAT_BEGIN
 90
        0
 91
        0
 92
        4
 93
        0
300

 40
0.0
140
1.0
 94
        5
 62
     0
340
11
144
0.18
309
CONTENTFORMAT_END
171
     1
301
MARGIN
  1
CELLMARGIN_BEGIN
 40
0.06
 40
0.06
 40
0.06
 40
0.06
 40
0.06
 40
0.06
309
CELLMARGIN_END
 94
        6
 95
        1
302
GRIDFORMAT
  1
GRIDFORMAT_BEGIN
 90
        0
 91
        1
 62
     0
 92
       -2
340
14
 93
        0
 40
0.045
309
GRIDFORMAT_END
 95
        2
302
GRIDFORMAT
  1
GRIDFORMAT_BEGIN
 90
        0
 91
        1
 62
     0
 92
       -2
340
14
 93
        0
 40
0.045
309
GRIDFORMAT_END
 95
        4
302
GRIDFORMAT
  1
GRIDFORMAT_BEGIN
 90
        0
 91
        1
 62
     0
 92
       -2
340
14
 93
        0
 40
0.045
309
GRIDFORMAT_END
 95
        8
302
GRIDFORMAT
  1
GRIDFORMAT_BEGIN
 90
        0
 91
        1
 62
     0
 92
       -2
340
14
 93
        0
 40
0.045
309
GRIDFORMAT_END
 95
       16
302
GRIDFORMAT
  1
GRIDFORMAT_BEGIN
 90
        0
 91
        1
 62
     0
 92
       -2
340
14
 93
        0
 40
0.045
309
GRIDFORMAT_END
 95
       32
302
GRIDFORMAT
  1
GRIDFORMAT_BEGIN
 90
        0
 91
        1
 62
     0
 92
       -2
340
14
 93
        0
 40
0.045
309
GRIDFORMAT_END
309
TABLEFORMAT_END
  1
CELLSTYLE_BEGIN
 90
        2
 91
        1
300
_HEADER
309
CELLSTYLE_END
300
CELLSTYLE
  1
TABLEFORMAT_BEGIN
 90
        5
170
     1
 91
        0
 92
        0
 62
   257
 93
        1
300
CONTENTFORMAT
  1
CONTENTFORMAT_BEGIN
 90
        0
 91
        0
 92
        4
 93
        0
300

 40
0.0
140
1.0
 94
        2
 62
     0
340
11
144
0.18
309
CONTENTFORMAT_END
171
     1
301
MARGIN
  1
CELLMARGIN_BEGIN
 40
0.06
 40
0.06
 40
0.06
 40
0.06
 40
0.06
 40
0.06
309
CELLMARGIN_END
 94
        6
 95
        1
302
GRIDFORMAT
  1
GRIDFORMAT_BEGIN
 90
        0
 91
        1
 62
     0
 92
       -2
340
14
 93
        0
 40
0.045
309
GRIDFORMAT_END
 95
        2
302
GRIDFORMAT
  1
GRIDFORMAT_BEGIN
 90
        0
 91
        1
 62
     0
 92
       -2
340
14
 93
        0
 40
0.045
309
GRIDFORMAT_END
 95
        4
302
GRIDFORMAT
  1
GRIDFORMAT_BEGIN
 90
        0
 91
        1
 62
     0
 92
       -2
340
14
 93
        0
 40
0.045
309
GRIDFORMAT_END
 95
        8
302
GRIDFORMAT
  1
GRIDFORMAT_BEGIN
 90
        0
 91
        1
 62
     0
 92
       -2
340
14
 93
        0
 40
0.045
309
GRIDFORMAT_END
 95
       16
302
GRIDFORMAT
  1
GRIDFORMAT_BEGIN
 90
        0
 91
        1
 62
     0
 92
       -2
340
14
 93
        0
 40
0.045
309
GRIDFORMAT_END
 95
       32
302
GRIDFORMAT
  1
GRIDFORMAT_BEGIN
 90
        0
 91
        1
 62
     0
 92
       -2
340
14
 93
        0
 40
0.045
309
GRIDFORMAT_END
309
TABLEFORMAT_END
  1
CELLSTYLE_BEGIN
 90
        3
 91
        2
300
_DATA
309
CELLSTYLE_END
  0
ENDSEC
  0
EOF
