  0
SECTION
  2
HEADER
  9
$ACADVER
  1
AC1027
  9
$ACADMAINTVER
 70
   105
  9
$DWGCODEPAGE
  3
ANSI_1252
  9
$REQUIREDVERSIONS
160
                 0
  9
$LASTSAVEDBY
  1
matthias.ochs
  9
$INSBASE
 10
0.0
 20
0.0
 30
0.0
  9
$EXTMIN
 10
-148.0173172633421
 20
-98.35296879484372
 30
0.0
  9
$EXTMAX
 10
150.781349704992
 20
84.4109801076236
 30
0.0
  9
$LIMMIN
 10
-105.296573498
 20
-67.793098727
  9
$LIMMAX
 10
106.072243302
 20
64.352043426
  9
$ORTHOMODE
 70
     0
  9
$REGENMODE
 70
     1
  9
$FILLMODE
 70
     1
  9
$QTEXTMODE
 70
     0
  9
$MIRRTEXT
 70
     1
  9
$LTSCALE
 40
1.0
  9
$ATTMODE
 70
     1
  9
$TEXTSIZE
 40
0.2
  9
$TRACEWID
 40
0.05
  9
$TEXTSTYLE
  7
Standard
  9
$CLAYER
  8
SK6
  9
$CELTYPE
  6
ByLayer
  9
$CECOLOR
 62
   256
  9
$CELTSCALE
 40
1.0
  9
$DISPSILH
 70
     0
  9
$DIMSCALE
 40
1.0
  9
$DIMASZ
 40
0.18
  9
$DIMEXO
 40
0.0625
  9
$DIMDLI
 40
0.38
  9
$DIMRND
 40
0.0
  9
$DIMDLE
 40
0.0
  9
$DIMEXE
 40
0.18
  9
$DIMTP
 40
0.0
  9
$DIMTM
 40
0.0
  9
$DIMTXT
 40
0.18
  9
$DIMCEN
 40
0.09
  9
$DIMTSZ
 40
0.0
  9
$DIMTOL
 70
     0
  9
$DIMLIM
 70
     0
  9
$DIMTIH
 70
     1
  9
$DIMTOH
 70
     1
  9
$DIMSE1
 70
     0
  9
$DIMSE2
 70
     0
  9
$DIMTAD
 70
     0
  9
$DIMZIN
 70
     0
  9
$DIMBLK
  1

  9
$DIMASO
 70
     1
  9
$DIMSHO
 70
     1
  9
$DIMPOST
  1

  9
$DIMAPOST
  1

  9
$DIMALT
 70
     0
  9
$DIMALTD
 70
     2
  9
$DIMALTF
 40
25.4
  9
$DIMLFAC
 40
1.0
  9
$DIMTOFL
 70
     0
  9
$DIMTVP
 40
0.0
  9
$DIMTIX
 70
     0
  9
$DIMSOXD
 70
     0
  9
$DIMSAH
 70
     0
  9
$DIMBLK1
  1

  9
$DIMBLK2
  1

  9
$DIMSTYLE
  2
Standard
  9
$DIMCLRD
 70
     0
  9
$DIMCLRE
 70
     0
  9
$DIMCLRT
 70
     0
  9
$DIMTFAC
 40
1.0
  9
$DIMGAP
 40
0.09
  9
$DIMJUST
 70
     0
  9
$DIMSD1
 70
     0
  9
$DIMSD2
 70
     0
  9
$DIMTOLJ
 70
     1
  9
$DIMTZIN
 70
     0
  9
$DIMALTZ
 70
     0
  9
$DIMALTTZ
 70
     0
  9
$DIMUPT
 70
     0
  9
$DIMDEC
 70
     4
  9
$DIMTDEC
 70
     4
  9
$DIMALTU
 70
     2
  9
$DIMALTTD
 70
     2
  9
$DIMTXSTY
  7
Standard
  9
$DIMAUNIT
 70
     0
  9
$DIMADEC
 70
     0
  9
$DIMALTRND
 40
0.0
  9
$DIMAZIN
 70
     0
  9
$DIMDSEP
 70
    46
  9
$DIMATFIT
 70
     3
  9
$DIMFRAC
 70
     0
  9
$DIMLDRBLK
  1

  9
$DIMLUNIT
 70
     2
  9
$DIMLWD
 70
    -2
  9
$DIMLWE
 70
    -2
  9
$DIMTMOVE
 70
     2
  9
$DIMFXL
 40
1.0
  9
$DIMFXLON
 70
     0
  9
$DIMJOGANG
 40
0.7853981633974483
  9
$DIMTFILL
 70
     0
  9
$DIMTFILLCLR
 70
     0
  9
$DIMARCSYM
 70
     0
  9
$DIMLTYPE
  6

  9
$DIMLTEX1
  6

  9
$DIMLTEX2
  6

  9
$DIMTXTDIRECTION
 70
     0
  9
$LUNITS
 70
     2
  9
$LUPREC
 70
     4
  9
$SKETCHINC
 40
0.1
  9
$FILLETRAD
 40
0.5
  9
$AUNITS
 70
     2
  9
$AUPREC
 70
     0
  9
$MENU
  1
.
  9
$ELEVATION
 40
0.0
  9
$PELEVATION
 40
0.0
  9
$THICKNESS
 40
0.0
  9
$LIMCHECK
 70
     0
  9
$CHAMFERA
 40
0.5
  9
$CHAMFERB
 40
0.5
  9
$CHAMFERC
 40
1.0
  9
$CHAMFERD
 40
0.0
  9
$SKPOLY
 70
     0
  9
$TDCREATE
 40
2458327.50771934
  9
$TDUCREATE
 40
2458327.466052674
  9
$TDUPDATE
 40
2458571.57112596
  9
$TDUUPDATE
 40
2458571.529459294
  9
$TDINDWG
 40
0.0106430556
  9
$TDUSRTIMER
 40
0.0024631597
  9
$USRTIMER
 70
     1
  9
$ANGBASE
 50
0.0
  9
$ANGDIR
 70
     0
  9
$PDMODE
 70
     0
  9
$PDSIZE
 40
0.0
  9
$PLINEWID
 40
0.0
  9
$SPLFRAME
 70
     0
  9
$SPLINETYPE
 70
     6
  9
$SPLINESEGS
 70
     8
  9
$HANDSEED
  5
2BE
  9
$SURFTAB1
 70
     6
  9
$SURFTAB2
 70
     6
  9
$SURFTYPE
 70
     6
  9
$SURFU
 70
     6
  9
$SURFV
 70
     6
  9
$UCSBASE
  2

  9
$UCSNAME
  2

  9
$UCSORG
 10
0.0
 20
0.0
 30
0.0
  9
$UCSXDIR
 10
1.0
 20
0.0
 30
0.0
  9
$UCSYDIR
 10
0.0
 20
1.0
 30
0.0
  9
$UCSORTHOREF
  2

  9
$UCSORTHOVIEW
 70
     0
  9
$UCSORGTOP
 10
0.0
 20
0.0
 30
0.0
  9
$UCSORGBOTTOM
 10
0.0
 20
0.0
 30
0.0
  9
$UCSORGLEFT
 10
0.0
 20
0.0
 30
0.0
  9
$UCSORGRIGHT
 10
0.0
 20
0.0
 30
0.0
  9
$UCSORGFRONT
 10
0.0
 20
0.0
 30
0.0
  9
$UCSORGBACK
 10
0.0
 20
0.0
 30
0.0
  9
$PUCSBASE
  2

  9
$PUCSNAME
  2

  9
$PUCSORG
 10
0.0
 20
0.0
 30
0.0
  9
$PUCSXDIR
 10
1.0
 20
0.0
 30
0.0
  9
$PUCSYDIR
 10
0.0
 20
1.0
 30
0.0
  9
$PUCSORTHOREF
  2

  9
$PUCSORTHOVIEW
 70
     0
  9
$PUCSORGTOP
 10
0.0
 20
0.0
 30
0.0
  9
$PUCSORGBOTTOM
 10
0.0
 20
0.0
 30
0.0
  9
$PUCSORGLEFT
 10
0.0
 20
0.0
 30
0.0
  9
$PUCSORGRIGHT
 10
0.0
 20
0.0
 30
0.0
  9
$PUCSORGFRONT
 10
0.0
 20
0.0
 30
0.0
  9
$PUCSORGBACK
 10
0.0
 20
0.0
 30
0.0
  9
$USERI1
 70
     0
  9
$USERI2
 70
     0
  9
$USERI3
 70
     0
  9
$USERI4
 70
     0
  9
$USERI5
 70
     0
  9
$USERR1
 40
0.0
  9
$USERR2
 40
0.0
  9
$USERR3
 40
0.0
  9
$USERR4
 40
0.0
  9
$USERR5
 40
0.0
  9
$WORLDVIEW
 70
     1
  9
$SHADEDGE
 70
     3
  9
$SHADEDIF
 70
    70
  9
$TILEMODE
 70
     1
  9
$MAXACTVP
 70
    64
  9
$PINSBASE
 10
0.0
 20
0.0
 30
0.0
  9
$PLIMCHECK
 70
     0
  9
$PEXTMIN
 10
1.000000000000000E+20
 20
1.000000000000000E+20
 30
1.000000000000000E+20
  9
$PEXTMAX
 10
-1.000000000000000E+20
 20
-1.000000000000000E+20
 30
-1.000000000000000E+20
  9
$PLIMMIN
 10
0.0
 20
0.0
  9
$PLIMMAX
 10
0.0
 20
0.0
  9
$UNITMODE
 70
     0
  9
$VISRETAIN
 70
     1
  9
$PLINEGEN
 70
     0
  9
$PSLTSCALE
 70
     1
  9
$TREEDEPTH
 70
  3020
  9
$CMLSTYLE
  2
Standard
  9
$CMLJUST
 70
     0
  9
$CMLSCALE
 40
1.0
  9
$PROXYGRAPHICS
 70
     1
  9
$MEASUREMENT
 70
     0
  9
$CELWEIGHT
370
    -1
  9
$ENDCAPS
280
     0
  9
$JOINSTYLE
280
     0
  9
$LWDISPLAY
290
     0
  9
$INSUNITS
 70
     0
  9
$HYPERLINKBASE
  1

  9
$STYLESHEET
  1

  9
$XEDIT
290
     1
  9
$CEPSNTYPE
380
     0
  9
$PSTYLEMODE
290
     1
  9
$FINGERPRINTGUID
  2
{765D32AF-E919-41EE-9BF6-E33D0129B97C}
  9
$VERSIONGUID
  2
{FAEB1C32-E019-11D5-929B-00C0DF256EC4}
  9
$EXTNAMES
290
     1
  9
$PSVPSCALE
 40
0.0
  9
$OLESTARTUP
290
     0
  9
$SORTENTS
280
   127
  9
$INDEXCTL
280
     0
  9
$HIDETEXT
280
     1
  9
$XCLIPFRAME
280
     2
  9
$HALOGAP
280
     0
  9
$OBSCOLOR
 70
   257
  9
$OBSLTYPE
280
     0
  9
$INTERSECTIONDISPLAY
280
     0
  9
$INTERSECTIONCOLOR
 70
   257
  9
$DIMASSOC
280
     2
  9
$PROJECTNAME
  1

  9
$CAMERADISPLAY
290
     0
  9
$LENSLENGTH
 40
50.0
  9
$CAMERAHEIGHT
 40
0.0
  9
$STEPSPERSEC
 40
2.0
  9
$STEPSIZE
 40
6.0
  9
$3DDWFPREC
 40
2.0
  9
$PSOLWIDTH
 40
0.25
  9
$PSOLHEIGHT
 40
4.0
  9
$LOFTANG1
 40
1.570796326794897
  9
$LOFTANG2
 40
1.570796326794897
  9
$LOFTMAG1
 40
0.0
  9
$LOFTMAG2
 40
0.0
  9
$LOFTPARAM
 70
     7
  9
$LOFTNORMALS
280
     1
  9
$LATITUDE
 40
37.795
  9
$LONGITUDE
 40
-122.394
  9
$NORTHDIRECTION
 40
0.0
  9
$TIMEZONE
 70
 -8000
  9
$LIGHTGLYPHDISPLAY
280
     1
  9
$TILEMODELIGHTSYNCH
280
     1
  9
$SOLIDHIST
280
     0
  9
$SHOWHIST
280
     1
  9
$DWFFRAME
280
     2
  9
$DGNFRAME
280
     2
  9
$REALWORLDSCALE
290
     1
  9
$INTERFERECOLOR
 62
   256
  9
$CSHADOW
280
     0
  9
$SHADOWPLANELOCATION
 40
0.0
  0
ENDSEC
  0
SECTION
  2
CLASSES
  0
CLASS
  1
ACDBDICTIONARYWDFLT
  2
AcDbDictionaryWithDefault
  3
ObjectDBX Classes
 90
        0
 91
       15
280
     0
281
     0
  0
CLASS
  1
SCALE
  2
AcDbScale
  3
ObjectDBX Classes
 90
     1153
 91
       15
280
     0
281
     0
  0
CLASS
  1
VISUALSTYLE
  2
AcDbVisualStyle
  3
ObjectDBX Classes
 90
     4095
 91
       15
280
     0
281
     0
  0
CLASS
  1
MATERIAL
  2
AcDbMaterial
  3
ObjectDBX Classes
 90
     1153
 91
       15
280
     0
281
     0
  0
CLASS
  1
DICTIONARYVAR
  2
AcDbDictionaryVar
  3
ObjectDBX Classes
 90
        0
 91
       14
280
     0
281
     0
  0
CLASS
  1
ACDBPLACEHOLDER
  2
AcDbPlaceHolder
  3
ObjectDBX Classes
 90
        0
 91
        1
280
     0
281
     0
  0
CLASS
  1
LAYOUT
  2
AcDbLayout
  3
ObjectDBX Classes
 90
        0
 91
        1
280
     0
281
     0
  0
CLASS
  1
TABLESTYLE
  2
AcDbTableStyle
  3
ObjectDBX Classes
 90
     4095
 91
       15
280
     0
281
     0
  0
CLASS
  1
MLEADERSTYLE
  2
AcDbMLeaderStyle
  3
ACDB_MLEADERSTYLE_CLASS
 90
     4095
 91
       15
280
     0
281
     0
  0
CLASS
  1
SUN
  2
AcDbSun
  3
SCENEOE
 90
     1153
 91
       15
280
     0
281
     0
  0
CLASS
  1
CELLSTYLEMAP
  2
AcDbCellStyleMap
  3
ObjectDBX Classes
 90
     1152
 91
        4
280
     0
281
     0
  0
ENDSEC
  0
SECTION
  2
TABLES
  0
TABLE
  2
VPORT
  5
8
330
0
100
AcDbSymbolTable
 70
     1
  0
VPORT
  5
145
330
8
100
AcDbSymbolTableRecord
100
AcDbViewportTableRecord
  2
*Active
 70
     0
 10
0.0
 20
0.0
 11
1.0
 21
1.0
 12
1.390132848343228
 22
-2.139472140980843
 13
0.0
 23
0.0
 14
0.5
 24
0.5
 15
0.5
 25
0.5
 16
0.0
 26
0.0
 36
1.0
 17
0.0
 27
0.0
 37
0.0
 40
110.7442109454744
 41
1.70021645021645
 42
50.0
 43
0.0
 44
0.0
 50
0.0
 51
0.0
 71
    16
 72
   100
 73
     1
 74
     3
 75
     0
 76
     0
 77
     0
 78
     0
281
     0
 65
     1
110
0.0
120
0.0
130
0.0
111
1.0
121
0.0
131
0.0
112
0.0
122
1.0
132
0.0
 79
     0
146
0.0
348
176
 60
     3
 61
     5
292
     1
282
     1
141
0.0
142
0.0
 63
   256
361
228
  0
ENDTAB
  0
TABLE
  2
LTYPE
  5
5
330
0
100
AcDbSymbolTable
 70
     8
  0
LTYPE
  5
14
330
5
100
AcDbSymbolTableRecord
100
AcDbLinetypeTableRecord
  2
ByBlock
 70
     0
  3

 72
    65
 73
     0
 40
0.0
  0
LTYPE
  5
15
330
5
100
AcDbSymbolTableRecord
100
AcDbLinetypeTableRecord
  2
ByLayer
 70
     0
  3

 72
    65
 73
     0
 40
0.0
  0
LTYPE
  5
16
330
5
100
AcDbSymbolTableRecord
100
AcDbLinetypeTableRecord
  2
Continuous
 70
     0
  3
Solid line
 72
    65
 73
     0
 40
0.0
  0
LTYPE
  5
20
330
5
100
AcDbSymbolTableRecord
100
AcDbLinetypeTableRecord
  2
PUNKT
 70
     0
  3
..............
 72
    65
 73
     2
 40
1.5
 49
0.7
 74
     0
 49
-0.8
 74
     0
  0
LTYPE
  5
21
330
5
100
AcDbSymbolTableRecord
100
AcDbLinetypeTableRecord
  2
GESTRICHELT
 70
     0
  3
-- -- -- -- --
 72
    65
 73
     7
 40
2.8
 49
0.9
 74
     0
 49
0.0
 74
     0
 49
0.9
 74
     0
 49
0.0
 74
     0
 49
0.2
 74
     0
 49
0.0
 74
     0
 49
-0.8
 74
     0
  0
LTYPE
  5
22
330
5
100
AcDbSymbolTableRecord
100
AcDbLinetypeTableRecord
  2
STRICHPUNKT
 70
     0
  3
--.--.--.--.--
 72
    65
 73
     4
 40
8.8
 49
5.5
 74
     0
 49
-1.3
 74
     0
 49
0.7
 74
     0
 49
-1.3
 74
     0
  0
LTYPE
  5
25
330
5
100
AcDbSymbolTableRecord
100
AcDbLinetypeTableRecord
  2
PHANTOM
 70
     0
  3
--..--..--..--
 72
    65
 73
     6
 40
14.2
 49
7.0
 74
     0
 49
-1.8
 74
     0
 49
0.9
 74
     0
 49
-1.8
 74
     0
 49
0.9
 74
     0
 49
-1.8
 74
     0
  0
LTYPE
  5
1BD
330
5
100
AcDbSymbolTableRecord
100
AcDbLinetypeTableRecord
  2
DASH
 70
     0
  3
DASH _ _ _ _ _
 72
    65
 73
     2
 40
0.75
 49
0.4
 74
     0
 49
-0.35
 74
     0
  0
LTYPE
  5
1BE
330
5
100
AcDbSymbolTableRecord
100
AcDbLinetypeTableRecord
  2
LONGDASH_DASH
 70
     0
  3
LONGDASH_DASH __ . __ . __
 72
    65
 73
     4
 40
0.85
 49
0.4
 74
     0
 49
-0.2
 74
     0
 49
0.05
 74
     0
 49
-0.2
 74
     0
  0
LTYPE
  5
1BF
330
5
100
AcDbSymbolTableRecord
100
AcDbLinetypeTableRecord
  2
LONGDASH_DASH_DASH
 70
     0
  3
LONGDASH_DASH_DASH __ . . __ . . __
 72
    65
 73
     6
 40
1.1
 49
0.4
 74
     0
 49
-0.2
 74
     0
 49
0.05
 74
     0
 49
-0.2
 74
     0
 49
0.05
 74
     0
 49
-0.2
 74
     0
  0
ENDTAB
  0
TABLE
  2
LAYER
  5
2
102
{ACAD_XDICTIONARY
360
1DC
102
}
330
0
100
AcDbSymbolTable
 70
    15
  0
LAYER
  5
187
330
2
100
AcDbSymbolTableRecord
100
AcDbLayerTableRecord
  2
200
 70
     0
 62
     2
  6
Continuous
370
    50
390
F
347
185
348
0
  0
LAYER
  5
1C0
330
2
100
AcDbSymbolTableRecord
100
AcDbLayerTableRecord
  2
0
 70
     0
 62
     1
  6
Continuous
370
    -3
390
F
347
185
348
0
  0
LAYER
  5
1C1
330
2
100
AcDbSymbolTableRecord
100
AcDbLayerTableRecord
  2
1
 70
     0
 62
     4
  6
Continuous
370
    50
390
F
347
185
348
0
  0
LAYER
  5
1C2
330
2
100
AcDbSymbolTableRecord
100
AcDbLayerTableRecord
  2
2
 70
     0
 62
     7
  6
Continuous
370
    25
390
F
347
185
348
0
  0
LAYER
  5
1C3
330
2
100
AcDbSymbolTableRecord
100
AcDbLayerTableRecord
  2
3
 70
     0
 62
     1
  6
DASH
370
    35
390
F
347
185
348
0
  0
LAYER
  5
1C4
330
2
100
AcDbSymbolTableRecord
100
AcDbLayerTableRecord
  2
4
 70
     0
 62
     2
  6
LONGDASH_DASH
370
    25
390
F
347
185
348
0
  0
LAYER
  5
1C5
330
2
100
AcDbSymbolTableRecord
100
AcDbLayerTableRecord
  2
6
 70
     0
 62
     5
  6
Continuous
370
    -3
390
F
347
185
348
0
  0
LAYER
  5
1C6
330
2
100
AcDbSymbolTableRecord
100
AcDbLayerTableRecord
  2
CUT
 70
     0
 62
     1
  6
Continuous
370
    25
390
F
347
185
348
0
  0
LAYER
  5
1C7
330
2
100
AcDbSymbolTableRecord
100
AcDbLayerTableRecord
  2
NOCUT
 70
     0
 62
     7
  6
Continuous
370
    25
390
F
347
185
348
0
  0
LAYER
  5
1C8
330
2
100
AcDbSymbolTableRecord
100
AcDbLayerTableRecord
  2
SK1
 70
     0
 62
     4
  6
Continuous
370
    50
390
F
347
185
348
0
  0
LAYER
  5
1C9
330
2
100
AcDbSymbolTableRecord
100
AcDbLayerTableRecord
  2
SK2
 70
     0
 62
     7
  6
Continuous
370
    25
390
F
347
185
348
0
  0
LAYER
  5
1CA
330
2
100
AcDbSymbolTableRecord
100
AcDbLayerTableRecord
  2
SK3
 70
     0
 62
     1
  6
DASH
370
    35
390
F
347
185
348
0
  0
LAYER
  5
1CB
330
2
100
AcDbSymbolTableRecord
100
AcDbLayerTableRecord
  2
SK4
 70
     0
 62
     2
  6
LONGDASH_DASH
370
    25
390
F
347
185
348
0
  0
LAYER
  5
1CC
330
2
100
AcDbSymbolTableRecord
100
AcDbLayerTableRecord
  2
SK6
 70
     0
 62
     5
  6
Continuous
370
    -3
390
F
347
185
348
0
  0
LAYER
  5
1CD
330
2
100
AcDbSymbolTableRecord
100
AcDbLayerTableRecord
  2
INFTOTAL
 70
     0
 62
     9
  6
Continuous
370
    18
390
F
347
185
348
0
  0
ENDTAB
  0
TABLE
  2
STYLE
  5
3
330
0
100
AcDbSymbolTable
 70
     2
  0
STYLE
  5
11
330
3
100
AcDbSymbolTableRecord
100
AcDbTextStyleTableRecord
  2
Standard
 70
     0
 40
0.0
 41
1.0
 50
0.0
 71
     0
 42
0.2
  3
txt
  4

  0
STYLE
  5
186
330
3
100
AcDbSymbolTableRecord
100
AcDbTextStyleTableRecord
  2
BMG_Text
 70
     0
 40
3.5
 41
1.0
 50
0.0
 71
     0
 42
0.2
  3
monos.ttf
  4

1001
ACAD
1000
Monospac821 BT
1071
       49
  0
ENDTAB
  0
TABLE
  2
VIEW
  5
6
330
0
100
AcDbSymbolTable
 70
     0
  0
ENDTAB
  0
TABLE
  2
UCS
  5
7
330
0
100
AcDbSymbolTable
 70
     0
  0
ENDTAB
  0
TABLE
  2
APPID
  5
9
330
0
100
AcDbSymbolTable
 70
     1
  0
APPID
  5
12
330
9
100
AcDbSymbolTableRecord
100
AcDbRegAppTableRecord
  2
ACAD
 70
     0
  0
ENDTAB
  0
TABLE
  2
DIMSTYLE
  5
A
330
0
100
AcDbSymbolTable
 70
     1
100
AcDbDimStyleTable
  0
DIMSTYLE
105
28
330
A
100
AcDbSymbolTableRecord
100
AcDbDimStyleTableRecord
  2
Standard
 70
     0
178
     0
340
11
  0
ENDTAB
  0
TABLE
  2
BLOCK_RECORD
  5
1
330
0
100
AcDbSymbolTable
 70
     0
  0
BLOCK_RECORD
  5
1D
330
1
100
AcDbSymbolTableRecord
100
AcDbBlockTableRecord
  2
*Model_Space
340
1E
 70
     0
280
     1
281
     0
  0
BLOCK_RECORD
  5
1B
330
1
100
AcDbSymbolTableRecord
100
AcDbBlockTableRecord
  2
*Paper_Space
340
1C
 70
     0
280
     1
281
     0
  0
ENDTAB
  0
ENDSEC
  0
SECTION
  2
BLOCKS
  0
BLOCK
  5
16F
330
1D
100
AcDbEntity
  8
0
100
AcDbBlockBegin
  2
*Model_Space
 70
     0
 10
0.0
 20
0.0
 30
0.0
  3
*Model_Space
  1

  0
ENDBLK
  5
170
330
1D
100
AcDbEntity
  8
0
100
AcDbBlockEnd
  0
BLOCK
  5
16D
330
1B
100
AcDbEntity
 67
     1
  8
0
100
AcDbBlockBegin
  2
*Paper_Space
 70
     0
 10
0.0
 20
0.0
 30
0.0
  3
*Paper_Space
  1

  0
ENDBLK
  5
16E
330
1B
100
AcDbEntity
 67
     1
  8
0
100
AcDbBlockEnd
  0
ENDSEC
  0
SECTION
  2
ENTITIES
  0
ARC
  5
29
330
1D
100
AcDbEntity
  8
1
  6
Continuous
370
    50
100
AcDbCircle
 10
12.52500916
 20
-46.00001526
 30
0.0
 40
0.5
100
AcDbArc
 50
0.0
 51
90.001748614
  0
LINE
  5
2A
330
1D
100
AcDbEntity
  8
1
  6
Continuous
370
    50
100
AcDbLine
 10
12.5249939
 20
-45.5
 30
0.0
 11
9.67500305
 21
-45.50001526
 31
0.0
  0
ARC
  5
2B
330
1D
100
AcDbEntity
  8
1
  6
Continuous
370
    50
100
AcDbCircle
 10
9.67500305
 20
-46.00001526
 30
0.0
 40
0.5
100
AcDbArc
 50
90.0
 51
180.0
  0
ARC
  5
2C
330
1D
100
AcDbEntity
  8
1
  6
Continuous
370
    50
100
AcDbCircle
 10
2.3999939
 20
35.7250061
 30
0.0
 40
0.80000305
100
AcDbArc
 50
270.0
 51
0.0
  0
LINE
  5
2D
330
1D
100
AcDbEntity
  8
1
  6
Continuous
370
    50
100
AcDbLine
 10
2.3999939
 20
34.92500305
 30
0.0
 11
0.0
 21
34.92500305
 31
0.0
  0
LINE
  5
2E
330
1D
100
AcDbEntity
  8
SK1
100
AcDbLine
 10
0.0
 20
34.92500305
 30
0.0
 11
-99.460777247
 21
20.420211703
 31
0.0
  0
ARC
  5
2F
330
1D
100
AcDbEntity
  8
SK1
100
AcDbCircle
 10
-99.1000061
 20
17.94636536
 30
0.0
 40
2.50001431
100
AcDbArc
 50
98.29718781
 51
180.0
  0
LINE
  5
30
330
1D
100
AcDbEntity
  8
SK1
100
AcDbLine
 10
-101.60002136
 20
17.94636536
 30
0.0
 11
-101.60002136
 21
-17.94636536
 31
0.0
  0
ARC
  5
31
330
1D
100
AcDbEntity
  8
SK1
100
AcDbCircle
 10
-99.10002136
 20
-17.94636536
 30
0.0
 40
2.5
100
AcDbArc
 50
180.0
 51
261.70295954
  0
LINE
  5
32
330
1D
100
AcDbEntity
  8
SK1
100
AcDbLine
 10
-99.46078491
 20
-20.42020416
 30
0.0
 11
0.0
 21
-34.92500305
 31
0.0
  0
LINE
  5
33
330
1D
100
AcDbEntity
  8
1
  6
Continuous
370
    50
100
AcDbLine
 10
0.0
 20
-34.92500305
 30
0.0
 11
2.3999939
 21
-34.92500305
 31
0.0
  0
ARC
  5
34
330
1D
100
AcDbEntity
  8
1
  6
Continuous
370
    50
100
AcDbCircle
 10
2.3999939
 20
-35.7250061
 30
0.0
 40
0.80000305
100
AcDbArc
 50
0.0
 51
90.0
  0
ARC
  5
35
330
1D
100
AcDbEntity
  8
1
  6
Continuous
370
    50
100
AcDbCircle
 10
40.0
 20
30.0
 30
0.0
 40
5.0
100
AcDbArc
 50
180.0
 51
270.0
  0
LINE
  5
36
330
1D
100
AcDbEntity
  8
1
  6
Continuous
370
    50
100
AcDbLine
 10
40.0
 20
25.0
 30
0.0
 11
81.99996948
 21
25.0
 31
0.0
  0
LINE
  5
37
330
1D
100
AcDbEntity
  8
1
  6
Continuous
370
    50
100
AcDbLine
 10
81.99996948
 20
25.0
 30
0.0
 11
83.0
 21
24.0
 31
0.0
  0
LINE
  5
38
330
1D
100
AcDbEntity
  8
1
  6
Continuous
370
    50
100
AcDbLine
 10
83.0
 20
24.0
 30
0.0
 11
83.0
 21
-24.0
 31
0.0
  0
LINE
  5
39
330
1D
100
AcDbEntity
  8
1
  6
Continuous
370
    50
100
AcDbLine
 10
83.0
 20
-24.0
 30
0.0
 11
82.0
 21
-25.0
 31
0.0
  0
LINE
  5
3A
330
1D
100
AcDbEntity
  8
1
  6
Continuous
370
    50
100
AcDbLine
 10
82.0
 20
-25.0
 30
0.0
 11
40.0
 21
-25.0
 31
0.0
  0
ARC
  5
3B
330
1D
100
AcDbEntity
  8
1
  6
Continuous
370
    50
100
AcDbCircle
 10
40.0
 20
-30.0
 30
0.0
 40
5.0
100
AcDbArc
 50
90.0
 51
180.0
  0
ARC
  5
3C
330
1D
100
AcDbEntity
  8
1
  6
Continuous
370
    50
100
AcDbCircle
 10
19.8500061
 20
35.7250061
 30
0.0
 40
0.80000305
100
AcDbArc
 50
180.0
 51
270.0
  0
LINE
  5
3D
330
1D
100
AcDbEntity
  8
1
  6
Continuous
370
    50
100
AcDbLine
 10
19.8500061
 20
34.92500305
 30
0.0
 11
34.49998474
 21
34.92500305
 31
0.0
  0
LINE
  5
3E
330
1D
100
AcDbEntity
  8
1
  6
Continuous
370
    50
100
AcDbLine
 10
34.49998474
 20
34.92500305
 30
0.0
 11
35.0
 21
34.42500305
 31
0.0
  0
LINE
  5
3F
330
1D
100
AcDbEntity
  8
1
  6
Continuous
370
    50
100
AcDbLine
 10
35.0
 20
34.42500305
 30
0.0
 11
35.0
 21
-34.42500305
 31
0.0
  0
LINE
  5
40
330
1D
100
AcDbEntity
  8
1
  6
Continuous
370
    50
100
AcDbLine
 10
35.0
 20
-34.42500305
 30
0.0
 11
34.5
 21
-34.92500305
 31
0.0
  0
LINE
  5
41
330
1D
100
AcDbEntity
  8
1
  6
Continuous
370
    50
100
AcDbLine
 10
34.5
 20
-34.92500305
 30
0.0
 11
19.8500061
 21
-34.92500305
 31
0.0
  0
ARC
  5
42
330
1D
100
AcDbEntity
  8
1
  6
Continuous
370
    50
100
AcDbCircle
 10
19.8500061
 20
-35.7250061
 30
0.0
 40
0.80000305
100
AcDbArc
 50
90.0
 51
180.0
  0
ARC
  5
43
330
1D
100
AcDbEntity
  8
1
  6
Continuous
370
    50
100
AcDbCircle
 10
9.67498779
 20
46.0
 30
0.0
 40
0.5
100
AcDbArc
 50
180.0
 51
270.0
  0
LINE
  5
44
330
1D
100
AcDbEntity
  8
1
  6
Continuous
370
    50
100
AcDbLine
 10
9.67498779
 20
45.5
 30
0.0
 11
12.5249939
 21
45.5
 31
0.0
  0
ARC
  5
45
330
1D
100
AcDbEntity
  8
1
  6
Continuous
370
    50
100
AcDbCircle
 10
12.5249939
 20
46.0
 30
0.0
 40
0.5
100
AcDbArc
 50
270.0
 51
0.0
  0
LINE
  5
46
330
1D
100
AcDbEntity
  8
1
  6
Continuous
370
    50
100
AcDbLine
 10
69.94998169
 20
-2.88679504
 30
0.0
 11
67.44998169
 21
-1.44346619
 31
0.0
  0
LINE
  5
47
330
1D
100
AcDbEntity
  8
1
  6
Continuous
370
    50
100
AcDbLine
 10
67.44998169
 20
-1.44346619
 30
0.0
 11
67.44998169
 21
1.44346619
 31
0.0
  0
LINE
  5
48
330
1D
100
AcDbEntity
  8
1
  6
Continuous
370
    50
100
AcDbLine
 10
67.44998169
 20
1.44346619
 30
0.0
 11
69.94998169
 21
2.88679504
 31
0.0
  0
LINE
  5
49
330
1D
100
AcDbEntity
  8
1
  6
Continuous
370
    50
100
AcDbLine
 10
69.94998169
 20
2.88679504
 30
0.0
 11
72.44998169
 21
1.44346619
 31
0.0
  0
LINE
  5
4A
330
1D
100
AcDbEntity
  8
1
  6
Continuous
370
    50
100
AcDbLine
 10
72.44998169
 20
1.44346619
 30
0.0
 11
72.44998169
 21
-1.44346619
 31
0.0
  0
LINE
  5
4B
330
1D
100
AcDbEntity
  8
1
  6
Continuous
370
    50
100
AcDbLine
 10
72.44998169
 20
-1.44346619
 30
0.0
 11
69.94998169
 21
-2.88679504
 31
0.0
  0
LINE
  5
4C
330
1D
100
AcDbEntity
  8
1
  6
Continuous
370
    50
100
AcDbLine
 10
14.33312988
 20
30.0
 30
0.0
 11
14.33312988
 21
-48.72499847
 31
0.0
  0
LINE
  5
4D
330
1D
100
AcDbEntity
  8
1
  6
Continuous
370
    50
100
AcDbLine
 10
14.33312988
 20
-48.72499847
 30
0.0
 11
18.6000061
 21
-48.72499847
 31
0.0
  0
LINE
  5
4E
330
1D
100
AcDbEntity
  8
1
  6
Continuous
370
    50
100
AcDbLine
 10
18.6000061
 20
-48.72499847
 30
0.0
 11
19.05000305
 21
-48.27500153
 31
0.0
  0
LINE
  5
4F
330
1D
100
AcDbEntity
  8
1
  6
Continuous
370
    50
100
AcDbLine
 10
19.05000305
 20
-48.27500153
 30
0.0
 11
19.05000305
 21
48.27500916
 31
0.0
  0
LINE
  5
50
330
1D
100
AcDbEntity
  8
1
  6
Continuous
370
    50
100
AcDbLine
 10
19.05000305
 20
48.27500916
 30
0.0
 11
18.60002136
 21
48.7250061
 31
0.0
  0
LINE
  5
51
330
1D
100
AcDbEntity
  8
1
  6
Continuous
370
    50
100
AcDbLine
 10
18.60002136
 20
48.7250061
 30
0.0
 11
14.33314514
 21
48.7250061
 31
0.0
  0
LINE
  5
52
330
1D
100
AcDbEntity
  8
1
  6
Continuous
370
    50
100
AcDbLine
 10
14.33314514
 20
48.7250061
 30
0.0
 11
14.33312988
 21
38.38999939
 31
0.0
  0
LINE
  5
53
330
1D
100
AcDbEntity
  8
1
  6
Continuous
370
    50
100
AcDbLine
 10
14.33312988
 20
38.38999939
 30
0.0
 11
13.0249939
 21
34.20999146
 31
0.0
  0
LINE
  5
54
330
1D
100
AcDbEntity
  8
1
  6
Continuous
370
    50
100
AcDbLine
 10
13.0249939
 20
34.20999146
 30
0.0
 11
9.17498779
 21
34.20999146
 31
0.0
  0
LINE
  5
55
330
1D
100
AcDbEntity
  8
1
  6
Continuous
370
    50
100
AcDbLine
 10
9.17498779
 20
34.20999146
 30
0.0
 11
7.86682129
 21
38.38999939
 31
0.0
  0
LINE
  5
56
330
1D
100
AcDbEntity
  8
1
  6
Continuous
370
    50
100
AcDbLine
 10
7.86682129
 20
38.38999939
 30
0.0
 11
3.19999695
 21
38.38999939
 31
0.0
  0
LINE
  5
57
330
1D
100
AcDbEntity
  8
3
  6
DASH
370
    35
100
AcDbLine
 10
0.0
 20
10.0
 30
0.0
 11
48.690595354
 21
10.0
 31
0.0
  0
LINE
  5
58
330
1D
100
AcDbEntity
  8
3
  6
DASH
370
    35
100
AcDbLine
 10
48.690595354
 20
10.0
 30
0.0
 11
48.690595354
 21
-10.0
 31
0.0
  0
LINE
  5
59
330
1D
100
AcDbEntity
  8
3
  6
DASH
370
    35
100
AcDbLine
 10
48.690595354
 20
-10.0
 30
0.0
 11
-0.0000000000000071
 21
-10.0
 31
0.0
  0
LINE
  5
5A
330
1D
100
AcDbEntity
  8
1
  6
Continuous
370
    50
100
AcDbLine
 10
7.86682129
 20
30.0
 30
0.0
 11
7.86682129
 21
-48.72499847
 31
0.0
  0
LINE
  5
5B
330
1D
100
AcDbEntity
  8
1
  6
Continuous
370
    50
100
AcDbLine
 10
7.86682129
 20
-48.72499847
 30
0.0
 11
3.65000916
 21
-48.72499847
 31
0.0
  0
LINE
  5
5C
330
1D
100
AcDbEntity
  8
1
  6
Continuous
370
    50
100
AcDbLine
 10
3.65000916
 20
-48.72499847
 30
0.0
 11
3.19999695
 21
-48.27500153
 31
0.0
  0
LINE
  5
5D
330
1D
100
AcDbEntity
  8
1
  6
Continuous
370
    50
100
AcDbLine
 10
3.19999695
 20
-48.27500153
 30
0.0
 11
3.19999695
 21
48.27500916
 31
0.0
  0
LINE
  5
5E
330
1D
100
AcDbEntity
  8
1
  6
Continuous
370
    50
100
AcDbLine
 10
3.19999695
 20
48.27500916
 30
0.0
 11
3.6499939
 21
48.7250061
 31
0.0
  0
LINE
  5
5F
330
1D
100
AcDbEntity
  8
1
  6
Continuous
370
    50
100
AcDbLine
 10
3.6499939
 20
48.7250061
 30
0.0
 11
7.86682129
 21
48.7250061
 31
0.0
  0
LINE
  5
60
330
1D
100
AcDbEntity
  8
1
  6
Continuous
370
    50
100
AcDbLine
 10
7.86682129
 20
48.7250061
 30
0.0
 11
7.86682129
 21
38.38999939
 31
0.0
  0
LINE
  5
61
330
1D
100
AcDbEntity
  8
1
  6
Continuous
370
    50
100
AcDbLine
 10
9.17498779
 20
30.0
 30
0.0
 11
9.17498779
 21
-46.45921326
 31
0.0
  0
LINE
  5
62
330
1D
100
AcDbEntity
  8
1
  6
Continuous
370
    50
100
AcDbLine
 10
9.17498779
 20
-46.45921326
 30
0.0
 11
7.86682129
 21
-48.7250061
 31
0.0
  0
LINE
  5
63
330
1D
100
AcDbEntity
  8
1
  6
Continuous
370
    50
100
AcDbLine
 10
13.0249939
 20
30.0
 30
0.0
 11
13.0249939
 21
-46.45921326
 31
0.0
  0
LINE
  5
64
330
1D
100
AcDbEntity
  8
1
  6
Continuous
370
    50
100
AcDbLine
 10
13.0249939
 20
-46.45921326
 30
0.0
 11
14.33314514
 21
-48.7250061
 31
0.0
  0
LINE
  5
65
330
1D
100
AcDbEntity
  8
1
  6
Continuous
370
    50
100
AcDbLine
 10
19.05000305
 20
38.38999939
 30
0.0
 11
14.33312988
 21
38.38999939
 31
0.0
  0
LINE
  5
66
330
1D
100
AcDbEntity
  8
1
  6
Continuous
370
    50
100
AcDbLine
 10
19.05000305
 20
30.0
 30
0.0
 11
3.19999695
 21
30.0
 31
0.0
  0
LINE
  5
67
330
1D
100
AcDbEntity
  8
1
  6
Continuous
370
    50
100
AcDbLine
 10
9.17498779
 20
34.20999146
 30
0.0
 11
9.17498779
 21
46.45921326
 31
0.0
  0
LINE
  5
68
330
1D
100
AcDbEntity
  8
1
  6
Continuous
370
    50
100
AcDbLine
 10
9.17498779
 20
46.45921326
 30
0.0
 11
7.86682129
 21
48.7250061
 31
0.0
  0
LINE
  5
69
330
1D
100
AcDbEntity
  8
1
  6
Continuous
370
    50
100
AcDbLine
 10
13.0249939
 20
34.20999146
 30
0.0
 11
13.0249939
 21
46.45921326
 31
0.0
  0
LINE
  5
6A
330
1D
100
AcDbEntity
  8
1
  6
Continuous
370
    50
100
AcDbLine
 10
13.0249939
 20
46.45921326
 30
0.0
 11
14.33314514
 21
48.7250061
 31
0.0
  0
LINE
  5
6C
330
1D
100
AcDbEntity
  8
4
  6
LONGDASH_DASH
370
    25
100
AcDbLine
 10
85.0
 20
0.0
 30
0.0
 11
0.0000000000000142
 21
0.0
 31
0.0
  0
LINE
  5
6D
330
1D
100
AcDbEntity
  8
SK4
  6
LONGDASH_DASH
370
    25
100
AcDbLine
 10
-21.999528142
 20
0.0
 30
0.0
 11
-103.224330196
 21
0.0
 31
0.0
  0
LINE
  5
6E
330
1D
100
AcDbEntity
  8
3
  6
DASH
370
    35
100
AcDbLine
 10
83.0
 20
-14.0
 30
0.0
 11
51.0
 21
-14.0
 31
0.0
  0
LINE
  5
6F
330
1D
100
AcDbEntity
  8
3
  6
DASH
370
    35
100
AcDbLine
 10
51.0
 20
-14.0
 30
0.0
 11
51.0
 21
14.0
 31
0.0
  0
LINE
  5
70
330
1D
100
AcDbEntity
  8
3
  6
DASH
370
    35
100
AcDbLine
 10
51.0
 20
14.0
 30
0.0
 11
83.0
 21
14.0
 31
0.0
  0
LINE
  5
71
330
1D
100
AcDbEntity
  8
3
  6
DASH
370
    35
100
AcDbLine
 10
51.0
 20
14.0
 30
0.0
 11
48.690595354
 21
9.999984896
 31
0.0
  0
LINE
  5
72
330
1D
100
AcDbEntity
  8
3
  6
DASH
370
    35
100
AcDbLine
 10
48.690595354
 20
-9.999984896
 30
0.0
 11
51.0
 21
-14.0
 31
0.0
  0
LINE
  5
73
330
1D
100
AcDbEntity
  8
1
100
AcDbLine
 10
0.0
 20
34.92500305
 30
0.0
 11
0.0
 21
-34.92500305
 31
0.0
  0
CIRCLE
  5
74
330
1D
100
AcDbEntity
  8
1
  6
Continuous
370
    50
100
AcDbCircle
 10
69.94998169
 20
0.0
 30
0.0
 40
5.0
  0
LINE
  5
75
330
1D
100
AcDbEntity
  8
SK2
100
AcDbLine
 10
-18.0
 20
-34.92500305
 30
0.0
 11
0.0
 21
-34.92500305
 31
0.0
  0
LINE
  5
76
330
1D
100
AcDbEntity
  8
SK2
100
AcDbLine
 10
-16.0
 20
-34.92500305
 30
0.0
 11
-16.45
 21
-31.42500305
 31
0.0
  0
LINE
  5
77
330
1D
100
AcDbEntity
  8
SK2
100
AcDbLine
 10
-16.45
 20
-31.42500305
 30
0.0
 11
-15.55
 21
-31.42500305
 31
0.0
  0
LINE
  5
78
330
1D
100
AcDbEntity
  8
SK2
100
AcDbLine
 10
-15.55
 20
-31.42500305
 30
0.0
 11
-16.0
 21
-34.92500305
 31
0.0
  0
LINE
  5
79
330
1D
100
AcDbEntity
  8
SK2
100
AcDbLine
 10
-16.0
 20
-31.52500305
 30
0.0
 11
-16.0
 21
-34.82500305
 31
0.0
  0
LINE
  5
7A
330
1D
100
AcDbEntity
  8
SK2
100
AcDbLine
 10
-15.8
 20
-31.52500305
 30
0.0
 11
-15.8
 21
-33.269447494
 31
0.0
  0
LINE
  5
7B
330
1D
100
AcDbEntity
  8
SK2
100
AcDbLine
 10
-16.2
 20
-31.52500305
 30
0.0
 11
-16.2
 21
-33.269447494
 31
0.0
  0
LINE
  5
7C
330
1D
100
AcDbEntity
  8
SK2
100
AcDbLine
 10
-15.6
 20
-31.52500305
 30
0.0
 11
-15.6
 21
-31.713891939
 31
0.0
  0
LINE
  5
7D
330
1D
100
AcDbEntity
  8
SK2
100
AcDbLine
 10
-16.4
 20
-31.52500305
 30
0.0
 11
-16.4
 21
-31.713891939
 31
0.0
  0
LINE
  5
7E
330
1D
100
AcDbEntity
  8
SK2
100
AcDbLine
 10
-18.0
 20
34.92500305
 30
0.0
 11
0.0
 21
34.92500305
 31
0.0
  0
LINE
  5
7F
330
1D
100
AcDbEntity
  8
SK2
100
AcDbLine
 10
-16.0
 20
34.92500305
 30
0.0
 11
-15.55
 21
31.42500305
 31
0.0
  0
LINE
  5
80
330
1D
100
AcDbEntity
  8
SK2
100
AcDbLine
 10
-15.55
 20
31.42500305
 30
0.0
 11
-16.45
 21
31.42500305
 31
0.0
  0
LINE
  5
81
330
1D
100
AcDbEntity
  8
SK2
100
AcDbLine
 10
-16.45
 20
31.42500305
 30
0.0
 11
-16.0
 21
34.92500305
 31
0.0
  0
LINE
  5
82
330
1D
100
AcDbEntity
  8
SK2
100
AcDbLine
 10
-16.0
 20
31.52500305
 30
0.0
 11
-16.0
 21
34.82500305
 31
0.0
  0
LINE
  5
83
330
1D
100
AcDbEntity
  8
SK2
100
AcDbLine
 10
-16.2
 20
31.52500305
 30
0.0
 11
-16.2
 21
33.269447494
 31
0.0
  0
LINE
  5
84
330
1D
100
AcDbEntity
  8
SK2
100
AcDbLine
 10
-15.8
 20
31.52500305
 30
0.0
 11
-15.8
 21
33.269447494
 31
0.0
  0
LINE
  5
85
330
1D
100
AcDbEntity
  8
SK2
100
AcDbLine
 10
-16.4
 20
31.52500305
 30
0.0
 11
-16.4
 21
31.713891939
 31
0.0
  0
LINE
  5
86
330
1D
100
AcDbEntity
  8
SK2
100
AcDbLine
 10
-15.6
 20
31.52500305
 30
0.0
 11
-15.6
 21
31.713891939
 31
0.0
  0
LINE
  5
87
330
1D
100
AcDbEntity
  8
SK2
100
AcDbLine
 10
-16.0
 20
-31.42500305
 30
0.0
 11
-16.0
 21
31.42500305
 31
0.0
  0
TEXT
  5
88
330
1D
100
AcDbEntity
  8
SK2
100
AcDbText
 10
-17.5
 20
-2.430313281
 30
0.0
 40
3.5
  1
69.85
 50
90.0
  7
BMG_Text
100
AcDbText
  0
CIRCLE
  5
89
330
1D
100
AcDbEntity
  8
SK2
100
AcDbCircle
 10
-18.75
 20
-4.680313281
 30
0.0
 40
1.25
  0
LINE
  5
8A
330
1D
100
AcDbEntity
  8
SK2
100
AcDbLine
 10
-17.5
 20
-5.930313281
 30
0.0
 11
-20.0
 21
-3.430313281
 31
0.0
  0
LINE
  5
8B
330
1D
100
AcDbEntity
  8
2
  6
Continuous
370
    25
100
AcDbLine
 10
0.0
 20
57.999999998
 30
0.0
 11
0.0
 21
34.92500305
 31
0.0
  0
LINE
  5
8C
330
1D
100
AcDbEntity
  8
2
  6
Continuous
370
    25
100
AcDbLine
 10
0.0
 20
55.999999998
 30
0.0
 11
3.5
 21
56.449999998
 31
0.0
  0
LINE
  5
8D
330
1D
100
AcDbEntity
  8
2
  6
Continuous
370
    25
100
AcDbLine
 10
3.5
 20
56.449999998
 30
0.0
 11
3.5
 21
55.549999998
 31
0.0
  0
LINE
  5
8E
330
1D
100
AcDbEntity
  8
2
  6
Continuous
370
    25
100
AcDbLine
 10
3.5
 20
55.549999998
 30
0.0
 11
0.0
 21
55.999999998
 31
0.0
  0
LINE
  5
8F
330
1D
100
AcDbEntity
  8
2
  6
Continuous
370
    25
100
AcDbLine
 10
3.4
 20
55.999999998
 30
0.0
 11
0.1
 21
55.999999998
 31
0.0
  0
LINE
  5
90
330
1D
100
AcDbEntity
  8
2
  6
Continuous
370
    25
100
AcDbLine
 10
3.4
 20
55.799999998
 30
0.0
 11
1.655555556
 21
55.799999998
 31
0.0
  0
LINE
  5
91
330
1D
100
AcDbEntity
  8
2
  6
Continuous
370
    25
100
AcDbLine
 10
3.4
 20
56.199999998
 30
0.0
 11
1.655555556
 21
56.199999998
 31
0.0
  0
LINE
  5
92
330
1D
100
AcDbEntity
  8
2
  6
Continuous
370
    25
100
AcDbLine
 10
3.4
 20
55.599999998
 30
0.0
 11
3.211111111
 21
55.599999998
 31
0.0
  0
LINE
  5
93
330
1D
100
AcDbEntity
  8
2
  6
Continuous
370
    25
100
AcDbLine
 10
3.4
 20
56.399999998
 30
0.0
 11
3.211111111
 21
56.399999998
 31
0.0
  0
LINE
  5
94
330
1D
100
AcDbEntity
  8
2
  6
Continuous
370
    25
100
AcDbLine
 10
83.0
 20
58.0
 30
0.0
 11
83.0
 21
24.0
 31
0.0
  0
LINE
  5
95
330
1D
100
AcDbEntity
  8
2
  6
Continuous
370
    25
100
AcDbLine
 10
83.0
 20
56.0
 30
0.0
 11
79.5
 21
55.55
 31
0.0
  0
LINE
  5
96
330
1D
100
AcDbEntity
  8
2
  6
Continuous
370
    25
100
AcDbLine
 10
79.5
 20
55.55
 30
0.0
 11
79.5
 21
56.45
 31
0.0
  0
LINE
  5
97
330
1D
100
AcDbEntity
  8
2
  6
Continuous
370
    25
100
AcDbLine
 10
79.5
 20
56.45
 30
0.0
 11
83.0
 21
56.0
 31
0.0
  0
LINE
  5
98
330
1D
100
AcDbEntity
  8
2
  6
Continuous
370
    25
100
AcDbLine
 10
79.6
 20
56.0
 30
0.0
 11
82.9
 21
56.0
 31
0.0
  0
LINE
  5
99
330
1D
100
AcDbEntity
  8
2
  6
Continuous
370
    25
100
AcDbLine
 10
79.6
 20
56.2
 30
0.0
 11
81.344444444
 21
56.2
 31
0.0
  0
LINE
  5
9A
330
1D
100
AcDbEntity
  8
2
  6
Continuous
370
    25
100
AcDbLine
 10
79.6
 20
55.8
 30
0.0
 11
81.344444444
 21
55.8
 31
0.0
  0
LINE
  5
9B
330
1D
100
AcDbEntity
  8
2
  6
Continuous
370
    25
100
AcDbLine
 10
79.6
 20
56.4
 30
0.0
 11
79.788888889
 21
56.4
 31
0.0
  0
LINE
  5
9C
330
1D
100
AcDbEntity
  8
2
  6
Continuous
370
    25
100
AcDbLine
 10
79.6
 20
55.6
 30
0.0
 11
79.788888889
 21
55.6
 31
0.0
  0
LINE
  5
9D
330
1D
100
AcDbEntity
  8
2
  6
Continuous
370
    25
100
AcDbLine
 10
3.5
 20
55.999999998
 30
0.0
 11
79.5
 21
56.0
 31
0.0
  0
TEXT
  5
9E
330
1D
100
AcDbEntity
  8
2
  6
Continuous
370
    25
100
AcDbText
 10
40.026717822
 20
57.499999999
 30
0.0
 40
3.5
  1
83
  7
BMG_Text
100
AcDbText
  0
LINE
  5
9F
330
1D
100
AcDbEntity
  8
2
  6
Continuous
370
    25
100
AcDbLine
 10
106.0
 20
-25.0
 30
0.0
 11
82.0
 21
-25.0
 31
0.0
  0
LINE
  5
A0
330
1D
100
AcDbEntity
  8
2
  6
Continuous
370
    25
100
AcDbLine
 10
104.0
 20
-25.0
 30
0.0
 11
103.55
 21
-21.5
 31
0.0
  0
LINE
  5
A1
330
1D
100
AcDbEntity
  8
2
  6
Continuous
370
    25
100
AcDbLine
 10
103.55
 20
-21.5
 30
0.0
 11
104.45
 21
-21.5
 31
0.0
  0
LINE
  5
A2
330
1D
100
AcDbEntity
  8
2
  6
Continuous
370
    25
100
AcDbLine
 10
104.45
 20
-21.5
 30
0.0
 11
104.0
 21
-25.0
 31
0.0
  0
LINE
  5
A3
330
1D
100
AcDbEntity
  8
2
  6
Continuous
370
    25
100
AcDbLine
 10
104.0
 20
-21.6
 30
0.0
 11
104.0
 21
-24.9
 31
0.0
  0
LINE
  5
A4
330
1D
100
AcDbEntity
  8
2
  6
Continuous
370
    25
100
AcDbLine
 10
104.2
 20
-21.6
 30
0.0
 11
104.2
 21
-23.344444444
 31
0.0
  0
LINE
  5
A5
330
1D
100
AcDbEntity
  8
2
  6
Continuous
370
    25
100
AcDbLine
 10
103.8
 20
-21.6
 30
0.0
 11
103.8
 21
-23.344444444
 31
0.0
  0
LINE
  5
A6
330
1D
100
AcDbEntity
  8
2
  6
Continuous
370
    25
100
AcDbLine
 10
104.4
 20
-21.6
 30
0.0
 11
104.4
 21
-21.788888889
 31
0.0
  0
LINE
  5
A7
330
1D
100
AcDbEntity
  8
2
  6
Continuous
370
    25
100
AcDbLine
 10
103.6
 20
-21.6
 30
0.0
 11
103.6
 21
-21.788888889
 31
0.0
  0
LINE
  5
A8
330
1D
100
AcDbEntity
  8
2
  6
Continuous
370
    25
100
AcDbLine
 10
105.999999998
 20
25.0
 30
0.0
 11
81.99996948
 21
25.0
 31
0.0
  0
LINE
  5
A9
330
1D
100
AcDbEntity
  8
2
  6
Continuous
370
    25
100
AcDbLine
 10
103.999999998
 20
25.0
 30
0.0
 11
104.449999998
 21
21.5
 31
0.0
  0
LINE
  5
AA
330
1D
100
AcDbEntity
  8
2
  6
Continuous
370
    25
100
AcDbLine
 10
104.449999998
 20
21.5
 30
0.0
 11
103.549999998
 21
21.5
 31
0.0
  0
LINE
  5
AB
330
1D
100
AcDbEntity
  8
2
  6
Continuous
370
    25
100
AcDbLine
 10
103.549999998
 20
21.5
 30
0.0
 11
103.999999998
 21
25.0
 31
0.0
  0
LINE
  5
AC
330
1D
100
AcDbEntity
  8
2
  6
Continuous
370
    25
100
AcDbLine
 10
103.999999998
 20
21.6
 30
0.0
 11
103.999999998
 21
24.9
 31
0.0
  0
LINE
  5
AD
330
1D
100
AcDbEntity
  8
2
  6
Continuous
370
    25
100
AcDbLine
 10
103.799999998
 20
21.6
 30
0.0
 11
103.799999998
 21
23.344444444
 31
0.0
  0
LINE
  5
AE
330
1D
100
AcDbEntity
  8
2
  6
Continuous
370
    25
100
AcDbLine
 10
104.199999998
 20
21.6
 30
0.0
 11
104.199999998
 21
23.344444444
 31
0.0
  0
LINE
  5
AF
330
1D
100
AcDbEntity
  8
2
  6
Continuous
370
    25
100
AcDbLine
 10
103.599999998
 20
21.6
 30
0.0
 11
103.599999998
 21
21.788888889
 31
0.0
  0
LINE
  5
B0
330
1D
100
AcDbEntity
  8
2
  6
Continuous
370
    25
100
AcDbLine
 10
104.399999998
 20
21.6
 30
0.0
 11
104.399999998
 21
21.788888889
 31
0.0
  0
LINE
  5
B1
330
1D
100
AcDbEntity
  8
2
  6
Continuous
370
    25
100
AcDbLine
 10
104.0
 20
-21.5
 30
0.0
 11
103.999999998
 21
21.5
 31
0.0
  0
TEXT
  5
B2
330
1D
100
AcDbEntity
  8
2
  6
Continuous
370
    25
100
AcDbText
 10
102.499999999
 20
0.194686941
 30
0.0
 40
3.5
  1
50
 50
90.0
  7
BMG_Text
100
AcDbText
  0
CIRCLE
  5
B3
330
1D
100
AcDbEntity
  8
2
  6
Continuous
370
    25
100
AcDbCircle
 10
101.249999999
 20
-2.055313059
 30
0.0
 40
1.25
  0
LINE
  5
B4
330
1D
100
AcDbEntity
  8
2
  6
Continuous
370
    25
100
AcDbLine
 10
102.499999999
 20
-3.305313059
 30
0.0
 11
99.999999999
 21
-0.805313059
 31
0.0
  0
LINE
  5
B5
330
1D
100
AcDbEntity
  8
2
  6
Continuous
370
    25
100
AcDbLine
 10
98.0
 20
-14.0
 30
0.0
 11
83.0
 21
-14.0
 31
0.0
  0
LINE
  5
B6
330
1D
100
AcDbEntity
  8
2
  6
Continuous
370
    25
100
AcDbLine
 10
96.0
 20
-14.0
 30
0.0
 11
95.55
 21
-10.5
 31
0.0
  0
LINE
  5
B7
330
1D
100
AcDbEntity
  8
2
  6
Continuous
370
    25
100
AcDbLine
 10
95.55
 20
-10.5
 30
0.0
 11
96.45
 21
-10.5
 31
0.0
  0
LINE
  5
B8
330
1D
100
AcDbEntity
  8
2
  6
Continuous
370
    25
100
AcDbLine
 10
96.45
 20
-10.5
 30
0.0
 11
96.0
 21
-14.0
 31
0.0
  0
LINE
  5
B9
330
1D
100
AcDbEntity
  8
2
  6
Continuous
370
    25
100
AcDbLine
 10
96.0
 20
-10.6
 30
0.0
 11
96.0
 21
-13.9
 31
0.0
  0
LINE
  5
BA
330
1D
100
AcDbEntity
  8
2
  6
Continuous
370
    25
100
AcDbLine
 10
96.2
 20
-10.6
 30
0.0
 11
96.2
 21
-12.344444444
 31
0.0
  0
LINE
  5
BB
330
1D
100
AcDbEntity
  8
2
  6
Continuous
370
    25
100
AcDbLine
 10
95.8
 20
-10.6
 30
0.0
 11
95.8
 21
-12.344444444
 31
0.0
  0
LINE
  5
BC
330
1D
100
AcDbEntity
  8
2
  6
Continuous
370
    25
100
AcDbLine
 10
96.4
 20
-10.6
 30
0.0
 11
96.4
 21
-10.788888889
 31
0.0
  0
LINE
  5
BD
330
1D
100
AcDbEntity
  8
2
  6
Continuous
370
    25
100
AcDbLine
 10
95.6
 20
-10.6
 30
0.0
 11
95.6
 21
-10.788888889
 31
0.0
  0
LINE
  5
BE
330
1D
100
AcDbEntity
  8
2
  6
Continuous
370
    25
100
AcDbLine
 10
98.0
 20
14.0
 30
0.0
 11
83.0
 21
14.0
 31
0.0
  0
LINE
  5
BF
330
1D
100
AcDbEntity
  8
2
  6
Continuous
370
    25
100
AcDbLine
 10
96.0
 20
14.0
 30
0.0
 11
96.45
 21
10.5
 31
0.0
  0
LINE
  5
C0
330
1D
100
AcDbEntity
  8
2
  6
Continuous
370
    25
100
AcDbLine
 10
96.45
 20
10.5
 30
0.0
 11
95.55
 21
10.5
 31
0.0
  0
LINE
  5
C1
330
1D
100
AcDbEntity
  8
2
  6
Continuous
370
    25
100
AcDbLine
 10
95.55
 20
10.5
 30
0.0
 11
96.0
 21
14.0
 31
0.0
  0
LINE
  5
C2
330
1D
100
AcDbEntity
  8
2
  6
Continuous
370
    25
100
AcDbLine
 10
96.0
 20
10.6
 30
0.0
 11
96.0
 21
13.9
 31
0.0
  0
LINE
  5
C3
330
1D
100
AcDbEntity
  8
2
  6
Continuous
370
    25
100
AcDbLine
 10
95.8
 20
10.6
 30
0.0
 11
95.8
 21
12.344444444
 31
0.0
  0
LINE
  5
C4
330
1D
100
AcDbEntity
  8
2
  6
Continuous
370
    25
100
AcDbLine
 10
96.2
 20
10.6
 30
0.0
 11
96.2
 21
12.344444444
 31
0.0
  0
LINE
  5
C5
330
1D
100
AcDbEntity
  8
2
  6
Continuous
370
    25
100
AcDbLine
 10
95.6
 20
10.6
 30
0.0
 11
95.6
 21
10.788888889
 31
0.0
  0
LINE
  5
C6
330
1D
100
AcDbEntity
  8
2
  6
Continuous
370
    25
100
AcDbLine
 10
96.4
 20
10.6
 30
0.0
 11
96.4
 21
10.788888889
 31
0.0
  0
LINE
  5
C7
330
1D
100
AcDbEntity
  8
2
  6
Continuous
370
    25
100
AcDbLine
 10
96.0
 20
-10.5
 30
0.0
 11
96.0
 21
10.5
 31
0.0
  0
TEXT
  5
C8
330
1D
100
AcDbEntity
  8
2
  6
Continuous
370
    25
100
AcDbText
 10
94.5
 20
0.085312187
 30
0.0
 40
3.5
  1
28
 50
90.0
  7
BMG_Text
100
AcDbText
  0
CIRCLE
  5
C9
330
1D
100
AcDbEntity
  8
2
  6
Continuous
370
    25
100
AcDbCircle
 10
93.25
 20
-2.164687813
 30
0.0
 40
1.25
  0
LINE
  5
CA
330
1D
100
AcDbEntity
  8
2
  6
Continuous
370
    25
100
AcDbLine
 10
94.5
 20
-3.414687813
 30
0.0
 11
92.0
 21
-0.914687813
 31
0.0
  0
LINE
  5
CB
330
1D
100
AcDbEntity
  8
2
  6
Continuous
370
    25
100
AcDbLine
 10
0.0
 20
-61.999999998
 30
0.0
 11
0.0
 21
-34.92500305
 31
0.0
  0
LINE
  5
CC
330
1D
100
AcDbEntity
  8
2
  6
Continuous
370
    25
100
AcDbLine
 10
0.0
 20
-59.999999998
 30
0.0
 11
3.5
 21
-59.549999999
 31
0.0
  0
LINE
  5
CD
330
1D
100
AcDbEntity
  8
2
  6
Continuous
370
    25
100
AcDbLine
 10
3.5
 20
-59.549999999
 30
0.0
 11
3.5
 21
-60.449999999
 31
0.0
  0
LINE
  5
CE
330
1D
100
AcDbEntity
  8
2
  6
Continuous
370
    25
100
AcDbLine
 10
3.5
 20
-60.449999999
 30
0.0
 11
0.0
 21
-59.999999998
 31
0.0
  0
LINE
  5
CF
330
1D
100
AcDbEntity
  8
2
  6
Continuous
370
    25
100
AcDbLine
 10
3.4
 20
-59.999999999
 30
0.0
 11
0.1
 21
-59.999999998
 31
0.0
  0
LINE
  5
D0
330
1D
100
AcDbEntity
  8
2
  6
Continuous
370
    25
100
AcDbLine
 10
3.4
 20
-60.199999999
 30
0.0
 11
1.655555556
 21
-60.199999998
 31
0.0
  0
LINE
  5
D1
330
1D
100
AcDbEntity
  8
2
  6
Continuous
370
    25
100
AcDbLine
 10
3.4
 20
-59.799999999
 30
0.0
 11
1.655555556
 21
-59.799999998
 31
0.0
  0
LINE
  5
D2
330
1D
100
AcDbEntity
  8
2
  6
Continuous
370
    25
100
AcDbLine
 10
3.4
 20
-60.399999999
 30
0.0
 11
3.211111111
 21
-60.399999999
 31
0.0
  0
LINE
  5
D3
330
1D
100
AcDbEntity
  8
2
  6
Continuous
370
    25
100
AcDbLine
 10
3.4
 20
-59.599999999
 30
0.0
 11
3.211111111
 21
-59.599999999
 31
0.0
  0
LINE
  5
D4
330
1D
100
AcDbEntity
  8
2
  6
Continuous
370
    25
100
AcDbLine
 10
40.0
 20
-62.000000004
 30
0.0
 11
40.0
 21
-39.2749939
 31
0.0
  0
LINE
  5
D5
330
1D
100
AcDbEntity
  8
2
  6
Continuous
370
    25
100
AcDbLine
 10
40.0
 20
-60.000000004
 30
0.0
 11
36.5
 21
-60.450000003
 31
0.0
  0
LINE
  5
D6
330
1D
100
AcDbEntity
  8
2
  6
Continuous
370
    25
100
AcDbLine
 10
36.5
 20
-60.450000003
 30
0.0
 11
36.5
 21
-59.550000003
 31
0.0
  0
LINE
  5
D7
330
1D
100
AcDbEntity
  8
2
  6
Continuous
370
    25
100
AcDbLine
 10
36.5
 20
-59.550000003
 30
0.0
 11
40.0
 21
-60.000000004
 31
0.0
  0
LINE
  5
D8
330
1D
100
AcDbEntity
  8
2
  6
Continuous
370
    25
100
AcDbLine
 10
36.6
 20
-60.000000003
 30
0.0
 11
39.9
 21
-60.000000004
 31
0.0
  0
LINE
  5
D9
330
1D
100
AcDbEntity
  8
2
  6
Continuous
370
    25
100
AcDbLine
 10
36.6
 20
-59.800000003
 30
0.0
 11
38.344444444
 21
-59.800000003
 31
0.0
  0
LINE
  5
DA
330
1D
100
AcDbEntity
  8
2
  6
Continuous
370
    25
100
AcDbLine
 10
36.6
 20
-60.200000003
 30
0.0
 11
38.344444444
 21
-60.200000003
 31
0.0
  0
LINE
  5
DB
330
1D
100
AcDbEntity
  8
2
  6
Continuous
370
    25
100
AcDbLine
 10
36.6
 20
-59.600000003
 30
0.0
 11
36.788888889
 21
-59.600000003
 31
0.0
  0
LINE
  5
DC
330
1D
100
AcDbEntity
  8
2
  6
Continuous
370
    25
100
AcDbLine
 10
36.6
 20
-60.400000003
 30
0.0
 11
36.788888889
 21
-60.400000003
 31
0.0
  0
LINE
  5
DD
330
1D
100
AcDbEntity
  8
2
  6
Continuous
370
    25
100
AcDbLine
 10
3.5
 20
-59.999999999
 30
0.0
 11
36.5
 21
-60.000000003
 31
0.0
  0
TEXT
  5
DE
330
1D
100
AcDbEntity
  8
2
  6
Continuous
370
    25
100
AcDbText
 10
18.335312053
 20
-58.500000001
 30
0.0
 40
3.5
  1
40
 50
359.999999992
  7
BMG_Text
100
AcDbText
  0
LINE
  5
DF
330
1D
100
AcDbEntity
  8
2
  6
Continuous
370
    25
100
AcDbLine
 10
40.0
 20
-62.000000004
 30
0.0
 11
40.0
 21
-39.2749939
 31
0.0
  0
LINE
  5
E0
330
1D
100
AcDbEntity
  8
2
  6
Continuous
370
    25
100
AcDbLine
 10
40.0
 20
-60.000000004
 30
0.0
 11
43.5
 21
-59.550000004
 31
0.0
  0
LINE
  5
E1
330
1D
100
AcDbEntity
  8
2
  6
Continuous
370
    25
100
AcDbLine
 10
43.5
 20
-59.550000004
 30
0.0
 11
43.5
 21
-60.450000004
 31
0.0
  0
LINE
  5
E2
330
1D
100
AcDbEntity
  8
2
  6
Continuous
370
    25
100
AcDbLine
 10
43.5
 20
-60.450000004
 30
0.0
 11
40.0
 21
-60.000000004
 31
0.0
  0
LINE
  5
E3
330
1D
100
AcDbEntity
  8
2
  6
Continuous
370
    25
100
AcDbLine
 10
43.4
 20
-60.000000004
 30
0.0
 11
40.1
 21
-60.000000004
 31
0.0
  0
LINE
  5
E4
330
1D
100
AcDbEntity
  8
2
  6
Continuous
370
    25
100
AcDbLine
 10
43.4
 20
-60.200000004
 30
0.0
 11
41.655555556
 21
-60.200000004
 31
0.0
  0
LINE
  5
E5
330
1D
100
AcDbEntity
  8
2
  6
Continuous
370
    25
100
AcDbLine
 10
43.4
 20
-59.800000004
 30
0.0
 11
41.655555556
 21
-59.800000004
 31
0.0
  0
LINE
  5
E6
330
1D
100
AcDbEntity
  8
2
  6
Continuous
370
    25
100
AcDbLine
 10
43.4
 20
-60.400000004
 30
0.0
 11
43.211111111
 21
-60.400000004
 31
0.0
  0
LINE
  5
E7
330
1D
100
AcDbEntity
  8
2
  6
Continuous
370
    25
100
AcDbLine
 10
43.4
 20
-59.600000004
 30
0.0
 11
43.211111111
 21
-59.600000004
 31
0.0
  0
LINE
  5
E8
330
1D
100
AcDbEntity
  8
2
  6
Continuous
370
    25
100
AcDbLine
 10
43.5
 20
-60.000000004
 30
0.0
 11
87.3
 21
-60.000000004
 31
0.0
  0
TEXT
  5
E9
330
1D
100
AcDbEntity
  8
2
  6
Continuous
370
    25
100
AcDbText
 10
88.33182922840442
 20
-58.500000004
 30
0.0
 40
3.5
  1
100
  7
BMG_Text
100
AcDbText
  0
TEXT
  5
EA
330
1D
100
AcDbEntity
  8
2
  6
Continuous
370
    25
100
AcDbText
 10
48.387030721
 20
-58.500000004
 30
0.0
 40
3.5
  1
Ausdrehtiefe
  7
BMG_Text
100
AcDbText
  0
LINE
  5
EB
330
1D
100
AcDbEntity
  8
SK3
  6
DASH
370
    35
100
AcDbLine
 10
-11.288675217
 20
10.5
 30
0.0
 11
-11.288675217
 21
-10.5
 31
0.0
  0
LINE
  5
EC
330
1D
100
AcDbEntity
  8
SK3
  6
DASH
370
    35
100
AcDbLine
 10
-11.0
 20
10.0
 30
0.0
 11
-11.0
 21
-10.0
 31
0.0
  0
LINE
  5
ED
330
1D
100
AcDbEntity
  8
SK3
  6
DASH
370
    35
100
AcDbLine
 10
-11.288675217
 20
10.5
 30
0.0
 11
-11.0
 21
10.0
 31
0.0
  0
LINE
  5
EE
330
1D
100
AcDbEntity
  8
SK3
  6
DASH
370
    35
100
AcDbLine
 10
-11.288675217
 20
-10.5
 30
0.0
 11
-11.0
 21
-10.0
 31
0.0
  0
LINE
  5
EF
330
1D
100
AcDbEntity
  8
SK6
100
AcDbLine
 10
-51.77122116
 20
-61.92105103
 30
0.0
 11
-51.77123213
 21
-62.91104889
 31
0.0
  0
ARC
  5
F0
330
1D
100
AcDbEntity
  8
SK6
100
AcDbCircle
 10
-49.25123215
 20
-62.91104889
 30
0.0
 40
2.51999998
100
AcDbArc
 50
180.0
 51
217.383168056
  0
LINE
  5
F1
330
1D
100
AcDbEntity
  8
SK6
100
AcDbLine
 10
-51.25361633
 20
-64.4410553
 30
0.0
 11
-48.73361588
 21
-64.4410553
 31
0.0
  0
LINE
  5
F2
330
1D
100
AcDbEntity
  8
SK6
100
AcDbLine
 10
-48.73361588
 20
-64.4410553
 30
0.0
 11
-48.643597604
 21
-64.441048722
 31
0.0
  0
ARC
  5
F3
330
1D
100
AcDbEntity
  8
SK6
100
AcDbCircle
 10
-46.64122391
 20
-62.91104889
 30
0.0
 40
2.51999998
100
AcDbArc
 50
180.009193697
 51
217.38319397
  0
LINE
  5
F4
330
1D
100
AcDbEntity
  8
SK6
100
AcDbLine
 10
-49.16122437
 20
-62.91145325
 30
0.0
 11
-49.161841792
 21
-58.917837207
 31
0.0
  0
ARC
  5
F5
330
1D
100
AcDbEntity
  8
SK6
100
AcDbCircle
 10
-51.68120193
 20
-58.86105347
 30
0.0
 40
2.51999998
100
AcDbArc
 50
358.70883179
 51
93.066711319
  0
ARC
  5
F6
330
1D
100
AcDbEntity
  8
SK6
100
AcDbCircle
 10
-51.95121384
 20
-53.82105255
 30
0.0
 40
2.51999998
100
AcDbArc
 50
273.06652832
 51
359.999826522
  0
LINE
  5
F7
330
1D
100
AcDbEntity
  8
SK6
100
AcDbLine
 10
-49.43120193
 20
-53.82106018
 30
0.0
 11
-49.43121386
 21
-51.21105957
 31
0.0
  0
ARC
  5
F8
330
1D
100
AcDbEntity
  8
SK6
100
AcDbCircle
 10
-51.95121384
 20
-51.21105957
 30
0.0
 40
2.51999998
100
AcDbArc
 50
0.0
 51
90.0
  0
LINE
  5
F9
330
1D
100
AcDbEntity
  8
SK6
100
AcDbLine
 10
-51.95121384
 20
-48.69104004
 30
0.0
 11
-56.90120697
 21
-48.6910553
 31
0.0
  0
LINE
  5
FA
330
1D
100
AcDbEntity
  8
SK6
100
AcDbLine
 10
-56.90120697
 20
-48.6910553
 30
0.0
 11
-56.90120697
 21
-64.4410553
 31
0.0
  0
LINE
  5
FB
330
1D
100
AcDbEntity
  8
SK6
100
AcDbLine
 10
-56.90120697
 20
-64.4410553
 30
0.0
 11
-54.20121384
 21
-64.4410553
 31
0.0
  0
LINE
  5
FC
330
1D
100
AcDbEntity
  8
SK6
100
AcDbLine
 10
-54.20121384
 20
-64.4410553
 30
0.0
 11
-54.20120239
 21
-57.6010437
 31
0.0
  0
LINE
  5
FD
330
1D
100
AcDbEntity
  8
SK6
100
AcDbLine
 10
-54.20120239
 20
-57.6010437
 30
0.0
 11
-52.851200244
 21
-57.60104549
 31
0.0
  0
ARC
  5
FE
330
1D
100
AcDbEntity
  8
SK6
100
AcDbCircle
 10
-52.8512001
 20
-58.68104553
 30
0.0
 40
1.08000004
100
AcDbArc
 50
359.999190416
 51
90.00000763
  0
LINE
  5
FF
330
1D
100
AcDbEntity
  8
SK6
100
AcDbLine
 10
-51.77122116
 20
-58.68106079
 30
0.0
 11
-51.77122116
 21
-62.91104889
 31
0.0
  0
LINE
  5
100
330
1D
100
AcDbEntity
  8
SK6
100
AcDbLine
 10
-54.20121384
 20
-55.4410553
 30
0.0
 11
-52.58121109
 21
-55.44104618
 31
0.0
  0
ARC
  5
101
330
1D
100
AcDbEntity
  8
SK6
100
AcDbCircle
 10
-52.58121109
 20
-54.54104614
 30
0.0
 40
0.90000004
100
AcDbArc
 50
270.0
 51
359.9995142640001
  0
LINE
  5
102
330
1D
100
AcDbEntity
  8
SK6
100
AcDbLine
 10
-51.68120193
 20
-54.54105377
 30
0.0
 11
-51.68121105
 21
-51.66105652
 31
0.0
  0
ARC
  5
103
330
1D
100
AcDbEntity
  8
SK6
100
AcDbCircle
 10
-52.58121109
 20
-51.66105652
 30
0.0
 40
0.90000004
100
AcDbArc
 50
0.0
 51
90.0
  0
LINE
  5
104
330
1D
100
AcDbEntity
  8
SK6
100
AcDbLine
 10
-52.58121109
 20
-50.76106262
 30
0.0
 11
-54.20121384
 21
-50.76106262
 31
0.0
  0
LINE
  5
105
330
1D
100
AcDbEntity
  8
SK6
100
AcDbLine
 10
-54.20121384
 20
-50.76106262
 30
0.0
 11
-54.20121384
 21
-55.4410553
 31
0.0
  0
LINE
  5
106
330
1D
100
AcDbEntity
  8
SK6
100
AcDbLine
 10
-67.88121796
 20
-48.69104004
 30
0.0
 11
-67.88119507
 21
-50.76106262
 31
0.0
  0
LINE
  5
107
330
1D
100
AcDbEntity
  8
SK6
100
AcDbLine
 10
-67.88119507
 20
-50.76106262
 30
0.0
 11
-70.761200094
 21
-50.76104152
 31
0.0
  0
ARC
  5
108
330
1D
100
AcDbEntity
  8
SK6
100
AcDbCircle
 10
-70.76119995
 20
-51.84104156
 30
0.0
 40
1.08000004
100
AcDbArc
 50
90.00000763
 51
206.543329999
  0
LINE
  5
109
330
1D
100
AcDbEntity
  8
SK6
100
AcDbLine
 10
-71.72737122
 20
-52.32366943
 30
0.0
 11
-67.625809472
 21
-60.534476526
 31
0.0
  0
ARC
  5
10A
330
1D
100
AcDbEntity
  8
SK6
100
AcDbCircle
 10
-70.04121399
 20
-61.74105072
 30
0.0
 40
2.70000005
100
AcDbArc
 50
270.0
 51
26.54364014
  0
LINE
  5
10B
330
1D
100
AcDbEntity
  8
SK6
100
AcDbLine
 10
-70.04121399
 20
-64.4410553
 30
0.0
 11
-74.63121796
 21
-64.4410553
 31
0.0
  0
LINE
  5
10C
330
1D
100
AcDbEntity
  8
SK6
100
AcDbLine
 10
-74.63121796
 20
-64.4410553
 30
0.0
 11
-74.63119507
 21
-62.37104797
 31
0.0
  0
LINE
  5
10D
330
1D
100
AcDbEntity
  8
SK6
100
AcDbLine
 10
-74.63119507
 20
-62.37104797
 30
0.0
 11
-71.2111969
 21
-62.37104618
 31
0.0
  0
ARC
  5
10E
330
1D
100
AcDbEntity
  8
SK6
100
AcDbCircle
 10
-71.2111969
 20
-61.29104614
 30
0.0
 40
1.08000004
100
AcDbArc
 50
270.0
 51
26.544777329
  0
LINE
  5
10F
330
1D
100
AcDbEntity
  8
SK6
100
AcDbLine
 10
-70.24505615
 20
-60.80840302
 30
0.0
 11
-74.346617576
 21
-52.597611828
 31
0.0
  0
ARC
  5
110
330
1D
100
AcDbEntity
  8
SK6
100
AcDbCircle
 10
-71.93121338
 20
-51.39103699
 30
0.0
 40
2.70000005
100
AcDbArc
 50
90.0
 51
206.5436554
  0
LINE
  5
111
330
1D
100
AcDbEntity
  8
SK6
100
AcDbLine
 10
-71.93121338
 20
-48.69104004
 30
0.0
 11
-67.88121033
 21
-48.69104004
 31
0.0
  0
LINE
  5
112
330
1D
100
AcDbEntity
  8
SK6
100
AcDbLine
 10
-65.18121338
 20
-64.4410553
 30
0.0
 11
-65.18121338
 21
-48.6910553
 31
0.0
  0
LINE
  5
113
330
1D
100
AcDbEntity
  8
SK6
100
AcDbLine
 10
-98.93121338
 20
-48.6910553
 30
0.0
 11
-98.93121338
 21
-55.80106354
 31
0.0
  0
LINE
  5
114
330
1D
100
AcDbEntity
  8
SK6
100
AcDbLine
 10
-98.93121338
 20
-55.80106354
 30
0.0
 11
-95.96121979
 21
-48.6910553
 31
0.0
  0
LINE
  5
115
330
1D
100
AcDbEntity
  8
SK6
100
AcDbLine
 10
-95.96121979
 20
-48.6910553
 30
0.0
 11
-93.17121887
 21
-48.6910553
 31
0.0
  0
LINE
  5
116
330
1D
100
AcDbEntity
  8
SK6
100
AcDbLine
 10
-93.17121887
 20
-48.6910553
 30
0.0
 11
-96.23122406
 21
-55.4410553
 31
0.0
  0
LINE
  5
117
330
1D
100
AcDbEntity
  8
SK6
100
AcDbLine
 10
-96.23122406
 20
-55.4410553
 30
0.0
 11
-92.63121796
 21
-64.4410553
 31
0.0
  0
LINE
  5
118
330
1D
100
AcDbEntity
  8
SK6
100
AcDbLine
 10
-92.63121796
 20
-64.4410553
 30
0.0
 11
-95.42121887
 21
-64.4410553
 31
0.0
  0
LINE
  5
119
330
1D
100
AcDbEntity
  8
SK6
100
AcDbLine
 10
-95.42121887
 20
-64.4410553
 30
0.0
 11
-97.85121155
 21
-58.9510498
 31
0.0
  0
LINE
  5
11A
330
1D
100
AcDbEntity
  8
SK6
100
AcDbLine
 10
-97.85121155
 20
-58.9510498
 30
0.0
 11
-98.93121338
 21
-61.02105713
 31
0.0
  0
LINE
  5
11B
330
1D
100
AcDbEntity
  8
SK6
100
AcDbLine
 10
-98.93121338
 20
-61.02105713
 30
0.0
 11
-98.93121338
 21
-64.4410553
 31
0.0
  0
LINE
  5
11C
330
1D
100
AcDbEntity
  8
SK6
100
AcDbLine
 10
-98.93121338
 20
-64.4410553
 30
0.0
 11
-101.72121429
 21
-64.4410553
 31
0.0
  0
LINE
  5
11D
330
1D
100
AcDbEntity
  8
SK6
100
AcDbLine
 10
-101.72121429
 20
-64.4410553
 30
0.0
 11
-101.72121429
 21
-48.6910553
 31
0.0
  0
LINE
  5
11E
330
1D
100
AcDbEntity
  8
SK6
100
AcDbLine
 10
-101.72121429
 20
-48.6910553
 30
0.0
 11
-98.93121338
 21
-48.6910553
 31
0.0
  0
LINE
  5
11F
330
1D
100
AcDbEntity
  8
SK6
100
AcDbLine
 10
-79.67120361
 20
-48.6910553
 30
0.0
 11
-79.67120361
 21
-64.4410553
 31
0.0
  0
LINE
  5
120
330
1D
100
AcDbEntity
  8
SK6
100
AcDbLine
 10
-79.67120361
 20
-64.4410553
 30
0.0
 11
-76.79119873
 21
-64.4410553
 31
0.0
  0
LINE
  5
121
330
1D
100
AcDbEntity
  8
SK6
100
AcDbLine
 10
-76.79119873
 20
-64.4410553
 30
0.0
 11
-76.79119873
 21
-48.6910553
 31
0.0
  0
LINE
  5
122
330
1D
100
AcDbEntity
  8
SK6
100
AcDbLine
 10
-76.79119873
 20
-48.6910553
 30
0.0
 11
-79.67121124
 21
-48.6910553
 31
0.0
  0
LINE
  5
123
330
1D
100
AcDbEntity
  8
SK6
100
AcDbLine
 10
-65.18121338
 20
-64.4410553
 30
0.0
 11
-59.33121109
 21
-64.4410553
 31
0.0
  0
LINE
  5
124
330
1D
100
AcDbEntity
  8
SK6
100
AcDbLine
 10
-59.33121109
 20
-64.4410553
 30
0.0
 11
-59.33121109
 21
-62.37104797
 31
0.0
  0
LINE
  5
125
330
1D
100
AcDbEntity
  8
SK6
100
AcDbLine
 10
-59.33122253
 20
-62.37104797
 30
0.0
 11
-62.30123901
 21
-62.37104797
 31
0.0
  0
LINE
  5
126
330
1D
100
AcDbEntity
  8
SK6
100
AcDbLine
 10
-62.30123901
 20
-62.37104797
 30
0.0
 11
-62.30123901
 21
-57.60103607
 31
0.0
  0
LINE
  5
127
330
1D
100
AcDbEntity
  8
SK6
100
AcDbLine
 10
-62.30123901
 20
-57.60103607
 30
0.0
 11
-59.33122253
 21
-57.60103607
 31
0.0
  0
LINE
  5
128
330
1D
100
AcDbEntity
  8
SK6
100
AcDbLine
 10
-59.33122253
 20
-57.60103607
 30
0.0
 11
-59.33122253
 21
-55.4410553
 31
0.0
  0
LINE
  5
129
330
1D
100
AcDbEntity
  8
SK6
100
AcDbLine
 10
-59.33122253
 20
-55.4410553
 30
0.0
 11
-62.30123901
 21
-55.4410553
 31
0.0
  0
LINE
  5
12A
330
1D
100
AcDbEntity
  8
SK6
100
AcDbLine
 10
-62.30123901
 20
-55.4410553
 30
0.0
 11
-62.30123901
 21
-50.76104736
 31
0.0
  0
LINE
  5
12B
330
1D
100
AcDbEntity
  8
SK6
100
AcDbLine
 10
-62.30123901
 20
-50.76104736
 30
0.0
 11
-59.33122253
 21
-50.76104736
 31
0.0
  0
LINE
  5
12C
330
1D
100
AcDbEntity
  8
SK6
100
AcDbLine
 10
-59.33122253
 20
-50.76104736
 30
0.0
 11
-59.33122253
 21
-48.6910553
 31
0.0
  0
LINE
  5
12D
330
1D
100
AcDbEntity
  8
SK6
100
AcDbLine
 10
-59.33122253
 20
-48.6910553
 30
0.0
 11
-65.18122864
 21
-48.6910553
 31
0.0
  0
LINE
  5
12E
330
1D
100
AcDbEntity
  8
SK6
100
AcDbLine
 10
-88.49121857
 20
-48.24105072
 30
0.0
 11
-85.43121338
 21
-48.24105072
 31
0.0
  0
LINE
  5
12F
330
1D
100
AcDbEntity
  8
SK6
100
AcDbLine
 10
-85.43121338
 20
-48.24105072
 30
0.0
 11
-81.02120972
 21
-64.4410553
 31
0.0
  0
LINE
  5
130
330
1D
100
AcDbEntity
  8
SK6
100
AcDbLine
 10
-81.02120972
 20
-64.4410553
 30
0.0
 11
-83.99121857
 21
-64.4410553
 31
0.0
  0
LINE
  5
131
330
1D
100
AcDbEntity
  8
SK6
100
AcDbLine
 10
-83.99121857
 20
-64.4410553
 30
0.0
 11
-87.05121613
 21
-52.56105804
 31
0.0
  0
LINE
  5
132
330
1D
100
AcDbEntity
  8
SK6
100
AcDbLine
 10
-87.05121613
 20
-52.56105804
 30
0.0
 11
-88.58122253
 21
-61.9210434
 31
0.0
  0
LINE
  5
133
330
1D
100
AcDbEntity
  8
SK6
100
AcDbLine
 10
-88.58122253
 20
-61.9210434
 30
0.0
 11
-85.70120239
 21
-61.9210434
 31
0.0
  0
LINE
  5
134
330
1D
100
AcDbEntity
  8
SK6
100
AcDbLine
 10
-85.70120239
 20
-61.9210434
 30
0.0
 11
-85.25121307
 21
-64.4410553
 31
0.0
  0
LINE
  5
135
330
1D
100
AcDbEntity
  8
SK6
100
AcDbLine
 10
-85.25121307
 20
-64.4410553
 30
0.0
 11
-91.55121613
 21
-64.4410553
 31
0.0
  0
LINE
  5
136
330
1D
100
AcDbEntity
  8
SK6
100
AcDbLine
 10
-91.55121613
 20
-64.4410553
 30
0.0
 11
-88.49121857
 21
-48.24105072
 31
0.0
  0
LINE
  5
137
330
1D
100
AcDbEntity
  8
SK3
  6
DASH
370
    35
100
AcDbLine
 10
-88.74531555
 20
10.5
 30
0.0
 11
-88.74532318
 21
-10.5
 31
0.0
  0
LINE
  5
138
330
1D
100
AcDbEntity
  8
SK3
  6
DASH
370
    35
100
AcDbLine
 10
-88.74532318
 20
-10.5
 30
0.0
 11
-11.288675217
 21
-10.5
 31
0.0
  0
LINE
  5
139
330
1D
100
AcDbEntity
  8
SK3
  6
DASH
370
    35
100
AcDbLine
 10
-11.288675217
 20
10.5
 30
0.0
 11
-88.74531555
 21
10.5
 31
0.0
  0
LINE
  5
13A
330
1D
100
AcDbEntity
  8
SK3
  6
DASH
370
    35
100
AcDbLine
 10
-88.74531555
 20
10.5
 30
0.0
 11
-89.90002441
 21
12.5
 31
0.0
  0
LINE
  5
13B
330
1D
100
AcDbEntity
  8
SK3
  6
DASH
370
    35
100
AcDbLine
 10
-89.90002441
 20
12.5
 30
0.0
 11
-89.90002441
 21
-12.5
 31
0.0
  0
LINE
  5
13C
330
1D
100
AcDbEntity
  8
SK3
  6
DASH
370
    35
100
AcDbLine
 10
-89.90002441
 20
-12.5
 30
0.0
 11
-101.60002136
 21
-12.5
 31
0.0
  0
LINE
  5
13D
330
1D
100
AcDbEntity
  8
SK3
  6
DASH
370
    35
100
AcDbLine
 10
-47.00196838
 20
10.5
 30
0.0
 11
-52.60002136
 21
12.0
 31
0.0
  0
LINE
  5
13E
330
1D
100
AcDbEntity
  8
SK3
  6
DASH
370
    35
100
AcDbLine
 10
-52.60002136
 20
12.0
 30
0.0
 11
-52.60002136
 21
-12.0
 31
0.0
  0
LINE
  5
13F
330
1D
100
AcDbEntity
  8
SK3
  6
DASH
370
    35
100
AcDbLine
 10
-52.60002136
 20
-12.0
 30
0.0
 11
-47.36891937
 21
-10.5
 31
0.0
  0
LINE
  5
140
330
1D
100
AcDbEntity
  8
SK3
  6
DASH
370
    35
100
AcDbLine
 10
-89.90002441
 20
12.5
 30
0.0
 11
-101.60002136
 21
12.5
 31
0.0
  0
LINE
  5
141
330
1D
100
AcDbEntity
  8
SK3
  6
DASH
370
    35
100
AcDbLine
 10
-52.60002136
 20
12.0
 30
0.0
 11
-89.61134338
 21
12.0
 31
0.0
  0
LINE
  5
142
330
1D
100
AcDbEntity
  8
SK3
  6
DASH
370
    35
100
AcDbLine
 10
-89.90002441
 20
-12.5
 30
0.0
 11
-88.74532318
 21
-10.5
 31
0.0
  0
LINE
  5
143
330
1D
100
AcDbEntity
  8
SK3
  6
DASH
370
    35
100
AcDbLine
 10
-52.60002136
 20
-12.0
 30
0.0
 11
-89.61135101
 21
-12.0
 31
0.0
  0
TEXT
  5
144
330
1D
100
AcDbEntity
  8
SK6
  6
Continuous
370
    35
100
AcDbText
 10
58.55431627444356
 20
-22.048891439
 30
0.0
 40
3.5
  1
325.952
  7
BMG_Text
100
AcDbText
  0
LINE
  5
1EB
330
1D
100
AcDbEntity
  8
NOCUT
100
AcDbLine
 10
0.0
 20
34.92500305
 30
0.0
 11
2.3999939
 21
34.92500305
 31
0.0
  0
LINE
  5
1EC
330
1D
100
AcDbEntity
  8
NOCUT
100
AcDbLine
 10
3.19999695
 20
35.7250061
 30
0.0
 11
3.19999695
 21
48.27500916
 31
0.0
  0
LINE
  5
1ED
330
1D
100
AcDbEntity
  8
NOCUT
100
AcDbLine
 10
3.19999695
 20
48.27500916
 30
0.0
 11
3.6499939
 21
48.7250061
 31
0.0
  0
LINE
  5
1EE
330
1D
100
AcDbEntity
  8
NOCUT
100
AcDbLine
 10
3.6499939
 20
48.7250061
 30
0.0
 11
7.86682129
 21
48.7250061
 31
0.0
  0
LINE
  5
1EF
330
1D
100
AcDbEntity
  8
NOCUT
100
AcDbLine
 10
7.86682129
 20
48.7250061
 30
0.0
 11
9.17498779
 21
46.45921326
 31
0.0
  0
LINE
  5
1F0
330
1D
100
AcDbEntity
  8
NOCUT
100
AcDbLine
 10
9.17498779
 20
46.45921326
 30
0.0
 11
9.17498779
 21
46.0
 31
0.0
  0
LINE
  5
1F1
330
1D
100
AcDbEntity
  8
NOCUT
100
AcDbLine
 10
9.67498779
 20
45.5
 30
0.0
 11
12.5249939
 21
45.5
 31
0.0
  0
LINE
  5
1F2
330
1D
100
AcDbEntity
  8
NOCUT
100
AcDbLine
 10
13.0249939
 20
46.0
 30
0.0
 11
13.0249939
 21
46.45921326
 31
0.0
  0
LINE
  5
1F3
330
1D
100
AcDbEntity
  8
NOCUT
100
AcDbLine
 10
13.0249939
 20
46.45921326
 30
0.0
 11
14.33314514
 21
48.7250061
 31
0.0
  0
LINE
  5
1F4
330
1D
100
AcDbEntity
  8
NOCUT
100
AcDbLine
 10
14.33314514
 20
48.7250061
 30
0.0
 11
18.60002136
 21
48.7250061
 31
0.0
  0
LINE
  5
1F5
330
1D
100
AcDbEntity
  8
NOCUT
100
AcDbLine
 10
18.60002136
 20
48.7250061
 30
0.0
 11
19.05000305
 21
48.27500916
 31
0.0
  0
LINE
  5
1F6
330
1D
100
AcDbEntity
  8
NOCUT
100
AcDbLine
 10
19.05000305
 20
48.27500916
 30
0.0
 11
19.05000305
 21
35.7250061
 31
0.0
  0
LINE
  5
1F7
330
1D
100
AcDbEntity
  8
NOCUT
100
AcDbLine
 10
19.8500061
 20
34.92500305
 30
0.0
 11
34.49998474
 21
34.92500305
 31
0.0
  0
LINE
  5
1F8
330
1D
100
AcDbEntity
  8
NOCUT
100
AcDbLine
 10
34.49998474
 20
34.92500305
 30
0.0
 11
35.0
 21
34.42500305
 31
0.0
  0
LINE
  5
1F9
330
1D
100
AcDbEntity
  8
NOCUT
100
AcDbLine
 10
35.0
 20
34.42500305
 30
0.0
 11
35.0
 21
30.0
 31
0.0
  0
LINE
  5
1FA
330
1D
100
AcDbEntity
  8
NOCUT
100
AcDbLine
 10
40.0
 20
25.0
 30
0.0
 11
81.99996948
 21
25.0
 31
0.0
  0
LINE
  5
1FB
330
1D
100
AcDbEntity
  8
NOCUT
100
AcDbLine
 10
81.99996948
 20
25.0
 30
0.0
 11
83.0
 21
24.0
 31
0.0
  0
LINE
  5
1FC
330
1D
100
AcDbEntity
  8
NOCUT
100
AcDbLine
 10
83.0
 20
24.0
 30
0.0
 11
83.0
 21
0.0
 31
0.0
  0
LINE
  5
1FD
330
1D
100
AcDbEntity
  8
NOCUT
100
AcDbLine
 10
83.0
 20
0.0
 30
0.0
 11
0.0
 21
0.0
 31
0.0
  0
ARC
  5
1FE
330
1D
100
AcDbEntity
  8
NOCUT
100
AcDbCircle
 10
40.0
 20
30.0
 30
0.0
 40
5.0
100
AcDbArc
 50
180.0
 51
270.0
  0
ARC
  5
1FF
330
1D
100
AcDbEntity
  8
NOCUT
100
AcDbCircle
 10
19.8500061
 20
35.7250061
 30
0.0
 40
0.8000030500000012
100
AcDbArc
 50
180.0
 51
270.0
  0
ARC
  5
200
330
1D
100
AcDbEntity
  8
NOCUT
100
AcDbCircle
 10
9.674987789999996
 20
45.99999999999999
 30
0.0
 40
0.4999999999999964
100
AcDbArc
 50
179.9999999999992
 51
270.0000000000004
  0
ARC
  5
201
330
1D
100
AcDbEntity
  8
NOCUT
100
AcDbCircle
 10
12.5249939
 20
45.99999999999999
 30
0.0
 40
0.4999999999999964
100
AcDbArc
 50
269.9999999999996
 51
0.0000000000008142
  0
LWPOLYLINE
  5
227
330
1D
100
AcDbEntity
  8
INFTOTAL
100
AcDbPolyline
 90
        4
 70
     1
 43
0.0
 10
-148.0173172633421
 20
84.4109801076236
 10
-148.0173172633421
 20
-98.35296879484372
 10
150.781349704992
 20
-98.35296879484372
 10
150.781349704992
 20
84.4109801076236
  0
LINE
  5
23E
330
1D
100
AcDbEntity
  8
SK3
100
AcDbLine
 10
0.0
 20
10.0
 30
0.0
 11
-11.0
 21
10.0
 31
0.0
  0
LINE
  5
23F
330
1D
100
AcDbEntity
  8
SK3
100
AcDbLine
 10
0.0
 20
-10.0
 30
0.0
 11
-11.0
 21
-10.0
 31
0.0
  0
LINE
  5
244
330
1D
100
AcDbEntity
  8
SK4
100
AcDbLine
 10
-14.677920624
 20
0.0
 30
0.0
 11
85.0
 21
0.0
 31
0.0
  0
ARC
  5
267
330
1D
100
AcDbEntity
  8
NOCUT
100
AcDbCircle
 10
2.3999939
 20
35.7250061
 30
0.0
 40
0.8000030500000008
100
AcDbArc
 50
270.0
 51
0.0
  0
LINE
  5
292
330
1D
100
AcDbEntity
  8
SK1
100
AcDbLine
 10
0.0
 20
-34.92500305
 30
0.0
 11
0.0
 21
34.92500305
 31
0.0
  0
LINE
  5
296
330
1D
100
AcDbEntity
  8
NOCUT
100
AcDbLine
 10
0.0
 20
34.92500305
 30
0.0
 11
0.0
 21
0.0
 31
0.0
  0
ENDSEC
  0
SECTION
  2
OBJECTS
  0
DICTIONARY
  5
C
330
0
100
AcDbDictionary
281
     1
  3
ACAD_DETAILVIEWSTYLE
350
1E6
  3
ACAD_GROUP
350
D
  3
ACAD_LAYOUT
350
1A
  3
ACAD_MATERIAL
350
182
  3
ACAD_MLEADERSTYLE
350
18F
  3
ACAD_MLINESTYLE
350
17
  3
ACAD_PLOTSETTINGS
350
19
  3
ACAD_PLOTSTYLENAME
350
E
  3
ACAD_SCALELIST
350
14B
  3
ACAD_SECTIONVIEWSTYLE
350
1E7
  3
ACAD_TABLESTYLE
350
1D8
  3
ACAD_VISUALSTYLE
350
171
  3
ACDB_RECOMPOSE_DATA
350
2BD
  3
AcDbVariableDictionary
350
18D
  3
APPDATA
350
1DB
  0
SUN
  5
228
330
145
100
AcDbSun
 90
        1
290
     0
 63
     7
421
 16777215
 40
1.0
291
     1
 91
  2455826
 92
 54000000
292
     0
 70
     2
 71
   256
280
     1
  0
DICTIONARY
  5
1DC
330
2
100
AcDbDictionary
280
     1
281
     1
  3
ACAD_LAYERSTATES
360
1DD
  0
DICTIONARY
  5
1E6
102
{ACAD_REACTORS
330
C
102
}
330
C
100
AcDbDictionary
281
     1
  0
DICTIONARY
  5
D
102
{ACAD_REACTORS
330
C
102
}
330
C
100
AcDbDictionary
281
     1
  0
DICTIONARY
  5
1A
102
{ACAD_REACTORS
330
C
102
}
330
C
100
AcDbDictionary
281
     1
  3
Layout1
350
1C
  3
Model
350
1E
  0
DICTIONARY
  5
182
102
{ACAD_REACTORS
330
C
102
}
330
C
100
AcDbDictionary
281
     1
  3
ByBlock
350
184
  3
ByLayer
350
183
  3
Global
350
185
  0
DICTIONARY
  5
18F
102
{ACAD_REACTORS
330
C
102
}
330
C
100
AcDbDictionary
281
     1
  3
Standard
350
1DA
  0
DICTIONARY
  5
17
102
{ACAD_REACTORS
330
C
102
}
330
C
100
AcDbDictionary
281
     1
  3
Standard
350
18
  0
DICTIONARY
  5
19
102
{ACAD_REACTORS
330
C
102
}
330
C
100
AcDbDictionary
281
     1
  0
ACDBDICTIONARYWDFLT
  5
E
102
{ACAD_REACTORS
330
C
102
}
330
C
100
AcDbDictionary
281
     1
  3
Normal
350
F
100
AcDbDictionaryWithDefault
340
F
  0
DICTIONARY
  5
14B
102
{ACAD_REACTORS
330
C
102
}
330
C
100
AcDbDictionary
281
     1
  3
A0
350
14C
  3
A1
350
14D
  3
A2
350
14E
  3
A3
350
14F
  3
A4
350
150
  3
A5
350
151
  3
A6
350
152
  3
A7
350
153
  3
A8
350
154
  3
A9
350
155
  3
B0
350
156
  3
B1
350
157
  3
B2
350
158
  3
B3
350
159
  3
B4
350
15A
  3
B5
350
15B
  3
B6
350
15C
  3
B7
350
15D
  3
B8
350
15E
  3
B9
350
15F
  3
C0
350
160
  3
C1
350
161
  3
C2
350
162
  3
C3
350
163
  3
C4
350
164
  3
C5
350
165
  3
C6
350
166
  3
C7
350
167
  3
C8
350
168
  3
C9
350
169
  3
D0
350
16A
  3
D1
350
16B
  3
D2
350
16C
  0
DICTIONARY
  5
1E7
102
{ACAD_REACTORS
330
C
102
}
330
C
100
AcDbDictionary
281
     1
  0
DICTIONARY
  5
1D8
102
{ACAD_REACTORS
330
C
102
}
330
C
100
AcDbDictionary
281
     1
  3
Standard
350
1D9
  0
DICTIONARY
  5
171
102
{ACAD_REACTORS
330
C
102
}
330
C
100
AcDbDictionary
281
     1
  3
2dWireframe
350
176
  3
3D Hidden
350
178
  3
3dWireframe
350
177
  3
Basic
350
179
  3
Brighten
350
17D
  3
ColorChange
350
181
  3
Conceptual
350
17B
  3
Dim
350
17C
  3
EdgeColorOff
350
1D2
  3
Facepattern
350
180
  3
Flat
350
172
  3
FlatWithEdges
350
173
  3
Gouraud
350
174
  3
GouraudWithEdges
350
175
  3
Hidden
350
1CF
  3
JitterOff
350
1D0
  3
Linepattern
350
17F
  3
OverhangOff
350
1D1
  3
Realistic
350
17A
  3
Shaded
350
1D7
  3
Shaded with edges
350
1D6
  3
Shades of Gray
350
1D3
  3
Sketchy
350
1D4
  3
Thicken
350
17E
  3
Wireframe
350
1CE
  3
X-Ray
350
1D5
  0
XRECORD
  5
2BD
102
{ACAD_REACTORS
330
C
102
}
330
C
100
AcDbXrecord
280
     1
 90
        1
330
1D9
  0
DICTIONARY
  5
18D
102
{ACAD_REACTORS
330
C
102
}
330
C
100
AcDbDictionary
281
     1
  3
CANNOSCALE
350
1E3
  3
CMLEADERSTYLE
350
1E5
  3
CTABLESTYLE
350
1E4
  3
DIMASSOC
350
191
  3
HIDETEXT
350
192
  3
MSLTSCALE
350
190
  0
DICTIONARY
  5
1DB
102
{ACAD_REACTORS
330
C
102
}
330
C
100
AcDbDictionary
281
     1
  0
DICTIONARY
  5
1DD
102
{ACAD_REACTORS
330
1DC
102
}
330
1DC
100
AcDbDictionary
281
     1
  0
LAYOUT
  5
1C
102
{ACAD_REACTORS
330
1A
102
}
330
1A
100
AcDbPlotSettings
  1

  2
none_device
  4

  6

 40
0.0
 41
0.0
 42
0.0
 43
0.0
 44
0.0
 45
0.0
 46
0.0
 47
0.0
 48
0.0
 49
0.0
140
0.0
141
0.0
142
1.0
143
1.0
 70
   688
 72
     0
 73
     0
 74
     5
  7

 75
    16
 76
     0
 77
     2
 78
   300
147
1.0
148
0.0
149
0.0
100
AcDbLayout
  1
Layout1
 70
     1
 71
     1
 10
0.0
 20
0.0
 11
12.0
 21
9.0
 12
0.0
 22
0.0
 32
0.0
 14
1.000000000000000E+20
 24
1.000000000000000E+20
 34
1.000000000000000E+20
 15
-1.000000000000000E+20
 25
-1.000000000000000E+20
 35
-1.000000000000000E+20
146
0.0
 13
0.0
 23
0.0
 33
0.0
 16
1.0
 26
0.0
 36
0.0
 17
0.0
 27
1.0
 37
0.0
 76
     0
330
1B
  0
LAYOUT
  5
1E
102
{ACAD_REACTORS
330
1A
102
}
330
1A
100
AcDbPlotSettings
  1

  2
none_device
  4

  6

 40
0.0
 41
0.0
 42
0.0
 43
0.0
 44
0.0
 45
0.0
 46
0.0
 47
0.0
 48
0.0
 49
0.0
140
0.0
141
0.0
142
1.0
143
1.0
 70
  1712
 72
     0
 73
     0
 74
     0
  7

 75
     0
 76
     0
 77
     2
 78
   300
147
1.0
148
0.0
149
0.0
100
AcDbLayout
  1
Model
 70
     1
 71
     0
 10
0.0
 20
0.0
 11
12.0
 21
9.0
 12
0.0
 22
0.0
 32
0.0
 14
-148.0173172633421
 24
-98.35296879484372
 34
0.0
 15
150.781349704992
 25
84.4109801076236
 35
0.0
146
0.0
 13
0.0
 23
0.0
 33
0.0
 16
1.0
 26
0.0
 36
0.0
 17
0.0
 27
1.0
 37
0.0
 76
     0
330
1D
331
145
  0
MATERIAL
  5
184
102
{ACAD_REACTORS
330
182
102
}
330
182
100
AcDbMaterial
  1
ByBlock
 72
     1
 94
      127
  0
MATERIAL
  5
183
102
{ACAD_REACTORS
330
182
102
}
330
182
100
AcDbMaterial
  1
ByLayer
 72
     1
 94
      127
  0
MATERIAL
  5
185
102
{ACAD_REACTORS
330
182
102
}
330
182
100
AcDbMaterial
  1
Global
 72
     1
 94
      127
  0
MLEADERSTYLE
  5
1DA
102
{ACAD_REACTORS
330
18F
102
}
330
18F
100
AcDbMLeaderStyle
179
     2
170
     2
171
     1
172
     0
 90
        2
 40
0.0
 41
0.0
173
     1
 91
-1056964608
340
14
 92
       -2
290
     1
 42
0.09
291
     1
 43
0.36
  3
Standard
341
0
 44
0.18
300

342
11
174
     1
178
     1
175
     1
176
     0
 93
-1056964608
 45
0.18
292
     0
297
     0
 46
0.18
343
0
 94
-1056964608
 47
1.0
 49
1.0
140
1.0
293
     1
141
0.0
294
     1
177
     0
142
1.0
295
     0
296
     0
143
0.125
271
     0
272
     9
273
     9
298
     0
  0
MLINESTYLE
  5
18
102
{ACAD_REACTORS
330
17
102
}
330
17
100
AcDbMlineStyle
  2
Standard
 70
     0
  3

 62
   256
 51
90.0
 52
90.0
 71
     2
 49
0.5
 62
   256
  6
BYLAYER
 49
-0.5
 62
   256
  6
BYLAYER
  0
ACDBPLACEHOLDER
  5
F
102
{ACAD_REACTORS
330
E
102
}
330
E
  0
SCALE
  5
14C
102
{ACAD_REACTORS
330
14B
102
}
330
14B
100
AcDbScale
 70
     0
300
1:1
140
1.0
141
1.0
290
     1
  0
SCALE
  5
14D
102
{ACAD_REACTORS
330
14B
102
}
330
14B
100
AcDbScale
 70
     0
300
1:2
140
1.0
141
2.0
290
     0
  0
SCALE
  5
14E
102
{ACAD_REACTORS
330
14B
102
}
330
14B
100
AcDbScale
 70
     0
300
1:4
140
1.0
141
4.0
290
     0
  0
SCALE
  5
14F
102
{ACAD_REACTORS
330
14B
102
}
330
14B
100
AcDbScale
 70
     0
300
1:5
140
1.0
141
5.0
290
     0
  0
SCALE
  5
150
102
{ACAD_REACTORS
330
14B
102
}
330
14B
100
AcDbScale
 70
     0
300
1:8
140
1.0
141
8.0
290
     0
  0
SCALE
  5
151
102
{ACAD_REACTORS
330
14B
102
}
330
14B
100
AcDbScale
 70
     0
300
1:10
140
1.0
141
10.0
290
     0
  0
SCALE
  5
152
102
{ACAD_REACTORS
330
14B
102
}
330
14B
100
AcDbScale
 70
     0
300
1:16
140
1.0
141
16.0
290
     0
  0
SCALE
  5
153
102
{ACAD_REACTORS
330
14B
102
}
330
14B
100
AcDbScale
 70
     0
300
1:20
140
1.0
141
20.0
290
     0
  0
SCALE
  5
154
102
{ACAD_REACTORS
330
14B
102
}
330
14B
100
AcDbScale
 70
     0
300
1:30
140
1.0
141
30.0
290
     0
  0
SCALE
  5
155
102
{ACAD_REACTORS
330
14B
102
}
330
14B
100
AcDbScale
 70
     0
300
1:40
140
1.0
141
40.0
290
     0
  0
SCALE
  5
156
102
{ACAD_REACTORS
330
14B
102
}
330
14B
100
AcDbScale
 70
     0
300
1:50
140
1.0
141
50.0
290
     0
  0
SCALE
  5
157
102
{ACAD_REACTORS
330
14B
102
}
330
14B
100
AcDbScale
 70
     0
300
1:100
140
1.0
141
100.0
290
     0
  0
SCALE
  5
158
102
{ACAD_REACTORS
330
14B
102
}
330
14B
100
AcDbScale
 70
     0
300
2:1
140
2.0
141
1.0
290
     0
  0
SCALE
  5
159
102
{ACAD_REACTORS
330
14B
102
}
330
14B
100
AcDbScale
 70
     0
300
4:1
140
4.0
141
1.0
290
     0
  0
SCALE
  5
15A
102
{ACAD_REACTORS
330
14B
102
}
330
14B
100
AcDbScale
 70
     0
300
8:1
140
8.0
141
1.0
290
     0
  0
SCALE
  5
15B
102
{ACAD_REACTORS
330
14B
102
}
330
14B
100
AcDbScale
 70
     0
300
10:1
140
10.0
141
1.0
290
     0
  0
SCALE
  5
15C
102
{ACAD_REACTORS
330
14B
102
}
330
14B
100
AcDbScale
 70
     0
300
100:1
140
100.0
141
1.0
290
     0
  0
SCALE
  5
15D
102
{ACAD_REACTORS
330
14B
102
}
330
14B
100
AcDbScale
 70
     0
300
1/128" = 1'-0"
140
0.0078125
141
12.0
290
     0
  0
SCALE
  5
15E
102
{ACAD_REACTORS
330
14B
102
}
330
14B
100
AcDbScale
 70
     0
300
1/64" = 1'-0"
140
0.015625
141
12.0
290
     0
  0
SCALE
  5
15F
102
{ACAD_REACTORS
330
14B
102
}
330
14B
100
AcDbScale
 70
     0
300
1/32" = 1'-0"
140
0.03125
141
12.0
290
     0
  0
SCALE
  5
160
102
{ACAD_REACTORS
330
14B
102
}
330
14B
100
AcDbScale
 70
     0
300
1/16" = 1'-0"
140
0.0625
141
12.0
290
     0
  0
SCALE
  5
161
102
{ACAD_REACTORS
330
14B
102
}
330
14B
100
AcDbScale
 70
     0
300
3/32" = 1'-0"
140
0.09375
141
12.0
290
     0
  0
SCALE
  5
162
102
{ACAD_REACTORS
330
14B
102
}
330
14B
100
AcDbScale
 70
     0
300
1/8" = 1'-0"
140
0.125
141
12.0
290
     0
  0
SCALE
  5
163
102
{ACAD_REACTORS
330
14B
102
}
330
14B
100
AcDbScale
 70
     0
300
3/16" = 1'-0"
140
0.1875
141
12.0
290
     0
  0
SCALE
  5
164
102
{ACAD_REACTORS
330
14B
102
}
330
14B
100
AcDbScale
 70
     0
300
1/4" = 1'-0"
140
0.25
141
12.0
290
     0
  0
SCALE
  5
165
102
{ACAD_REACTORS
330
14B
102
}
330
14B
100
AcDbScale
 70
     0
300
3/8" = 1'-0"
140
0.375
141
12.0
290
     0
  0
SCALE
  5
166
102
{ACAD_REACTORS
330
14B
102
}
330
14B
100
AcDbScale
 70
     0
300
1/2" = 1'-0"
140
0.5
141
12.0
290
     0
  0
SCALE
  5
167
102
{ACAD_REACTORS
330
14B
102
}
330
14B
100
AcDbScale
 70
     0
300
3/4" = 1'-0"
140
0.75
141
12.0
290
     0
  0
SCALE
  5
168
102
{ACAD_REACTORS
330
14B
102
}
330
14B
100
AcDbScale
 70
     0
300
1" = 1'-0"
140
1.0
141
12.0
290
     0
  0
SCALE
  5
169
102
{ACAD_REACTORS
330
14B
102
}
330
14B
100
AcDbScale
 70
     0
300
1-1/2" = 1'-0"
140
1.5
141
12.0
290
     0
  0
SCALE
  5
16A
102
{ACAD_REACTORS
330
14B
102
}
330
14B
100
AcDbScale
 70
     0
300
3" = 1'-0"
140
3.0
141
12.0
290
     0
  0
SCALE
  5
16B
102
{ACAD_REACTORS
330
14B
102
}
330
14B
100
AcDbScale
 70
     0
300
6" = 1'-0"
140
6.0
141
12.0
290
     0
  0
SCALE
  5
16C
102
{ACAD_REACTORS
330
14B
102
}
330
14B
100
AcDbScale
 70
     0
300
1'-0" = 1'-0"
140
12.0
141
12.0
290
     0
  0
TABLESTYLE
  5
1D9
102
{ACAD_REACTORS
330
1D8
102
}
102
{ACAD_XDICTIONARY
360
2BB
102
}
330
1D8
100
AcDbTableStyle
  3
Standard
 70
     0
 71
     0
 40
0.06
 41
0.06
280
     0
281
     0
  7
Standard
140
0.18
170
     2
 62
     0
 63
   257
283
     0
 90
        4
 91
        0
  1

274
    -2
284
     1
 64
     0
275
    -2
285
     1
 65
     0
276
    -2
286
     1
 66
     0
277
    -2
287
     1
 67
     0
278
    -2
288
     1
 68
     0
279
    -2
289
     1
 69
     0
  7
Standard
140
0.25
170
     5
 62
     0
 63
   257
283
     0
 90
        4
 91
        0
  1

274
    -2
284
     1
 64
     0
275
    -2
285
     1
 65
     0
276
    -2
286
     1
 66
     0
277
    -2
287
     1
 67
     0
278
    -2
288
     1
 68
     0
279
    -2
289
     1
 69
     0
  7
Standard
140
0.18
170
     5
 62
     0
 63
   257
283
     0
 90
        4
 91
        0
  1

274
    -2
284
     1
 64
     0
275
    -2
285
     1
 65
     0
276
    -2
286
     1
 66
     0
277
    -2
287
     1
 67
     0
278
    -2
288
     1
 68
     0
279
    -2
289
     1
 69
     0
  0
VISUALSTYLE
  5
176
102
{ACAD_REACTORS
330
171
102
}
330
171
100
AcDbVisualStyle
  2
2dWireframe
 70
     4
177
     3
291
     0
 70
    58
 90
        0
176
     1
 90
        2
176
     1
 90
        0
176
     1
 90
        0
176
     1
 40
-0.6
176
     1
 40
-30.0
176
     1
 62
     7
176
     1
 90
        1
176
     1
 90
        4
176
     1
 62
     7
176
     1
 62
   257
176
     1
 90
        1
176
     1
 90
        1
176
     1
 40
1.0
176
     1
 90
        0
176
     1
 62
   257
176
     1
 40
1.0
176
     1
 90
        1
176
     1
 90
        6
176
     1
 90
        2
176
     1
 62
     7
176
     1
 90
        5
176
     1
 90
        0
176
     1
 90
        0
176
     1
290
     0
176
     1
 90
        1
176
     1
 40
0.0
176
     1
 90
        0
176
     1
290
     1
176
     1
290
     1
176
     1
290
     0
176
     1
290
     0
176
     1
290
     0
176
     1
290
     0
176
     1
290
     0
176
     1
290
     0
176
     1
290
     0
176
     1
 90
       50
176
     1
 40
0.0
176
     1
 40
1.0
176
     1
 90
        0
176
     1
 62
    18
420
        0
176
     1
 90
       50
176
     1
 90
        3
176
     1
 62
     5
420
      255
176
     1
290
     0
176
     1
 90
       50
176
     1
 90
       50
176
     1
 90
       50
176
     1
290
     0
176
     1
 90
       50
176
     1
 62
   256
176
     0
 40
1.0
176
     0
 90
        2
176
     1
  1
strokes_ogs.tif
176
     1
290
     0
176
     1
 40
1.0
176
     1
 40
1.0
176
     1
  0
VISUALSTYLE
  5
178
102
{ACAD_REACTORS
330
171
102
}
330
171
100
AcDbVisualStyle
  2
3D Hidden
 70
     6
177
     3
291
     0
 70
    58
 90
        1
176
     1
 90
        2
176
     1
 90
        2
176
     1
 90
        0
176
     1
 40
-0.6
176
     1
 40
-30.0
176
     1
 62
     7
176
     1
 90
        2
176
     1
 90
        2
176
     1
 62
     7
176
     1
 62
   257
176
     1
 90
        2
176
     1
 90
        1
176
     1
 40
40.0
176
     1
 90
        0
176
     1
 62
   257
176
     1
 40
1.0
176
     1
 90
        1
176
     1
 90
        6
176
     1
 90
        2
176
     1
 62
     7
176
     1
 90
        3
176
     1
 90
        0
176
     1
 90
        0
176
     1
290
     0
176
     1
 90
        1
176
     1
 40
0.0
176
     1
 90
        0
176
     1
290
     0
176
     1
290
     1
176
     1
290
     1
176
     1
290
     0
176
     1
290
     0
176
     1
290
     0
176
     1
290
     0
176
     1
290
     0
176
     1
290
     0
176
     1
 90
       50
176
     1
 40
0.0
176
     1
 40
1.0
176
     1
 90
        0
176
     1
 62
    18
420
        0
176
     1
 90
       50
176
     1
 90
        3
176
     1
 62
     5
420
      255
176
     1
290
     0
176
     1
 90
       50
176
     1
 90
       50
176
     1
 90
       50
176
     1
290
     0
176
     1
 90
       50
176
     1
 62
   256
176
     0
 40
1.0
176
     0
 90
        2
176
     1
  1
strokes_ogs.tif
176
     1
290
     0
176
     1
 40
1.0
176
     1
 40
1.0
176
     1
  0
VISUALSTYLE
  5
177
102
{ACAD_REACTORS
330
171
102
}
330
171
100
AcDbVisualStyle
  2
3dWireframe
 70
     5
177
     3
291
     0
 70
    58
 90
        0
176
     1
 90
        2
176
     1
 90
        0
176
     1
 90
        0
176
     1
 40
-0.6
176
     1
 40
-30.0
176
     1
 62
     7
176
     1
 90
        1
176
     1
 90
        4
176
     1
 62
     7
176
     1
 62
   257
176
     1
 90
        1
176
     1
 90
        1
176
     1
 40
1.0
176
     1
 90
        0
176
     1
 62
   257
176
     1
 40
1.0
176
     1
 90
        1
176
     1
 90
        6
176
     1
 90
        2
176
     1
 62
     7
176
     1
 90
        5
176
     1
 90
        0
176
     1
 90
        0
176
     1
290
     0
176
     1
 90
        1
176
     1
 40
0.0
176
     1
 90
        0
176
     1
290
     0
176
     1
290
     1
176
     1
290
     1
176
     1
290
     0
176
     1
290
     0
176
     1
290
     0
176
     1
290
     0
176
     1
290
     0
176
     1
290
     0
176
     1
 90
       50
176
     1
 40
0.0
176
     1
 40
1.0
176
     1
 90
        0
176
     1
 62
    18
420
        0
176
     1
 90
       50
176
     1
 90
        3
176
     1
 62
     5
420
      255
176
     1
290
     0
176
     1
 90
       50
176
     1
 90
       50
176
     1
 90
       50
176
     1
290
     0
176
     1
 90
       50
176
     1
 62
   256
176
     0
 40
1.0
176
     0
 90
        2
176
     1
  1
strokes_ogs.tif
176
     1
290
     0
176
     1
 40
1.0
176
     1
 40
1.0
176
     1
  0
VISUALSTYLE
  5
179
102
{ACAD_REACTORS
330
171
102
}
330
171
100
AcDbVisualStyle
  2
Basic
 70
     7
177
     3
291
     1
 70
    58
 90
        1
176
     1
 90
        0
176
     1
 90
        1
176
     1
 90
        0
176
     1
 40
-0.6
176
     1
 40
-30.0
176
     1
 62
     7
176
     1
 90
        0
176
     1
 90
        4
176
     1
 62
     7
176
     1
 62
   257
176
     1
 90
        1
176
     1
 90
        1
176
     1
 40
1.0
176
     1
 90
        8
176
     1
 62
     7
176
     1
 40
1.0
176
     1
 90
        1
176
     1
 90
        6
176
     1
 90
        2
176
     1
 62
     7
176
     1
 90
        5
176
     1
 90
        0
176
     1
 90
        0
176
     1
290
     0
176
     1
 90
        1
176
     1
 40
0.0
176
     1
 90
        0
176
     1
290
     0
176
     1
290
     1
176
     1
290
     1
176
     1
290
     0
176
     1
290
     0
176
     1
290
     0
176
     1
290
     0
176
     1
290
     0
176
     1
290
     0
176
     1
 90
       50
176
     1
 40
0.0
176
     1
 40
1.0
176
     1
 90
        0
176
     1
 62
    18
420
        0
176
     1
 90
       50
176
     1
 90
        3
176
     1
 62
     5
420
      255
176
     1
290
     0
176
     1
 90
       50
176
     1
 90
       50
176
     1
 90
       50
176
     1
290
     0
176
     1
 90
       50
176
     1
 62
   256
176
     0
 40
1.0
176
     0
 90
        2
176
     1
  1
strokes_ogs.tif
176
     1
290
     0
176
     1
 40
1.0
176
     1
 40
1.0
176
     1
  0
VISUALSTYLE
  5
17D
102
{ACAD_REACTORS
330
171
102
}
330
171
100
AcDbVisualStyle
  2
Brighten
 70
    12
177
     3
291
     1
 70
    58
 90
        2
176
     1
 90
        2
176
     1
 90
        0
176
     1
 90
        0
176
     1
 40
-0.6
176
     1
 40
-30.0
176
     1
 62
     7
176
     1
 90
        1
176
     1
 90
        4
176
     1
 62
     7
176
     1
 62
   257
176
     1
 90
        1
176
     1
 90
        1
176
     1
 40
1.0
176
     1
 90
        8
176
     1
 62
     7
176
     1
 40
1.0
176
     1
 90
        1
176
     1
 90
        6
176
     1
 90
        2
176
     1
 62
     7
176
     1
 90
        5
176
     1
 90
        0
176
     1
 90
        0
176
     1
290
     0
176
     1
 90
        1
176
     1
 40
50.0
176
     1
 90
        0
176
     1
290
     0
176
     1
290
     1
176
     1
290
     1
176
     1
290
     0
176
     1
290
     0
176
     1
290
     0
176
     1
290
     0
176
     1
290
     0
176
     1
290
     0
176
     1
 90
       50
176
     1
 40
0.0
176
     1
 40
1.0
176
     1
 90
        0
176
     1
 62
    18
420
        0
176
     1
 90
       50
176
     1
 90
        3
176
     1
 62
     5
420
      255
176
     1
290
     0
176
     1
 90
       50
176
     1
 90
       50
176
     1
 90
       50
176
     1
290
     0
176
     1
 90
       50
176
     1
 62
   256
176
     0
 40
1.0
176
     0
 90
        2
176
     1
  1
strokes_ogs.tif
176
     1
290
     0
176
     1
 40
1.0
176
     1
 40
1.0
176
     1
  0
VISUALSTYLE
  5
181
102
{ACAD_REACTORS
330
171
102
}
330
171
100
AcDbVisualStyle
  2
ColorChange
 70
    16
177
     3
291
     1
 70
    58
 90
        2
176
     1
 90
        2
176
     1
 90
        3
176
     1
 90
        0
176
     1
 40
-0.6
176
     1
 40
-30.0
176
     1
 62
     8
176
     1
 90
        1
176
     1
 90
        4
176
     1
 62
     7
176
     1
 62
   257
176
     1
 90
        1
176
     1
 90
        1
176
     1
 40
1.0
176
     1
 90
        8
176
     1
 62
     8
176
     1
 40
1.0
176
     1
 90
        1
176
     1
 90
        6
176
     1
 90
        2
176
     1
 62
     7
176
     1
 90
        5
176
     1
 90
        0
176
     1
 90
        0
176
     1
290
     0
176
     1
 90
        1
176
     1
 40
0.0
176
     1
 90
        0
176
     1
290
     0
176
     1
290
     1
176
     1
290
     1
176
     1
290
     0
176
     1
290
     0
176
     1
290
     0
176
     1
290
     0
176
     1
290
     0
176
     1
290
     0
176
     1
 90
       50
176
     1
 40
0.0
176
     1
 40
1.0
176
     1
 90
        0
176
     1
 62
    18
420
        0
176
     1
 90
       50
176
     1
 90
        3
176
     1
 62
     5
420
      255
176
     1
290
     0
176
     1
 90
       50
176
     1
 90
       50
176
     1
 90
       50
176
     1
290
     0
176
     1
 90
       50
176
     1
 62
   256
176
     0
 40
1.0
176
     0
 90
        2
176
     1
  1
strokes_ogs.tif
176
     1
290
     0
176
     1
 40
1.0
176
     1
 40
1.0
176
     1
  0
VISUALSTYLE
  5
17B
102
{ACAD_REACTORS
330
171
102
}
330
171
100
AcDbVisualStyle
  2
Conceptual
 70
     9
177
     3
291
     0
 70
    58
 90
        3
176
     1
 90
        2
176
     1
 90
        0
176
     1
 90
        0
176
     1
 40
-0.6
176
     1
 40
-30.0
176
     1
 62
     7
176
     1
 90
        2
176
     1
 90
        2
176
     1
 62
     7
176
     1
 62
   257
176
     1
 90
        1
176
     1
 90
        1
176
     1
 40
40.0
176
     1
 90
        8
176
     1
 62
     7
176
     1
 40
1.0
176
     1
 90
        1
176
     1
 90
        6
176
     1
 90
        2
176
     1
 62
     7
176
     1
 90
        3
176
     1
 90
        0
176
     1
 90
        0
176
     1
290
     0
176
     1
 90
        1
176
     1
 40
0.0
176
     1
 90
        0
176
     1
290
     0
176
     1
290
     1
176
     1
290
     1
176
     1
290
     0
176
     1
290
     0
176
     1
290
     0
176
     1
290
     0
176
     1
290
     0
176
     1
290
     0
176
     1
 90
       50
176
     1
 40
0.0
176
     1
 40
1.0
176
     1
 90
        0
176
     1
 62
    18
420
        0
176
     1
 90
       50
176
     1
 90
        3
176
     1
 62
     5
420
      255
176
     1
290
     0
176
     1
 90
       50
176
     1
 90
       50
176
     1
 90
       50
176
     1
290
     0
176
     1
 90
       50
176
     1
 62
   256
176
     0
 40
1.0
176
     0
 90
        2
176
     1
  1
strokes_ogs.tif
176
     1
290
     0
176
     1
 40
1.0
176
     1
 40
1.0
176
     1
  0
VISUALSTYLE
  5
17C
102
{ACAD_REACTORS
330
171
102
}
330
171
100
AcDbVisualStyle
  2
Dim
 70
    11
177
     3
291
     1
 70
    58
 90
        2
176
     1
 90
        2
176
     1
 90
        0
176
     1
 90
        0
176
     1
 40
-0.6
176
     1
 40
-30.0
176
     1
 62
     7
176
     1
 90
        1
176
     1
 90
        4
176
     1
 62
     7
176
     1
 62
   257
176
     1
 90
        1
176
     1
 90
        1
176
     1
 40
1.0
176
     1
 90
        8
176
     1
 62
     7
176
     1
 40
1.0
176
     1
 90
        1
176
     1
 90
        6
176
     1
 90
        2
176
     1
 62
     7
176
     1
 90
        5
176
     1
 90
        0
176
     1
 90
        0
176
     1
290
     0
176
     1
 90
        1
176
     1
 40
-50.0
176
     1
 90
        0
176
     1
290
     0
176
     1
290
     1
176
     1
290
     1
176
     1
290
     0
176
     1
290
     0
176
     1
290
     0
176
     1
290
     0
176
     1
290
     0
176
     1
290
     0
176
     1
 90
       50
176
     1
 40
0.0
176
     1
 40
1.0
176
     1
 90
        0
176
     1
 62
    18
420
        0
176
     1
 90
       50
176
     1
 90
        3
176
     1
 62
     5
420
      255
176
     1
290
     0
176
     1
 90
       50
176
     1
 90
       50
176
     1
 90
       50
176
     1
290
     0
176
     1
 90
       50
176
     1
 62
   256
176
     0
 40
1.0
176
     0
 90
        2
176
     1
  1
strokes_ogs.tif
176
     1
290
     0
176
     1
 40
1.0
176
     1
 40
1.0
176
     1
  0
VISUALSTYLE
  5
1D2
102
{ACAD_REACTORS
330
171
102
}
330
171
100
AcDbVisualStyle
  2
EdgeColorOff
 70
    22
177
     3
291
     1
 70
    58
 90
        2
176
     0
 90
        2
176
     0
 90
        0
176
     0
 90
        0
176
     0
 40
0.6
176
     0
 40
30.0
176
     0
 62
     7
420
 16777215
176
     0
 90
        1
176
     0
 90
        4
176
     0
 62
     7
176
     0
 62
   257
176
     0
 90
        1
176
     0
 90
        1
176
     0
 40
1.0
176
     0
 90
        8
176
     2
 62
     7
176
     0
 40
1.0
176
     0
 90
        1
176
     0
 90
        6
176
     0
 90
        2
176
     0
 62
     7
176
     0
 90
        5
176
     0
 90
        0
176
     0
 90
        0
176
     0
290
     0
176
     0
 90
        1
176
     0
 40
0.0
176
     0
 90
        0
176
     0
290
     0
176
     0
290
     1
176
     0
290
     1
176
     0
290
     0
176
     0
290
     0
176
     0
290
     0
176
     0
290
     0
176
     0
290
     0
176
     0
290
     0
176
     0
 90
       50
176
     0
 40
0.0
176
     0
 40
1.0
176
     0
 90
        0
176
     0
 62
    18
420
        0
176
     0
 90
       50
176
     0
 90
        3
176
     0
 62
     5
420
      255
176
     0
290
     0
176
     0
 90
       50
176
     0
 90
       50
176
     0
 90
       50
176
     0
290
     0
176
     0
 90
       50
176
     0
 62
   256
176
     0
 40
1.0
176
     0
 90
        2
176
     0
  1
strokes_ogs.tif
176
     0
290
     0
176
     0
 40
1.0
176
     0
 40
1.0
176
     0
  0
VISUALSTYLE
  5
180
102
{ACAD_REACTORS
330
171
102
}
330
171
100
AcDbVisualStyle
  2
Facepattern
 70
    15
177
     3
291
     1
 70
    58
 90
        2
176
     1
 90
        2
176
     1
 90
        0
176
     1
 90
        0
176
     1
 40
-0.6
176
     1
 40
-30.0
176
     1
 62
     7
176
     1
 90
        1
176
     1
 90
        4
176
     1
 62
     7
176
     1
 62
   257
176
     1
 90
        1
176
     1
 90
        1
176
     1
 40
1.0
176
     1
 90
        8
176
     1
 62
     7
176
     1
 40
1.0
176
     1
 90
        1
176
     1
 90
        6
176
     1
 90
        2
176
     1
 62
     7
176
     1
 90
        5
176
     1
 90
        0
176
     1
 90
        0
176
     1
290
     0
176
     1
 90
        1
176
     1
 40
0.0
176
     1
 90
        0
176
     1
290
     0
176
     1
290
     1
176
     1
290
     1
176
     1
290
     0
176
     1
290
     0
176
     1
290
     0
176
     1
290
     0
176
     1
290
     0
176
     1
290
     0
176
     1
 90
       50
176
     1
 40
0.0
176
     1
 40
1.0
176
     1
 90
        0
176
     1
 62
    18
420
        0
176
     1
 90
       50
176
     1
 90
        3
176
     1
 62
     5
420
      255
176
     1
290
     0
176
     1
 90
       50
176
     1
 90
       50
176
     1
 90
       50
176
     1
290
     0
176
     1
 90
       50
176
     1
 62
   256
176
     0
 40
1.0
176
     0
 90
        2
176
     1
  1
strokes_ogs.tif
176
     1
290
     0
176
     1
 40
1.0
176
     1
 40
1.0
176
     1
  0
VISUALSTYLE
  5
172
102
{ACAD_REACTORS
330
171
102
}
330
171
100
AcDbVisualStyle
  2
Flat
 70
     0
177
     3
291
     1
 70
    58
 90
        2
176
     1
 90
        1
176
     1
 90
        1
176
     1
 90
        2
176
     1
 40
-0.6
176
     1
 40
30.0
176
     1
 62
     7
176
     1
 90
        0
176
     1
 90
        4
176
     1
 62
     7
176
     1
 62
   257
176
     1
 90
        1
176
     1
 90
        1
176
     1
 40
1.0
176
     1
 90
        8
176
     1
 62
     7
176
     1
 40
1.0
176
     1
 90
        1
176
     1
 90
        6
176
     1
 90
        2
176
     1
 62
     7
176
     1
 90
        5
176
     1
 90
        0
176
     1
 90
        0
176
     1
290
     0
176
     1
 90
       13
176
     1
 40
0.0
176
     1
 90
        0
176
     1
290
     0
176
     1
290
     1
176
     1
290
     1
176
     1
290
     0
176
     1
290
     0
176
     1
290
     0
176
     1
290
     0
176
     1
290
     0
176
     1
290
     0
176
     1
 90
       50
176
     1
 40
0.0
176
     1
 40
1.0
176
     1
 90
        0
176
     1
 62
    18
420
        0
176
     1
 90
       50
176
     1
 90
        3
176
     1
 62
     5
420
      255
176
     1
290
     0
176
     1
 90
       50
176
     1
 90
       50
176
     1
 90
       50
176
     1
290
     0
176
     1
 90
       50
176
     1
 62
   256
176
     0
 40
1.0
176
     0
 90
        2
176
     1
  1
strokes_ogs.tif
176
     1
290
     0
176
     1
 40
1.0
176
     1
 40
1.0
176
     1
  0
VISUALSTYLE
  5
173
102
{ACAD_REACTORS
330
171
102
}
330
171
100
AcDbVisualStyle
  2
FlatWithEdges
 70
     1
177
     3
291
     1
 70
    58
 90
        2
176
     1
 90
        1
176
     1
 90
        1
176
     1
 90
        2
176
     1
 40
-0.6
176
     1
 40
30.0
176
     1
 62
     7
176
     1
 90
        1
176
     1
 90
        4
176
     1
 62
     7
176
     1
 62
   257
176
     1
 90
        1
176
     1
 90
        1
176
     1
 40
1.0
176
     1
 90
        0
176
     1
 62
   257
176
     1
 40
1.0
176
     1
 90
        1
176
     1
 90
        6
176
     1
 90
        2
176
     1
 62
     7
176
     1
 90
        5
176
     1
 90
        0
176
     1
 90
        0
176
     1
290
     0
176
     1
 90
       13
176
     1
 40
0.0
176
     1
 90
        0
176
     1
290
     0
176
     1
290
     1
176
     1
290
     1
176
     1
290
     0
176
     1
290
     0
176
     1
290
     0
176
     1
290
     0
176
     1
290
     0
176
     1
290
     0
176
     1
 90
       50
176
     1
 40
0.0
176
     1
 40
1.0
176
     1
 90
        0
176
     1
 62
    18
420
        0
176
     1
 90
       50
176
     1
 90
        3
176
     1
 62
     5
420
      255
176
     1
290
     0
176
     1
 90
       50
176
     1
 90
       50
176
     1
 90
       50
176
     1
290
     0
176
     1
 90
       50
176
     1
 62
   256
176
     0
 40
1.0
176
     0
 90
        2
176
     1
  1
strokes_ogs.tif
176
     1
290
     0
176
     1
 40
1.0
176
     1
 40
1.0
176
     1
  0
VISUALSTYLE
  5
174
102
{ACAD_REACTORS
330
171
102
}
330
171
100
AcDbVisualStyle
  2
Gouraud
 70
     2
177
     3
291
     1
 70
    58
 90
        2
176
     1
 90
        2
176
     1
 90
        1
176
     1
 90
        2
176
     1
 40
-0.6
176
     1
 40
30.0
176
     1
 62
     7
176
     1
 90
        0
176
     1
 90
        4
176
     1
 62
     7
176
     1
 62
   257
176
     1
 90
        1
176
     1
 90
        1
176
     1
 40
1.0
176
     1
 90
        0
176
     1
 62
     7
176
     1
 40
1.0
176
     1
 90
        1
176
     1
 90
        6
176
     1
 90
        2
176
     1
 62
     7
176
     1
 90
        5
176
     1
 90
        0
176
     1
 90
        0
176
     1
290
     0
176
     1
 90
       13
176
     1
 40
0.0
176
     1
 90
        0
176
     1
290
     0
176
     1
290
     1
176
     1
290
     1
176
     1
290
     0
176
     1
290
     0
176
     1
290
     0
176
     1
290
     0
176
     1
290
     0
176
     1
290
     0
176
     1
 90
       50
176
     1
 40
0.0
176
     1
 40
1.0
176
     1
 90
        0
176
     1
 62
    18
420
        0
176
     1
 90
       50
176
     1
 90
        3
176
     1
 62
     5
420
      255
176
     1
290
     0
176
     1
 90
       50
176
     1
 90
       50
176
     1
 90
       50
176
     1
290
     0
176
     1
 90
       50
176
     1
 62
   256
176
     0
 40
1.0
176
     0
 90
        2
176
     1
  1
strokes_ogs.tif
176
     1
290
     0
176
     1
 40
1.0
176
     1
 40
1.0
176
     1
  0
VISUALSTYLE
  5
175
102
{ACAD_REACTORS
330
171
102
}
330
171
100
AcDbVisualStyle
  2
GouraudWithEdges
 70
     3
177
     3
291
     1
 70
    58
 90
        2
176
     1
 90
        2
176
     1
 90
        1
176
     1
 90
        2
176
     1
 40
-0.6
176
     1
 40
30.0
176
     1
 62
     7
176
     1
 90
        1
176
     1
 90
        4
176
     1
 62
     7
176
     1
 62
   257
176
     1
 90
        1
176
     1
 90
        1
176
     1
 40
1.0
176
     1
 90
        0
176
     1
 62
   257
176
     1
 40
1.0
176
     1
 90
        1
176
     1
 90
        6
176
     1
 90
        2
176
     1
 62
     7
176
     1
 90
        5
176
     1
 90
        0
176
     1
 90
        0
176
     1
290
     0
176
     1
 90
       13
176
     1
 40
0.0
176
     1
 90
        0
176
     1
290
     0
176
     1
290
     1
176
     1
290
     1
176
     1
290
     0
176
     1
290
     0
176
     1
290
     0
176
     1
290
     0
176
     1
290
     0
176
     1
290
     0
176
     1
 90
       50
176
     1
 40
0.0
176
     1
 40
1.0
176
     1
 90
        0
176
     1
 62
    18
420
        0
176
     1
 90
       50
176
     1
 90
        3
176
     1
 62
     5
420
      255
176
     1
290
     0
176
     1
 90
       50
176
     1
 90
       50
176
     1
 90
       50
176
     1
290
     0
176
     1
 90
       50
176
     1
 62
   256
176
     0
 40
1.0
176
     0
 90
        2
176
     1
  1
strokes_ogs.tif
176
     1
290
     0
176
     1
 40
1.0
176
     1
 40
1.0
176
     1
  0
VISUALSTYLE
  5
1CF
102
{ACAD_REACTORS
330
171
102
}
330
171
100
AcDbVisualStyle
  2
Hidden
 70
     6
177
     3
291
     0
 70
    58
 90
        1
176
     1
 90
        2
176
     1
 90
        2
176
     1
 90
        0
176
     1
 40
0.6
176
     1
 40
30.0
176
     1
 62
     7
420
 16777215
176
     1
 90
        2
176
     1
 90
        2
176
     1
 62
     7
176
     1
 62
   257
176
     1
 90
        2
176
     1
 90
        1
176
     1
 40
40.0
176
     1
 90
        0
176
     1
 62
   257
176
     1
 40
1.0
176
     1
 90
        1
176
     1
 90
        6
176
     1
 90
        2
176
     1
 62
     7
176
     1
 90
        3
176
     1
 90
        0
176
     1
 90
        0
176
     1
290
     0
176
     1
 90
        1
176
     1
 40
0.0
176
     1
 90
        0
176
     1
290
     0
176
     1
290
     1
176
     1
290
     1
176
     1
290
     0
176
     1
290
     0
176
     1
290
     0
176
     1
290
     0
176
     1
290
     0
176
     1
290
     0
176
     1
 90
       50
176
     1
 40
0.0
176
     1
 40
1.0
176
     1
 90
        0
176
     1
 62
    18
420
        0
176
     1
 90
       50
176
     1
 90
        3
176
     1
 62
     5
420
      255
176
     1
290
     0
176
     1
 90
       50
176
     1
 90
       50
176
     1
 90
       50
176
     1
290
     0
176
     1
 90
       50
176
     1
 62
   256
176
     0
 40
1.0
176
     0
 90
        2
176
     1
  1
strokes_ogs.tif
176
     1
290
     0
176
     1
 40
1.0
176
     1
 40
1.0
176
     1
  0
VISUALSTYLE
  5
1D0
102
{ACAD_REACTORS
330
171
102
}
330
171
100
AcDbVisualStyle
  2
JitterOff
 70
    20
177
     3
291
     1
 70
    58
 90
        2
176
     0
 90
        2
176
     0
 90
        0
176
     0
 90
        0
176
     0
 40
0.6
176
     0
 40
30.0
176
     0
 62
     7
420
 16777215
176
     0
 90
        1
176
     0
 90
        4
176
     0
 62
     7
176
     0
 62
   257
176
     0
 90
        1
176
     0
 90
        1
176
     0
 40
1.0
176
     0
 90
       10
176
     2
 62
     7
176
     0
 40
1.0
176
     0
 90
        1
176
     0
 90
        6
176
     0
 90
        2
176
     0
 62
     7
176
     0
 90
        5
176
     0
 90
        0
176
     0
 90
        0
176
     0
290
     0
176
     0
 90
        1
176
     0
 40
0.0
176
     0
 90
        0
176
     0
290
     0
176
     0
290
     1
176
     0
290
     1
176
     0
290
     0
176
     0
290
     0
176
     0
290
     0
176
     0
290
     0
176
     0
290
     0
176
     0
290
     0
176
     0
 90
       50
176
     0
 40
0.0
176
     0
 40
1.0
176
     0
 90
        0
176
     0
 62
    18
420
        0
176
     0
 90
       50
176
     0
 90
        3
176
     0
 62
     5
420
      255
176
     0
290
     0
176
     0
 90
       50
176
     0
 90
       50
176
     0
 90
       50
176
     0
290
     0
176
     0
 90
       50
176
     0
 62
   256
176
     0
 40
1.0
176
     0
 90
        2
176
     0
  1
strokes_ogs.tif
176
     0
290
     0
176
     0
 40
1.0
176
     0
 40
1.0
176
     0
  0
VISUALSTYLE
  5
17F
102
{ACAD_REACTORS
330
171
102
}
330
171
100
AcDbVisualStyle
  2
Linepattern
 70
    14
177
     3
291
     1
 70
    58
 90
        2
176
     1
 90
        2
176
     1
 90
        0
176
     1
 90
        0
176
     1
 40
-0.6
176
     1
 40
-30.0
176
     1
 62
     7
176
     1
 90
        1
176
     1
 90
        4
176
     1
 62
     7
176
     1
 62
   257
176
     1
 90
        7
176
     1
 90
        7
176
     1
 40
1.0
176
     1
 90
        8
176
     1
 62
     7
176
     1
 40
1.0
176
     1
 90
        1
176
     1
 90
        6
176
     1
 90
        2
176
     1
 62
     7
176
     1
 90
        5
176
     1
 90
        0
176
     1
 90
        0
176
     1
290
     0
176
     1
 90
        1
176
     1
 40
0.0
176
     1
 90
        0
176
     1
290
     0
176
     1
290
     1
176
     1
290
     1
176
     1
290
     0
176
     1
290
     0
176
     1
290
     0
176
     1
290
     0
176
     1
290
     0
176
     1
290
     0
176
     1
 90
       50
176
     1
 40
0.0
176
     1
 40
1.0
176
     1
 90
        0
176
     1
 62
    18
420
        0
176
     1
 90
       50
176
     1
 90
        3
176
     1
 62
     5
420
      255
176
     1
290
     0
176
     1
 90
       50
176
     1
 90
       50
176
     1
 90
       50
176
     1
290
     0
176
     1
 90
       50
176
     1
 62
   256
176
     0
 40
1.0
176
     0
 90
        2
176
     1
  1
strokes_ogs.tif
176
     1
290
     0
176
     1
 40
1.0
176
     1
 40
1.0
176
     1
  0
VISUALSTYLE
  5
1D1
102
{ACAD_REACTORS
330
171
102
}
330
171
100
AcDbVisualStyle
  2
OverhangOff
 70
    21
177
     3
291
     1
 70
    58
 90
        2
176
     0
 90
        2
176
     0
 90
        0
176
     0
 90
        0
176
     0
 40
0.6
176
     0
 40
30.0
176
     0
 62
     7
420
 16777215
176
     0
 90
        1
176
     0
 90
        4
176
     0
 62
     7
176
     0
 62
   257
176
     0
 90
        1
176
     0
 90
        1
176
     0
 40
1.0
176
     0
 90
        9
176
     2
 62
     7
176
     0
 40
1.0
176
     0
 90
        1
176
     0
 90
        6
176
     0
 90
        2
176
     0
 62
     7
176
     0
 90
        5
176
     0
 90
        0
176
     0
 90
        0
176
     0
290
     0
176
     0
 90
        1
176
     0
 40
0.0
176
     0
 90
        0
176
     0
290
     0
176
     0
290
     1
176
     0
290
     1
176
     0
290
     0
176
     0
290
     0
176
     0
290
     0
176
     0
290
     0
176
     0
290
     0
176
     0
290
     0
176
     0
 90
       50
176
     0
 40
0.0
176
     0
 40
1.0
176
     0
 90
        0
176
     0
 62
    18
420
        0
176
     0
 90
       50
176
     0
 90
        3
176
     0
 62
     5
420
      255
176
     0
290
     0
176
     0
 90
       50
176
     0
 90
       50
176
     0
 90
       50
176
     0
290
     0
176
     0
 90
       50
176
     0
 62
   256
176
     0
 40
1.0
176
     0
 90
        2
176
     0
  1
strokes_ogs.tif
176
     0
290
     0
176
     0
 40
1.0
176
     0
 40
1.0
176
     0
  0
VISUALSTYLE
  5
17A
102
{ACAD_REACTORS
330
171
102
}
330
171
100
AcDbVisualStyle
  2
Realistic
 70
     8
177
     3
291
     0
 70
    58
 90
        2
176
     1
 90
        2
176
     1
 90
        0
176
     1
 90
        0
176
     1
 40
-0.6
176
     1
 40
-30.0
176
     1
 62
     7
176
     1
 90
        1
176
     1
 90
        0
176
     1
 62
     7
176
     1
 62
   257
176
     1
 90
        1
176
     1
 90
        1
176
     1
 40
1.0
176
     1
 90
        8
176
     1
 62
     8
176
     1
 40
1.0
176
     1
 90
        1
176
     1
 90
        6
176
     1
 90
        2
176
     1
 62
     7
176
     1
 90
        5
176
     1
 90
        0
176
     1
 90
        0
176
     1
290
     0
176
     1
 90
       13
176
     1
 40
0.0
176
     1
 90
        0
176
     1
290
     0
176
     1
290
     1
176
     1
290
     1
176
     1
290
     0
176
     1
290
     0
176
     1
290
     0
176
     1
290
     0
176
     1
290
     0
176
     1
290
     0
176
     1
 90
       50
176
     1
 40
0.0
176
     1
 40
1.0
176
     1
 90
        0
176
     1
 62
    18
420
        0
176
     1
 90
       50
176
     1
 90
        3
176
     1
 62
     5
420
      255
176
     1
290
     0
176
     1
 90
       50
176
     1
 90
       50
176
     1
 90
       50
176
     1
290
     0
176
     1
 90
       50
176
     1
 62
   256
176
     0
 40
1.0
176
     0
 90
        2
176
     1
  1
strokes_ogs.tif
176
     1
290
     0
176
     1
 40
1.0
176
     1
 40
1.0
176
     1
  0
VISUALSTYLE
  5
1D7
102
{ACAD_REACTORS
330
171
102
}
330
171
100
AcDbVisualStyle
  2
Shaded
 70
    27
177
     3
291
     0
 70
    58
 90
        2
176
     1
 90
        2
176
     1
 90
        1
176
     1
 90
        2
176
     1
 40
0.6
176
     1
 40
30.0
176
     1
 62
     7
420
 16777215
176
     1
 90
        0
176
     1
 90
        4
176
     1
 62
     7
176
     1
 62
   257
176
     1
 90
        1
176
     1
 90
        1
176
     1
 40
1.0
176
     1
 90
        8
176
     1
 62
   257
176
     1
 40
1.0
176
     1
 90
        1
176
     1
 90
        6
176
     1
 90
        2
176
     1
 62
     8
420
  7895160
176
     1
 90
        3
176
     1
 90
        0
176
     1
 90
        0
176
     1
290
     0
176
     1
 90
        5
176
     1
 40
0.0
176
     1
 90
        0
176
     1
290
     0
176
     1
290
     1
176
     1
290
     1
176
     1
290
     0
176
     1
290
     0
176
     1
290
     0
176
     1
290
     0
176
     1
290
     0
176
     1
290
     0
176
     1
 90
       50
176
     1
 40
0.0
176
     1
 40
1.0
176
     1
 90
        0
176
     1
 62
    18
420
        0
176
     1
 90
       50
176
     1
 90
        3
176
     1
 62
     5
420
      255
176
     1
290
     0
176
     1
 90
       50
176
     1
 90
       50
176
     1
 90
       50
176
     1
290
     0
176
     1
 90
       50
176
     1
 62
   256
176
     0
 40
1.0
176
     0
 90
        2
176
     1
  1
strokes_ogs.tif
176
     1
290
     0
176
     1
 40
1.0
176
     1
 40
1.0
176
     1
  0
VISUALSTYLE
  5
1D6
102
{ACAD_REACTORS
330
171
102
}
330
171
100
AcDbVisualStyle
  2
Shaded with edges
 70
    26
177
     3
291
     0
 70
    58
 90
        2
176
     1
 90
        2
176
     1
 90
        1
176
     1
 90
        2
176
     1
 40
0.6
176
     1
 40
30.0
176
     1
 62
     7
420
 16777215
176
     1
 90
        1
176
     1
 90
       10
176
     1
 62
     7
176
     1
 62
   257
176
     1
 90
        2
176
     1
 90
        1
176
     1
 40
1.0
176
     1
 90
        8
176
     1
 62
   257
176
     1
 40
1.0
176
     1
 90
        1
176
     1
 90
        6
176
     1
 90
        2
176
     1
 62
     7
176
     1
 90
        3
176
     1
 90
        0
176
     1
 90
        0
176
     1
290
     0
176
     1
 90
        5
176
     1
 40
0.0
176
     1
 90
        0
176
     1
290
     0
176
     1
290
     1
176
     1
290
     1
176
     1
290
     0
176
     1
290
     0
176
     1
290
     0
176
     1
290
     0
176
     1
290
     0
176
     1
290
     0
176
     1
 90
       50
176
     1
 40
0.0
176
     1
 40
1.0
176
     1
 90
        0
176
     1
 62
    18
420
        0
176
     1
 90
       50
176
     1
 90
        3
176
     1
 62
     5
420
      255
176
     1
290
     0
176
     1
 90
       50
176
     1
 90
       50
176
     1
 90
       50
176
     1
290
     0
176
     1
 90
       50
176
     1
 62
   256
176
     0
 40
1.0
176
     0
 90
        2
176
     1
  1
strokes_ogs.tif
176
     1
290
     0
176
     1
 40
1.0
176
     1
 40
1.0
176
     1
  0
VISUALSTYLE
  5
1D3
102
{ACAD_REACTORS
330
171
102
}
330
171
100
AcDbVisualStyle
  2
Shades of Gray
 70
    23
177
     3
291
     0
 70
    58
 90
        2
176
     1
 90
        2
176
     1
 90
        3
176
     1
 90
        0
176
     1
 40
0.6
176
     1
 40
30.0
176
     1
 62
     7
420
 16777215
176
     1
 90
        2
176
     1
 90
        2
176
     1
 62
     7
176
     1
 62
     7
176
     1
 90
        1
176
     1
 90
        1
176
     1
 40
40.0
176
     1
 90
        8
176
     1
 62
     7
176
     1
 40
1.0
176
     1
 90
        1
176
     1
 90
        6
176
     1
 90
        2
176
     1
 62
     7
176
     1
 90
        3
176
     1
 90
        0
176
     1
 90
        0
176
     1
290
     0
176
     1
 90
        1
176
     1
 40
0.0
176
     1
 90
        0
176
     1
290
     0
176
     1
290
     1
176
     1
290
     1
176
     1
290
     0
176
     1
290
     0
176
     1
290
     0
176
     1
290
     0
176
     1
290
     0
176
     1
290
     0
176
     1
 90
       50
176
     1
 40
0.0
176
     1
 40
1.0
176
     1
 90
        0
176
     1
 62
    18
420
        0
176
     1
 90
       50
176
     1
 90
        3
176
     1
 62
     5
420
      255
176
     1
290
     0
176
     1
 90
       50
176
     1
 90
       50
176
     1
 90
       50
176
     1
290
     0
176
     1
 90
       50
176
     1
 62
   256
176
     0
 40
1.0
176
     0
 90
        2
176
     1
  1
strokes_ogs.tif
176
     1
290
     0
176
     1
 40
1.0
176
     1
 40
1.0
176
     1
  0
VISUALSTYLE
  5
1D4
102
{ACAD_REACTORS
330
171
102
}
330
171
100
AcDbVisualStyle
  2
Sketchy
 70
    24
177
     3
291
     0
 70
    58
 90
        1
176
     1
 90
        2
176
     1
 90
        2
176
     1
 90
        0
176
     1
 40
0.6
176
     1
 40
30.0
176
     1
 62
     7
420
 16777215
176
     1
 90
        2
176
     1
 90
        2
176
     1
 62
     7
176
     1
 62
     7
176
     1
 90
        1
176
     1
 90
        1
176
     1
 40
40.0
176
     1
 90
       11
176
     1
 62
     7
176
     1
 40
1.0
176
     1
 90
        1
176
     1
 90
        6
176
     1
 90
        2
176
     1
 62
     7
176
     1
 90
        6
176
     1
 90
        0
176
     1
 90
        0
176
     1
290
     0
176
     1
 90
        1
176
     1
 40
0.0
176
     1
 90
        0
176
     1
290
     0
176
     1
290
     1
176
     1
290
     1
176
     1
290
     0
176
     1
290
     0
176
     1
290
     0
176
     1
290
     0
176
     1
290
     0
176
     1
290
     0
176
     1
 90
       50
176
     1
 40
0.0
176
     1
 40
1.0
176
     1
 90
        0
176
     1
 62
    18
420
        0
176
     1
 90
       50
176
     1
 90
        3
176
     1
 62
     5
420
      255
176
     1
290
     0
176
     1
 90
       50
176
     1
 90
       50
176
     1
 90
       50
176
     1
290
     0
176
     1
 90
       50
176
     1
 62
   256
176
     0
 40
1.0
176
     0
 90
        2
176
     1
  1
strokes_ogs.tif
176
     1
290
     0
176
     1
 40
1.0
176
     1
 40
1.0
176
     1
  0
VISUALSTYLE
  5
17E
102
{ACAD_REACTORS
330
171
102
}
330
171
100
AcDbVisualStyle
  2
Thicken
 70
    13
177
     3
291
     1
 70
    58
 90
        2
176
     1
 90
        2
176
     1
 90
        0
176
     1
 90
        0
176
     1
 40
-0.6
176
     1
 40
-30.0
176
     1
 62
     7
176
     1
 90
        1
176
     1
 90
        4
176
     1
 62
     7
176
     1
 62
   257
176
     1
 90
        1
176
     1
 90
        1
176
     1
 40
1.0
176
     1
 90
       12
176
     1
 62
     7
176
     1
 40
1.0
176
     1
 90
        1
176
     1
 90
        6
176
     1
 90
        2
176
     1
 62
     7
176
     1
 90
        5
176
     1
 90
        0
176
     1
 90
        0
176
     1
290
     0
176
     1
 90
        1
176
     1
 40
0.0
176
     1
 90
        0
176
     1
290
     0
176
     1
290
     1
176
     1
290
     1
176
     1
290
     0
176
     1
290
     0
176
     1
290
     0
176
     1
290
     0
176
     1
290
     0
176
     1
290
     0
176
     1
 90
       50
176
     1
 40
0.0
176
     1
 40
1.0
176
     1
 90
        0
176
     1
 62
    18
420
        0
176
     1
 90
       50
176
     1
 90
        3
176
     1
 62
     5
420
      255
176
     1
290
     0
176
     1
 90
       50
176
     1
 90
       50
176
     1
 90
       50
176
     1
290
     0
176
     1
 90
       50
176
     1
 62
   256
176
     0
 40
1.0
176
     0
 90
        2
176
     1
  1
strokes_ogs.tif
176
     1
290
     0
176
     1
 40
1.0
176
     1
 40
1.0
176
     1
  0
VISUALSTYLE
  5
1CE
102
{ACAD_REACTORS
330
171
102
}
330
171
100
AcDbVisualStyle
  2
Wireframe
 70
     5
177
     3
291
     0
 70
    58
 90
        0
176
     1
 90
        2
176
     1
 90
        0
176
     1
 90
        0
176
     1
 40
0.6
176
     1
 40
30.0
176
     1
 62
     7
420
 16777215
176
     1
 90
        1
176
     1
 90
        4
176
     1
 62
     7
176
     1
 62
   257
176
     1
 90
        1
176
     1
 90
        1
176
     1
 40
1.0
176
     1
 90
        0
176
     1
 62
   257
176
     1
 40
1.0
176
     1
 90
        1
176
     1
 90
        6
176
     1
 90
        2
176
     1
 62
     7
176
     1
 90
        3
176
     1
 90
        0
176
     1
 90
        0
176
     1
290
     0
176
     1
 90
        1
176
     1
 40
0.0
176
     1
 90
        0
176
     1
290
     0
176
     1
290
     1
176
     1
290
     1
176
     1
290
     0
176
     1
290
     0
176
     1
290
     0
176
     1
290
     0
176
     1
290
     0
176
     1
290
     0
176
     1
 90
       50
176
     1
 40
0.0
176
     1
 40
1.0
176
     1
 90
        0
176
     1
 62
    18
420
        0
176
     1
 90
       50
176
     1
 90
        3
176
     1
 62
     5
420
      255
176
     1
290
     0
176
     1
 90
       50
176
     1
 90
       50
176
     1
 90
       50
176
     1
290
     0
176
     1
 90
       50
176
     1
 62
   256
176
     0
 40
1.0
176
     0
 90
        2
176
     1
  1
strokes_ogs.tif
176
     1
290
     0
176
     1
 40
1.0
176
     1
 40
1.0
176
     1
  0
VISUALSTYLE
  5
1D5
102
{ACAD_REACTORS
330
171
102
}
330
171
100
AcDbVisualStyle
  2
X-Ray
 70
    25
177
     3
291
     0
 70
    58
 90
        2
176
     1
 90
        2
176
     1
 90
        1
176
     1
 90
        1
176
     1
 40
0.5
176
     1
 40
30.0
176
     1
 62
     7
420
 16777215
176
     1
 90
        1
176
     1
 90
        0
176
     1
 62
     7
176
     1
 62
   257
176
     1
 90
        1
176
     1
 90
        1
176
     1
 40
1.0
176
     1
 90
        8
176
     1
 62
     7
176
     1
 40
1.0
176
     1
 90
        1
176
     1
 90
        6
176
     1
 90
        2
176
     1
 62
     7
176
     1
 90
        3
176
     1
 90
        0
176
     1
 90
        0
176
     1
290
     0
176
     1
 90
       13
176
     1
 40
0.0
176
     1
 90
        0
176
     1
290
     0
176
     1
290
     1
176
     1
290
     1
176
     1
290
     0
176
     1
290
     0
176
     1
290
     0
176
     1
290
     0
176
     1
290
     0
176
     1
290
     0
176
     1
 90
       50
176
     1
 40
0.0
176
     1
 40
1.0
176
     1
 90
        0
176
     1
 62
    18
420
        0
176
     1
 90
       50
176
     1
 90
        3
176
     1
 62
     5
420
      255
176
     1
290
     0
176
     1
 90
       50
176
     1
 90
       50
176
     1
 90
       50
176
     1
290
     0
176
     1
 90
       50
176
     1
 62
   256
176
     0
 40
1.0
176
     0
 90
        2
176
     1
  1
strokes_ogs.tif
176
     1
290
     0
176
     1
 40
1.0
176
     1
 40
1.0
176
     1
  0
DICTIONARYVAR
  5
1E3
102
{ACAD_REACTORS
330
18D
102
}
330
18D
100
DictionaryVariables
280
     0
  1
1:1
  0
DICTIONARYVAR
  5
1E5
102
{ACAD_REACTORS
330
18D
102
}
330
18D
100
DictionaryVariables
280
     0
  1
Standard
  0
DICTIONARYVAR
  5
1E4
102
{ACAD_REACTORS
330
18D
102
}
330
18D
100
DictionaryVariables
280
     0
  1
Standard
  0
DICTIONARYVAR
  5
191
102
{ACAD_REACTORS
330
18D
102
}
330
18D
100
DictionaryVariables
280
     0
  1
2
  0
DICTIONARYVAR
  5
192
102
{ACAD_REACTORS
330
18D
102
}
330
18D
100
DictionaryVariables
280
     0
  1
1
  0
DICTIONARYVAR
  5
190
102
{ACAD_REACTORS
330
18D
102
}
330
18D
100
DictionaryVariables
280
     0
  1
0
  0
DICTIONARY
  5
2BB
330
1D9
100
AcDbDictionary
280
     1
281
     1
  3
ACAD_ROUNDTRIP_2008_TABLESTYLE_CELLSTYLEMAP
360
2BC
  0
CELLSTYLEMAP
  5
2BC
102
{ACAD_REACTORS
330
2BB
102
}
330
2BB
100
AcDbCellStyleMap
 90
        3
300
CELLSTYLE
  1
TABLEFORMAT_BEGIN
 90
        5
170
     1
 91
        0
 92
    32768
 62
   257
 93
        1
300
CONTENTFORMAT
  1
CONTENTFORMAT_BEGIN
 90
        0
 91
        0
 92
        4
 93
        0
300

 40
0.0
140
1.0
 94
        5
 62
     0
340
11
144
0.25
309
CONTENTFORMAT_END
171
     1
301
MARGIN
  1
CELLMARGIN_BEGIN
 40
0.06
 40
0.06
 40
0.06
 40
0.06
 40
0.06
 40
0.06
309
CELLMARGIN_END
 94
        6
 95
        1
302
GRIDFORMAT
  1
GRIDFORMAT_BEGIN
 90
        0
 91
        1
 62
     0
 92
       -2
340
14
 93
        0
 40
0.045
309
GRIDFORMAT_END
 95
        2
302
GRIDFORMAT
  1
GRIDFORMAT_BEGIN
 90
        0
 91
        1
 62
     0
 92
       -2
340
14
 93
        0
 40
0.045
309
GRIDFORMAT_END
 95
        4
302
GRIDFORMAT
  1
GRIDFORMAT_BEGIN
 90
        0
 91
        1
 62
     0
 92
       -2
340
14
 93
        0
 40
0.045
309
GRIDFORMAT_END
 95
        8
302
GRIDFORMAT
  1
GRIDFORMAT_BEGIN
 90
        0
 91
        1
 62
     0
 92
       -2
340
14
 93
        0
 40
0.045
309
GRIDFORMAT_END
 95
       16
302
GRIDFORMAT
  1
GRIDFORMAT_BEGIN
 90
        0
 91
        1
 62
     0
 92
       -2
340
14
 93
        0
 40
0.045
309
GRIDFORMAT_END
 95
       32
302
GRIDFORMAT
  1
GRIDFORMAT_BEGIN
 90
        0
 91
        1
 62
     0
 92
       -2
340
14
 93
        0
 40
0.045
309
GRIDFORMAT_END
309
TABLEFORMAT_END
  1
CELLSTYLE_BEGIN
 90
        1
 91
        1
300
_TITLE
309
CELLSTYLE_END
300
CELLSTYLE
  1
TABLEFORMAT_BEGIN
 90
        5
170
     1
 91
        0
 92
        0
 62
   257
 93
        1
300
CONTENTFORMAT
  1
CONTENTFORMAT_BEGIN
 90
        0
 91
        0
 92
        4
 93
        0
300

 40
0.0
140
1.0
 94
        5
 62
     0
340
11
144
0.18
309
CONTENTFORMAT_END
171
     1
301
MARGIN
  1
CELLMARGIN_BEGIN
 40
0.06
 40
0.06
 40
0.06
 40
0.06
 40
0.06
 40
0.06
309
CELLMARGIN_END
 94
        6
 95
        1
302
GRIDFORMAT
  1
GRIDFORMAT_BEGIN
 90
        0
 91
        1
 62
     0
 92
       -2
340
14
 93
        0
 40
0.045
309
GRIDFORMAT_END
 95
        2
302
GRIDFORMAT
  1
GRIDFORMAT_BEGIN
 90
        0
 91
        1
 62
     0
 92
       -2
340
14
 93
        0
 40
0.045
309
GRIDFORMAT_END
 95
        4
302
GRIDFORMAT
  1
GRIDFORMAT_BEGIN
 90
        0
 91
        1
 62
     0
 92
       -2
340
14
 93
        0
 40
0.045
309
GRIDFORMAT_END
 95
        8
302
GRIDFORMAT
  1
GRIDFORMAT_BEGIN
 90
        0
 91
        1
 62
     0
 92
       -2
340
14
 93
        0
 40
0.045
309
GRIDFORMAT_END
 95
       16
302
GRIDFORMAT
  1
GRIDFORMAT_BEGIN
 90
        0
 91
        1
 62
     0
 92
       -2
340
14
 93
        0
 40
0.045
309
GRIDFORMAT_END
 95
       32
302
GRIDFORMAT
  1
GRIDFORMAT_BEGIN
 90
        0
 91
        1
 62
     0
 92
       -2
340
14
 93
        0
 40
0.045
309
GRIDFORMAT_END
309
TABLEFORMAT_END
  1
CELLSTYLE_BEGIN
 90
        2
 91
        1
300
_HEADER
309
CELLSTYLE_END
300
CELLSTYLE
  1
TABLEFORMAT_BEGIN
 90
        5
170
     1
 91
        0
 92
        0
 62
   257
 93
        1
300
CONTENTFORMAT
  1
CONTENTFORMAT_BEGIN
 90
        0
 91
        0
 92
        4
 93
        0
300

 40
0.0
140
1.0
 94
        2
 62
     0
340
11
144
0.18
309
CONTENTFORMAT_END
171
     1
301
MARGIN
  1
CELLMARGIN_BEGIN
 40
0.06
 40
0.06
 40
0.06
 40
0.06
 40
0.06
 40
0.06
309
CELLMARGIN_END
 94
        6
 95
        1
302
GRIDFORMAT
  1
GRIDFORMAT_BEGIN
 90
        0
 91
        1
 62
     0
 92
       -2
340
14
 93
        0
 40
0.045
309
GRIDFORMAT_END
 95
        2
302
GRIDFORMAT
  1
GRIDFORMAT_BEGIN
 90
        0
 91
        1
 62
     0
 92
       -2
340
14
 93
        0
 40
0.045
309
GRIDFORMAT_END
 95
        4
302
GRIDFORMAT
  1
GRIDFORMAT_BEGIN
 90
        0
 91
        1
 62
     0
 92
       -2
340
14
 93
        0
 40
0.045
309
GRIDFORMAT_END
 95
        8
302
GRIDFORMAT
  1
GRIDFORMAT_BEGIN
 90
        0
 91
        1
 62
     0
 92
       -2
340
14
 93
        0
 40
0.045
309
GRIDFORMAT_END
 95
       16
302
GRIDFORMAT
  1
GRIDFORMAT_BEGIN
 90
        0
 91
        1
 62
     0
 92
       -2
340
14
 93
        0
 40
0.045
309
GRIDFORMAT_END
 95
       32
302
GRIDFORMAT
  1
GRIDFORMAT_BEGIN
 90
        0
 91
        1
 62
     0
 92
       -2
340
14
 93
        0
 40
0.045
309
GRIDFORMAT_END
309
TABLEFORMAT_END
  1
CELLSTYLE_BEGIN
 90
        3
 91
        2
300
_DATA
309
CELLSTYLE_END
  0
ENDSEC
  0
EOF
