  0
SECTION
  2
HEADER
  9
$ACADVER
  1
AC1027
  9
$ACADMAINTVER
 70
   105
  9
$DWGCODEPAGE
  3
ANSI_1252
  9
$REQUIREDVERSIONS
160
                 0
  9
$LASTSAVEDBY
  1
matthias.ochs
  9
$INSBASE
 10
0.0
 20
0.0
 30
0.0
  9
$EXTMIN
 10
-168.1807030878377
 20
-101.0217964862353
 30
0.0
  9
$EXTMAX
 10
239.1456434772453
 20
92.21493447808773
 30
0.0
  9
$LIMMIN
 10
-106.396036986
 20
-88.921671216
  9
$LIMMAX
 10
178.796000366
 20
89.376825636
  9
$ORTHOMODE
 70
     0
  9
$REGENMODE
 70
     1
  9
$FILLMODE
 70
     1
  9
$QTEXTMODE
 70
     0
  9
$MIRRTEXT
 70
     1
  9
$LTSCALE
 40
1.0
  9
$ATTMODE
 70
     1
  9
$TEXTSIZE
 40
0.2
  9
$TRACEWID
 40
0.05
  9
$TEXTSTYLE
  7
Standard
  9
$CLAYER
  8
3
  9
$CELTYPE
  6
ByLayer
  9
$CECOLOR
 62
   256
  9
$CELTSCALE
 40
1.0
  9
$DISPSILH
 70
     0
  9
$DIMSCALE
 40
1.0
  9
$DIMASZ
 40
0.18
  9
$DIMEXO
 40
0.0625
  9
$DIMDLI
 40
0.38
  9
$DIMRND
 40
0.0
  9
$DIMDLE
 40
0.0
  9
$DIMEXE
 40
0.18
  9
$DIMTP
 40
0.0
  9
$DIMTM
 40
0.0
  9
$DIMTXT
 40
0.18
  9
$DIMCEN
 40
0.09
  9
$DIMTSZ
 40
0.0
  9
$DIMTOL
 70
     0
  9
$DIMLIM
 70
     0
  9
$DIMTIH
 70
     1
  9
$DIMTOH
 70
     1
  9
$DIMSE1
 70
     0
  9
$DIMSE2
 70
     0
  9
$DIMTAD
 70
     0
  9
$DIMZIN
 70
     0
  9
$DIMBLK
  1

  9
$DIMASO
 70
     1
  9
$DIMSHO
 70
     1
  9
$DIMPOST
  1

  9
$DIMAPOST
  1

  9
$DIMALT
 70
     0
  9
$DIMALTD
 70
     2
  9
$DIMALTF
 40
25.4
  9
$DIMLFAC
 40
1.0
  9
$DIMTOFL
 70
     0
  9
$DIMTVP
 40
0.0
  9
$DIMTIX
 70
     0
  9
$DIMSOXD
 70
     0
  9
$DIMSAH
 70
     0
  9
$DIMBLK1
  1

  9
$DIMBLK2
  1

  9
$DIMSTYLE
  2
Standard
  9
$DIMCLRD
 70
     0
  9
$DIMCLRE
 70
     0
  9
$DIMCLRT
 70
     0
  9
$DIMTFAC
 40
1.0
  9
$DIMGAP
 40
0.09
  9
$DIMJUST
 70
     0
  9
$DIMSD1
 70
     0
  9
$DIMSD2
 70
     0
  9
$DIMTOLJ
 70
     1
  9
$DIMTZIN
 70
     0
  9
$DIMALTZ
 70
     0
  9
$DIMALTTZ
 70
     0
  9
$DIMUPT
 70
     0
  9
$DIMDEC
 70
     4
  9
$DIMTDEC
 70
     4
  9
$DIMALTU
 70
     2
  9
$DIMALTTD
 70
     2
  9
$DIMTXSTY
  7
Standard
  9
$DIMAUNIT
 70
     0
  9
$DIMADEC
 70
     0
  9
$DIMALTRND
 40
0.0
  9
$DIMAZIN
 70
     0
  9
$DIMDSEP
 70
    46
  9
$DIMATFIT
 70
     3
  9
$DIMFRAC
 70
     0
  9
$DIMLDRBLK
  1

  9
$DIMLUNIT
 70
     2
  9
$DIMLWD
 70
    -2
  9
$DIMLWE
 70
    -2
  9
$DIMTMOVE
 70
     2
  9
$DIMFXL
 40
1.0
  9
$DIMFXLON
 70
     0
  9
$DIMJOGANG
 40
0.7853981633974483
  9
$DIMTFILL
 70
     0
  9
$DIMTFILLCLR
 70
     0
  9
$DIMARCSYM
 70
     0
  9
$DIMLTYPE
  6

  9
$DIMLTEX1
  6

  9
$DIMLTEX2
  6

  9
$DIMTXTDIRECTION
 70
     0
  9
$LUNITS
 70
     2
  9
$LUPREC
 70
     4
  9
$SKETCHINC
 40
0.1
  9
$FILLETRAD
 40
0.5
  9
$AUNITS
 70
     2
  9
$AUPREC
 70
     0
  9
$MENU
  1
.
  9
$ELEVATION
 40
0.0
  9
$PELEVATION
 40
0.0
  9
$THICKNESS
 40
0.0
  9
$LIMCHECK
 70
     0
  9
$CHAMFERA
 40
0.5
  9
$CHAMFERB
 40
0.5
  9
$CHAMFERC
 40
1.0
  9
$CHAMFERD
 40
0.0
  9
$SKPOLY
 70
     0
  9
$TDCREATE
 40
2458327.549385544
  9
$TDUCREATE
 40
2458327.46605221
  9
$TDUPDATE
 40
2458590.669736099
  9
$TDUUPDATE
 40
2458590.586402766
  9
$TDINDWG
 40
0.0125454051
  9
$TDUSRTIMER
 40
0.008889213
  9
$USRTIMER
 70
     1
  9
$ANGBASE
 50
0.0
  9
$ANGDIR
 70
     0
  9
$PDMODE
 70
     0
  9
$PDSIZE
 40
0.0
  9
$PLINEWID
 40
0.0
  9
$SPLFRAME
 70
     0
  9
$SPLINETYPE
 70
     6
  9
$SPLINESEGS
 70
     8
  9
$HANDSEED
  5
317
  9
$SURFTAB1
 70
     6
  9
$SURFTAB2
 70
     6
  9
$SURFTYPE
 70
     6
  9
$SURFU
 70
     6
  9
$SURFV
 70
     6
  9
$UCSBASE
  2

  9
$UCSNAME
  2

  9
$UCSORG
 10
0.0
 20
0.0
 30
0.0
  9
$UCSXDIR
 10
1.0
 20
0.0
 30
0.0
  9
$UCSYDIR
 10
0.0
 20
1.0
 30
0.0
  9
$UCSORTHOREF
  2

  9
$UCSORTHOVIEW
 70
     0
  9
$UCSORGTOP
 10
0.0
 20
0.0
 30
0.0
  9
$UCSORGBOTTOM
 10
0.0
 20
0.0
 30
0.0
  9
$UCSORGLEFT
 10
0.0
 20
0.0
 30
0.0
  9
$UCSORGRIGHT
 10
0.0
 20
0.0
 30
0.0
  9
$UCSORGFRONT
 10
0.0
 20
0.0
 30
0.0
  9
$UCSORGBACK
 10
0.0
 20
0.0
 30
0.0
  9
$PUCSBASE
  2

  9
$PUCSNAME
  2

  9
$PUCSORG
 10
0.0
 20
0.0
 30
0.0
  9
$PUCSXDIR
 10
1.0
 20
0.0
 30
0.0
  9
$PUCSYDIR
 10
0.0
 20
1.0
 30
0.0
  9
$PUCSORTHOREF
  2

  9
$PUCSORTHOVIEW
 70
     0
  9
$PUCSORGTOP
 10
0.0
 20
0.0
 30
0.0
  9
$PUCSORGBOTTOM
 10
0.0
 20
0.0
 30
0.0
  9
$PUCSORGLEFT
 10
0.0
 20
0.0
 30
0.0
  9
$PUCSORGRIGHT
 10
0.0
 20
0.0
 30
0.0
  9
$PUCSORGFRONT
 10
0.0
 20
0.0
 30
0.0
  9
$PUCSORGBACK
 10
0.0
 20
0.0
 30
0.0
  9
$USERI1
 70
     0
  9
$USERI2
 70
     0
  9
$USERI3
 70
     0
  9
$USERI4
 70
     0
  9
$USERI5
 70
     0
  9
$USERR1
 40
0.0
  9
$USERR2
 40
0.0
  9
$USERR3
 40
0.0
  9
$USERR4
 40
0.0
  9
$USERR5
 40
0.0
  9
$WORLDVIEW
 70
     1
  9
$SHADEDGE
 70
     3
  9
$SHADEDIF
 70
    70
  9
$TILEMODE
 70
     1
  9
$MAXACTVP
 70
    64
  9
$PINSBASE
 10
0.0
 20
0.0
 30
0.0
  9
$PLIMCHECK
 70
     0
  9
$PEXTMIN
 10
1.000000000000000E+20
 20
1.000000000000000E+20
 30
1.000000000000000E+20
  9
$PEXTMAX
 10
-1.000000000000000E+20
 20
-1.000000000000000E+20
 30
-1.000000000000000E+20
  9
$PLIMMIN
 10
0.0
 20
0.0
  9
$PLIMMAX
 10
0.0
 20
0.0
  9
$UNITMODE
 70
     0
  9
$VISRETAIN
 70
     1
  9
$PLINEGEN
 70
     0
  9
$PSLTSCALE
 70
     1
  9
$TREEDEPTH
 70
  3020
  9
$CMLSTYLE
  2
Standard
  9
$CMLJUST
 70
     0
  9
$CMLSCALE
 40
1.0
  9
$PROXYGRAPHICS
 70
     1
  9
$MEASUREMENT
 70
     0
  9
$CELWEIGHT
370
    -1
  9
$ENDCAPS
280
     0
  9
$JOINSTYLE
280
     0
  9
$LWDISPLAY
290
     0
  9
$INSUNITS
 70
     0
  9
$HYPERLINKBASE
  1

  9
$STYLESHEET
  1

  9
$XEDIT
290
     1
  9
$CEPSNTYPE
380
     0
  9
$PSTYLEMODE
290
     1
  9
$FINGERPRINTGUID
  2
{2D220319-543D-4FE7-92F1-78C1A033EB4B}
  9
$VERSIONGUID
  2
{FAEB1C32-E019-11D5-929B-00C0DF256EC4}
  9
$EXTNAMES
290
     1
  9
$PSVPSCALE
 40
0.0
  9
$OLESTARTUP
290
     0
  9
$SORTENTS
280
   127
  9
$INDEXCTL
280
     0
  9
$HIDETEXT
280
     1
  9
$XCLIPFRAME
280
     2
  9
$HALOGAP
280
     0
  9
$OBSCOLOR
 70
   257
  9
$OBSLTYPE
280
     0
  9
$INTERSECTIONDISPLAY
280
     0
  9
$INTERSECTIONCOLOR
 70
   257
  9
$DIMASSOC
280
     2
  9
$PROJECTNAME
  1

  9
$CAMERADISPLAY
290
     0
  9
$LENSLENGTH
 40
50.0
  9
$CAMERAHEIGHT
 40
0.0
  9
$STEPSPERSEC
 40
2.0
  9
$STEPSIZE
 40
6.0
  9
$3DDWFPREC
 40
2.0
  9
$PSOLWIDTH
 40
0.25
  9
$PSOLHEIGHT
 40
4.0
  9
$LOFTANG1
 40
1.570796326794897
  9
$LOFTANG2
 40
1.570796326794897
  9
$LOFTMAG1
 40
0.0
  9
$LOFTMAG2
 40
0.0
  9
$LOFTPARAM
 70
     7
  9
$LOFTNORMALS
280
     1
  9
$LATITUDE
 40
37.795
  9
$LONGITUDE
 40
-122.394
  9
$NORTHDIRECTION
 40
0.0
  9
$TIMEZONE
 70
 -8000
  9
$LIGHTGLYPHDISPLAY
280
     1
  9
$TILEMODELIGHTSYNCH
280
     1
  9
$SOLIDHIST
280
     0
  9
$SHOWHIST
280
     1
  9
$DWFFRAME
280
     2
  9
$DGNFRAME
280
     2
  9
$REALWORLDSCALE
290
     1
  9
$INTERFERECOLOR
 62
   256
  9
$CSHADOW
280
     0
  9
$SHADOWPLANELOCATION
 40
0.0
  0
ENDSEC
  0
SECTION
  2
CLASSES
  0
CLASS
  1
ACDBDICTIONARYWDFLT
  2
AcDbDictionaryWithDefault
  3
ObjectDBX Classes
 90
        0
 91
        9
280
     0
281
     0
  0
CLASS
  1
SCALE
  2
AcDbScale
  3
ObjectDBX Classes
 90
     1153
 91
        9
280
     0
281
     0
  0
CLASS
  1
VISUALSTYLE
  2
AcDbVisualStyle
  3
ObjectDBX Classes
 90
     4095
 91
        9
280
     0
281
     0
  0
CLASS
  1
MATERIAL
  2
AcDbMaterial
  3
ObjectDBX Classes
 90
     1153
 91
        9
280
     0
281
     0
  0
CLASS
  1
DICTIONARYVAR
  2
AcDbDictionaryVar
  3
ObjectDBX Classes
 90
        0
 91
        9
280
     0
281
     0
  0
CLASS
  1
ACDBPLACEHOLDER
  2
AcDbPlaceHolder
  3
ObjectDBX Classes
 90
        0
 91
        1
280
     0
281
     0
  0
CLASS
  1
LAYOUT
  2
AcDbLayout
  3
ObjectDBX Classes
 90
        0
 91
        1
280
     0
281
     0
  0
CLASS
  1
TABLESTYLE
  2
AcDbTableStyle
  3
ObjectDBX Classes
 90
     4095
 91
        8
280
     0
281
     0
  0
CLASS
  1
MLEADERSTYLE
  2
AcDbMLeaderStyle
  3
ACDB_MLEADERSTYLE_CLASS
 90
     4095
 91
        8
280
     0
281
     0
  0
CLASS
  1
SUN
  2
AcDbSun
  3
SCENEOE
 90
     1153
 91
        9
280
     0
281
     0
  0
CLASS
  1
CELLSTYLEMAP
  2
AcDbCellStyleMap
  3
ObjectDBX Classes
 90
     1152
 91
        5
280
     0
281
     0
  0
ENDSEC
  0
SECTION
  2
TABLES
  0
TABLE
  2
VPORT
  5
8
330
0
100
AcDbSymbolTable
 70
     1
  0
VPORT
  5
144
330
8
100
AcDbSymbolTableRecord
100
AcDbViewportTableRecord
  2
*Active
 70
     0
 10
0.0
 20
0.0
 11
1.0
 21
1.0
 12
32.86984354234869
 22
-18.79747551615083
 13
0.0
 23
0.0
 14
0.5
 24
0.5
 15
0.5
 25
0.5
 16
0.0
 26
0.0
 36
1.0
 17
0.0
 27
0.0
 37
0.0
 40
460.6224286244428
 41
1.978589420654912
 42
50.0
 43
0.0
 44
0.0
 50
0.0
 51
0.0
 71
    16
 72
   100
 73
     1
 74
     3
 75
     1
 76
     0
 77
     0
 78
     0
281
     0
 65
     1
110
0.0
120
0.0
130
0.0
111
1.0
121
0.0
131
0.0
112
0.0
122
1.0
132
0.0
 79
     0
146
0.0
348
174
 60
     3
 61
     5
292
     1
282
     1
141
0.0
142
0.0
 63
   256
361
22E
  0
ENDTAB
  0
TABLE
  2
LTYPE
  5
5
330
0
100
AcDbSymbolTable
 70
     8
  0
LTYPE
  5
14
330
5
100
AcDbSymbolTableRecord
100
AcDbLinetypeTableRecord
  2
ByBlock
 70
     0
  3

 72
    65
 73
     0
 40
0.0
  0
LTYPE
  5
15
330
5
100
AcDbSymbolTableRecord
100
AcDbLinetypeTableRecord
  2
ByLayer
 70
     0
  3

 72
    65
 73
     0
 40
0.0
  0
LTYPE
  5
16
330
5
100
AcDbSymbolTableRecord
100
AcDbLinetypeTableRecord
  2
Continuous
 70
     0
  3
Solid line
 72
    65
 73
     0
 40
0.0
  0
LTYPE
  5
20
330
5
100
AcDbSymbolTableRecord
100
AcDbLinetypeTableRecord
  2
PUNKT
 70
     0
  3
..............
 72
    65
 73
     2
 40
1.5
 49
0.7
 74
     0
 49
-0.8
 74
     0
  0
LTYPE
  5
21
330
5
100
AcDbSymbolTableRecord
100
AcDbLinetypeTableRecord
  2
GESTRICHELT
 70
     0
  3
-- -- -- -- --
 72
    65
 73
     7
 40
2.8
 49
0.9
 74
     0
 49
0.0
 74
     0
 49
0.9
 74
     0
 49
0.0
 74
     0
 49
0.2
 74
     0
 49
0.0
 74
     0
 49
-0.8
 74
     0
  0
LTYPE
  5
22
330
5
100
AcDbSymbolTableRecord
100
AcDbLinetypeTableRecord
  2
STRICHPUNKT
 70
     0
  3
--.--.--.--.--
 72
    65
 73
     4
 40
8.8
 49
5.5
 74
     0
 49
-1.3
 74
     0
 49
0.7
 74
     0
 49
-1.3
 74
     0
  0
LTYPE
  5
25
330
5
100
AcDbSymbolTableRecord
100
AcDbLinetypeTableRecord
  2
PHANTOM
 70
     0
  3
--..--..--..--
 72
    65
 73
     6
 40
14.2
 49
7.0
 74
     0
 49
-1.8
 74
     0
 49
0.9
 74
     0
 49
-1.8
 74
     0
 49
0.9
 74
     0
 49
-1.8
 74
     0
  0
LTYPE
  5
1BA
330
5
100
AcDbSymbolTableRecord
100
AcDbLinetypeTableRecord
  2
DASH
 70
     0
  3
DASH _ _ _ _ _
 72
    65
 73
     2
 40
0.75
 49
0.4
 74
     0
 49
-0.35
 74
     0
  0
LTYPE
  5
1BB
330
5
100
AcDbSymbolTableRecord
100
AcDbLinetypeTableRecord
  2
LONGDASH_DASH
 70
     0
  3
LONGDASH_DASH __ . __ . __
 72
    65
 73
     4
 40
0.85
 49
0.4
 74
     0
 49
-0.2
 74
     0
 49
0.05
 74
     0
 49
-0.2
 74
     0
  0
LTYPE
  5
1BC
330
5
100
AcDbSymbolTableRecord
100
AcDbLinetypeTableRecord
  2
LONGDASH_DASH_DASH
 70
     0
  3
LONGDASH_DASH_DASH __ . . __ . . __
 72
    65
 73
     6
 40
1.1
 49
0.4
 74
     0
 49
-0.2
 74
     0
 49
0.05
 74
     0
 49
-0.2
 74
     0
 49
0.05
 74
     0
 49
-0.2
 74
     0
  0
ENDTAB
  0
TABLE
  2
LAYER
  5
2
102
{ACAD_XDICTIONARY
360
1D9
102
}
330
0
100
AcDbSymbolTable
 70
    15
  0
LAYER
  5
185
330
2
100
AcDbSymbolTableRecord
100
AcDbLayerTableRecord
  2
200
 70
     0
 62
     2
  6
Continuous
370
    50
390
F
347
183
348
0
  0
LAYER
  5
1BD
330
2
100
AcDbSymbolTableRecord
100
AcDbLayerTableRecord
  2
0
 70
     0
 62
     1
  6
Continuous
370
    -3
390
F
347
183
348
0
  0
LAYER
  5
1BE
330
2
100
AcDbSymbolTableRecord
100
AcDbLayerTableRecord
  2
1
 70
     0
 62
     4
  6
Continuous
370
    50
390
F
347
183
348
0
  0
LAYER
  5
1BF
330
2
100
AcDbSymbolTableRecord
100
AcDbLayerTableRecord
  2
2
 70
     0
 62
     7
  6
Continuous
370
    25
390
F
347
183
348
0
  0
LAYER
  5
1C0
330
2
100
AcDbSymbolTableRecord
100
AcDbLayerTableRecord
  2
3
 70
     0
 62
     1
  6
DASH
370
    35
390
F
347
183
348
0
  0
LAYER
  5
1C1
330
2
100
AcDbSymbolTableRecord
100
AcDbLayerTableRecord
  2
4
 70
     0
 62
     2
  6
LONGDASH_DASH
370
    25
390
F
347
183
348
0
  0
LAYER
  5
1C2
330
2
100
AcDbSymbolTableRecord
100
AcDbLayerTableRecord
  2
6
 70
     0
 62
     5
  6
Continuous
370
    -3
390
F
347
183
348
0
  0
LAYER
  5
1C3
330
2
100
AcDbSymbolTableRecord
100
AcDbLayerTableRecord
  2
CUT
 70
     0
 62
     1
  6
Continuous
370
    25
390
F
347
183
348
0
  0
LAYER
  5
1C4
330
2
100
AcDbSymbolTableRecord
100
AcDbLayerTableRecord
  2
NOCUT
 70
     0
 62
     7
  6
Continuous
370
    25
390
F
347
183
348
0
  0
LAYER
  5
1C5
330
2
100
AcDbSymbolTableRecord
100
AcDbLayerTableRecord
  2
SK1
 70
     0
 62
     4
  6
Continuous
370
    50
390
F
347
183
348
0
  0
LAYER
  5
1C6
330
2
100
AcDbSymbolTableRecord
100
AcDbLayerTableRecord
  2
SK2
 70
     0
 62
     7
  6
Continuous
370
    25
390
F
347
183
348
0
  0
LAYER
  5
1C7
330
2
100
AcDbSymbolTableRecord
100
AcDbLayerTableRecord
  2
SK3
 70
     0
 62
     1
  6
DASH
370
    35
390
F
347
183
348
0
  0
LAYER
  5
1C8
330
2
100
AcDbSymbolTableRecord
100
AcDbLayerTableRecord
  2
SK4
 70
     0
 62
     2
  6
LONGDASH_DASH
370
    25
390
F
347
183
348
0
  0
LAYER
  5
1C9
330
2
100
AcDbSymbolTableRecord
100
AcDbLayerTableRecord
  2
SK6
 70
     0
 62
     5
  6
Continuous
370
    -3
390
F
347
183
348
0
  0
LAYER
  5
1CA
330
2
100
AcDbSymbolTableRecord
100
AcDbLayerTableRecord
  2
INFTOTAL
 70
     0
 62
     9
  6
Continuous
370
    18
390
F
347
183
348
0
  0
ENDTAB
  0
TABLE
  2
STYLE
  5
3
330
0
100
AcDbSymbolTable
 70
     2
  0
STYLE
  5
11
330
3
100
AcDbSymbolTableRecord
100
AcDbTextStyleTableRecord
  2
Standard
 70
     0
 40
0.0
 41
1.0
 50
0.0
 71
     0
 42
0.2
  3
txt
  4

  0
STYLE
  5
184
330
3
100
AcDbSymbolTableRecord
100
AcDbTextStyleTableRecord
  2
BMG_Text
 70
     0
 40
3.5
 41
1.0
 50
0.0
 71
     0
 42
0.2
  3
monos.ttf
  4

1001
ACAD
1000
Monospac821 BT
1071
       49
  0
ENDTAB
  0
TABLE
  2
VIEW
  5
6
330
0
100
AcDbSymbolTable
 70
     0
  0
ENDTAB
  0
TABLE
  2
UCS
  5
7
330
0
100
AcDbSymbolTable
 70
     0
  0
ENDTAB
  0
TABLE
  2
APPID
  5
9
330
0
100
AcDbSymbolTable
 70
     1
  0
APPID
  5
12
330
9
100
AcDbSymbolTableRecord
100
AcDbRegAppTableRecord
  2
ACAD
 70
     0
  0
ENDTAB
  0
TABLE
  2
DIMSTYLE
  5
A
330
0
100
AcDbSymbolTable
 70
     1
100
AcDbDimStyleTable
  0
DIMSTYLE
105
28
330
A
100
AcDbSymbolTableRecord
100
AcDbDimStyleTableRecord
  2
Standard
 70
     0
178
     0
340
11
  0
ENDTAB
  0
TABLE
  2
BLOCK_RECORD
  5
1
330
0
100
AcDbSymbolTable
 70
     1
  0
BLOCK_RECORD
  5
1D
330
1
100
AcDbSymbolTableRecord
100
AcDbBlockTableRecord
  2
*Model_Space
340
1E
 70
     0
280
     1
281
     0
  0
BLOCK_RECORD
  5
1B
330
1
100
AcDbSymbolTableRecord
100
AcDbBlockTableRecord
  2
*Paper_Space
340
1C
 70
     0
280
     1
281
     0
  0
ENDTAB
  0
ENDSEC
  0
SECTION
  2
BLOCKS
  0
BLOCK
  5
16D
330
1D
100
AcDbEntity
  8
0
100
AcDbBlockBegin
  2
*Model_Space
 70
     0
 10
0.0
 20
0.0
 30
0.0
  3
*Model_Space
  1

  0
ENDBLK
  5
16E
330
1D
100
AcDbEntity
  8
0
100
AcDbBlockEnd
  0
BLOCK
  5
16B
330
1B
100
AcDbEntity
 67
     1
  8
0
100
AcDbBlockBegin
  2
*Paper_Space
 70
     0
 10
0.0
 20
0.0
 30
0.0
  3
*Paper_Space
  1

  0
ENDBLK
  5
16C
330
1B
100
AcDbEntity
 67
     1
  8
0
100
AcDbBlockEnd
  0
ENDSEC
  0
SECTION
  2
ENTITIES
  0
LINE
  5
29
330
1D
100
AcDbEntity
  8
3
100
AcDbLine
 10
125.267963756
 20
-8.0
 30
0.0
 11
9.843354726
 21
-8.0
 31
0.0
  0
LINE
  5
2A
330
1D
100
AcDbEntity
  8
1
100
AcDbLine
 10
3.19999695
 20
48.27500916
 30
0.0
 11
3.19999695
 21
-48.27500153
 31
0.0
  0
LINE
  5
2B
330
1D
100
AcDbEntity
  8
1
100
AcDbLine
 10
18.60002327
 20
48.7250061
 30
0.0
 11
14.33314705
 21
48.7250061
 31
0.0
  0
LINE
  5
2C
330
1D
100
AcDbEntity
  8
1
100
AcDbLine
 10
19.05000496
 20
48.27500916
 30
0.0
 11
18.60002327
 21
48.7250061
 31
0.0
  0
LINE
  5
2D
330
1D
100
AcDbEntity
  8
1
100
AcDbLine
 10
3.19999695
 20
48.27500916
 30
0.0
 11
3.6499939
 21
48.7250061
 31
0.0
  0
LINE
  5
2E
330
1D
100
AcDbEntity
  8
1
100
AcDbLine
 10
2.3999939
 20
34.92500305
 30
0.0
 11
0.0
 21
34.92500305
 31
0.0
  0
ARC
  5
2F
330
1D
100
AcDbEntity
  8
1
100
AcDbCircle
 10
2.3999958
 20
35.7250061
 30
0.0
 40
0.80000305
100
AcDbArc
 50
270.0
 51
0.0
  0
LINE
  5
30
330
1D
100
AcDbEntity
  8
1
100
AcDbLine
 10
12.5249939
 20
45.5
 30
0.0
 11
9.67498779
 21
45.5
 31
0.0
  0
LINE
  5
31
330
1D
100
AcDbEntity
  8
1
100
AcDbLine
 10
13.0249939
 20
46.45921326
 30
0.0
 11
13.0249939
 21
34.20999146
 31
0.0
  0
LINE
  5
32
330
1D
100
AcDbEntity
  8
1
100
AcDbLine
 10
9.17498779
 20
46.45921326
 30
0.0
 11
9.17498779
 21
34.20999146
 31
0.0
  0
LINE
  5
33
330
1D
100
AcDbEntity
  8
1
100
AcDbLine
 10
13.0249939
 20
46.45921326
 30
0.0
 11
14.33314705
 21
48.7250061
 31
0.0
  0
LINE
  5
34
330
1D
100
AcDbEntity
  8
1
100
AcDbLine
 10
9.17498779
 20
46.45921326
 30
0.0
 11
7.86683655
 21
48.7250061
 31
0.0
  0
LINE
  5
35
330
1D
100
AcDbEntity
  8
1
100
AcDbLine
 10
7.86683655
 20
48.7250061
 30
0.0
 11
3.6499939
 21
48.7250061
 31
0.0
  0
ARC
  5
36
330
1D
100
AcDbEntity
  8
1
100
AcDbCircle
 10
9.6749897
 20
46.0
 30
0.0
 40
0.5
100
AcDbArc
 50
180.0
 51
270.0
  0
ARC
  5
37
330
1D
100
AcDbEntity
  8
1
100
AcDbCircle
 10
12.5249958
 20
46.0
 30
0.0
 40
0.5
100
AcDbArc
 50
270.0
 51
0.0
  0
LINE
  5
38
330
1D
100
AcDbEntity
  8
1
100
AcDbLine
 10
7.86682129
 20
48.7250061
 30
0.0
 11
7.86682129
 21
38.38999939
 31
0.0
  0
LINE
  5
39
330
1D
100
AcDbEntity
  8
1
100
AcDbLine
 10
14.33313179
 20
-48.72499847
 30
0.0
 11
14.33313179
 21
30.0
 31
0.0
  0
LINE
  5
3A
330
1D
100
AcDbEntity
  8
1
100
AcDbLine
 10
19.05000496
 20
30.0
 30
0.0
 11
3.19999695
 21
30.0
 31
0.0
  0
LINE
  5
3B
330
1D
100
AcDbEntity
  8
1
100
AcDbLine
 10
19.05000496
 20
38.38999939
 30
0.0
 11
14.33313179
 21
38.38999939
 31
0.0
  0
LINE
  5
3C
330
1D
100
AcDbEntity
  8
1
100
AcDbLine
 10
13.0249939
 20
34.20999146
 30
0.0
 11
9.17498779
 21
34.20999146
 31
0.0
  0
LINE
  5
3D
330
1D
100
AcDbEntity
  8
1
100
AcDbLine
 10
7.86682129
 20
38.38999939
 30
0.0
 11
3.19999695
 21
38.38999939
 31
0.0
  0
LINE
  5
3E
330
1D
100
AcDbEntity
  8
1
100
AcDbLine
 10
14.33313179
 20
38.38999939
 30
0.0
 11
14.33314705
 21
48.7250061
 31
0.0
  0
LINE
  5
3F
330
1D
100
AcDbEntity
  8
1
100
AcDbLine
 10
13.0249939
 20
30.0
 30
0.0
 11
13.0249939
 21
-46.45921326
 31
0.0
  0
LINE
  5
40
330
1D
100
AcDbEntity
  8
1
100
AcDbLine
 10
9.17498779
 20
30.0
 30
0.0
 11
9.17498779
 21
-46.45921326
 31
0.0
  0
LINE
  5
41
330
1D
100
AcDbEntity
  8
1
100
AcDbLine
 10
7.86682129
 20
30.0
 30
0.0
 11
7.86682129
 21
-48.72499847
 31
0.0
  0
LINE
  5
42
330
1D
100
AcDbEntity
  8
1
100
AcDbLine
 10
7.86682129
 20
38.38999939
 30
0.0
 11
9.17498779
 21
34.20999146
 31
0.0
  0
LINE
  5
43
330
1D
100
AcDbEntity
  8
1
100
AcDbLine
 10
13.0249939
 20
34.20999146
 30
0.0
 11
14.33313179
 21
38.38999939
 31
0.0
  0
LINE
  5
44
330
1D
100
AcDbEntity
  8
1
100
AcDbLine
 10
19.05000496
 20
48.27500916
 30
0.0
 11
19.05000496
 21
-48.27500153
 31
0.0
  0
LINE
  5
45
330
1D
100
AcDbEntity
  8
1
100
AcDbLine
 10
34.49998474
 20
34.92500305
 30
0.0
 11
19.8500061
 21
34.92500305
 31
0.0
  0
ARC
  5
46
330
1D
100
AcDbEntity
  8
1
100
AcDbCircle
 10
19.85000801
 20
35.7250061
 30
0.0
 40
0.80000305
100
AcDbArc
 50
180.0
 51
270.0
  0
LINE
  5
47
330
1D
100
AcDbEntity
  8
1
100
AcDbLine
 10
35.0
 20
34.42500305
 30
0.0
 11
35.0
 21
-34.42500305
 31
0.0
  0
LINE
  5
48
330
1D
100
AcDbEntity
  8
1
100
AcDbLine
 10
40.0
 20
19.50001526
 30
0.0
 11
152.25
 21
19.50001526
 31
0.0
  0
LINE
  5
49
330
1D
100
AcDbEntity
  8
1
100
AcDbLine
 10
35.0
 20
34.42500305
 30
0.0
 11
34.49998474
 21
34.92500305
 31
0.0
  0
ARC
  5
4A
330
1D
100
AcDbEntity
  8
1
100
AcDbCircle
 10
40.0
 20
24.50001526
 30
0.0
 40
5.0
100
AcDbArc
 50
180.0
 51
270.0
  0
LINE
  5
4B
330
1D
100
AcDbEntity
  8
1
100
AcDbLine
 10
153.0
 20
18.75001526
 30
0.0
 11
153.0
 21
-18.74998474
 31
0.0
  0
LINE
  5
4C
330
1D
100
AcDbEntity
  8
1
100
AcDbLine
 10
153.0
 20
18.75001526
 30
0.0
 11
152.25
 21
19.50001526
 31
0.0
  0
CIRCLE
  5
4D
330
1D
100
AcDbEntity
  8
1
100
AcDbCircle
 10
142.95001221
 20
0.0
 30
0.0
 40
4.0
  0
LINE
  5
4E
330
1D
100
AcDbEntity
  8
1
100
AcDbLine
 10
140.95001221
 20
-1.1546936
 30
0.0
 11
140.95001221
 21
1.1546936
 31
0.0
  0
LINE
  5
4F
330
1D
100
AcDbEntity
  8
1
100
AcDbLine
 10
140.95001221
 20
1.1546936
 30
0.0
 11
142.95001221
 21
2.30940247
 31
0.0
  0
LINE
  5
50
330
1D
100
AcDbEntity
  8
1
100
AcDbLine
 10
142.95001221
 20
2.30940247
 30
0.0
 11
144.95001221
 21
1.1546936
 31
0.0
  0
LINE
  5
51
330
1D
100
AcDbEntity
  8
1
100
AcDbLine
 10
144.95001221
 20
-1.1546936
 30
0.0
 11
144.95001221
 21
1.1546936
 31
0.0
  0
LINE
  5
52
330
1D
100
AcDbEntity
  8
1
100
AcDbLine
 10
18.60000801
 20
-48.72499847
 30
0.0
 11
14.33313179
 21
-48.72499847
 31
0.0
  0
LINE
  5
53
330
1D
100
AcDbEntity
  8
1
100
AcDbLine
 10
19.05000496
 20
-48.27500153
 30
0.0
 11
18.60000801
 21
-48.72499847
 31
0.0
  0
LINE
  5
54
330
1D
100
AcDbEntity
  8
1
100
AcDbLine
 10
3.19999695
 20
-48.27500153
 30
0.0
 11
3.65000916
 21
-48.72499847
 31
0.0
  0
ARC
  5
55
330
1D
100
AcDbEntity
  8
1
100
AcDbCircle
 10
2.3999958
 20
-35.7250061
 30
0.0
 40
0.80000305
100
AcDbArc
 50
0.0
 51
90.0
  0
LINE
  5
56
330
1D
100
AcDbEntity
  8
1
100
AcDbLine
 10
9.17498779
 20
-46.45921326
 30
0.0
 11
7.86682129
 21
-48.7250061
 31
0.0
  0
ARC
  5
57
330
1D
100
AcDbEntity
  8
1
100
AcDbCircle
 10
9.67502022
 20
-46.00001526
 30
0.0
 40
0.5
100
AcDbArc
 50
90.0
 51
180.0
  0
LINE
  5
58
330
1D
100
AcDbEntity
  8
1
100
AcDbLine
 10
12.5249939
 20
-45.5
 30
0.0
 11
9.67498779
 21
-45.5
 31
0.0
  0
ARC
  5
59
330
1D
100
AcDbEntity
  8
1
100
AcDbCircle
 10
12.5249958
 20
-46.00001526
 30
0.0
 40
0.5
100
AcDbArc
 50
0.0
 51
90.0
  0
LINE
  5
5A
330
1D
100
AcDbEntity
  8
1
100
AcDbLine
 10
13.0249939
 20
-46.45921326
 30
0.0
 11
14.33314705
 21
-48.7250061
 31
0.0
  0
LINE
  5
5B
330
1D
100
AcDbEntity
  8
1
100
AcDbLine
 10
7.86682129
 20
-48.72499847
 30
0.0
 11
3.65000916
 21
-48.72499847
 31
0.0
  0
LINE
  5
5C
330
1D
100
AcDbEntity
  8
1
100
AcDbLine
 10
2.3999939
 20
-34.92500305
 30
0.0
 11
0.0
 21
-34.92500305
 31
0.0
  0
LINE
  5
5D
330
1D
100
AcDbEntity
  8
1
100
AcDbLine
 10
34.5
 20
-34.92500305
 30
0.0
 11
19.8500061
 21
-34.92500305
 31
0.0
  0
ARC
  5
5E
330
1D
100
AcDbEntity
  8
1
100
AcDbCircle
 10
19.85000801
 20
-35.7250061
 30
0.0
 40
0.80000305
100
AcDbArc
 50
90.0
 51
180.0
  0
LINE
  5
5F
330
1D
100
AcDbEntity
  8
1
100
AcDbLine
 10
40.0
 20
-19.5
 30
0.0
 11
152.25
 21
-19.5
 31
0.0
  0
ARC
  5
60
330
1D
100
AcDbEntity
  8
1
100
AcDbCircle
 10
40.0
 20
-24.5
 30
0.0
 40
5.0
100
AcDbArc
 50
90.0
 51
180.0
  0
LINE
  5
61
330
1D
100
AcDbEntity
  8
1
100
AcDbLine
 10
35.0
 20
-34.42500305
 30
0.0
 11
34.5
 21
-34.92500305
 31
0.0
  0
LINE
  5
62
330
1D
100
AcDbEntity
  8
1
100
AcDbLine
 10
152.25
 20
-19.5
 30
0.0
 11
153.0
 21
-18.75
 31
0.0
  0
LINE
  5
63
330
1D
100
AcDbEntity
  8
1
100
AcDbLine
 10
144.95001221
 20
-1.1546936
 30
0.0
 11
142.95001221
 21
-2.30940247
 31
0.0
  0
LINE
  5
64
330
1D
100
AcDbEntity
  8
1
100
AcDbLine
 10
140.95001221
 20
-1.1546936
 30
0.0
 11
142.95001221
 21
-2.30940247
 31
0.0
  0
LINE
  5
65
330
1D
100
AcDbEntity
  8
SK4
100
AcDbLine
 10
142.95001221
 20
-5.0
 30
0.0
 11
142.95001221
 21
5.0
 31
0.0
  0
LINE
  5
66
330
1D
100
AcDbEntity
  8
SK4
100
AcDbLine
 10
155.0
 20
0.0
 30
0.0
 11
-6.884051733
 21
0.0
 31
0.0
  0
LINE
  5
67
330
1D
100
AcDbEntity
  8
SK4
100
AcDbLine
 10
-14.314840965
 20
0.0
 30
0.0
 11
-103.60003662
 21
0.0
 31
0.0
  0
LINE
  5
68
330
1D
100
AcDbEntity
  8
3
100
AcDbLine
 10
127.0
 20
11.0
 30
0.0
 11
125.267963756
 21
8.0
 31
0.0
  0
LINE
  5
69
330
1D
100
AcDbEntity
  8
3
100
AcDbLine
 10
127.0
 20
11.0
 30
0.0
 11
153.0
 21
11.0
 31
0.0
  0
LINE
  5
6A
330
1D
100
AcDbEntity
  8
3
100
AcDbLine
 10
127.0
 20
11.0
 30
0.0
 11
127.0
 21
-11.0
 31
0.0
  0
LINE
  5
6B
330
1D
100
AcDbEntity
  8
3
100
AcDbLine
 10
127.0
 20
-11.0
 30
0.0
 11
125.267955433
 21
-8.0
 31
0.0
  0
LINE
  5
6C
330
1D
100
AcDbEntity
  8
3
100
AcDbLine
 10
127.0
 20
-11.0
 30
0.0
 11
153.0
 21
-11.0
 31
0.0
  0
LINE
  5
6D
330
1D
100
AcDbEntity
  8
SK1
100
AcDbLine
 10
0.0
 20
34.92500305
 30
0.0
 11
0.0
 21
-34.92500305
 31
0.0
  0
LINE
  5
6E
330
1D
100
AcDbEntity
  8
SK1
100
AcDbLine
 10
0.0
 20
34.92500305
 30
0.0
 11
-99.46077728
 21
20.42021179
 31
0.0
  0
LINE
  5
6F
330
1D
100
AcDbEntity
  8
SK1
100
AcDbLine
 10
-101.60002136
 20
17.94636536
 30
0.0
 11
-101.60002136
 21
-17.94636536
 31
0.0
  0
ARC
  5
70
330
1D
100
AcDbEntity
  8
SK1
100
AcDbCircle
 10
-99.1000061
 20
17.94636536
 30
0.0
 40
2.50001431
100
AcDbArc
 50
98.29718781
 51
180.0
  0
LINE
  5
71
330
1D
100
AcDbEntity
  8
SK1
100
AcDbLine
 10
0.0
 20
-34.92500305
 30
0.0
 11
-99.46079254
 21
-20.42020416
 31
0.0
  0
ARC
  5
72
330
1D
100
AcDbEntity
  8
SK1
100
AcDbCircle
 10
-99.10002136
 20
-17.94636536
 30
0.0
 40
2.5
100
AcDbArc
 50
180.0
 51
261.70288086
  0
LINE
  5
73
330
1D
100
AcDbEntity
  8
3
100
AcDbLine
 10
125.267963756
 20
8.0
 30
0.0
 11
9.843354726
 21
8.0
 31
0.0
  0
LINE
  5
74
330
1D
100
AcDbEntity
  8
3
100
AcDbLine
 10
9.843354726
 20
8.0
 30
0.0
 11
9.843354726
 21
-8.0
 31
0.0
  0
LINE
  5
75
330
1D
100
AcDbEntity
  8
3
100
AcDbLine
 10
125.267963756
 20
8.0
 30
0.0
 11
125.267963756
 21
-8.0
 31
0.0
  0
LINE
  5
76
330
1D
100
AcDbEntity
  8
SK2
100
AcDbLine
 10
-10.0
 20
-34.92500305
 30
0.0
 11
0.0
 21
-34.92500305
 31
0.0
  0
LINE
  5
77
330
1D
100
AcDbEntity
  8
SK2
100
AcDbLine
 10
-8.0
 20
-34.92500305
 30
0.0
 11
-8.45
 21
-31.42500305
 31
0.0
  0
LINE
  5
78
330
1D
100
AcDbEntity
  8
SK2
100
AcDbLine
 10
-8.45
 20
-31.42500305
 30
0.0
 11
-7.55
 21
-31.42500305
 31
0.0
  0
LINE
  5
79
330
1D
100
AcDbEntity
  8
SK2
100
AcDbLine
 10
-7.55
 20
-31.42500305
 30
0.0
 11
-8.0
 21
-34.92500305
 31
0.0
  0
LINE
  5
7A
330
1D
100
AcDbEntity
  8
SK2
100
AcDbLine
 10
-8.0
 20
-31.52500305
 30
0.0
 11
-8.0
 21
-34.82500305
 31
0.0
  0
LINE
  5
7B
330
1D
100
AcDbEntity
  8
SK2
100
AcDbLine
 10
-7.8
 20
-31.52500305
 30
0.0
 11
-7.8
 21
-33.269447494
 31
0.0
  0
LINE
  5
7C
330
1D
100
AcDbEntity
  8
SK2
100
AcDbLine
 10
-8.2
 20
-31.52500305
 30
0.0
 11
-8.2
 21
-33.269447494
 31
0.0
  0
LINE
  5
7D
330
1D
100
AcDbEntity
  8
SK2
100
AcDbLine
 10
-7.6
 20
-31.52500305
 30
0.0
 11
-7.6
 21
-31.713891939
 31
0.0
  0
LINE
  5
7E
330
1D
100
AcDbEntity
  8
SK2
100
AcDbLine
 10
-8.4
 20
-31.52500305
 30
0.0
 11
-8.4
 21
-31.713891939
 31
0.0
  0
LINE
  5
7F
330
1D
100
AcDbEntity
  8
SK2
100
AcDbLine
 10
-10.0
 20
34.92500305
 30
0.0
 11
0.0
 21
34.92500305
 31
0.0
  0
LINE
  5
80
330
1D
100
AcDbEntity
  8
SK2
100
AcDbLine
 10
-8.0
 20
34.92500305
 30
0.0
 11
-7.55
 21
31.42500305
 31
0.0
  0
LINE
  5
81
330
1D
100
AcDbEntity
  8
SK2
100
AcDbLine
 10
-7.55
 20
31.42500305
 30
0.0
 11
-8.45
 21
31.42500305
 31
0.0
  0
LINE
  5
82
330
1D
100
AcDbEntity
  8
SK2
100
AcDbLine
 10
-8.45
 20
31.42500305
 30
0.0
 11
-8.0
 21
34.92500305
 31
0.0
  0
LINE
  5
83
330
1D
100
AcDbEntity
  8
SK2
100
AcDbLine
 10
-8.0
 20
31.52500305
 30
0.0
 11
-8.0
 21
34.82500305
 31
0.0
  0
LINE
  5
84
330
1D
100
AcDbEntity
  8
SK2
100
AcDbLine
 10
-8.2
 20
31.52500305
 30
0.0
 11
-8.2
 21
33.269447494
 31
0.0
  0
LINE
  5
85
330
1D
100
AcDbEntity
  8
SK2
100
AcDbLine
 10
-7.8
 20
31.52500305
 30
0.0
 11
-7.8
 21
33.269447494
 31
0.0
  0
LINE
  5
86
330
1D
100
AcDbEntity
  8
SK2
100
AcDbLine
 10
-8.4
 20
31.52500305
 30
0.0
 11
-8.4
 21
31.713891939
 31
0.0
  0
LINE
  5
87
330
1D
100
AcDbEntity
  8
SK2
100
AcDbLine
 10
-7.6
 20
31.52500305
 30
0.0
 11
-7.6
 21
31.713891939
 31
0.0
  0
LINE
  5
88
330
1D
100
AcDbEntity
  8
SK2
100
AcDbLine
 10
-8.0
 20
-31.42500305
 30
0.0
 11
-8.0
 21
31.42500305
 31
0.0
  0
TEXT
  5
89
330
1D
100
AcDbEntity
  8
SK2
100
AcDbText
 10
-9.5
 20
-2.430313281
 30
0.0
 40
3.5
  1
69.85
 50
90.0
  7
BMG_Text
100
AcDbText
  0
CIRCLE
  5
8A
330
1D
100
AcDbEntity
  8
SK2
100
AcDbCircle
 10
-10.75
 20
-4.680313281
 30
0.0
 40
1.25
  0
LINE
  5
8B
330
1D
100
AcDbEntity
  8
SK2
100
AcDbLine
 10
-9.5
 20
-5.930313281
 30
0.0
 11
-12.0
 21
-3.430313281
 31
0.0
  0
LINE
  5
8C
330
1D
100
AcDbEntity
  8
2
100
AcDbLine
 10
0.0
 20
-61.999999998
 30
0.0
 11
0.0
 21
-34.92500305
 31
0.0
  0
LINE
  5
8D
330
1D
100
AcDbEntity
  8
2
100
AcDbLine
 10
0.0
 20
-59.999999998
 30
0.0
 11
3.5
 21
-59.549999999
 31
0.0
  0
LINE
  5
8E
330
1D
100
AcDbEntity
  8
2
100
AcDbLine
 10
3.5
 20
-59.549999999
 30
0.0
 11
3.5
 21
-60.449999999
 31
0.0
  0
LINE
  5
8F
330
1D
100
AcDbEntity
  8
2
100
AcDbLine
 10
3.5
 20
-60.449999999
 30
0.0
 11
0.0
 21
-59.999999998
 31
0.0
  0
LINE
  5
90
330
1D
100
AcDbEntity
  8
2
100
AcDbLine
 10
3.4
 20
-59.999999999
 30
0.0
 11
0.1
 21
-59.999999998
 31
0.0
  0
LINE
  5
91
330
1D
100
AcDbEntity
  8
2
100
AcDbLine
 10
3.4
 20
-60.199999999
 30
0.0
 11
1.655555556
 21
-60.199999998
 31
0.0
  0
LINE
  5
92
330
1D
100
AcDbEntity
  8
2
100
AcDbLine
 10
3.4
 20
-59.799999999
 30
0.0
 11
1.655555556
 21
-59.799999998
 31
0.0
  0
LINE
  5
93
330
1D
100
AcDbEntity
  8
2
100
AcDbLine
 10
3.4
 20
-60.399999999
 30
0.0
 11
3.211111111
 21
-60.399999999
 31
0.0
  0
LINE
  5
94
330
1D
100
AcDbEntity
  8
2
100
AcDbLine
 10
3.4
 20
-59.599999999
 30
0.0
 11
3.211111111
 21
-59.599999999
 31
0.0
  0
LINE
  5
95
330
1D
100
AcDbEntity
  8
2
100
AcDbLine
 10
40.0
 20
-62.000000004
 30
0.0
 11
40.0
 21
-39.2749939
 31
0.0
  0
LINE
  5
96
330
1D
100
AcDbEntity
  8
2
100
AcDbLine
 10
40.0
 20
-60.000000004
 30
0.0
 11
36.5
 21
-60.450000003
 31
0.0
  0
LINE
  5
97
330
1D
100
AcDbEntity
  8
2
100
AcDbLine
 10
36.5
 20
-60.450000003
 30
0.0
 11
36.5
 21
-59.550000003
 31
0.0
  0
LINE
  5
98
330
1D
100
AcDbEntity
  8
2
100
AcDbLine
 10
36.5
 20
-59.550000003
 30
0.0
 11
40.0
 21
-60.000000004
 31
0.0
  0
LINE
  5
99
330
1D
100
AcDbEntity
  8
2
100
AcDbLine
 10
36.6
 20
-60.000000003
 30
0.0
 11
39.9
 21
-60.000000004
 31
0.0
  0
LINE
  5
9A
330
1D
100
AcDbEntity
  8
2
100
AcDbLine
 10
36.6
 20
-59.800000003
 30
0.0
 11
38.344444444
 21
-59.800000003
 31
0.0
  0
LINE
  5
9B
330
1D
100
AcDbEntity
  8
2
100
AcDbLine
 10
36.6
 20
-60.200000003
 30
0.0
 11
38.344444444
 21
-60.200000003
 31
0.0
  0
LINE
  5
9C
330
1D
100
AcDbEntity
  8
2
100
AcDbLine
 10
36.6
 20
-59.600000003
 30
0.0
 11
36.788888889
 21
-59.600000003
 31
0.0
  0
LINE
  5
9D
330
1D
100
AcDbEntity
  8
2
100
AcDbLine
 10
36.6
 20
-60.400000003
 30
0.0
 11
36.788888889
 21
-60.400000003
 31
0.0
  0
LINE
  5
9E
330
1D
100
AcDbEntity
  8
2
100
AcDbLine
 10
3.5
 20
-59.999999999
 30
0.0
 11
36.5
 21
-60.000000003
 31
0.0
  0
TEXT
  5
9F
330
1D
100
AcDbEntity
  8
2
100
AcDbText
 10
18.335312053
 20
-58.500000001
 30
0.0
 40
3.5
  1
40
 50
359.999999992
  7
BMG_Text
100
AcDbText
  0
LINE
  5
A0
330
1D
100
AcDbEntity
  8
2
100
AcDbLine
 10
178.0
 20
-19.5
 30
0.0
 11
152.25
 21
-19.5
 31
0.0
  0
LINE
  5
A1
330
1D
100
AcDbEntity
  8
2
100
AcDbLine
 10
176.0
 20
-19.5
 30
0.0
 11
175.55
 21
-16.0
 31
0.0
  0
LINE
  5
A2
330
1D
100
AcDbEntity
  8
2
100
AcDbLine
 10
175.55
 20
-16.0
 30
0.0
 11
176.45
 21
-16.0
 31
0.0
  0
LINE
  5
A3
330
1D
100
AcDbEntity
  8
2
100
AcDbLine
 10
176.45
 20
-16.0
 30
0.0
 11
176.0
 21
-19.5
 31
0.0
  0
LINE
  5
A4
330
1D
100
AcDbEntity
  8
2
100
AcDbLine
 10
176.0
 20
-16.1
 30
0.0
 11
176.0
 21
-19.4
 31
0.0
  0
LINE
  5
A5
330
1D
100
AcDbEntity
  8
2
100
AcDbLine
 10
176.2
 20
-16.1
 30
0.0
 11
176.2
 21
-17.844444444
 31
0.0
  0
LINE
  5
A6
330
1D
100
AcDbEntity
  8
2
100
AcDbLine
 10
175.8
 20
-16.1
 30
0.0
 11
175.8
 21
-17.844444444
 31
0.0
  0
LINE
  5
A7
330
1D
100
AcDbEntity
  8
2
100
AcDbLine
 10
176.4
 20
-16.1
 30
0.0
 11
176.4
 21
-16.288888889
 31
0.0
  0
LINE
  5
A8
330
1D
100
AcDbEntity
  8
2
100
AcDbLine
 10
175.6
 20
-16.1
 30
0.0
 11
175.6
 21
-16.288888889
 31
0.0
  0
LINE
  5
A9
330
1D
100
AcDbEntity
  8
2
100
AcDbLine
 10
178.0
 20
19.50001526
 30
0.0
 11
152.25
 21
19.50001526
 31
0.0
  0
LINE
  5
AA
330
1D
100
AcDbEntity
  8
2
100
AcDbLine
 10
176.0
 20
19.50001526
 30
0.0
 11
176.45
 21
16.00001526
 31
0.0
  0
LINE
  5
AB
330
1D
100
AcDbEntity
  8
2
100
AcDbLine
 10
176.45
 20
16.00001526
 30
0.0
 11
175.55
 21
16.00001526
 31
0.0
  0
LINE
  5
AC
330
1D
100
AcDbEntity
  8
2
100
AcDbLine
 10
175.55
 20
16.00001526
 30
0.0
 11
176.0
 21
19.50001526
 31
0.0
  0
LINE
  5
AD
330
1D
100
AcDbEntity
  8
2
100
AcDbLine
 10
176.0
 20
16.10001526
 30
0.0
 11
176.0
 21
19.40001526
 31
0.0
  0
LINE
  5
AE
330
1D
100
AcDbEntity
  8
2
100
AcDbLine
 10
175.8
 20
16.10001526
 30
0.0
 11
175.8
 21
17.844459704
 31
0.0
  0
LINE
  5
AF
330
1D
100
AcDbEntity
  8
2
100
AcDbLine
 10
176.2
 20
16.10001526
 30
0.0
 11
176.2
 21
17.844459704
 31
0.0
  0
LINE
  5
B0
330
1D
100
AcDbEntity
  8
2
100
AcDbLine
 10
175.6
 20
16.10001526
 30
0.0
 11
175.6
 21
16.288904149
 31
0.0
  0
LINE
  5
B1
330
1D
100
AcDbEntity
  8
2
100
AcDbLine
 10
176.4
 20
16.10001526
 30
0.0
 11
176.4
 21
16.288904149
 31
0.0
  0
LINE
  5
B2
330
1D
100
AcDbEntity
  8
2
100
AcDbLine
 10
176.0
 20
-16.0
 30
0.0
 11
176.0
 21
16.00001526
 31
0.0
  0
TEXT
  5
B3
330
1D
100
AcDbEntity
  8
2
100
AcDbText
 10
174.5
 20
0.331413444
 30
0.0
 40
3.5
  1
39
 50
90.0
  7
BMG_Text
100
AcDbText
  0
CIRCLE
  5
B4
330
1D
100
AcDbEntity
  8
2
100
AcDbCircle
 10
173.25
 20
-1.918586556
 30
0.0
 40
1.25
  0
LINE
  5
B5
330
1D
100
AcDbEntity
  8
2
100
AcDbLine
 10
174.5
 20
-3.168586556
 30
0.0
 11
172.0
 21
-0.668586556
 31
0.0
  0
LINE
  5
B6
330
1D
100
AcDbEntity
  8
2
100
AcDbLine
 10
170.0
 20
-11.0
 30
0.0
 11
153.0
 21
-11.0
 31
0.0
  0
LINE
  5
B7
330
1D
100
AcDbEntity
  8
2
100
AcDbLine
 10
168.0
 20
-11.0
 30
0.0
 11
167.55
 21
-7.5
 31
0.0
  0
LINE
  5
B8
330
1D
100
AcDbEntity
  8
2
100
AcDbLine
 10
167.55
 20
-7.5
 30
0.0
 11
168.45
 21
-7.5
 31
0.0
  0
LINE
  5
B9
330
1D
100
AcDbEntity
  8
2
100
AcDbLine
 10
168.45
 20
-7.5
 30
0.0
 11
168.0
 21
-11.0
 31
0.0
  0
LINE
  5
BA
330
1D
100
AcDbEntity
  8
2
100
AcDbLine
 10
168.0
 20
-7.6
 30
0.0
 11
168.0
 21
-10.9
 31
0.0
  0
LINE
  5
BB
330
1D
100
AcDbEntity
  8
2
100
AcDbLine
 10
168.2
 20
-7.6
 30
0.0
 11
168.2
 21
-9.344444444
 31
0.0
  0
LINE
  5
BC
330
1D
100
AcDbEntity
  8
2
100
AcDbLine
 10
167.8
 20
-7.6
 30
0.0
 11
167.8
 21
-9.344444444
 31
0.0
  0
LINE
  5
BD
330
1D
100
AcDbEntity
  8
2
100
AcDbLine
 10
168.4
 20
-7.6
 30
0.0
 11
168.4
 21
-7.788888889
 31
0.0
  0
LINE
  5
BE
330
1D
100
AcDbEntity
  8
2
100
AcDbLine
 10
167.6
 20
-7.6
 30
0.0
 11
167.6
 21
-7.788888889
 31
0.0
  0
LINE
  5
BF
330
1D
100
AcDbEntity
  8
2
100
AcDbLine
 10
170.0
 20
11.0
 30
0.0
 11
153.0
 21
11.0
 31
0.0
  0
LINE
  5
C0
330
1D
100
AcDbEntity
  8
2
100
AcDbLine
 10
168.0
 20
11.0
 30
0.0
 11
168.45
 21
7.5
 31
0.0
  0
LINE
  5
C1
330
1D
100
AcDbEntity
  8
2
100
AcDbLine
 10
168.45
 20
7.5
 30
0.0
 11
167.55
 21
7.5
 31
0.0
  0
LINE
  5
C2
330
1D
100
AcDbEntity
  8
2
100
AcDbLine
 10
167.55
 20
7.5
 30
0.0
 11
168.0
 21
11.0
 31
0.0
  0
LINE
  5
C3
330
1D
100
AcDbEntity
  8
2
100
AcDbLine
 10
168.0
 20
7.6
 30
0.0
 11
168.0
 21
10.9
 31
0.0
  0
LINE
  5
C4
330
1D
100
AcDbEntity
  8
2
100
AcDbLine
 10
167.8
 20
7.6
 30
0.0
 11
167.8
 21
9.344444444
 31
0.0
  0
LINE
  5
C5
330
1D
100
AcDbEntity
  8
2
100
AcDbLine
 10
168.2
 20
7.6
 30
0.0
 11
168.2
 21
9.344444444
 31
0.0
  0
LINE
  5
C6
330
1D
100
AcDbEntity
  8
2
100
AcDbLine
 10
167.6
 20
7.6
 30
0.0
 11
167.6
 21
7.788888889
 31
0.0
  0
LINE
  5
C7
330
1D
100
AcDbEntity
  8
2
100
AcDbLine
 10
168.4
 20
7.6
 30
0.0
 11
168.4
 21
7.788888889
 31
0.0
  0
LINE
  5
C8
330
1D
100
AcDbEntity
  8
2
100
AcDbLine
 10
168.0
 20
-7.5
 30
0.0
 11
168.0
 21
7.5
 31
0.0
  0
TEXT
  5
C9
330
1D
100
AcDbEntity
  8
2
100
AcDbText
 10
166.5
 20
0.085312254
 30
0.0
 40
3.5
  1
22
 50
90.0
  7
BMG_Text
100
AcDbText
  0
CIRCLE
  5
CA
330
1D
100
AcDbEntity
  8
2
100
AcDbCircle
 10
165.25
 20
-2.164687746
 30
0.0
 40
1.25
  0
LINE
  5
CB
330
1D
100
AcDbEntity
  8
2
100
AcDbLine
 10
166.5
 20
-3.414687746
 30
0.0
 11
164.0
 21
-0.914687746
 31
0.0
  0
LINE
  5
CC
330
1D
100
AcDbEntity
  8
2
100
AcDbLine
 10
0.0
 20
61.999999998
 30
0.0
 11
0.0
 21
34.92500305
 31
0.0
  0
LINE
  5
CD
330
1D
100
AcDbEntity
  8
2
100
AcDbLine
 10
0.0
 20
59.999999998
 30
0.0
 11
3.5
 21
60.449999998
 31
0.0
  0
LINE
  5
CE
330
1D
100
AcDbEntity
  8
2
100
AcDbLine
 10
3.5
 20
60.449999998
 30
0.0
 11
3.5
 21
59.549999998
 31
0.0
  0
LINE
  5
CF
330
1D
100
AcDbEntity
  8
2
100
AcDbLine
 10
3.5
 20
59.549999998
 30
0.0
 11
0.0
 21
59.999999998
 31
0.0
  0
LINE
  5
D0
330
1D
100
AcDbEntity
  8
2
100
AcDbLine
 10
3.4
 20
59.999999998
 30
0.0
 11
0.1
 21
59.999999998
 31
0.0
  0
LINE
  5
D1
330
1D
100
AcDbEntity
  8
2
100
AcDbLine
 10
3.4
 20
59.799999998
 30
0.0
 11
1.655555556
 21
59.799999998
 31
0.0
  0
LINE
  5
D2
330
1D
100
AcDbEntity
  8
2
100
AcDbLine
 10
3.4
 20
60.199999998
 30
0.0
 11
1.655555556
 21
60.199999998
 31
0.0
  0
LINE
  5
D3
330
1D
100
AcDbEntity
  8
2
100
AcDbLine
 10
3.4
 20
59.599999998
 30
0.0
 11
3.211111111
 21
59.599999998
 31
0.0
  0
LINE
  5
D4
330
1D
100
AcDbEntity
  8
2
100
AcDbLine
 10
3.4
 20
60.399999998
 30
0.0
 11
3.211111111
 21
60.399999998
 31
0.0
  0
LINE
  5
D5
330
1D
100
AcDbEntity
  8
2
100
AcDbLine
 10
153.0
 20
62.000000001
 30
0.0
 11
153.0
 21
18.75001526
 31
0.0
  0
LINE
  5
D6
330
1D
100
AcDbEntity
  8
2
100
AcDbLine
 10
153.0
 20
60.000000001
 30
0.0
 11
149.5
 21
59.550000001
 31
0.0
  0
LINE
  5
D7
330
1D
100
AcDbEntity
  8
2
100
AcDbLine
 10
149.5
 20
59.550000001
 30
0.0
 11
149.5
 21
60.450000001
 31
0.0
  0
LINE
  5
D8
330
1D
100
AcDbEntity
  8
2
100
AcDbLine
 10
149.5
 20
60.450000001
 30
0.0
 11
153.0
 21
60.000000001
 31
0.0
  0
LINE
  5
D9
330
1D
100
AcDbEntity
  8
2
100
AcDbLine
 10
149.6
 20
60.000000001
 30
0.0
 11
152.9
 21
60.000000001
 31
0.0
  0
LINE
  5
DA
330
1D
100
AcDbEntity
  8
2
100
AcDbLine
 10
149.6
 20
60.200000001
 30
0.0
 11
151.344444444
 21
60.200000001
 31
0.0
  0
LINE
  5
DB
330
1D
100
AcDbEntity
  8
2
100
AcDbLine
 10
149.6
 20
59.800000001
 30
0.0
 11
151.344444444
 21
59.800000001
 31
0.0
  0
LINE
  5
DC
330
1D
100
AcDbEntity
  8
2
100
AcDbLine
 10
149.6
 20
60.400000001
 30
0.0
 11
149.788888889
 21
60.400000001
 31
0.0
  0
LINE
  5
DD
330
1D
100
AcDbEntity
  8
2
100
AcDbLine
 10
149.6
 20
59.600000001
 30
0.0
 11
149.788888889
 21
59.600000001
 31
0.0
  0
LINE
  5
DE
330
1D
100
AcDbEntity
  8
2
100
AcDbLine
 10
3.5
 20
59.999999998
 30
0.0
 11
149.5
 21
60.000000001
 31
0.0
  0
TEXT
  5
DF
330
1D
100
AcDbEntity
  8
2
100
AcDbText
 10
74.39781079
 20
61.5
 30
0.0
 40
3.5
  1
153
  7
BMG_Text
100
AcDbText
  0
LINE
  5
E0
330
1D
100
AcDbEntity
  8
2
100
AcDbLine
 10
40.0
 20
-62.00000038
 30
0.0
 11
40.0
 21
-39.32500305
 31
0.0
  0
LINE
  5
E1
330
1D
100
AcDbEntity
  8
2
100
AcDbLine
 10
40.0
 20
-60.00000038
 30
0.0
 11
43.5
 21
-59.55000038
 31
0.0
  0
LINE
  5
E2
330
1D
100
AcDbEntity
  8
2
100
AcDbLine
 10
43.5
 20
-59.55000038
 30
0.0
 11
43.5
 21
-60.45000038
 31
0.0
  0
LINE
  5
E3
330
1D
100
AcDbEntity
  8
2
100
AcDbLine
 10
43.5
 20
-60.45000038
 30
0.0
 11
40.0
 21
-60.00000038
 31
0.0
  0
LINE
  5
E4
330
1D
100
AcDbEntity
  8
2
100
AcDbLine
 10
43.4
 20
-60.00000038
 30
0.0
 11
40.1
 21
-60.00000038
 31
0.0
  0
LINE
  5
E5
330
1D
100
AcDbEntity
  8
2
100
AcDbLine
 10
43.4
 20
-60.20000038
 30
0.0
 11
41.655555556
 21
-60.20000038
 31
0.0
  0
LINE
  5
E6
330
1D
100
AcDbEntity
  8
2
100
AcDbLine
 10
43.4
 20
-59.80000038
 30
0.0
 11
41.655555556
 21
-59.80000038
 31
0.0
  0
LINE
  5
E7
330
1D
100
AcDbEntity
  8
2
100
AcDbLine
 10
43.4
 20
-60.40000038
 30
0.0
 11
43.211111111
 21
-60.40000038
 31
0.0
  0
LINE
  5
E8
330
1D
100
AcDbEntity
  8
2
100
AcDbLine
 10
43.4
 20
-59.60000038
 30
0.0
 11
43.211111111
 21
-59.60000038
 31
0.0
  0
LINE
  5
E9
330
1D
100
AcDbEntity
  8
2
100
AcDbLine
 10
43.5
 20
-60.00000038
 30
0.0
 11
164.3
 21
-60.00000038
 31
0.0
  0
TEXT
  5
EA
330
1D
100
AcDbEntity
  8
2
100
AcDbText
 10
126.0988538383066
 20
-58.50000038
 30
0.0
 40
3.5
  1
160
  7
BMG_Text
100
AcDbText
  0
TEXT
  5
EB
330
1D
100
AcDbEntity
  8
2
100
AcDbText
 10
86.941717361
 20
-58.50000038
 30
0.0
 40
3.5
  1
Ausdrehtiefe
  7
BMG_Text
100
AcDbText
  0
LINE
  5
EC
330
1D
100
AcDbEntity
  8
SK6
100
AcDbLine
 10
-67.72633362
 20
-48.79483032
 30
0.0
 11
-67.72633362
 21
-50.86482239
 31
0.0
  0
ARC
  5
ED
330
1D
100
AcDbEntity
  8
SK6
100
AcDbCircle
 10
-70.60632324
 20
-51.94483185
 30
0.0
 40
1.08000004
100
AcDbArc
 50
90.00000763
 51
206.54360962
  0
LINE
  5
EE
330
1D
100
AcDbEntity
  8
SK6
100
AcDbLine
 10
-70.60632324
 20
-50.86485291
 30
0.0
 11
-67.72631836
 21
-50.86485291
 31
0.0
  0
ARC
  5
EF
330
1D
100
AcDbEntity
  8
SK6
100
AcDbCircle
 10
-71.77632904
 20
-51.49482727
 30
0.0
 40
2.70000005
100
AcDbArc
 50
90.00000763
 51
206.5436554
  0
ARC
  5
F0
330
1D
100
AcDbEntity
  8
SK6
100
AcDbCircle
 10
-71.05631256
 20
-61.39483643
 30
0.0
 40
1.08000004
100
AcDbArc
 50
270.0
 51
26.54360962
  0
LINE
  5
F1
330
1D
100
AcDbEntity
  8
SK6
100
AcDbLine
 10
-71.05631256
 20
-62.47483826
 30
0.0
 11
-74.47631073
 21
-62.47483826
 31
0.0
  0
LINE
  5
F2
330
1D
100
AcDbEntity
  8
SK6
100
AcDbLine
 10
-74.19172668
 20
-52.70140076
 30
0.0
 11
-70.09016418
 21
-60.9121933
 31
0.0
  0
ARC
  5
F3
330
1D
100
AcDbEntity
  8
SK6
100
AcDbCircle
 10
-69.88632202
 20
-61.844841
 30
0.0
 40
2.70000005
100
AcDbArc
 50
270.0
 51
26.54364014
  0
LINE
  5
F4
330
1D
100
AcDbEntity
  8
SK6
100
AcDbLine
 10
-71.57248688
 20
-52.42745972
 30
0.0
 11
-67.47091675
 21
-60.63825989
 31
0.0
  0
LINE
  5
F5
330
1D
100
AcDbEntity
  8
SK6
100
AcDbLine
 10
-74.47633362
 20
-62.47483826
 30
0.0
 11
-74.47633362
 21
-64.54484558
 31
0.0
  0
LINE
  5
F6
330
1D
100
AcDbEntity
  8
SK6
100
AcDbLine
 10
-74.47633362
 20
-64.54484558
 30
0.0
 11
-69.88632965
 21
-64.54484558
 31
0.0
  0
LINE
  5
F7
330
1D
100
AcDbEntity
  8
SK6
100
AcDbLine
 10
-65.02632904
 20
-64.54484558
 30
0.0
 11
-65.02632904
 21
-48.79484558
 31
0.0
  0
LINE
  5
F8
330
1D
100
AcDbEntity
  8
SK6
100
AcDbLine
 10
-56.74632263
 20
-64.54484558
 30
0.0
 11
-56.74632263
 21
-48.79484558
 31
0.0
  0
LINE
  5
F9
330
1D
100
AcDbEntity
  8
SK6
100
AcDbLine
 10
-56.74632263
 20
-64.54484558
 30
0.0
 11
-54.0463295
 21
-64.54484558
 31
0.0
  0
LINE
  5
FA
330
1D
100
AcDbEntity
  8
SK6
100
AcDbLine
 10
-54.0463295
 20
-64.54484558
 30
0.0
 11
-54.0463295
 21
-57.70484924
 31
0.0
  0
ARC
  5
FB
330
1D
100
AcDbEntity
  8
SK6
100
AcDbCircle
 10
-52.69631577
 20
-58.78483582
 30
0.0
 40
1.08000004
100
AcDbArc
 50
0.0
 51
90.00000763
  0
LINE
  5
FC
330
1D
100
AcDbEntity
  8
SK6
100
AcDbLine
 10
-52.69631577
 20
-57.70483398
 30
0.0
 11
-54.04631805
 21
-57.70483398
 31
0.0
  0
LINE
  5
FD
330
1D
100
AcDbEntity
  8
SK6
100
AcDbLine
 10
-51.61633682
 20
-62.02484131
 30
0.0
 11
-51.61633682
 21
-63.01483154
 31
0.0
  0
ARC
  5
FE
330
1D
100
AcDbEntity
  8
SK6
100
AcDbCircle
 10
-46.48633957
 20
-63.01483917
 30
0.0
 40
2.51999998
100
AcDbArc
 50
180.0
 51
217.38319397
  0
ARC
  5
FF
330
1D
100
AcDbEntity
  8
SK6
100
AcDbCircle
 10
-49.09634781
 20
-63.01483917
 30
0.0
 40
2.51999998
100
AcDbArc
 50
180.0
 51
217.38319397
  0
LINE
  5
100
330
1D
100
AcDbEntity
  8
SK6
100
AcDbLine
 10
-48.57873154
 20
-64.54484558
 30
0.0
 11
-51.09873199
 21
-64.54484558
 31
0.0
  0
LINE
  5
101
330
1D
100
AcDbEntity
  8
SK6
100
AcDbLine
 10
-51.61633682
 20
-58.78485107
 30
0.0
 11
-51.61633682
 21
-63.01483917
 31
0.0
  0
ARC
  5
102
330
1D
100
AcDbEntity
  8
SK6
100
AcDbCircle
 10
-51.5263176
 20
-58.96484375
 30
0.0
 40
2.51999998
100
AcDbArc
 50
358.70883179
 51
93.06652832
  0
ARC
  5
103
330
1D
100
AcDbEntity
  8
SK6
100
AcDbCircle
 10
-51.7963295
 20
-53.92484283
 30
0.0
 40
2.51999998
100
AcDbArc
 50
273.06652832
 51
0.0
  0
ARC
  5
104
330
1D
100
AcDbEntity
  8
SK6
100
AcDbCircle
 10
-51.7963295
 20
-51.31484985
 30
0.0
 40
2.51999998
100
AcDbArc
 50
0.0
 51
90.00000763
  0
LINE
  5
105
330
1D
100
AcDbEntity
  8
SK6
100
AcDbLine
 10
-49.2763176
 20
-51.31484985
 30
0.0
 11
-49.2763176
 21
-53.92485046
 31
0.0
  0
ARC
  5
106
330
1D
100
AcDbEntity
  8
SK6
100
AcDbCircle
 10
-52.42632675
 20
-51.7648468
 30
0.0
 40
0.90000004
100
AcDbArc
 50
0.0
 51
90.00000763
  0
LINE
  5
107
330
1D
100
AcDbEntity
  8
SK6
100
AcDbLine
 10
-52.42632675
 20
-50.86485291
 30
0.0
 11
-54.0463295
 21
-50.86485291
 31
0.0
  0
ARC
  5
108
330
1D
100
AcDbEntity
  8
SK6
100
AcDbCircle
 10
-52.42632675
 20
-54.64483643
 30
0.0
 40
0.90000004
100
AcDbArc
 50
270.0
 51
0.0
  0
LINE
  5
109
330
1D
100
AcDbEntity
  8
SK6
100
AcDbLine
 10
-51.5263176
 20
-51.7648468
 30
0.0
 11
-51.5263176
 21
-54.64484406
 31
0.0
  0
LINE
  5
10A
330
1D
100
AcDbEntity
  8
SK6
100
AcDbLine
 10
-54.0463295
 20
-50.86485291
 30
0.0
 11
-54.0463295
 21
-55.54484558
 31
0.0
  0
LINE
  5
10B
330
1D
100
AcDbEntity
  8
SK6
100
AcDbLine
 10
-52.42632675
 20
-55.54484558
 30
0.0
 11
-54.0463295
 21
-55.54484558
 31
0.0
  0
LINE
  5
10C
330
1D
100
AcDbEntity
  8
SK6
100
AcDbLine
 10
-49.00696945
 20
-59.02162933
 30
0.0
 11
-49.00634003
 21
-63.01524353
 31
0.0
  0
LINE
  5
10D
330
1D
100
AcDbEntity
  8
SK6
100
AcDbLine
 10
-48.57873154
 20
-64.54484558
 30
0.0
 11
-48.4887352
 21
-64.54484558
 31
0.0
  0
LINE
  5
10E
330
1D
100
AcDbEntity
  8
SK6
100
AcDbLine
 10
-71.77632904
 20
-48.79483032
 30
0.0
 11
-67.72632599
 21
-48.79483032
 31
0.0
  0
LINE
  5
10F
330
1D
100
AcDbEntity
  8
SK6
100
AcDbLine
 10
-51.7963295
 20
-48.79483032
 30
0.0
 11
-56.74633408
 21
-48.79483032
 31
0.0
  0
LINE
  5
110
330
1D
100
AcDbEntity
  8
SK6
100
AcDbLine
 10
-98.77632904
 20
-64.54484558
 30
0.0
 11
-101.56632996
 21
-64.54484558
 31
0.0
  0
LINE
  5
111
330
1D
100
AcDbEntity
  8
SK6
100
AcDbLine
 10
-98.77632904
 20
-61.12484741
 30
0.0
 11
-98.77632904
 21
-64.54484558
 31
0.0
  0
LINE
  5
112
330
1D
100
AcDbEntity
  8
SK6
100
AcDbLine
 10
-97.69632721
 20
-59.05484009
 30
0.0
 11
-98.77632904
 21
-61.12484741
 31
0.0
  0
LINE
  5
113
330
1D
100
AcDbEntity
  8
SK6
100
AcDbLine
 10
-95.26633453
 20
-64.54484558
 30
0.0
 11
-97.69632721
 21
-59.05484009
 31
0.0
  0
LINE
  5
114
330
1D
100
AcDbEntity
  8
SK6
100
AcDbLine
 10
-92.47633362
 20
-64.54484558
 30
0.0
 11
-95.2663269
 21
-64.54484558
 31
0.0
  0
LINE
  5
115
330
1D
100
AcDbEntity
  8
SK6
100
AcDbLine
 10
-96.07633972
 20
-55.54484558
 30
0.0
 11
-92.47633362
 21
-64.54484558
 31
0.0
  0
LINE
  5
116
330
1D
100
AcDbEntity
  8
SK6
100
AcDbLine
 10
-93.01633453
 20
-48.79484558
 30
0.0
 11
-96.07632446
 21
-55.54484558
 31
0.0
  0
LINE
  5
117
330
1D
100
AcDbEntity
  8
SK6
100
AcDbLine
 10
-98.77632904
 20
-55.90485382
 30
0.0
 11
-95.80633545
 21
-48.79486084
 31
0.0
  0
LINE
  5
118
330
1D
100
AcDbEntity
  8
SK6
100
AcDbLine
 10
-98.77632904
 20
-48.79484558
 30
0.0
 11
-98.77632904
 21
-55.90485382
 31
0.0
  0
LINE
  5
119
330
1D
100
AcDbEntity
  8
SK6
100
AcDbLine
 10
-101.56632996
 20
-64.54484558
 30
0.0
 11
-101.56632996
 21
-48.79484558
 31
0.0
  0
LINE
  5
11A
330
1D
100
AcDbEntity
  8
SK6
100
AcDbLine
 10
-95.80633545
 20
-48.79484558
 30
0.0
 11
-93.01633453
 21
-48.79484558
 31
0.0
  0
LINE
  5
11B
330
1D
100
AcDbEntity
  8
SK6
100
AcDbLine
 10
-101.56632996
 20
-48.79484558
 30
0.0
 11
-98.77632904
 21
-48.79484558
 31
0.0
  0
LINE
  5
11C
330
1D
100
AcDbEntity
  8
SK6
100
AcDbLine
 10
-79.5163269
 20
-48.79484558
 30
0.0
 11
-79.5163269
 21
-64.54484558
 31
0.0
  0
LINE
  5
11D
330
1D
100
AcDbEntity
  8
SK6
100
AcDbLine
 10
-76.63632202
 20
-64.54484558
 30
0.0
 11
-76.63632202
 21
-48.79484558
 31
0.0
  0
LINE
  5
11E
330
1D
100
AcDbEntity
  8
SK6
100
AcDbLine
 10
-79.5163269
 20
-64.54484558
 30
0.0
 11
-76.63632202
 21
-64.54484558
 31
0.0
  0
LINE
  5
11F
330
1D
100
AcDbEntity
  8
SK6
100
AcDbLine
 10
-76.63632202
 20
-48.79484558
 30
0.0
 11
-79.51633453
 21
-48.79484558
 31
0.0
  0
LINE
  5
120
330
1D
100
AcDbEntity
  8
SK6
100
AcDbLine
 10
-59.17632675
 20
-64.54484558
 30
0.0
 11
-59.17632675
 21
-62.47483826
 31
0.0
  0
LINE
  5
121
330
1D
100
AcDbEntity
  8
SK6
100
AcDbLine
 10
-65.02632904
 20
-64.54484558
 30
0.0
 11
-59.17632675
 21
-64.54484558
 31
0.0
  0
LINE
  5
122
330
1D
100
AcDbEntity
  8
SK6
100
AcDbLine
 10
-59.1763382
 20
-50.86483765
 30
0.0
 11
-59.1763382
 21
-48.79484558
 31
0.0
  0
LINE
  5
123
330
1D
100
AcDbEntity
  8
SK6
100
AcDbLine
 10
-62.14635468
 20
-50.86483765
 30
0.0
 11
-59.17634964
 21
-50.86483765
 31
0.0
  0
LINE
  5
124
330
1D
100
AcDbEntity
  8
SK6
100
AcDbLine
 10
-62.14635468
 20
-55.54484558
 30
0.0
 11
-62.14635468
 21
-50.86485291
 31
0.0
  0
LINE
  5
125
330
1D
100
AcDbEntity
  8
SK6
100
AcDbLine
 10
-59.1763382
 20
-55.54484558
 30
0.0
 11
-62.14634323
 21
-55.54484558
 31
0.0
  0
LINE
  5
126
330
1D
100
AcDbEntity
  8
SK6
100
AcDbLine
 10
-59.1763382
 20
-57.70482635
 30
0.0
 11
-59.1763382
 21
-55.54482269
 31
0.0
  0
LINE
  5
127
330
1D
100
AcDbEntity
  8
SK6
100
AcDbLine
 10
-62.14635468
 20
-57.70482635
 30
0.0
 11
-59.17634964
 21
-57.70482635
 31
0.0
  0
LINE
  5
128
330
1D
100
AcDbEntity
  8
SK6
100
AcDbLine
 10
-62.14635468
 20
-62.47483826
 30
0.0
 11
-62.14635468
 21
-57.70482635
 31
0.0
  0
LINE
  5
129
330
1D
100
AcDbEntity
  8
SK6
100
AcDbLine
 10
-59.1763382
 20
-62.47483826
 30
0.0
 11
-62.14634323
 21
-62.47483826
 31
0.0
  0
LINE
  5
12A
330
1D
100
AcDbEntity
  8
SK6
100
AcDbLine
 10
-59.1763382
 20
-48.79484558
 30
0.0
 11
-65.02633667
 21
-48.79484558
 31
0.0
  0
LINE
  5
12B
330
1D
100
AcDbEntity
  8
SK6
100
AcDbLine
 10
-85.09632874
 20
-64.54484558
 30
0.0
 11
-91.39633179
 21
-64.54484558
 31
0.0
  0
LINE
  5
12C
330
1D
100
AcDbEntity
  8
SK6
100
AcDbLine
 10
-85.54631805
 20
-62.02483368
 30
0.0
 11
-85.09632874
 21
-64.54483032
 31
0.0
  0
LINE
  5
12D
330
1D
100
AcDbEntity
  8
SK6
100
AcDbLine
 10
-88.4263382
 20
-62.02483368
 30
0.0
 11
-85.54634094
 21
-62.02483368
 31
0.0
  0
LINE
  5
12E
330
1D
100
AcDbEntity
  8
SK6
100
AcDbLine
 10
-86.89633179
 20
-52.66484833
 30
0.0
 11
-88.42633057
 21
-62.02485657
 31
0.0
  0
LINE
  5
12F
330
1D
100
AcDbEntity
  8
SK6
100
AcDbLine
 10
-83.83633423
 20
-64.54484558
 30
0.0
 11
-86.89633179
 21
-52.66484833
 31
0.0
  0
LINE
  5
130
330
1D
100
AcDbEntity
  8
SK6
100
AcDbLine
 10
-80.86632538
 20
-64.54484558
 30
0.0
 11
-83.83631897
 21
-64.54484558
 31
0.0
  0
LINE
  5
131
330
1D
100
AcDbEntity
  8
SK6
100
AcDbLine
 10
-85.27632904
 20
-48.344841
 30
0.0
 11
-80.86633301
 21
-64.54484558
 31
0.0
  0
LINE
  5
132
330
1D
100
AcDbEntity
  8
SK6
100
AcDbLine
 10
-88.33633423
 20
-48.344841
 30
0.0
 11
-85.27633667
 21
-48.344841
 31
0.0
  0
LINE
  5
133
330
1D
100
AcDbEntity
  8
SK6
100
AcDbLine
 10
-91.39633179
 20
-64.54484558
 30
0.0
 11
-88.33633423
 21
-48.344841
 31
0.0
  0
LINE
  5
134
330
1D
100
AcDbEntity
  8
3
100
AcDbLine
 10
8.39997864
 20
10.5
 30
0.0
 11
9.843354726
 21
8.0
 31
0.0
  0
LINE
  5
135
330
1D
100
AcDbEntity
  8
3
100
AcDbLine
 10
8.39997864
 20
10.5
 30
0.0
 11
8.39997864
 21
-10.5
 31
0.0
  0
LINE
  5
136
330
1D
100
AcDbEntity
  8
SK3
100
AcDbLine
 10
-88.74531555
 20
10.5
 30
0.0
 11
-88.74532318
 21
-10.5
 31
0.0
  0
LINE
  5
137
330
1D
100
AcDbEntity
  8
SK3
100
AcDbLine
 10
-52.60002136
 20
12.0
 30
0.0
 11
-89.61134338
 21
12.0
 31
0.0
  0
LINE
  5
138
330
1D
100
AcDbEntity
  8
SK3
100
AcDbLine
 10
-52.60002136
 20
12.0
 30
0.0
 11
-47.00196838
 21
10.5
 31
0.0
  0
LINE
  5
139
330
1D
100
AcDbEntity
  8
SK3
100
AcDbLine
 10
-89.90002441
 20
12.5
 30
0.0
 11
-88.74531555
 21
10.5
 31
0.0
  0
LINE
  5
13A
330
1D
100
AcDbEntity
  8
SK3
100
AcDbLine
 10
-89.90002441
 20
12.5
 30
0.0
 11
-101.60002136
 21
12.5
 31
0.0
  0
LINE
  5
13B
330
1D
100
AcDbEntity
  8
SK3
100
AcDbLine
 10
-89.90002441
 20
12.5
 30
0.0
 11
-89.90002441
 21
-12.5
 31
0.0
  0
LINE
  5
13C
330
1D
100
AcDbEntity
  8
SK3
100
AcDbLine
 10
-52.60002136
 20
12.0
 30
0.0
 11
-52.60002136
 21
-12.0
 31
0.0
  0
LINE
  5
13D
330
1D
100
AcDbEntity
  8
3
100
AcDbLine
 10
8.39997864
 20
10.5
 30
0.0
 11
0.0
 21
10.5
 31
0.0
  0
LINE
  5
13E
330
1D
100
AcDbEntity
  8
3
100
AcDbLine
 10
8.39997864
 20
-10.5
 30
0.0
 11
9.843354726
 21
-8.0
 31
0.0
  0
LINE
  5
13F
330
1D
100
AcDbEntity
  8
SK3
100
AcDbLine
 10
-52.60002136
 20
-12.0
 30
0.0
 11
-89.61135101
 21
-12.0
 31
0.0
  0
LINE
  5
140
330
1D
100
AcDbEntity
  8
SK3
100
AcDbLine
 10
-52.60002136
 20
-12.0
 30
0.0
 11
-47.36891937
 21
-10.5
 31
0.0
  0
LINE
  5
141
330
1D
100
AcDbEntity
  8
SK3
100
AcDbLine
 10
-89.90002441
 20
-12.5
 30
0.0
 11
-88.74532318
 21
-10.5
 31
0.0
  0
LINE
  5
142
330
1D
100
AcDbEntity
  8
SK3
100
AcDbLine
 10
-89.90002441
 20
-12.5
 30
0.0
 11
-101.60002136
 21
-12.5
 31
0.0
  0
LINE
  5
143
330
1D
100
AcDbEntity
  8
3
100
AcDbLine
 10
8.39997864
 20
-10.5
 30
0.0
 11
0.0
 21
-10.5
 31
0.0
  0
LINE
  5
1EA
330
1D
100
AcDbEntity
  8
NOCUT
100
AcDbLine
 10
9.1749897
 20
46.0
 30
0.0
 11
9.1749897
 21
46.41690750195382
 31
0.0
  0
LINE
  5
1EB
330
1D
100
AcDbEntity
  8
NOCUT
100
AcDbLine
 10
9.1749897
 20
46.41690750195382
 30
0.0
 11
7.86683655
 21
48.7250061
 31
0.0
  0
LINE
  5
1EC
330
1D
100
AcDbEntity
  8
NOCUT
100
AcDbLine
 10
7.86683655
 20
48.7250061
 30
0.0
 11
3.6499939
 21
48.7250061
 31
0.0
  0
LINE
  5
1ED
330
1D
100
AcDbEntity
  8
NOCUT
100
AcDbLine
 10
3.6499939
 20
48.7250061
 30
0.0
 11
3.19999695
 21
48.27500916
 31
0.0
  0
LINE
  5
1EE
330
1D
100
AcDbEntity
  8
NOCUT
100
AcDbLine
 10
3.19999695
 20
48.27500916
 30
0.0
 11
3.199996949999998
 21
35.74013308391078
 31
0.0
  0
LINE
  5
1EF
330
1D
100
AcDbEntity
  8
NOCUT
100
AcDbLine
 10
2.3999958
 20
34.92500305
 30
0.0
 11
0.0
 21
34.92500305
 31
0.0
  0
LINE
  5
1F1
330
1D
100
AcDbEntity
  8
NOCUT
100
AcDbLine
 10
0.0
 20
0.0
 30
0.0
 11
153.0
 21
0.0000152600000014
 31
0.0
  0
LINE
  5
1F2
330
1D
100
AcDbEntity
  8
NOCUT
100
AcDbLine
 10
153.0
 20
0.0000152600000014
 30
0.0
 11
153.0
 21
18.75001526
 31
0.0
  0
LINE
  5
1F3
330
1D
100
AcDbEntity
  8
NOCUT
100
AcDbLine
 10
153.0
 20
18.75001526
 30
0.0
 11
152.25
 21
19.50001526
 31
0.0
  0
LINE
  5
1F4
330
1D
100
AcDbEntity
  8
NOCUT
100
AcDbLine
 10
152.25
 20
19.50001526
 30
0.0
 11
40.0
 21
19.50001526
 31
0.0
  0
LINE
  5
1F5
330
1D
100
AcDbEntity
  8
NOCUT
100
AcDbLine
 10
35.0
 20
24.50001526
 30
0.0
 11
35.0
 21
34.42500305
 31
0.0
  0
LINE
  5
1F6
330
1D
100
AcDbEntity
  8
NOCUT
100
AcDbLine
 10
35.0
 20
34.42500305
 30
0.0
 11
34.49998474
 21
34.92500305
 31
0.0
  0
LINE
  5
1F7
330
1D
100
AcDbEntity
  8
NOCUT
100
AcDbLine
 10
34.49998474
 20
34.92500305
 30
0.0
 11
19.8500061
 21
34.92500305
 31
0.0
  0
LINE
  5
1F8
330
1D
100
AcDbEntity
  8
NOCUT
100
AcDbLine
 10
19.05000496
 20
35.7250061
 30
0.0
 11
19.05000496
 21
48.27500916
 31
0.0
  0
LINE
  5
1F9
330
1D
100
AcDbEntity
  8
NOCUT
100
AcDbLine
 10
19.05000496
 20
48.27500916
 30
0.0
 11
18.60002327
 21
48.7250061
 31
0.0
  0
LINE
  5
1FA
330
1D
100
AcDbEntity
  8
NOCUT
100
AcDbLine
 10
18.60002327
 20
48.7250061
 30
0.0
 11
14.33314705
 21
48.7250061
 31
0.0
  0
LINE
  5
1FB
330
1D
100
AcDbEntity
  8
NOCUT
100
AcDbLine
 10
14.33314705
 20
48.7250061
 30
0.0
 11
13.0249939
 21
46.45921326
 31
0.0
  0
LINE
  5
1FC
330
1D
100
AcDbEntity
  8
NOCUT
100
AcDbLine
 10
13.0249939
 20
46.45921326
 30
0.0
 11
13.0249939
 21
45.93683089107769
 31
0.0
  0
LINE
  5
1FD
330
1D
100
AcDbEntity
  8
NOCUT
100
AcDbLine
 10
9.6749897
 20
45.5
 30
0.0
 11
12.5249958
 21
45.5
 31
0.0
  0
ARC
  5
1FE
330
1D
100
AcDbEntity
  8
NOCUT
100
AcDbCircle
 10
12.52499579999384
 20
46.00000000000255
 30
0.0
 40
0.5000000000061589
100
AcDbArc
 50
269.9997822767437
 51
359.9999999997077
  0
ARC
  5
1FF
330
1D
100
AcDbEntity
  8
NOCUT
100
AcDbCircle
 10
9.674989699999996
 20
45.99999999999999
 30
0.0
 40
0.4999999999999964
100
AcDbArc
 50
179.9999999999992
 51
270.0000000000004
  0
ARC
  5
200
330
1D
100
AcDbEntity
  8
NOCUT
100
AcDbCircle
 10
19.85000801000389
 20
35.72500610000161
 30
0.0
 40
0.8000030500038932
100
AcDbArc
 50
180.0000000001155
 51
269.9998632065692
  0
ARC
  5
201
330
1D
100
AcDbEntity
  8
NOCUT
100
AcDbCircle
 10
40.0
 20
24.50001526
 30
0.0
 40
5.0
100
AcDbArc
 50
180.0
 51
270.0
  0
LWPOLYLINE
  5
22D
330
1D
100
AcDbEntity
  8
INFTOTAL
100
AcDbPolyline
 90
        4
 70
     1
 43
0.0
 10
-168.1807030878377
 20
92.21493447808773
 10
-168.1807030878377
 20
-101.0217964862353
 10
239.1456434772453
 20
-101.0217964862353
 10
239.1456434772453
 20
92.21493447808773
  0
TEXT
  5
242
330
1D
100
AcDbEntity
  8
SK6
100
AcDbText
 10
131.5370308638926
 20
-27.88608745119026
 30
0.0
 40
3.5
  1
324.571
  7
BMG_Text
100
AcDbText
  0
LINE
  5
251
330
1D
100
AcDbEntity
  8
SK3
100
AcDbLine
 10
0.0
 20
10.5
 30
0.0
 11
-88.74531555
 21
10.5
 31
0.0
  0
LINE
  5
252
330
1D
100
AcDbEntity
  8
SK3
100
AcDbLine
 10
-88.74532318
 20
-10.5
 30
0.0
 11
0.0
 21
-10.5
 31
0.0
  0
LINE
  5
255
330
1D
100
AcDbEntity
  8
4
100
AcDbLine
 10
142.95001221
 20
5.0
 30
0.0
 11
142.95001221
 21
-5.0
 31
0.0
  0
LINE
  5
256
330
1D
100
AcDbEntity
  8
4
100
AcDbLine
 10
155.0
 20
0.0
 30
0.0
 11
0.0
 21
0.0
 31
0.0
  0
LINE
  5
260
330
1D
100
AcDbEntity
  8
1
100
AcDbLine
 10
0.0
 20
-34.92500305
 30
0.0
 11
0.0
 21
34.92500305
 31
0.0
  0
ARC
  5
2DD
330
1D
100
AcDbEntity
  8
NOCUT
100
AcDbCircle
 10
2.399995799999999
 20
35.7250061
 30
0.0
 40
0.80000305
100
AcDbArc
 50
270.0
 51
0.0
  0
LINE
  5
2E5
330
1D
100
AcDbEntity
  8
NOCUT
100
AcDbLine
 10
0.0
 20
34.92500305
 30
0.0
 11
0.0
 21
0.0
 31
0.0
  0
ENDSEC
  0
SECTION
  2
OBJECTS
  0
DICTIONARY
  5
C
330
0
100
AcDbDictionary
281
     1
  3
ACAD_DETAILVIEWSTYLE
350
1DF
  3
ACAD_GROUP
350
D
  3
ACAD_LAYOUT
350
1A
  3
ACAD_MATERIAL
350
180
  3
ACAD_MLEADERSTYLE
350
18C
  3
ACAD_MLINESTYLE
350
17
  3
ACAD_PLOTSETTINGS
350
19
  3
ACAD_PLOTSTYLENAME
350
E
  3
ACAD_SCALELIST
350
149
  3
ACAD_SECTIONVIEWSTYLE
350
1E0
  3
ACAD_TABLESTYLE
350
1D5
  3
ACAD_VISUALSTYLE
350
16F
  3
ACDB_RECOMPOSE_DATA
350
316
  3
AcDbVariableDictionary
350
18A
  3
APPDATA
350
1D8
  0
SUN
  5
22E
330
144
100
AcDbSun
 90
        1
290
     0
 63
     7
421
 16777215
 40
1.0
291
     1
 91
  2455826
 92
 54000000
292
     0
 70
     2
 71
   256
280
     1
  0
DICTIONARY
  5
1D9
330
2
100
AcDbDictionary
280
     1
281
     1
  3
ACAD_LAYERSTATES
360
1DA
  0
DICTIONARY
  5
1DF
102
{ACAD_REACTORS
330
C
102
}
330
C
100
AcDbDictionary
281
     1
  0
DICTIONARY
  5
D
102
{ACAD_REACTORS
330
C
102
}
330
C
100
AcDbDictionary
281
     1
  0
DICTIONARY
  5
1A
102
{ACAD_REACTORS
330
C
102
}
330
C
100
AcDbDictionary
281
     1
  3
Layout1
350
1C
  3
Model
350
1E
  0
DICTIONARY
  5
180
102
{ACAD_REACTORS
330
C
102
}
330
C
100
AcDbDictionary
281
     1
  3
ByBlock
350
182
  3
ByLayer
350
181
  3
Global
350
183
  0
DICTIONARY
  5
18C
102
{ACAD_REACTORS
330
C
102
}
330
C
100
AcDbDictionary
281
     1
  3
Standard
350
1D7
  0
DICTIONARY
  5
17
102
{ACAD_REACTORS
330
C
102
}
330
C
100
AcDbDictionary
281
     1
  3
Standard
350
18
  0
DICTIONARY
  5
19
102
{ACAD_REACTORS
330
C
102
}
330
C
100
AcDbDictionary
281
     1
  0
ACDBDICTIONARYWDFLT
  5
E
102
{ACAD_REACTORS
330
C
102
}
330
C
100
AcDbDictionary
281
     1
  3
Normal
350
F
100
AcDbDictionaryWithDefault
340
F
  0
DICTIONARY
  5
149
102
{ACAD_REACTORS
330
C
102
}
330
C
100
AcDbDictionary
281
     1
  3
A0
350
14A
  3
A1
350
14B
  3
A2
350
14C
  3
A3
350
14D
  3
A4
350
14E
  3
A5
350
14F
  3
A6
350
150
  3
A7
350
151
  3
A8
350
152
  3
A9
350
153
  3
B0
350
154
  3
B1
350
155
  3
B2
350
156
  3
B3
350
157
  3
B4
350
158
  3
B5
350
159
  3
B6
350
15A
  3
B7
350
15B
  3
B8
350
15C
  3
B9
350
15D
  3
C0
350
15E
  3
C1
350
15F
  3
C2
350
160
  3
C3
350
161
  3
C4
350
162
  3
C5
350
163
  3
C6
350
164
  3
C7
350
165
  3
C8
350
166
  3
C9
350
167
  3
D0
350
168
  3
D1
350
169
  3
D2
350
16A
  0
DICTIONARY
  5
1E0
102
{ACAD_REACTORS
330
C
102
}
330
C
100
AcDbDictionary
281
     1
  0
DICTIONARY
  5
1D5
102
{ACAD_REACTORS
330
C
102
}
330
C
100
AcDbDictionary
281
     1
  3
Standard
350
1D6
  0
DICTIONARY
  5
16F
102
{ACAD_REACTORS
330
C
102
}
330
C
100
AcDbDictionary
281
     1
  3
2dWireframe
350
174
  3
3D Hidden
350
176
  3
3dWireframe
350
175
  3
Basic
350
177
  3
Brighten
350
17B
  3
ColorChange
350
17F
  3
Conceptual
350
179
  3
Dim
350
17A
  3
EdgeColorOff
350
1CF
  3
Facepattern
350
17E
  3
Flat
350
170
  3
FlatWithEdges
350
171
  3
Gouraud
350
172
  3
GouraudWithEdges
350
173
  3
Hidden
350
1CC
  3
JitterOff
350
1CD
  3
Linepattern
350
17D
  3
OverhangOff
350
1CE
  3
Realistic
350
178
  3
Shaded
350
1D4
  3
Shaded with edges
350
1D3
  3
Shades of Gray
350
1D0
  3
Sketchy
350
1D1
  3
Thicken
350
17C
  3
Wireframe
350
1CB
  3
X-Ray
350
1D2
  0
XRECORD
  5
316
102
{ACAD_REACTORS
330
C
102
}
330
C
100
AcDbXrecord
280
     1
 90
        1
330
1D6
  0
DICTIONARY
  5
18A
102
{ACAD_REACTORS
330
C
102
}
330
C
100
AcDbDictionary
281
     1
  3
CANNOSCALE
350
1DC
  3
CMLEADERSTYLE
350
1DE
  3
CTABLESTYLE
350
1DD
  3
DIMASSOC
350
18E
  3
HIDETEXT
350
18F
  3
MSLTSCALE
350
18D
  0
DICTIONARY
  5
1D8
102
{ACAD_REACTORS
330
C
102
}
330
C
100
AcDbDictionary
281
     1
  0
DICTIONARY
  5
1DA
102
{ACAD_REACTORS
330
1D9
102
}
330
1D9
100
AcDbDictionary
281
     1
  0
LAYOUT
  5
1C
102
{ACAD_REACTORS
330
1A
102
}
330
1A
100
AcDbPlotSettings
  1

  2
none_device
  4

  6

 40
0.0
 41
0.0
 42
0.0
 43
0.0
 44
0.0
 45
0.0
 46
0.0
 47
0.0
 48
0.0
 49
0.0
140
0.0
141
0.0
142
1.0
143
1.0
 70
   688
 72
     0
 73
     0
 74
     5
  7

 75
    16
 76
     0
 77
     2
 78
   300
147
1.0
148
0.0
149
0.0
100
AcDbLayout
  1
Layout1
 70
     1
 71
     1
 10
0.0
 20
0.0
 11
12.0
 21
9.0
 12
0.0
 22
0.0
 32
0.0
 14
1.000000000000000E+20
 24
1.000000000000000E+20
 34
1.000000000000000E+20
 15
-1.000000000000000E+20
 25
-1.000000000000000E+20
 35
-1.000000000000000E+20
146
0.0
 13
0.0
 23
0.0
 33
0.0
 16
1.0
 26
0.0
 36
0.0
 17
0.0
 27
1.0
 37
0.0
 76
     0
330
1B
  0
LAYOUT
  5
1E
102
{ACAD_REACTORS
330
1A
102
}
330
1A
100
AcDbPlotSettings
  1

  2
none_device
  4

  6

 40
0.0
 41
0.0
 42
0.0
 43
0.0
 44
0.0
 45
0.0
 46
0.0
 47
0.0
 48
0.0
 49
0.0
140
0.0
141
0.0
142
1.0
143
1.0
 70
  1712
 72
     0
 73
     0
 74
     0
  7

 75
     0
 76
     0
 77
     2
 78
   300
147
1.0
148
0.0
149
0.0
100
AcDbLayout
  1
Model
 70
     1
 71
     0
 10
0.0
 20
0.0
 11
12.0
 21
9.0
 12
0.0
 22
0.0
 32
0.0
 14
-168.1807030878377
 24
-101.0217964862353
 34
0.0
 15
239.1456434772453
 25
92.21493447808773
 35
0.0
146
0.0
 13
0.0
 23
0.0
 33
0.0
 16
1.0
 26
0.0
 36
0.0
 17
0.0
 27
1.0
 37
0.0
 76
     0
330
1D
331
144
  0
MATERIAL
  5
182
102
{ACAD_REACTORS
330
180
102
}
330
180
100
AcDbMaterial
  1
ByBlock
 72
     1
 94
      127
  0
MATERIAL
  5
181
102
{ACAD_REACTORS
330
180
102
}
330
180
100
AcDbMaterial
  1
ByLayer
 72
     1
 94
      127
  0
MATERIAL
  5
183
102
{ACAD_REACTORS
330
180
102
}
330
180
100
AcDbMaterial
  1
Global
 72
     1
 94
      127
  0
MLEADERSTYLE
  5
1D7
102
{ACAD_REACTORS
330
18C
102
}
330
18C
100
AcDbMLeaderStyle
179
     2
170
     2
171
     1
172
     0
 90
        2
 40
0.0
 41
0.0
173
     1
 91
-1056964608
340
14
 92
       -2
290
     1
 42
0.09
291
     1
 43
0.36
  3
Standard
341
0
 44
0.18
300

342
11
174
     1
178
     1
175
     1
176
     0
 93
-1056964608
 45
0.18
292
     0
297
     0
 46
0.18
343
0
 94
-1056964608
 47
1.0
 49
1.0
140
1.0
293
     1
141
0.0
294
     1
177
     0
142
1.0
295
     0
296
     0
143
0.125
271
     0
272
     9
273
     9
298
     0
  0
MLINESTYLE
  5
18
102
{ACAD_REACTORS
330
17
102
}
330
17
100
AcDbMlineStyle
  2
Standard
 70
     0
  3

 62
   256
 51
90.0
 52
90.0
 71
     2
 49
0.5
 62
   256
  6
BYLAYER
 49
-0.5
 62
   256
  6
BYLAYER
  0
ACDBPLACEHOLDER
  5
F
102
{ACAD_REACTORS
330
E
102
}
330
E
  0
SCALE
  5
14A
102
{ACAD_REACTORS
330
149
102
}
330
149
100
AcDbScale
 70
     0
300
1:1
140
1.0
141
1.0
290
     1
  0
SCALE
  5
14B
102
{ACAD_REACTORS
330
149
102
}
330
149
100
AcDbScale
 70
     0
300
1:2
140
1.0
141
2.0
290
     0
  0
SCALE
  5
14C
102
{ACAD_REACTORS
330
149
102
}
330
149
100
AcDbScale
 70
     0
300
1:4
140
1.0
141
4.0
290
     0
  0
SCALE
  5
14D
102
{ACAD_REACTORS
330
149
102
}
330
149
100
AcDbScale
 70
     0
300
1:5
140
1.0
141
5.0
290
     0
  0
SCALE
  5
14E
102
{ACAD_REACTORS
330
149
102
}
330
149
100
AcDbScale
 70
     0
300
1:8
140
1.0
141
8.0
290
     0
  0
SCALE
  5
14F
102
{ACAD_REACTORS
330
149
102
}
330
149
100
AcDbScale
 70
     0
300
1:10
140
1.0
141
10.0
290
     0
  0
SCALE
  5
150
102
{ACAD_REACTORS
330
149
102
}
330
149
100
AcDbScale
 70
     0
300
1:16
140
1.0
141
16.0
290
     0
  0
SCALE
  5
151
102
{ACAD_REACTORS
330
149
102
}
330
149
100
AcDbScale
 70
     0
300
1:20
140
1.0
141
20.0
290
     0
  0
SCALE
  5
152
102
{ACAD_REACTORS
330
149
102
}
330
149
100
AcDbScale
 70
     0
300
1:30
140
1.0
141
30.0
290
     0
  0
SCALE
  5
153
102
{ACAD_REACTORS
330
149
102
}
330
149
100
AcDbScale
 70
     0
300
1:40
140
1.0
141
40.0
290
     0
  0
SCALE
  5
154
102
{ACAD_REACTORS
330
149
102
}
330
149
100
AcDbScale
 70
     0
300
1:50
140
1.0
141
50.0
290
     0
  0
SCALE
  5
155
102
{ACAD_REACTORS
330
149
102
}
330
149
100
AcDbScale
 70
     0
300
1:100
140
1.0
141
100.0
290
     0
  0
SCALE
  5
156
102
{ACAD_REACTORS
330
149
102
}
330
149
100
AcDbScale
 70
     0
300
2:1
140
2.0
141
1.0
290
     0
  0
SCALE
  5
157
102
{ACAD_REACTORS
330
149
102
}
330
149
100
AcDbScale
 70
     0
300
4:1
140
4.0
141
1.0
290
     0
  0
SCALE
  5
158
102
{ACAD_REACTORS
330
149
102
}
330
149
100
AcDbScale
 70
     0
300
8:1
140
8.0
141
1.0
290
     0
  0
SCALE
  5
159
102
{ACAD_REACTORS
330
149
102
}
330
149
100
AcDbScale
 70
     0
300
10:1
140
10.0
141
1.0
290
     0
  0
SCALE
  5
15A
102
{ACAD_REACTORS
330
149
102
}
330
149
100
AcDbScale
 70
     0
300
100:1
140
100.0
141
1.0
290
     0
  0
SCALE
  5
15B
102
{ACAD_REACTORS
330
149
102
}
330
149
100
AcDbScale
 70
     0
300
1/128" = 1'-0"
140
0.0078125
141
12.0
290
     0
  0
SCALE
  5
15C
102
{ACAD_REACTORS
330
149
102
}
330
149
100
AcDbScale
 70
     0
300
1/64" = 1'-0"
140
0.015625
141
12.0
290
     0
  0
SCALE
  5
15D
102
{ACAD_REACTORS
330
149
102
}
330
149
100
AcDbScale
 70
     0
300
1/32" = 1'-0"
140
0.03125
141
12.0
290
     0
  0
SCALE
  5
15E
102
{ACAD_REACTORS
330
149
102
}
330
149
100
AcDbScale
 70
     0
300
1/16" = 1'-0"
140
0.0625
141
12.0
290
     0
  0
SCALE
  5
15F
102
{ACAD_REACTORS
330
149
102
}
330
149
100
AcDbScale
 70
     0
300
3/32" = 1'-0"
140
0.09375
141
12.0
290
     0
  0
SCALE
  5
160
102
{ACAD_REACTORS
330
149
102
}
330
149
100
AcDbScale
 70
     0
300
1/8" = 1'-0"
140
0.125
141
12.0
290
     0
  0
SCALE
  5
161
102
{ACAD_REACTORS
330
149
102
}
330
149
100
AcDbScale
 70
     0
300
3/16" = 1'-0"
140
0.1875
141
12.0
290
     0
  0
SCALE
  5
162
102
{ACAD_REACTORS
330
149
102
}
330
149
100
AcDbScale
 70
     0
300
1/4" = 1'-0"
140
0.25
141
12.0
290
     0
  0
SCALE
  5
163
102
{ACAD_REACTORS
330
149
102
}
330
149
100
AcDbScale
 70
     0
300
3/8" = 1'-0"
140
0.375
141
12.0
290
     0
  0
SCALE
  5
164
102
{ACAD_REACTORS
330
149
102
}
330
149
100
AcDbScale
 70
     0
300
1/2" = 1'-0"
140
0.5
141
12.0
290
     0
  0
SCALE
  5
165
102
{ACAD_REACTORS
330
149
102
}
330
149
100
AcDbScale
 70
     0
300
3/4" = 1'-0"
140
0.75
141
12.0
290
     0
  0
SCALE
  5
166
102
{ACAD_REACTORS
330
149
102
}
330
149
100
AcDbScale
 70
     0
300
1" = 1'-0"
140
1.0
141
12.0
290
     0
  0
SCALE
  5
167
102
{ACAD_REACTORS
330
149
102
}
330
149
100
AcDbScale
 70
     0
300
1-1/2" = 1'-0"
140
1.5
141
12.0
290
     0
  0
SCALE
  5
168
102
{ACAD_REACTORS
330
149
102
}
330
149
100
AcDbScale
 70
     0
300
3" = 1'-0"
140
3.0
141
12.0
290
     0
  0
SCALE
  5
169
102
{ACAD_REACTORS
330
149
102
}
330
149
100
AcDbScale
 70
     0
300
6" = 1'-0"
140
6.0
141
12.0
290
     0
  0
SCALE
  5
16A
102
{ACAD_REACTORS
330
149
102
}
330
149
100
AcDbScale
 70
     0
300
1'-0" = 1'-0"
140
12.0
141
12.0
290
     0
  0
TABLESTYLE
  5
1D6
102
{ACAD_REACTORS
330
1D5
102
}
102
{ACAD_XDICTIONARY
360
314
102
}
330
1D5
100
AcDbTableStyle
  3
Standard
 70
     0
 71
     0
 40
0.06
 41
0.06
280
     0
281
     0
  7
Standard
140
0.18
170
     2
 62
     0
 63
   257
283
     0
 90
        4
 91
        0
  1

274
    -2
284
     1
 64
     0
275
    -2
285
     1
 65
     0
276
    -2
286
     1
 66
     0
277
    -2
287
     1
 67
     0
278
    -2
288
     1
 68
     0
279
    -2
289
     1
 69
     0
  7
Standard
140
0.25
170
     5
 62
     0
 63
   257
283
     0
 90
        4
 91
        0
  1

274
    -2
284
     1
 64
     0
275
    -2
285
     1
 65
     0
276
    -2
286
     1
 66
     0
277
    -2
287
     1
 67
     0
278
    -2
288
     1
 68
     0
279
    -2
289
     1
 69
     0
  7
Standard
140
0.18
170
     5
 62
     0
 63
   257
283
     0
 90
        4
 91
        0
  1

274
    -2
284
     1
 64
     0
275
    -2
285
     1
 65
     0
276
    -2
286
     1
 66
     0
277
    -2
287
     1
 67
     0
278
    -2
288
     1
 68
     0
279
    -2
289
     1
 69
     0
  0
VISUALSTYLE
  5
174
102
{ACAD_REACTORS
330
16F
102
}
330
16F
100
AcDbVisualStyle
  2
2dWireframe
 70
     4
177
     3
291
     0
 70
    58
 90
        0
176
     1
 90
        2
176
     1
 90
        0
176
     1
 90
        0
176
     1
 40
-0.6
176
     1
 40
-30.0
176
     1
 62
     7
176
     1
 90
        1
176
     1
 90
        4
176
     1
 62
     7
176
     1
 62
   257
176
     1
 90
        1
176
     1
 90
        1
176
     1
 40
1.0
176
     1
 90
        0
176
     1
 62
   257
176
     1
 40
1.0
176
     1
 90
        1
176
     1
 90
        6
176
     1
 90
        2
176
     1
 62
     7
176
     1
 90
        5
176
     1
 90
        0
176
     1
 90
        0
176
     1
290
     0
176
     1
 90
        1
176
     1
 40
0.0
176
     1
 90
        0
176
     1
290
     1
176
     1
290
     1
176
     1
290
     0
176
     1
290
     0
176
     1
290
     0
176
     1
290
     0
176
     1
290
     0
176
     1
290
     0
176
     1
290
     0
176
     1
 90
       50
176
     1
 40
0.0
176
     1
 40
1.0
176
     1
 90
        0
176
     1
 62
    18
420
        0
176
     1
 90
       50
176
     1
 90
        3
176
     1
 62
     5
420
      255
176
     1
290
     0
176
     1
 90
       50
176
     1
 90
       50
176
     1
 90
       50
176
     1
290
     0
176
     1
 90
       50
176
     1
 62
   256
176
     0
 40
1.0
176
     0
 90
        2
176
     1
  1
strokes_ogs.tif
176
     1
290
     0
176
     1
 40
1.0
176
     1
 40
1.0
176
     1
  0
VISUALSTYLE
  5
176
102
{ACAD_REACTORS
330
16F
102
}
330
16F
100
AcDbVisualStyle
  2
3D Hidden
 70
     6
177
     3
291
     0
 70
    58
 90
        1
176
     1
 90
        2
176
     1
 90
        2
176
     1
 90
        0
176
     1
 40
-0.6
176
     1
 40
-30.0
176
     1
 62
     7
176
     1
 90
        2
176
     1
 90
        2
176
     1
 62
     7
176
     1
 62
   257
176
     1
 90
        2
176
     1
 90
        1
176
     1
 40
40.0
176
     1
 90
        0
176
     1
 62
   257
176
     1
 40
1.0
176
     1
 90
        1
176
     1
 90
        6
176
     1
 90
        2
176
     1
 62
     7
176
     1
 90
        3
176
     1
 90
        0
176
     1
 90
        0
176
     1
290
     0
176
     1
 90
        1
176
     1
 40
0.0
176
     1
 90
        0
176
     1
290
     0
176
     1
290
     1
176
     1
290
     1
176
     1
290
     0
176
     1
290
     0
176
     1
290
     0
176
     1
290
     0
176
     1
290
     0
176
     1
290
     0
176
     1
 90
       50
176
     1
 40
0.0
176
     1
 40
1.0
176
     1
 90
        0
176
     1
 62
    18
420
        0
176
     1
 90
       50
176
     1
 90
        3
176
     1
 62
     5
420
      255
176
     1
290
     0
176
     1
 90
       50
176
     1
 90
       50
176
     1
 90
       50
176
     1
290
     0
176
     1
 90
       50
176
     1
 62
   256
176
     0
 40
1.0
176
     0
 90
        2
176
     1
  1
strokes_ogs.tif
176
     1
290
     0
176
     1
 40
1.0
176
     1
 40
1.0
176
     1
  0
VISUALSTYLE
  5
175
102
{ACAD_REACTORS
330
16F
102
}
330
16F
100
AcDbVisualStyle
  2
3dWireframe
 70
     5
177
     3
291
     0
 70
    58
 90
        0
176
     1
 90
        2
176
     1
 90
        0
176
     1
 90
        0
176
     1
 40
-0.6
176
     1
 40
-30.0
176
     1
 62
     7
176
     1
 90
        1
176
     1
 90
        4
176
     1
 62
     7
176
     1
 62
   257
176
     1
 90
        1
176
     1
 90
        1
176
     1
 40
1.0
176
     1
 90
        0
176
     1
 62
   257
176
     1
 40
1.0
176
     1
 90
        1
176
     1
 90
        6
176
     1
 90
        2
176
     1
 62
     7
176
     1
 90
        5
176
     1
 90
        0
176
     1
 90
        0
176
     1
290
     0
176
     1
 90
        1
176
     1
 40
0.0
176
     1
 90
        0
176
     1
290
     0
176
     1
290
     1
176
     1
290
     1
176
     1
290
     0
176
     1
290
     0
176
     1
290
     0
176
     1
290
     0
176
     1
290
     0
176
     1
290
     0
176
     1
 90
       50
176
     1
 40
0.0
176
     1
 40
1.0
176
     1
 90
        0
176
     1
 62
    18
420
        0
176
     1
 90
       50
176
     1
 90
        3
176
     1
 62
     5
420
      255
176
     1
290
     0
176
     1
 90
       50
176
     1
 90
       50
176
     1
 90
       50
176
     1
290
     0
176
     1
 90
       50
176
     1
 62
   256
176
     0
 40
1.0
176
     0
 90
        2
176
     1
  1
strokes_ogs.tif
176
     1
290
     0
176
     1
 40
1.0
176
     1
 40
1.0
176
     1
  0
VISUALSTYLE
  5
177
102
{ACAD_REACTORS
330
16F
102
}
330
16F
100
AcDbVisualStyle
  2
Basic
 70
     7
177
     3
291
     1
 70
    58
 90
        1
176
     1
 90
        0
176
     1
 90
        1
176
     1
 90
        0
176
     1
 40
-0.6
176
     1
 40
-30.0
176
     1
 62
     7
176
     1
 90
        0
176
     1
 90
        4
176
     1
 62
     7
176
     1
 62
   257
176
     1
 90
        1
176
     1
 90
        1
176
     1
 40
1.0
176
     1
 90
        8
176
     1
 62
     7
176
     1
 40
1.0
176
     1
 90
        1
176
     1
 90
        6
176
     1
 90
        2
176
     1
 62
     7
176
     1
 90
        5
176
     1
 90
        0
176
     1
 90
        0
176
     1
290
     0
176
     1
 90
        1
176
     1
 40
0.0
176
     1
 90
        0
176
     1
290
     0
176
     1
290
     1
176
     1
290
     1
176
     1
290
     0
176
     1
290
     0
176
     1
290
     0
176
     1
290
     0
176
     1
290
     0
176
     1
290
     0
176
     1
 90
       50
176
     1
 40
0.0
176
     1
 40
1.0
176
     1
 90
        0
176
     1
 62
    18
420
        0
176
     1
 90
       50
176
     1
 90
        3
176
     1
 62
     5
420
      255
176
     1
290
     0
176
     1
 90
       50
176
     1
 90
       50
176
     1
 90
       50
176
     1
290
     0
176
     1
 90
       50
176
     1
 62
   256
176
     0
 40
1.0
176
     0
 90
        2
176
     1
  1
strokes_ogs.tif
176
     1
290
     0
176
     1
 40
1.0
176
     1
 40
1.0
176
     1
  0
VISUALSTYLE
  5
17B
102
{ACAD_REACTORS
330
16F
102
}
330
16F
100
AcDbVisualStyle
  2
Brighten
 70
    12
177
     3
291
     1
 70
    58
 90
        2
176
     1
 90
        2
176
     1
 90
        0
176
     1
 90
        0
176
     1
 40
-0.6
176
     1
 40
-30.0
176
     1
 62
     7
176
     1
 90
        1
176
     1
 90
        4
176
     1
 62
     7
176
     1
 62
   257
176
     1
 90
        1
176
     1
 90
        1
176
     1
 40
1.0
176
     1
 90
        8
176
     1
 62
     7
176
     1
 40
1.0
176
     1
 90
        1
176
     1
 90
        6
176
     1
 90
        2
176
     1
 62
     7
176
     1
 90
        5
176
     1
 90
        0
176
     1
 90
        0
176
     1
290
     0
176
     1
 90
        1
176
     1
 40
50.0
176
     1
 90
        0
176
     1
290
     0
176
     1
290
     1
176
     1
290
     1
176
     1
290
     0
176
     1
290
     0
176
     1
290
     0
176
     1
290
     0
176
     1
290
     0
176
     1
290
     0
176
     1
 90
       50
176
     1
 40
0.0
176
     1
 40
1.0
176
     1
 90
        0
176
     1
 62
    18
420
        0
176
     1
 90
       50
176
     1
 90
        3
176
     1
 62
     5
420
      255
176
     1
290
     0
176
     1
 90
       50
176
     1
 90
       50
176
     1
 90
       50
176
     1
290
     0
176
     1
 90
       50
176
     1
 62
   256
176
     0
 40
1.0
176
     0
 90
        2
176
     1
  1
strokes_ogs.tif
176
     1
290
     0
176
     1
 40
1.0
176
     1
 40
1.0
176
     1
  0
VISUALSTYLE
  5
17F
102
{ACAD_REACTORS
330
16F
102
}
330
16F
100
AcDbVisualStyle
  2
ColorChange
 70
    16
177
     3
291
     1
 70
    58
 90
        2
176
     1
 90
        2
176
     1
 90
        3
176
     1
 90
        0
176
     1
 40
-0.6
176
     1
 40
-30.0
176
     1
 62
     8
176
     1
 90
        1
176
     1
 90
        4
176
     1
 62
     7
176
     1
 62
   257
176
     1
 90
        1
176
     1
 90
        1
176
     1
 40
1.0
176
     1
 90
        8
176
     1
 62
     8
176
     1
 40
1.0
176
     1
 90
        1
176
     1
 90
        6
176
     1
 90
        2
176
     1
 62
     7
176
     1
 90
        5
176
     1
 90
        0
176
     1
 90
        0
176
     1
290
     0
176
     1
 90
        1
176
     1
 40
0.0
176
     1
 90
        0
176
     1
290
     0
176
     1
290
     1
176
     1
290
     1
176
     1
290
     0
176
     1
290
     0
176
     1
290
     0
176
     1
290
     0
176
     1
290
     0
176
     1
290
     0
176
     1
 90
       50
176
     1
 40
0.0
176
     1
 40
1.0
176
     1
 90
        0
176
     1
 62
    18
420
        0
176
     1
 90
       50
176
     1
 90
        3
176
     1
 62
     5
420
      255
176
     1
290
     0
176
     1
 90
       50
176
     1
 90
       50
176
     1
 90
       50
176
     1
290
     0
176
     1
 90
       50
176
     1
 62
   256
176
     0
 40
1.0
176
     0
 90
        2
176
     1
  1
strokes_ogs.tif
176
     1
290
     0
176
     1
 40
1.0
176
     1
 40
1.0
176
     1
  0
VISUALSTYLE
  5
179
102
{ACAD_REACTORS
330
16F
102
}
330
16F
100
AcDbVisualStyle
  2
Conceptual
 70
     9
177
     3
291
     0
 70
    58
 90
        3
176
     1
 90
        2
176
     1
 90
        0
176
     1
 90
        0
176
     1
 40
-0.6
176
     1
 40
-30.0
176
     1
 62
     7
176
     1
 90
        2
176
     1
 90
        2
176
     1
 62
     7
176
     1
 62
   257
176
     1
 90
        1
176
     1
 90
        1
176
     1
 40
40.0
176
     1
 90
        8
176
     1
 62
     7
176
     1
 40
1.0
176
     1
 90
        1
176
     1
 90
        6
176
     1
 90
        2
176
     1
 62
     7
176
     1
 90
        3
176
     1
 90
        0
176
     1
 90
        0
176
     1
290
     0
176
     1
 90
        1
176
     1
 40
0.0
176
     1
 90
        0
176
     1
290
     0
176
     1
290
     1
176
     1
290
     1
176
     1
290
     0
176
     1
290
     0
176
     1
290
     0
176
     1
290
     0
176
     1
290
     0
176
     1
290
     0
176
     1
 90
       50
176
     1
 40
0.0
176
     1
 40
1.0
176
     1
 90
        0
176
     1
 62
    18
420
        0
176
     1
 90
       50
176
     1
 90
        3
176
     1
 62
     5
420
      255
176
     1
290
     0
176
     1
 90
       50
176
     1
 90
       50
176
     1
 90
       50
176
     1
290
     0
176
     1
 90
       50
176
     1
 62
   256
176
     0
 40
1.0
176
     0
 90
        2
176
     1
  1
strokes_ogs.tif
176
     1
290
     0
176
     1
 40
1.0
176
     1
 40
1.0
176
     1
  0
VISUALSTYLE
  5
17A
102
{ACAD_REACTORS
330
16F
102
}
330
16F
100
AcDbVisualStyle
  2
Dim
 70
    11
177
     3
291
     1
 70
    58
 90
        2
176
     1
 90
        2
176
     1
 90
        0
176
     1
 90
        0
176
     1
 40
-0.6
176
     1
 40
-30.0
176
     1
 62
     7
176
     1
 90
        1
176
     1
 90
        4
176
     1
 62
     7
176
     1
 62
   257
176
     1
 90
        1
176
     1
 90
        1
176
     1
 40
1.0
176
     1
 90
        8
176
     1
 62
     7
176
     1
 40
1.0
176
     1
 90
        1
176
     1
 90
        6
176
     1
 90
        2
176
     1
 62
     7
176
     1
 90
        5
176
     1
 90
        0
176
     1
 90
        0
176
     1
290
     0
176
     1
 90
        1
176
     1
 40
-50.0
176
     1
 90
        0
176
     1
290
     0
176
     1
290
     1
176
     1
290
     1
176
     1
290
     0
176
     1
290
     0
176
     1
290
     0
176
     1
290
     0
176
     1
290
     0
176
     1
290
     0
176
     1
 90
       50
176
     1
 40
0.0
176
     1
 40
1.0
176
     1
 90
        0
176
     1
 62
    18
420
        0
176
     1
 90
       50
176
     1
 90
        3
176
     1
 62
     5
420
      255
176
     1
290
     0
176
     1
 90
       50
176
     1
 90
       50
176
     1
 90
       50
176
     1
290
     0
176
     1
 90
       50
176
     1
 62
   256
176
     0
 40
1.0
176
     0
 90
        2
176
     1
  1
strokes_ogs.tif
176
     1
290
     0
176
     1
 40
1.0
176
     1
 40
1.0
176
     1
  0
VISUALSTYLE
  5
1CF
102
{ACAD_REACTORS
330
16F
102
}
330
16F
100
AcDbVisualStyle
  2
EdgeColorOff
 70
    22
177
     3
291
     1
 70
    58
 90
        2
176
     0
 90
        2
176
     0
 90
        0
176
     0
 90
        0
176
     0
 40
0.6
176
     0
 40
30.0
176
     0
 62
     7
420
 16777215
176
     0
 90
        1
176
     0
 90
        4
176
     0
 62
     7
176
     0
 62
   257
176
     0
 90
        1
176
     0
 90
        1
176
     0
 40
1.0
176
     0
 90
        8
176
     2
 62
     7
176
     0
 40
1.0
176
     0
 90
        1
176
     0
 90
        6
176
     0
 90
        2
176
     0
 62
     7
176
     0
 90
        5
176
     0
 90
        0
176
     0
 90
        0
176
     0
290
     0
176
     0
 90
        1
176
     0
 40
0.0
176
     0
 90
        0
176
     0
290
     0
176
     0
290
     1
176
     0
290
     1
176
     0
290
     0
176
     0
290
     0
176
     0
290
     0
176
     0
290
     0
176
     0
290
     0
176
     0
290
     0
176
     0
 90
       50
176
     0
 40
0.0
176
     0
 40
1.0
176
     0
 90
        0
176
     0
 62
    18
420
        0
176
     0
 90
       50
176
     0
 90
        3
176
     0
 62
     5
420
      255
176
     0
290
     0
176
     0
 90
       50
176
     0
 90
       50
176
     0
 90
       50
176
     0
290
     0
176
     0
 90
       50
176
     0
 62
   256
176
     0
 40
1.0
176
     0
 90
        2
176
     0
  1
strokes_ogs.tif
176
     0
290
     0
176
     0
 40
1.0
176
     0
 40
1.0
176
     0
  0
VISUALSTYLE
  5
17E
102
{ACAD_REACTORS
330
16F
102
}
330
16F
100
AcDbVisualStyle
  2
Facepattern
 70
    15
177
     3
291
     1
 70
    58
 90
        2
176
     1
 90
        2
176
     1
 90
        0
176
     1
 90
        0
176
     1
 40
-0.6
176
     1
 40
-30.0
176
     1
 62
     7
176
     1
 90
        1
176
     1
 90
        4
176
     1
 62
     7
176
     1
 62
   257
176
     1
 90
        1
176
     1
 90
        1
176
     1
 40
1.0
176
     1
 90
        8
176
     1
 62
     7
176
     1
 40
1.0
176
     1
 90
        1
176
     1
 90
        6
176
     1
 90
        2
176
     1
 62
     7
176
     1
 90
        5
176
     1
 90
        0
176
     1
 90
        0
176
     1
290
     0
176
     1
 90
        1
176
     1
 40
0.0
176
     1
 90
        0
176
     1
290
     0
176
     1
290
     1
176
     1
290
     1
176
     1
290
     0
176
     1
290
     0
176
     1
290
     0
176
     1
290
     0
176
     1
290
     0
176
     1
290
     0
176
     1
 90
       50
176
     1
 40
0.0
176
     1
 40
1.0
176
     1
 90
        0
176
     1
 62
    18
420
        0
176
     1
 90
       50
176
     1
 90
        3
176
     1
 62
     5
420
      255
176
     1
290
     0
176
     1
 90
       50
176
     1
 90
       50
176
     1
 90
       50
176
     1
290
     0
176
     1
 90
       50
176
     1
 62
   256
176
     0
 40
1.0
176
     0
 90
        2
176
     1
  1
strokes_ogs.tif
176
     1
290
     0
176
     1
 40
1.0
176
     1
 40
1.0
176
     1
  0
VISUALSTYLE
  5
170
102
{ACAD_REACTORS
330
16F
102
}
330
16F
100
AcDbVisualStyle
  2
Flat
 70
     0
177
     3
291
     1
 70
    58
 90
        2
176
     1
 90
        1
176
     1
 90
        1
176
     1
 90
        2
176
     1
 40
-0.6
176
     1
 40
30.0
176
     1
 62
     7
176
     1
 90
        0
176
     1
 90
        4
176
     1
 62
     7
176
     1
 62
   257
176
     1
 90
        1
176
     1
 90
        1
176
     1
 40
1.0
176
     1
 90
        8
176
     1
 62
     7
176
     1
 40
1.0
176
     1
 90
        1
176
     1
 90
        6
176
     1
 90
        2
176
     1
 62
     7
176
     1
 90
        5
176
     1
 90
        0
176
     1
 90
        0
176
     1
290
     0
176
     1
 90
       13
176
     1
 40
0.0
176
     1
 90
        0
176
     1
290
     0
176
     1
290
     1
176
     1
290
     1
176
     1
290
     0
176
     1
290
     0
176
     1
290
     0
176
     1
290
     0
176
     1
290
     0
176
     1
290
     0
176
     1
 90
       50
176
     1
 40
0.0
176
     1
 40
1.0
176
     1
 90
        0
176
     1
 62
    18
420
        0
176
     1
 90
       50
176
     1
 90
        3
176
     1
 62
     5
420
      255
176
     1
290
     0
176
     1
 90
       50
176
     1
 90
       50
176
     1
 90
       50
176
     1
290
     0
176
     1
 90
       50
176
     1
 62
   256
176
     0
 40
1.0
176
     0
 90
        2
176
     1
  1
strokes_ogs.tif
176
     1
290
     0
176
     1
 40
1.0
176
     1
 40
1.0
176
     1
  0
VISUALSTYLE
  5
171
102
{ACAD_REACTORS
330
16F
102
}
330
16F
100
AcDbVisualStyle
  2
FlatWithEdges
 70
     1
177
     3
291
     1
 70
    58
 90
        2
176
     1
 90
        1
176
     1
 90
        1
176
     1
 90
        2
176
     1
 40
-0.6
176
     1
 40
30.0
176
     1
 62
     7
176
     1
 90
        1
176
     1
 90
        4
176
     1
 62
     7
176
     1
 62
   257
176
     1
 90
        1
176
     1
 90
        1
176
     1
 40
1.0
176
     1
 90
        0
176
     1
 62
   257
176
     1
 40
1.0
176
     1
 90
        1
176
     1
 90
        6
176
     1
 90
        2
176
     1
 62
     7
176
     1
 90
        5
176
     1
 90
        0
176
     1
 90
        0
176
     1
290
     0
176
     1
 90
       13
176
     1
 40
0.0
176
     1
 90
        0
176
     1
290
     0
176
     1
290
     1
176
     1
290
     1
176
     1
290
     0
176
     1
290
     0
176
     1
290
     0
176
     1
290
     0
176
     1
290
     0
176
     1
290
     0
176
     1
 90
       50
176
     1
 40
0.0
176
     1
 40
1.0
176
     1
 90
        0
176
     1
 62
    18
420
        0
176
     1
 90
       50
176
     1
 90
        3
176
     1
 62
     5
420
      255
176
     1
290
     0
176
     1
 90
       50
176
     1
 90
       50
176
     1
 90
       50
176
     1
290
     0
176
     1
 90
       50
176
     1
 62
   256
176
     0
 40
1.0
176
     0
 90
        2
176
     1
  1
strokes_ogs.tif
176
     1
290
     0
176
     1
 40
1.0
176
     1
 40
1.0
176
     1
  0
VISUALSTYLE
  5
172
102
{ACAD_REACTORS
330
16F
102
}
330
16F
100
AcDbVisualStyle
  2
Gouraud
 70
     2
177
     3
291
     1
 70
    58
 90
        2
176
     1
 90
        2
176
     1
 90
        1
176
     1
 90
        2
176
     1
 40
-0.6
176
     1
 40
30.0
176
     1
 62
     7
176
     1
 90
        0
176
     1
 90
        4
176
     1
 62
     7
176
     1
 62
   257
176
     1
 90
        1
176
     1
 90
        1
176
     1
 40
1.0
176
     1
 90
        0
176
     1
 62
     7
176
     1
 40
1.0
176
     1
 90
        1
176
     1
 90
        6
176
     1
 90
        2
176
     1
 62
     7
176
     1
 90
        5
176
     1
 90
        0
176
     1
 90
        0
176
     1
290
     0
176
     1
 90
       13
176
     1
 40
0.0
176
     1
 90
        0
176
     1
290
     0
176
     1
290
     1
176
     1
290
     1
176
     1
290
     0
176
     1
290
     0
176
     1
290
     0
176
     1
290
     0
176
     1
290
     0
176
     1
290
     0
176
     1
 90
       50
176
     1
 40
0.0
176
     1
 40
1.0
176
     1
 90
        0
176
     1
 62
    18
420
        0
176
     1
 90
       50
176
     1
 90
        3
176
     1
 62
     5
420
      255
176
     1
290
     0
176
     1
 90
       50
176
     1
 90
       50
176
     1
 90
       50
176
     1
290
     0
176
     1
 90
       50
176
     1
 62
   256
176
     0
 40
1.0
176
     0
 90
        2
176
     1
  1
strokes_ogs.tif
176
     1
290
     0
176
     1
 40
1.0
176
     1
 40
1.0
176
     1
  0
VISUALSTYLE
  5
173
102
{ACAD_REACTORS
330
16F
102
}
330
16F
100
AcDbVisualStyle
  2
GouraudWithEdges
 70
     3
177
     3
291
     1
 70
    58
 90
        2
176
     1
 90
        2
176
     1
 90
        1
176
     1
 90
        2
176
     1
 40
-0.6
176
     1
 40
30.0
176
     1
 62
     7
176
     1
 90
        1
176
     1
 90
        4
176
     1
 62
     7
176
     1
 62
   257
176
     1
 90
        1
176
     1
 90
        1
176
     1
 40
1.0
176
     1
 90
        0
176
     1
 62
   257
176
     1
 40
1.0
176
     1
 90
        1
176
     1
 90
        6
176
     1
 90
        2
176
     1
 62
     7
176
     1
 90
        5
176
     1
 90
        0
176
     1
 90
        0
176
     1
290
     0
176
     1
 90
       13
176
     1
 40
0.0
176
     1
 90
        0
176
     1
290
     0
176
     1
290
     1
176
     1
290
     1
176
     1
290
     0
176
     1
290
     0
176
     1
290
     0
176
     1
290
     0
176
     1
290
     0
176
     1
290
     0
176
     1
 90
       50
176
     1
 40
0.0
176
     1
 40
1.0
176
     1
 90
        0
176
     1
 62
    18
420
        0
176
     1
 90
       50
176
     1
 90
        3
176
     1
 62
     5
420
      255
176
     1
290
     0
176
     1
 90
       50
176
     1
 90
       50
176
     1
 90
       50
176
     1
290
     0
176
     1
 90
       50
176
     1
 62
   256
176
     0
 40
1.0
176
     0
 90
        2
176
     1
  1
strokes_ogs.tif
176
     1
290
     0
176
     1
 40
1.0
176
     1
 40
1.0
176
     1
  0
VISUALSTYLE
  5
1CC
102
{ACAD_REACTORS
330
16F
102
}
330
16F
100
AcDbVisualStyle
  2
Hidden
 70
     6
177
     3
291
     0
 70
    58
 90
        1
176
     1
 90
        2
176
     1
 90
        2
176
     1
 90
        0
176
     1
 40
0.6
176
     1
 40
30.0
176
     1
 62
     7
420
 16777215
176
     1
 90
        2
176
     1
 90
        2
176
     1
 62
     7
176
     1
 62
   257
176
     1
 90
        2
176
     1
 90
        1
176
     1
 40
40.0
176
     1
 90
        0
176
     1
 62
   257
176
     1
 40
1.0
176
     1
 90
        1
176
     1
 90
        6
176
     1
 90
        2
176
     1
 62
     7
176
     1
 90
        3
176
     1
 90
        0
176
     1
 90
        0
176
     1
290
     0
176
     1
 90
        1
176
     1
 40
0.0
176
     1
 90
        0
176
     1
290
     0
176
     1
290
     1
176
     1
290
     1
176
     1
290
     0
176
     1
290
     0
176
     1
290
     0
176
     1
290
     0
176
     1
290
     0
176
     1
290
     0
176
     1
 90
       50
176
     1
 40
0.0
176
     1
 40
1.0
176
     1
 90
        0
176
     1
 62
    18
420
        0
176
     1
 90
       50
176
     1
 90
        3
176
     1
 62
     5
420
      255
176
     1
290
     0
176
     1
 90
       50
176
     1
 90
       50
176
     1
 90
       50
176
     1
290
     0
176
     1
 90
       50
176
     1
 62
   256
176
     0
 40
1.0
176
     0
 90
        2
176
     1
  1
strokes_ogs.tif
176
     1
290
     0
176
     1
 40
1.0
176
     1
 40
1.0
176
     1
  0
VISUALSTYLE
  5
1CD
102
{ACAD_REACTORS
330
16F
102
}
330
16F
100
AcDbVisualStyle
  2
JitterOff
 70
    20
177
     3
291
     1
 70
    58
 90
        2
176
     0
 90
        2
176
     0
 90
        0
176
     0
 90
        0
176
     0
 40
0.6
176
     0
 40
30.0
176
     0
 62
     7
420
 16777215
176
     0
 90
        1
176
     0
 90
        4
176
     0
 62
     7
176
     0
 62
   257
176
     0
 90
        1
176
     0
 90
        1
176
     0
 40
1.0
176
     0
 90
       10
176
     2
 62
     7
176
     0
 40
1.0
176
     0
 90
        1
176
     0
 90
        6
176
     0
 90
        2
176
     0
 62
     7
176
     0
 90
        5
176
     0
 90
        0
176
     0
 90
        0
176
     0
290
     0
176
     0
 90
        1
176
     0
 40
0.0
176
     0
 90
        0
176
     0
290
     0
176
     0
290
     1
176
     0
290
     1
176
     0
290
     0
176
     0
290
     0
176
     0
290
     0
176
     0
290
     0
176
     0
290
     0
176
     0
290
     0
176
     0
 90
       50
176
     0
 40
0.0
176
     0
 40
1.0
176
     0
 90
        0
176
     0
 62
    18
420
        0
176
     0
 90
       50
176
     0
 90
        3
176
     0
 62
     5
420
      255
176
     0
290
     0
176
     0
 90
       50
176
     0
 90
       50
176
     0
 90
       50
176
     0
290
     0
176
     0
 90
       50
176
     0
 62
   256
176
     0
 40
1.0
176
     0
 90
        2
176
     0
  1
strokes_ogs.tif
176
     0
290
     0
176
     0
 40
1.0
176
     0
 40
1.0
176
     0
  0
VISUALSTYLE
  5
17D
102
{ACAD_REACTORS
330
16F
102
}
330
16F
100
AcDbVisualStyle
  2
Linepattern
 70
    14
177
     3
291
     1
 70
    58
 90
        2
176
     1
 90
        2
176
     1
 90
        0
176
     1
 90
        0
176
     1
 40
-0.6
176
     1
 40
-30.0
176
     1
 62
     7
176
     1
 90
        1
176
     1
 90
        4
176
     1
 62
     7
176
     1
 62
   257
176
     1
 90
        7
176
     1
 90
        7
176
     1
 40
1.0
176
     1
 90
        8
176
     1
 62
     7
176
     1
 40
1.0
176
     1
 90
        1
176
     1
 90
        6
176
     1
 90
        2
176
     1
 62
     7
176
     1
 90
        5
176
     1
 90
        0
176
     1
 90
        0
176
     1
290
     0
176
     1
 90
        1
176
     1
 40
0.0
176
     1
 90
        0
176
     1
290
     0
176
     1
290
     1
176
     1
290
     1
176
     1
290
     0
176
     1
290
     0
176
     1
290
     0
176
     1
290
     0
176
     1
290
     0
176
     1
290
     0
176
     1
 90
       50
176
     1
 40
0.0
176
     1
 40
1.0
176
     1
 90
        0
176
     1
 62
    18
420
        0
176
     1
 90
       50
176
     1
 90
        3
176
     1
 62
     5
420
      255
176
     1
290
     0
176
     1
 90
       50
176
     1
 90
       50
176
     1
 90
       50
176
     1
290
     0
176
     1
 90
       50
176
     1
 62
   256
176
     0
 40
1.0
176
     0
 90
        2
176
     1
  1
strokes_ogs.tif
176
     1
290
     0
176
     1
 40
1.0
176
     1
 40
1.0
176
     1
  0
VISUALSTYLE
  5
1CE
102
{ACAD_REACTORS
330
16F
102
}
330
16F
100
AcDbVisualStyle
  2
OverhangOff
 70
    21
177
     3
291
     1
 70
    58
 90
        2
176
     0
 90
        2
176
     0
 90
        0
176
     0
 90
        0
176
     0
 40
0.6
176
     0
 40
30.0
176
     0
 62
     7
420
 16777215
176
     0
 90
        1
176
     0
 90
        4
176
     0
 62
     7
176
     0
 62
   257
176
     0
 90
        1
176
     0
 90
        1
176
     0
 40
1.0
176
     0
 90
        9
176
     2
 62
     7
176
     0
 40
1.0
176
     0
 90
        1
176
     0
 90
        6
176
     0
 90
        2
176
     0
 62
     7
176
     0
 90
        5
176
     0
 90
        0
176
     0
 90
        0
176
     0
290
     0
176
     0
 90
        1
176
     0
 40
0.0
176
     0
 90
        0
176
     0
290
     0
176
     0
290
     1
176
     0
290
     1
176
     0
290
     0
176
     0
290
     0
176
     0
290
     0
176
     0
290
     0
176
     0
290
     0
176
     0
290
     0
176
     0
 90
       50
176
     0
 40
0.0
176
     0
 40
1.0
176
     0
 90
        0
176
     0
 62
    18
420
        0
176
     0
 90
       50
176
     0
 90
        3
176
     0
 62
     5
420
      255
176
     0
290
     0
176
     0
 90
       50
176
     0
 90
       50
176
     0
 90
       50
176
     0
290
     0
176
     0
 90
       50
176
     0
 62
   256
176
     0
 40
1.0
176
     0
 90
        2
176
     0
  1
strokes_ogs.tif
176
     0
290
     0
176
     0
 40
1.0
176
     0
 40
1.0
176
     0
  0
VISUALSTYLE
  5
178
102
{ACAD_REACTORS
330
16F
102
}
330
16F
100
AcDbVisualStyle
  2
Realistic
 70
     8
177
     3
291
     0
 70
    58
 90
        2
176
     1
 90
        2
176
     1
 90
        0
176
     1
 90
        0
176
     1
 40
-0.6
176
     1
 40
-30.0
176
     1
 62
     7
176
     1
 90
        1
176
     1
 90
        0
176
     1
 62
     7
176
     1
 62
   257
176
     1
 90
        1
176
     1
 90
        1
176
     1
 40
1.0
176
     1
 90
        8
176
     1
 62
     8
176
     1
 40
1.0
176
     1
 90
        1
176
     1
 90
        6
176
     1
 90
        2
176
     1
 62
     7
176
     1
 90
        5
176
     1
 90
        0
176
     1
 90
        0
176
     1
290
     0
176
     1
 90
       13
176
     1
 40
0.0
176
     1
 90
        0
176
     1
290
     0
176
     1
290
     1
176
     1
290
     1
176
     1
290
     0
176
     1
290
     0
176
     1
290
     0
176
     1
290
     0
176
     1
290
     0
176
     1
290
     0
176
     1
 90
       50
176
     1
 40
0.0
176
     1
 40
1.0
176
     1
 90
        0
176
     1
 62
    18
420
        0
176
     1
 90
       50
176
     1
 90
        3
176
     1
 62
     5
420
      255
176
     1
290
     0
176
     1
 90
       50
176
     1
 90
       50
176
     1
 90
       50
176
     1
290
     0
176
     1
 90
       50
176
     1
 62
   256
176
     0
 40
1.0
176
     0
 90
        2
176
     1
  1
strokes_ogs.tif
176
     1
290
     0
176
     1
 40
1.0
176
     1
 40
1.0
176
     1
  0
VISUALSTYLE
  5
1D4
102
{ACAD_REACTORS
330
16F
102
}
330
16F
100
AcDbVisualStyle
  2
Shaded
 70
    27
177
     3
291
     0
 70
    58
 90
        2
176
     1
 90
        2
176
     1
 90
        1
176
     1
 90
        2
176
     1
 40
0.6
176
     1
 40
30.0
176
     1
 62
     7
420
 16777215
176
     1
 90
        0
176
     1
 90
        4
176
     1
 62
     7
176
     1
 62
   257
176
     1
 90
        1
176
     1
 90
        1
176
     1
 40
1.0
176
     1
 90
        8
176
     1
 62
   257
176
     1
 40
1.0
176
     1
 90
        1
176
     1
 90
        6
176
     1
 90
        2
176
     1
 62
     8
420
  7895160
176
     1
 90
        3
176
     1
 90
        0
176
     1
 90
        0
176
     1
290
     0
176
     1
 90
        5
176
     1
 40
0.0
176
     1
 90
        0
176
     1
290
     0
176
     1
290
     1
176
     1
290
     1
176
     1
290
     0
176
     1
290
     0
176
     1
290
     0
176
     1
290
     0
176
     1
290
     0
176
     1
290
     0
176
     1
 90
       50
176
     1
 40
0.0
176
     1
 40
1.0
176
     1
 90
        0
176
     1
 62
    18
420
        0
176
     1
 90
       50
176
     1
 90
        3
176
     1
 62
     5
420
      255
176
     1
290
     0
176
     1
 90
       50
176
     1
 90
       50
176
     1
 90
       50
176
     1
290
     0
176
     1
 90
       50
176
     1
 62
   256
176
     0
 40
1.0
176
     0
 90
        2
176
     1
  1
strokes_ogs.tif
176
     1
290
     0
176
     1
 40
1.0
176
     1
 40
1.0
176
     1
  0
VISUALSTYLE
  5
1D3
102
{ACAD_REACTORS
330
16F
102
}
330
16F
100
AcDbVisualStyle
  2
Shaded with edges
 70
    26
177
     3
291
     0
 70
    58
 90
        2
176
     1
 90
        2
176
     1
 90
        1
176
     1
 90
        2
176
     1
 40
0.6
176
     1
 40
30.0
176
     1
 62
     7
420
 16777215
176
     1
 90
        1
176
     1
 90
       10
176
     1
 62
     7
176
     1
 62
   257
176
     1
 90
        2
176
     1
 90
        1
176
     1
 40
1.0
176
     1
 90
        8
176
     1
 62
   257
176
     1
 40
1.0
176
     1
 90
        1
176
     1
 90
        6
176
     1
 90
        2
176
     1
 62
     7
176
     1
 90
        3
176
     1
 90
        0
176
     1
 90
        0
176
     1
290
     0
176
     1
 90
        5
176
     1
 40
0.0
176
     1
 90
        0
176
     1
290
     0
176
     1
290
     1
176
     1
290
     1
176
     1
290
     0
176
     1
290
     0
176
     1
290
     0
176
     1
290
     0
176
     1
290
     0
176
     1
290
     0
176
     1
 90
       50
176
     1
 40
0.0
176
     1
 40
1.0
176
     1
 90
        0
176
     1
 62
    18
420
        0
176
     1
 90
       50
176
     1
 90
        3
176
     1
 62
     5
420
      255
176
     1
290
     0
176
     1
 90
       50
176
     1
 90
       50
176
     1
 90
       50
176
     1
290
     0
176
     1
 90
       50
176
     1
 62
   256
176
     0
 40
1.0
176
     0
 90
        2
176
     1
  1
strokes_ogs.tif
176
     1
290
     0
176
     1
 40
1.0
176
     1
 40
1.0
176
     1
  0
VISUALSTYLE
  5
1D0
102
{ACAD_REACTORS
330
16F
102
}
330
16F
100
AcDbVisualStyle
  2
Shades of Gray
 70
    23
177
     3
291
     0
 70
    58
 90
        2
176
     1
 90
        2
176
     1
 90
        3
176
     1
 90
        0
176
     1
 40
0.6
176
     1
 40
30.0
176
     1
 62
     7
420
 16777215
176
     1
 90
        2
176
     1
 90
        2
176
     1
 62
     7
176
     1
 62
     7
176
     1
 90
        1
176
     1
 90
        1
176
     1
 40
40.0
176
     1
 90
        8
176
     1
 62
     7
176
     1
 40
1.0
176
     1
 90
        1
176
     1
 90
        6
176
     1
 90
        2
176
     1
 62
     7
176
     1
 90
        3
176
     1
 90
        0
176
     1
 90
        0
176
     1
290
     0
176
     1
 90
        1
176
     1
 40
0.0
176
     1
 90
        0
176
     1
290
     0
176
     1
290
     1
176
     1
290
     1
176
     1
290
     0
176
     1
290
     0
176
     1
290
     0
176
     1
290
     0
176
     1
290
     0
176
     1
290
     0
176
     1
 90
       50
176
     1
 40
0.0
176
     1
 40
1.0
176
     1
 90
        0
176
     1
 62
    18
420
        0
176
     1
 90
       50
176
     1
 90
        3
176
     1
 62
     5
420
      255
176
     1
290
     0
176
     1
 90
       50
176
     1
 90
       50
176
     1
 90
       50
176
     1
290
     0
176
     1
 90
       50
176
     1
 62
   256
176
     0
 40
1.0
176
     0
 90
        2
176
     1
  1
strokes_ogs.tif
176
     1
290
     0
176
     1
 40
1.0
176
     1
 40
1.0
176
     1
  0
VISUALSTYLE
  5
1D1
102
{ACAD_REACTORS
330
16F
102
}
330
16F
100
AcDbVisualStyle
  2
Sketchy
 70
    24
177
     3
291
     0
 70
    58
 90
        1
176
     1
 90
        2
176
     1
 90
        2
176
     1
 90
        0
176
     1
 40
0.6
176
     1
 40
30.0
176
     1
 62
     7
420
 16777215
176
     1
 90
        2
176
     1
 90
        2
176
     1
 62
     7
176
     1
 62
     7
176
     1
 90
        1
176
     1
 90
        1
176
     1
 40
40.0
176
     1
 90
       11
176
     1
 62
     7
176
     1
 40
1.0
176
     1
 90
        1
176
     1
 90
        6
176
     1
 90
        2
176
     1
 62
     7
176
     1
 90
        6
176
     1
 90
        0
176
     1
 90
        0
176
     1
290
     0
176
     1
 90
        1
176
     1
 40
0.0
176
     1
 90
        0
176
     1
290
     0
176
     1
290
     1
176
     1
290
     1
176
     1
290
     0
176
     1
290
     0
176
     1
290
     0
176
     1
290
     0
176
     1
290
     0
176
     1
290
     0
176
     1
 90
       50
176
     1
 40
0.0
176
     1
 40
1.0
176
     1
 90
        0
176
     1
 62
    18
420
        0
176
     1
 90
       50
176
     1
 90
        3
176
     1
 62
     5
420
      255
176
     1
290
     0
176
     1
 90
       50
176
     1
 90
       50
176
     1
 90
       50
176
     1
290
     0
176
     1
 90
       50
176
     1
 62
   256
176
     0
 40
1.0
176
     0
 90
        2
176
     1
  1
strokes_ogs.tif
176
     1
290
     0
176
     1
 40
1.0
176
     1
 40
1.0
176
     1
  0
VISUALSTYLE
  5
17C
102
{ACAD_REACTORS
330
16F
102
}
330
16F
100
AcDbVisualStyle
  2
Thicken
 70
    13
177
     3
291
     1
 70
    58
 90
        2
176
     1
 90
        2
176
     1
 90
        0
176
     1
 90
        0
176
     1
 40
-0.6
176
     1
 40
-30.0
176
     1
 62
     7
176
     1
 90
        1
176
     1
 90
        4
176
     1
 62
     7
176
     1
 62
   257
176
     1
 90
        1
176
     1
 90
        1
176
     1
 40
1.0
176
     1
 90
       12
176
     1
 62
     7
176
     1
 40
1.0
176
     1
 90
        1
176
     1
 90
        6
176
     1
 90
        2
176
     1
 62
     7
176
     1
 90
        5
176
     1
 90
        0
176
     1
 90
        0
176
     1
290
     0
176
     1
 90
        1
176
     1
 40
0.0
176
     1
 90
        0
176
     1
290
     0
176
     1
290
     1
176
     1
290
     1
176
     1
290
     0
176
     1
290
     0
176
     1
290
     0
176
     1
290
     0
176
     1
290
     0
176
     1
290
     0
176
     1
 90
       50
176
     1
 40
0.0
176
     1
 40
1.0
176
     1
 90
        0
176
     1
 62
    18
420
        0
176
     1
 90
       50
176
     1
 90
        3
176
     1
 62
     5
420
      255
176
     1
290
     0
176
     1
 90
       50
176
     1
 90
       50
176
     1
 90
       50
176
     1
290
     0
176
     1
 90
       50
176
     1
 62
   256
176
     0
 40
1.0
176
     0
 90
        2
176
     1
  1
strokes_ogs.tif
176
     1
290
     0
176
     1
 40
1.0
176
     1
 40
1.0
176
     1
  0
VISUALSTYLE
  5
1CB
102
{ACAD_REACTORS
330
16F
102
}
330
16F
100
AcDbVisualStyle
  2
Wireframe
 70
     5
177
     3
291
     0
 70
    58
 90
        0
176
     1
 90
        2
176
     1
 90
        0
176
     1
 90
        0
176
     1
 40
0.6
176
     1
 40
30.0
176
     1
 62
     7
420
 16777215
176
     1
 90
        1
176
     1
 90
        4
176
     1
 62
     7
176
     1
 62
   257
176
     1
 90
        1
176
     1
 90
        1
176
     1
 40
1.0
176
     1
 90
        0
176
     1
 62
   257
176
     1
 40
1.0
176
     1
 90
        1
176
     1
 90
        6
176
     1
 90
        2
176
     1
 62
     7
176
     1
 90
        3
176
     1
 90
        0
176
     1
 90
        0
176
     1
290
     0
176
     1
 90
        1
176
     1
 40
0.0
176
     1
 90
        0
176
     1
290
     0
176
     1
290
     1
176
     1
290
     1
176
     1
290
     0
176
     1
290
     0
176
     1
290
     0
176
     1
290
     0
176
     1
290
     0
176
     1
290
     0
176
     1
 90
       50
176
     1
 40
0.0
176
     1
 40
1.0
176
     1
 90
        0
176
     1
 62
    18
420
        0
176
     1
 90
       50
176
     1
 90
        3
176
     1
 62
     5
420
      255
176
     1
290
     0
176
     1
 90
       50
176
     1
 90
       50
176
     1
 90
       50
176
     1
290
     0
176
     1
 90
       50
176
     1
 62
   256
176
     0
 40
1.0
176
     0
 90
        2
176
     1
  1
strokes_ogs.tif
176
     1
290
     0
176
     1
 40
1.0
176
     1
 40
1.0
176
     1
  0
VISUALSTYLE
  5
1D2
102
{ACAD_REACTORS
330
16F
102
}
330
16F
100
AcDbVisualStyle
  2
X-Ray
 70
    25
177
     3
291
     0
 70
    58
 90
        2
176
     1
 90
        2
176
     1
 90
        1
176
     1
 90
        1
176
     1
 40
0.5
176
     1
 40
30.0
176
     1
 62
     7
420
 16777215
176
     1
 90
        1
176
     1
 90
        0
176
     1
 62
     7
176
     1
 62
   257
176
     1
 90
        1
176
     1
 90
        1
176
     1
 40
1.0
176
     1
 90
        8
176
     1
 62
     7
176
     1
 40
1.0
176
     1
 90
        1
176
     1
 90
        6
176
     1
 90
        2
176
     1
 62
     7
176
     1
 90
        3
176
     1
 90
        0
176
     1
 90
        0
176
     1
290
     0
176
     1
 90
       13
176
     1
 40
0.0
176
     1
 90
        0
176
     1
290
     0
176
     1
290
     1
176
     1
290
     1
176
     1
290
     0
176
     1
290
     0
176
     1
290
     0
176
     1
290
     0
176
     1
290
     0
176
     1
290
     0
176
     1
 90
       50
176
     1
 40
0.0
176
     1
 40
1.0
176
     1
 90
        0
176
     1
 62
    18
420
        0
176
     1
 90
       50
176
     1
 90
        3
176
     1
 62
     5
420
      255
176
     1
290
     0
176
     1
 90
       50
176
     1
 90
       50
176
     1
 90
       50
176
     1
290
     0
176
     1
 90
       50
176
     1
 62
   256
176
     0
 40
1.0
176
     0
 90
        2
176
     1
  1
strokes_ogs.tif
176
     1
290
     0
176
     1
 40
1.0
176
     1
 40
1.0
176
     1
  0
DICTIONARYVAR
  5
1DC
102
{ACAD_REACTORS
330
18A
102
}
330
18A
100
DictionaryVariables
280
     0
  1
1:1
  0
DICTIONARYVAR
  5
1DE
102
{ACAD_REACTORS
330
18A
102
}
330
18A
100
DictionaryVariables
280
     0
  1
Standard
  0
DICTIONARYVAR
  5
1DD
102
{ACAD_REACTORS
330
18A
102
}
330
18A
100
DictionaryVariables
280
     0
  1
Standard
  0
DICTIONARYVAR
  5
18E
102
{ACAD_REACTORS
330
18A
102
}
330
18A
100
DictionaryVariables
280
     0
  1
2
  0
DICTIONARYVAR
  5
18F
102
{ACAD_REACTORS
330
18A
102
}
330
18A
100
DictionaryVariables
280
     0
  1
1
  0
DICTIONARYVAR
  5
18D
102
{ACAD_REACTORS
330
18A
102
}
330
18A
100
DictionaryVariables
280
     0
  1
0
  0
DICTIONARY
  5
314
330
1D6
100
AcDbDictionary
280
     1
281
     1
  3
ACAD_ROUNDTRIP_2008_TABLESTYLE_CELLSTYLEMAP
360
315
  0
CELLSTYLEMAP
  5
315
102
{ACAD_REACTORS
330
314
102
}
330
314
100
AcDbCellStyleMap
 90
        3
300
CELLSTYLE
  1
TABLEFORMAT_BEGIN
 90
        5
170
     1
 91
        0
 92
    32768
 62
   257
 93
        1
300
CONTENTFORMAT
  1
CONTENTFORMAT_BEGIN
 90
        0
 91
        0
 92
        4
 93
        0
300

 40
0.0
140
1.0
 94
        5
 62
     0
340
11
144
0.25
309
CONTENTFORMAT_END
171
     1
301
MARGIN
  1
CELLMARGIN_BEGIN
 40
0.06
 40
0.06
 40
0.06
 40
0.06
 40
0.06
 40
0.06
309
CELLMARGIN_END
 94
        6
 95
        1
302
GRIDFORMAT
  1
GRIDFORMAT_BEGIN
 90
        0
 91
        1
 62
     0
 92
       -2
340
14
 93
        0
 40
0.045
309
GRIDFORMAT_END
 95
        2
302
GRIDFORMAT
  1
GRIDFORMAT_BEGIN
 90
        0
 91
        1
 62
     0
 92
       -2
340
14
 93
        0
 40
0.045
309
GRIDFORMAT_END
 95
        4
302
GRIDFORMAT
  1
GRIDFORMAT_BEGIN
 90
        0
 91
        1
 62
     0
 92
       -2
340
14
 93
        0
 40
0.045
309
GRIDFORMAT_END
 95
        8
302
GRIDFORMAT
  1
GRIDFORMAT_BEGIN
 90
        0
 91
        1
 62
     0
 92
       -2
340
14
 93
        0
 40
0.045
309
GRIDFORMAT_END
 95
       16
302
GRIDFORMAT
  1
GRIDFORMAT_BEGIN
 90
        0
 91
        1
 62
     0
 92
       -2
340
14
 93
        0
 40
0.045
309
GRIDFORMAT_END
 95
       32
302
GRIDFORMAT
  1
GRIDFORMAT_BEGIN
 90
        0
 91
        1
 62
     0
 92
       -2
340
14
 93
        0
 40
0.045
309
GRIDFORMAT_END
309
TABLEFORMAT_END
  1
CELLSTYLE_BEGIN
 90
        1
 91
        1
300
_TITLE
309
CELLSTYLE_END
300
CELLSTYLE
  1
TABLEFORMAT_BEGIN
 90
        5
170
     1
 91
        0
 92
        0
 62
   257
 93
        1
300
CONTENTFORMAT
  1
CONTENTFORMAT_BEGIN
 90
        0
 91
        0
 92
        4
 93
        0
300

 40
0.0
140
1.0
 94
        5
 62
     0
340
11
144
0.18
309
CONTENTFORMAT_END
171
     1
301
MARGIN
  1
CELLMARGIN_BEGIN
 40
0.06
 40
0.06
 40
0.06
 40
0.06
 40
0.06
 40
0.06
309
CELLMARGIN_END
 94
        6
 95
        1
302
GRIDFORMAT
  1
GRIDFORMAT_BEGIN
 90
        0
 91
        1
 62
     0
 92
       -2
340
14
 93
        0
 40
0.045
309
GRIDFORMAT_END
 95
        2
302
GRIDFORMAT
  1
GRIDFORMAT_BEGIN
 90
        0
 91
        1
 62
     0
 92
       -2
340
14
 93
        0
 40
0.045
309
GRIDFORMAT_END
 95
        4
302
GRIDFORMAT
  1
GRIDFORMAT_BEGIN
 90
        0
 91
        1
 62
     0
 92
       -2
340
14
 93
        0
 40
0.045
309
GRIDFORMAT_END
 95
        8
302
GRIDFORMAT
  1
GRIDFORMAT_BEGIN
 90
        0
 91
        1
 62
     0
 92
       -2
340
14
 93
        0
 40
0.045
309
GRIDFORMAT_END
 95
       16
302
GRIDFORMAT
  1
GRIDFORMAT_BEGIN
 90
        0
 91
        1
 62
     0
 92
       -2
340
14
 93
        0
 40
0.045
309
GRIDFORMAT_END
 95
       32
302
GRIDFORMAT
  1
GRIDFORMAT_BEGIN
 90
        0
 91
        1
 62
     0
 92
       -2
340
14
 93
        0
 40
0.045
309
GRIDFORMAT_END
309
TABLEFORMAT_END
  1
CELLSTYLE_BEGIN
 90
        2
 91
        1
300
_HEADER
309
CELLSTYLE_END
300
CELLSTYLE
  1
TABLEFORMAT_BEGIN
 90
        5
170
     1
 91
        0
 92
        0
 62
   257
 93
        1
300
CONTENTFORMAT
  1
CONTENTFORMAT_BEGIN
 90
        0
 91
        0
 92
        4
 93
        0
300

 40
0.0
140
1.0
 94
        2
 62
     0
340
11
144
0.18
309
CONTENTFORMAT_END
171
     1
301
MARGIN
  1
CELLMARGIN_BEGIN
 40
0.06
 40
0.06
 40
0.06
 40
0.06
 40
0.06
 40
0.06
309
CELLMARGIN_END
 94
        6
 95
        1
302
GRIDFORMAT
  1
GRIDFORMAT_BEGIN
 90
        0
 91
        1
 62
     0
 92
       -2
340
14
 93
        0
 40
0.045
309
GRIDFORMAT_END
 95
        2
302
GRIDFORMAT
  1
GRIDFORMAT_BEGIN
 90
        0
 91
        1
 62
     0
 92
       -2
340
14
 93
        0
 40
0.045
309
GRIDFORMAT_END
 95
        4
302
GRIDFORMAT
  1
GRIDFORMAT_BEGIN
 90
        0
 91
        1
 62
     0
 92
       -2
340
14
 93
        0
 40
0.045
309
GRIDFORMAT_END
 95
        8
302
GRIDFORMAT
  1
GRIDFORMAT_BEGIN
 90
        0
 91
        1
 62
     0
 92
       -2
340
14
 93
        0
 40
0.045
309
GRIDFORMAT_END
 95
       16
302
GRIDFORMAT
  1
GRIDFORMAT_BEGIN
 90
        0
 91
        1
 62
     0
 92
       -2
340
14
 93
        0
 40
0.045
309
GRIDFORMAT_END
 95
       32
302
GRIDFORMAT
  1
GRIDFORMAT_BEGIN
 90
        0
 91
        1
 62
     0
 92
       -2
340
14
 93
        0
 40
0.045
309
GRIDFORMAT_END
309
TABLEFORMAT_END
  1
CELLSTYLE_BEGIN
 90
        3
 91
        2
300
_DATA
309
CELLSTYLE_END
  0
ENDSEC
  0
EOF
