  0
SECTION
  2
HEADER
  9
$ACADVER
  1
AC1027
  9
$ACADMAINTVER
 70
   105
  9
$DWGCODEPAGE
  3
ANSI_1252
  9
$REQUIREDVERSIONS
160
                 0
  9
$LASTSAVEDBY
  1
matthias.ochs
  9
$INSBASE
 10
0.0
 20
0.0
 30
0.0
  9
$EXTMIN
 10
-87.81139266684312
 20
-77.38864428896834
 30
0.0
  9
$EXTMAX
 10
269.5607102580623
 20
98.18337640110961
 30
0.0
  9
$LIMMIN
 10
-68.080001345
 20
-71.729723342
  9
$LIMMAX
 10
246.080000013
 20
67.45297476
  9
$ORTHOMODE
 70
     0
  9
$REGENMODE
 70
     1
  9
$FILLMODE
 70
     1
  9
$QTEXTMODE
 70
     0
  9
$MIRRTEXT
 70
     1
  9
$LTSCALE
 40
1.0
  9
$ATTMODE
 70
     1
  9
$TEXTSIZE
 40
0.2
  9
$TRACEWID
 40
0.05
  9
$TEXTSTYLE
  7
Standard
  9
$CLAYER
  8
1
  9
$CELTYPE
  6
ByLayer
  9
$CECOLOR
 62
   256
  9
$CELTSCALE
 40
1.0
  9
$DISPSILH
 70
     0
  9
$DIMSCALE
 40
1.0
  9
$DIMASZ
 40
0.18
  9
$DIMEXO
 40
0.0625
  9
$DIMDLI
 40
0.38
  9
$DIMRND
 40
0.0
  9
$DIMDLE
 40
0.0
  9
$DIMEXE
 40
0.18
  9
$DIMTP
 40
0.0
  9
$DIMTM
 40
0.0
  9
$DIMTXT
 40
0.18
  9
$DIMCEN
 40
0.09
  9
$DIMTSZ
 40
0.0
  9
$DIMTOL
 70
     0
  9
$DIMLIM
 70
     0
  9
$DIMTIH
 70
     1
  9
$DIMTOH
 70
     1
  9
$DIMSE1
 70
     0
  9
$DIMSE2
 70
     0
  9
$DIMTAD
 70
     0
  9
$DIMZIN
 70
     0
  9
$DIMBLK
  1

  9
$DIMASO
 70
     1
  9
$DIMSHO
 70
     1
  9
$DIMPOST
  1

  9
$DIMAPOST
  1

  9
$DIMALT
 70
     0
  9
$DIMALTD
 70
     2
  9
$DIMALTF
 40
25.4
  9
$DIMLFAC
 40
1.0
  9
$DIMTOFL
 70
     0
  9
$DIMTVP
 40
0.0
  9
$DIMTIX
 70
     0
  9
$DIMSOXD
 70
     0
  9
$DIMSAH
 70
     0
  9
$DIMBLK1
  1

  9
$DIMBLK2
  1

  9
$DIMSTYLE
  2
Standard
  9
$DIMCLRD
 70
     0
  9
$DIMCLRE
 70
     0
  9
$DIMCLRT
 70
     0
  9
$DIMTFAC
 40
1.0
  9
$DIMGAP
 40
0.09
  9
$DIMJUST
 70
     0
  9
$DIMSD1
 70
     0
  9
$DIMSD2
 70
     0
  9
$DIMTOLJ
 70
     1
  9
$DIMTZIN
 70
     0
  9
$DIMALTZ
 70
     0
  9
$DIMALTTZ
 70
     0
  9
$DIMUPT
 70
     0
  9
$DIMDEC
 70
     4
  9
$DIMTDEC
 70
     4
  9
$DIMALTU
 70
     2
  9
$DIMALTTD
 70
     2
  9
$DIMTXSTY
  7
Standard
  9
$DIMAUNIT
 70
     0
  9
$DIMADEC
 70
     0
  9
$DIMALTRND
 40
0.0
  9
$DIMAZIN
 70
     0
  9
$DIMDSEP
 70
    46
  9
$DIMATFIT
 70
     3
  9
$DIMFRAC
 70
     0
  9
$DIMLDRBLK
  1

  9
$DIMLUNIT
 70
     2
  9
$DIMLWD
 70
    -2
  9
$DIMLWE
 70
    -2
  9
$DIMTMOVE
 70
     2
  9
$DIMFXL
 40
1.0
  9
$DIMFXLON
 70
     0
  9
$DIMJOGANG
 40
0.7853981633974483
  9
$DIMTFILL
 70
     0
  9
$DIMTFILLCLR
 70
     0
  9
$DIMARCSYM
 70
     0
  9
$DIMLTYPE
  6

  9
$DIMLTEX1
  6

  9
$DIMLTEX2
  6

  9
$DIMTXTDIRECTION
 70
     0
  9
$LUNITS
 70
     2
  9
$LUPREC
 70
     4
  9
$SKETCHINC
 40
0.1
  9
$FILLETRAD
 40
0.5
  9
$AUNITS
 70
     2
  9
$AUPREC
 70
     0
  9
$MENU
  1
.
  9
$ELEVATION
 40
0.0
  9
$PELEVATION
 40
0.0
  9
$THICKNESS
 40
0.0
  9
$LIMCHECK
 70
     0
  9
$CHAMFERA
 40
0.5
  9
$CHAMFERB
 40
0.5
  9
$CHAMFERC
 40
1.0
  9
$CHAMFERD
 40
0.0
  9
$SKPOLY
 70
     0
  9
$TDCREATE
 40
2458327.549381979
  9
$TDUCREATE
 40
2458327.466048646
  9
$TDUPDATE
 40
2458682.631417523
  9
$TDUUPDATE
 40
2458682.54808419
  9
$TDINDWG
 40
0.00587625
  9
$TDUSRTIMER
 40
0.0135702083
  9
$USRTIMER
 70
     1
  9
$ANGBASE
 50
0.0
  9
$ANGDIR
 70
     0
  9
$PDMODE
 70
     0
  9
$PDSIZE
 40
0.0
  9
$PLINEWID
 40
0.0
  9
$SPLFRAME
 70
     0
  9
$SPLINETYPE
 70
     6
  9
$SPLINESEGS
 70
     8
  9
$HANDSEED
  5
2A9
  9
$SURFTAB1
 70
     6
  9
$SURFTAB2
 70
     6
  9
$SURFTYPE
 70
     6
  9
$SURFU
 70
     6
  9
$SURFV
 70
     6
  9
$UCSBASE
  2

  9
$UCSNAME
  2

  9
$UCSORG
 10
0.0
 20
0.0
 30
0.0
  9
$UCSXDIR
 10
1.0
 20
0.0
 30
0.0
  9
$UCSYDIR
 10
0.0
 20
1.0
 30
0.0
  9
$UCSORTHOREF
  2

  9
$UCSORTHOVIEW
 70
     0
  9
$UCSORGTOP
 10
0.0
 20
0.0
 30
0.0
  9
$UCSORGBOTTOM
 10
0.0
 20
0.0
 30
0.0
  9
$UCSORGLEFT
 10
0.0
 20
0.0
 30
0.0
  9
$UCSORGRIGHT
 10
0.0
 20
0.0
 30
0.0
  9
$UCSORGFRONT
 10
0.0
 20
0.0
 30
0.0
  9
$UCSORGBACK
 10
0.0
 20
0.0
 30
0.0
  9
$PUCSBASE
  2

  9
$PUCSNAME
  2

  9
$PUCSORG
 10
0.0
 20
0.0
 30
0.0
  9
$PUCSXDIR
 10
1.0
 20
0.0
 30
0.0
  9
$PUCSYDIR
 10
0.0
 20
1.0
 30
0.0
  9
$PUCSORTHOREF
  2

  9
$PUCSORTHOVIEW
 70
     0
  9
$PUCSORGTOP
 10
0.0
 20
0.0
 30
0.0
  9
$PUCSORGBOTTOM
 10
0.0
 20
0.0
 30
0.0
  9
$PUCSORGLEFT
 10
0.0
 20
0.0
 30
0.0
  9
$PUCSORGRIGHT
 10
0.0
 20
0.0
 30
0.0
  9
$PUCSORGFRONT
 10
0.0
 20
0.0
 30
0.0
  9
$PUCSORGBACK
 10
0.0
 20
0.0
 30
0.0
  9
$USERI1
 70
     0
  9
$USERI2
 70
     0
  9
$USERI3
 70
     0
  9
$USERI4
 70
     0
  9
$USERI5
 70
     0
  9
$USERR1
 40
0.0
  9
$USERR2
 40
0.0
  9
$USERR3
 40
0.0
  9
$USERR4
 40
0.0
  9
$USERR5
 40
0.0
  9
$WORLDVIEW
 70
     1
  9
$SHADEDGE
 70
     3
  9
$SHADEDIF
 70
    70
  9
$TILEMODE
 70
     1
  9
$MAXACTVP
 70
    64
  9
$PINSBASE
 10
0.0
 20
0.0
 30
0.0
  9
$PLIMCHECK
 70
     0
  9
$PEXTMIN
 10
1.000000000000000E+20
 20
1.000000000000000E+20
 30
1.000000000000000E+20
  9
$PEXTMAX
 10
-1.000000000000000E+20
 20
-1.000000000000000E+20
 30
-1.000000000000000E+20
  9
$PLIMMIN
 10
0.0
 20
0.0
  9
$PLIMMAX
 10
0.0
 20
0.0
  9
$UNITMODE
 70
     0
  9
$VISRETAIN
 70
     1
  9
$PLINEGEN
 70
     0
  9
$PSLTSCALE
 70
     1
  9
$TREEDEPTH
 70
  3020
  9
$CMLSTYLE
  2
Standard
  9
$CMLJUST
 70
     0
  9
$CMLSCALE
 40
1.0
  9
$PROXYGRAPHICS
 70
     1
  9
$MEASUREMENT
 70
     0
  9
$CELWEIGHT
370
    -1
  9
$ENDCAPS
280
     0
  9
$JOINSTYLE
280
     0
  9
$LWDISPLAY
290
     0
  9
$INSUNITS
 70
     0
  9
$HYPERLINKBASE
  1

  9
$STYLESHEET
  1

  9
$XEDIT
290
     1
  9
$CEPSNTYPE
380
     0
  9
$PSTYLEMODE
290
     1
  9
$FINGERPRINTGUID
  2
{2211E01B-19B2-481A-BA0A-E6DB97D95888}
  9
$VERSIONGUID
  2
{FAEB1C32-E019-11D5-929B-00C0DF256EC4}
  9
$EXTNAMES
290
     1
  9
$PSVPSCALE
 40
0.0
  9
$OLESTARTUP
290
     0
  9
$SORTENTS
280
   127
  9
$INDEXCTL
280
     0
  9
$HIDETEXT
280
     1
  9
$XCLIPFRAME
280
     2
  9
$HALOGAP
280
     0
  9
$OBSCOLOR
 70
   257
  9
$OBSLTYPE
280
     0
  9
$INTERSECTIONDISPLAY
280
     0
  9
$INTERSECTIONCOLOR
 70
   257
  9
$DIMASSOC
280
     2
  9
$PROJECTNAME
  1

  9
$CAMERADISPLAY
290
     0
  9
$LENSLENGTH
 40
50.0
  9
$CAMERAHEIGHT
 40
0.0
  9
$STEPSPERSEC
 40
2.0
  9
$STEPSIZE
 40
6.0
  9
$3DDWFPREC
 40
2.0
  9
$PSOLWIDTH
 40
0.25
  9
$PSOLHEIGHT
 40
4.0
  9
$LOFTANG1
 40
1.570796326794897
  9
$LOFTANG2
 40
1.570796326794897
  9
$LOFTMAG1
 40
0.0
  9
$LOFTMAG2
 40
0.0
  9
$LOFTPARAM
 70
     7
  9
$LOFTNORMALS
280
     1
  9
$LATITUDE
 40
37.795
  9
$LONGITUDE
 40
-122.394
  9
$NORTHDIRECTION
 40
0.0
  9
$TIMEZONE
 70
 -8000
  9
$LIGHTGLYPHDISPLAY
280
     1
  9
$TILEMODELIGHTSYNCH
280
     1
  9
$SOLIDHIST
280
     0
  9
$SHOWHIST
280
     1
  9
$DWFFRAME
280
     2
  9
$DGNFRAME
280
     2
  9
$REALWORLDSCALE
290
     1
  9
$INTERFERECOLOR
 62
   256
  9
$CSHADOW
280
     0
  9
$SHADOWPLANELOCATION
 40
0.0
  0
ENDSEC
  0
SECTION
  2
CLASSES
  0
CLASS
  1
ACDBDICTIONARYWDFLT
  2
AcDbDictionaryWithDefault
  3
ObjectDBX Classes
 90
        0
 91
      276
280
     0
281
     0
  0
CLASS
  1
SCALE
  2
AcDbScale
  3
ObjectDBX Classes
 90
     1153
 91
      276
280
     0
281
     0
  0
CLASS
  1
VISUALSTYLE
  2
AcDbVisualStyle
  3
ObjectDBX Classes
 90
     4095
 91
      276
280
     0
281
     0
  0
CLASS
  1
MATERIAL
  2
AcDbMaterial
  3
ObjectDBX Classes
 90
     1153
 91
      276
280
     0
281
     0
  0
CLASS
  1
DICTIONARYVAR
  2
AcDbDictionaryVar
  3
ObjectDBX Classes
 90
        0
 91
       10
280
     0
281
     0
  0
CLASS
  1
ACDBPLACEHOLDER
  2
AcDbPlaceHolder
  3
ObjectDBX Classes
 90
        0
 91
        1
280
     0
281
     0
  0
CLASS
  1
LAYOUT
  2
AcDbLayout
  3
ObjectDBX Classes
 90
        0
 91
        1
280
     0
281
     0
  0
CLASS
  1
TABLESTYLE
  2
AcDbTableStyle
  3
ObjectDBX Classes
 90
     4095
 91
      276
280
     0
281
     0
  0
CLASS
  1
MLEADERSTYLE
  2
AcDbMLeaderStyle
  3
ACDB_MLEADERSTYLE_CLASS
 90
     4095
 91
      276
280
     0
281
     0
  0
CLASS
  1
SUN
  2
AcDbSun
  3
SCENEOE
 90
     1153
 91
      276
280
     0
281
     0
  0
CLASS
  1
SORTENTSTABLE
  2
AcDbSortentsTable
  3
ObjectDBX Classes
 90
        0
 91
        8
280
     0
281
     0
  0
CLASS
  1
CELLSTYLEMAP
  2
AcDbCellStyleMap
  3
ObjectDBX Classes
 90
     1152
 91
        6
280
     0
281
     0
  0
ENDSEC
  0
SECTION
  2
TABLES
  0
TABLE
  2
VPORT
  5
8
330
0
100
AcDbSymbolTable
 70
     1
  0
VPORT
  5
14C
330
8
100
AcDbSymbolTableRecord
100
AcDbViewportTableRecord
  2
*Active
 70
     0
 10
0.0
 20
0.0
 11
1.0
 21
1.0
 12
40.05523846481094
 22
-4.336171471929781
 13
0.0
 23
0.0
 14
0.5
 24
0.5
 15
0.5
 25
0.5
 16
0.0
 26
0.0
 36
1.0
 17
0.0
 27
0.0
 37
0.0
 40
490.3502948935022
 41
1.831002331002331
 42
50.0
 43
0.0
 44
0.0
 50
0.0
 51
0.0
 71
    16
 72
   100
 73
     1
 74
     3
 75
     1
 76
     0
 77
     0
 78
     0
281
     0
 65
     1
110
0.0
120
0.0
130
0.0
111
1.0
121
0.0
131
0.0
112
0.0
122
1.0
132
0.0
 79
     0
146
0.0
348
17D
 60
     3
 61
     5
292
     1
282
     1
141
0.0
142
0.0
 63
   256
361
234
  0
ENDTAB
  0
TABLE
  2
LTYPE
  5
5
330
0
100
AcDbSymbolTable
 70
     8
  0
LTYPE
  5
14
330
5
100
AcDbSymbolTableRecord
100
AcDbLinetypeTableRecord
  2
ByBlock
 70
     0
  3

 72
    65
 73
     0
 40
0.0
  0
LTYPE
  5
15
330
5
100
AcDbSymbolTableRecord
100
AcDbLinetypeTableRecord
  2
ByLayer
 70
     0
  3

 72
    65
 73
     0
 40
0.0
  0
LTYPE
  5
16
330
5
100
AcDbSymbolTableRecord
100
AcDbLinetypeTableRecord
  2
Continuous
 70
     0
  3
Solid line
 72
    65
 73
     0
 40
0.0
  0
LTYPE
  5
20
330
5
100
AcDbSymbolTableRecord
100
AcDbLinetypeTableRecord
  2
PUNKT
 70
     0
  3
..............
 72
    65
 73
     2
 40
1.5
 49
0.7
 74
     0
 49
-0.8
 74
     0
  0
LTYPE
  5
21
330
5
100
AcDbSymbolTableRecord
100
AcDbLinetypeTableRecord
  2
GESTRICHELT
 70
     0
  3
-- -- -- -- --
 72
    65
 73
     7
 40
2.8
 49
0.9
 74
     0
 49
0.0
 74
     0
 49
0.9
 74
     0
 49
0.0
 74
     0
 49
0.2
 74
     0
 49
0.0
 74
     0
 49
-0.8
 74
     0
  0
LTYPE
  5
22
330
5
100
AcDbSymbolTableRecord
100
AcDbLinetypeTableRecord
  2
STRICHPUNKT
 70
     0
  3
--.--.--.--.--
 72
    65
 73
     4
 40
8.8
 49
5.5
 74
     0
 49
-1.3
 74
     0
 49
0.7
 74
     0
 49
-1.3
 74
     0
  0
LTYPE
  5
25
330
5
100
AcDbSymbolTableRecord
100
AcDbLinetypeTableRecord
  2
PHANTOM
 70
     0
  3
--..--..--..--
 72
    65
 73
     6
 40
14.2
 49
7.0
 74
     0
 49
-1.8
 74
     0
 49
0.9
 74
     0
 49
-1.8
 74
     0
 49
0.9
 74
     0
 49
-1.8
 74
     0
  0
LTYPE
  5
1C4
330
5
100
AcDbSymbolTableRecord
100
AcDbLinetypeTableRecord
  2
DASH
 70
     0
  3
DASH _ _ _ _ _
 72
    65
 73
     2
 40
0.75
 49
0.4
 74
     0
 49
-0.35
 74
     0
  0
LTYPE
  5
1C5
330
5
100
AcDbSymbolTableRecord
100
AcDbLinetypeTableRecord
  2
LONGDASH_DASH
 70
     0
  3
LONGDASH_DASH __ . __ . __
 72
    65
 73
     4
 40
0.85
 49
0.4
 74
     0
 49
-0.2
 74
     0
 49
0.05
 74
     0
 49
-0.2
 74
     0
  0
LTYPE
  5
1C6
330
5
100
AcDbSymbolTableRecord
100
AcDbLinetypeTableRecord
  2
LONGDASH_DASH_DASH
 70
     0
  3
LONGDASH_DASH_DASH __ . . __ . . __
 72
    65
 73
     6
 40
1.1
 49
0.4
 74
     0
 49
-0.2
 74
     0
 49
0.05
 74
     0
 49
-0.2
 74
     0
 49
0.05
 74
     0
 49
-0.2
 74
     0
  0
ENDTAB
  0
TABLE
  2
LAYER
  5
2
102
{ACAD_XDICTIONARY
360
1E3
102
}
330
0
100
AcDbSymbolTable
 70
    16
  0
LAYER
  5
18E
330
2
100
AcDbSymbolTableRecord
100
AcDbLayerTableRecord
  2
200
 70
     0
 62
     2
  6
Continuous
370
    50
390
F
347
18C
348
0
  0
LAYER
  5
1C7
330
2
100
AcDbSymbolTableRecord
100
AcDbLayerTableRecord
  2
0
 70
     0
 62
     1
  6
Continuous
370
    -3
390
F
347
18C
348
0
  0
LAYER
  5
1C8
330
2
100
AcDbSymbolTableRecord
100
AcDbLayerTableRecord
  2
1
 70
     0
 62
     4
  6
Continuous
370
    50
390
F
347
18C
348
0
  0
LAYER
  5
1C9
330
2
100
AcDbSymbolTableRecord
100
AcDbLayerTableRecord
  2
2
 70
     0
 62
     7
  6
Continuous
370
    25
390
F
347
18C
348
0
  0
LAYER
  5
1CA
330
2
100
AcDbSymbolTableRecord
100
AcDbLayerTableRecord
  2
3
 70
     0
 62
     1
  6
DASH
370
    35
390
F
347
18C
348
0
  0
LAYER
  5
1CB
330
2
100
AcDbSymbolTableRecord
100
AcDbLayerTableRecord
  2
4
 70
     0
 62
     2
  6
LONGDASH_DASH
370
    25
390
F
347
18C
348
0
  0
LAYER
  5
1CC
330
2
100
AcDbSymbolTableRecord
100
AcDbLayerTableRecord
  2
6
 70
     0
 62
     5
  6
Continuous
370
    -3
390
F
347
18C
348
0
  0
LAYER
  5
1CD
330
2
100
AcDbSymbolTableRecord
100
AcDbLayerTableRecord
  2
CUT
 70
     0
 62
     1
  6
Continuous
370
    25
390
F
347
18C
348
0
  0
LAYER
  5
1CE
330
2
100
AcDbSymbolTableRecord
100
AcDbLayerTableRecord
  2
NOCUT
 70
     0
 62
     7
  6
Continuous
370
    25
390
F
347
18C
348
0
  0
LAYER
  5
1CF
330
2
100
AcDbSymbolTableRecord
100
AcDbLayerTableRecord
  2
SK1
 70
     0
 62
     4
  6
Continuous
370
    50
390
F
347
18C
348
0
  0
LAYER
  5
1D0
330
2
100
AcDbSymbolTableRecord
100
AcDbLayerTableRecord
  2
SK2
 70
     0
 62
     7
  6
Continuous
370
    25
390
F
347
18C
348
0
  0
LAYER
  5
1D1
330
2
100
AcDbSymbolTableRecord
100
AcDbLayerTableRecord
  2
SK3
 70
     0
 62
     1
  6
DASH
370
    35
390
F
347
18C
348
0
  0
LAYER
  5
1D2
330
2
100
AcDbSymbolTableRecord
100
AcDbLayerTableRecord
  2
SK4
 70
     0
 62
     2
  6
LONGDASH_DASH
370
    25
390
F
347
18C
348
0
  0
LAYER
  5
1D3
330
2
100
AcDbSymbolTableRecord
100
AcDbLayerTableRecord
  2
SK6
 70
     0
 62
     5
  6
Continuous
370
    -3
390
F
347
18C
348
0
  0
LAYER
  5
1D4
330
2
100
AcDbSymbolTableRecord
100
AcDbLayerTableRecord
  2
INFTOTAL
 70
     0
 62
     9
  6
Continuous
370
    18
390
F
347
18C
348
0
  0
LAYER
  5
238
330
2
100
AcDbSymbolTableRecord
100
AcDbLayerTableRecord
  2
11
 70
     0
 62
     4
  6
Continuous
370
    50
390
F
347
18C
348
0
1001
AcAecLayerStandard
1000

1000

  0
ENDTAB
  0
TABLE
  2
STYLE
  5
3
330
0
100
AcDbSymbolTable
 70
     3
  0
STYLE
  5
11
330
3
100
AcDbSymbolTableRecord
100
AcDbTextStyleTableRecord
  2
Standard
 70
     0
 40
0.0
 41
1.0
 50
0.0
 71
     0
 42
0.2
  3
txt
  4

  0
STYLE
  5
18D
330
3
100
AcDbSymbolTableRecord
100
AcDbTextStyleTableRecord
  2
BMG_Text
 70
     0
 40
3.5
 41
1.0
 50
0.0
 71
     0
 42
0.2
  3
monos.ttf
  4

1001
ACAD
1000
Monospac821 BT
1071
       49
  0
STYLE
  5
23E
330
3
100
AcDbSymbolTableRecord
100
AcDbTextStyleTableRecord
  2
SLDTEXTSTYLE0
 70
     0
 40
0.0
 41
0.605
 50
0.0
 71
     0
 42
0.2
  3
TXT
  4

  0
ENDTAB
  0
TABLE
  2
VIEW
  5
6
330
0
100
AcDbSymbolTable
 70
     0
  0
ENDTAB
  0
TABLE
  2
UCS
  5
7
330
0
100
AcDbSymbolTable
 70
     0
  0
ENDTAB
  0
TABLE
  2
APPID
  5
9
330
0
100
AcDbSymbolTable
 70
     2
  0
APPID
  5
12
330
9
100
AcDbSymbolTableRecord
100
AcDbRegAppTableRecord
  2
ACAD
 70
     0
  0
APPID
  5
239
330
9
100
AcDbSymbolTableRecord
100
AcDbRegAppTableRecord
  2
AcAecLayerStandard
 70
     0
  0
ENDTAB
  0
TABLE
  2
DIMSTYLE
  5
A
330
0
100
AcDbSymbolTable
 70
     6
100
AcDbDimStyleTable
  0
DIMSTYLE
105
28
330
A
100
AcDbSymbolTableRecord
100
AcDbDimStyleTableRecord
  2
Standard
 70
     0
178
     0
340
11
  0
DIMSTYLE
105
23A
330
A
100
AcDbSymbolTableRecord
100
AcDbDimStyleTableRecord
  2
Matthias
 70
     0
 41
3.0
 44
2.0
 73
     0
 77
     1
140
3.0
147
2.0
178
     0
340
11
  0
DIMSTYLE
105
23C
102
{ACAD_REACTORS
102
}
330
A
100
AcDbSymbolTableRecord
100
AcDbDimStyleTableRecord
  2
ISO-25
 70
     0
 41
2.5
 42
0.625
 43
3.75
 44
1.25
 73
     0
 74
     0
 77
     1
 78
     8
140
2.5
141
2.5
143
0.0393700787
147
0.625
171
     3
172
     1
178
     0
271
     2
272
     2
274
     3
278
    44
283
     0
284
     8
340
11
  0
DIMSTYLE
105
23D
330
A
100
AcDbSymbolTableRecord
100
AcDbDimStyleTableRecord
  2
SLDDIMSTYLE0
 70
     0
 41
3.5
 44
0.0
 45
0.000000001
 73
     0
 74
     0
 77
     1
 78
    12
 79
     3
140
3.5
144
0.5
147
0.875
173
     1
178
     0
271
     2
272
     1
276
     2
284
    12
340
23E
  0
DIMSTYLE
105
23F
330
A
100
AcDbSymbolTableRecord
100
AcDbDimStyleTableRecord
  2
SLDDIMSTYLE1
 70
     0
 41
3.5
 44
0.0
 45
0.000000001
 73
     0
 74
     0
 77
     1
 78
    12
 79
     3
140
3.5
144
0.5
147
0.875
173
     1
178
     0
271
     2
272
     3
276
     2
284
    12
340
23E
  0
DIMSTYLE
105
240
330
A
100
AcDbSymbolTableRecord
100
AcDbDimStyleTableRecord
  2
SLDDIMSTYLE2
 70
     0
 41
3.5
 44
0.0
 45
0.000000001
 73
     0
 74
     0
 77
     1
 78
    12
 79
     3
140
3.5
147
0.875
173
     1
178
     0
271
     2
272
     0
276
     2
284
    12
340
23E
  0
ENDTAB
  0
TABLE
  2
BLOCK_RECORD
  5
1
330
0
100
AcDbSymbolTable
 70
     1
  0
BLOCK_RECORD
  5
1D
330
1
100
AcDbSymbolTableRecord
100
AcDbBlockTableRecord
  2
*Model_Space
340
1E
 70
     0
280
     1
281
     0
  0
BLOCK_RECORD
  5
1B
330
1
100
AcDbSymbolTableRecord
100
AcDbBlockTableRecord
  2
*Paper_Space
340
1C
 70
     0
280
     1
281
     0
  0
ENDTAB
  0
ENDSEC
  0
SECTION
  2
BLOCKS
  0
BLOCK
  5
176
330
1D
100
AcDbEntity
  8
0
100
AcDbBlockBegin
  2
*Model_Space
 70
     0
 10
0.0
 20
0.0
 30
0.0
  3
*Model_Space
  1

  0
ENDBLK
  5
177
330
1D
100
AcDbEntity
  8
0
100
AcDbBlockEnd
  0
BLOCK
  5
174
330
1B
100
AcDbEntity
 67
     1
  8
0
100
AcDbBlockBegin
  2
*Paper_Space
 70
     0
 10
0.0
 20
0.0
 30
0.0
  3
*Paper_Space
  1

  0
ENDBLK
  5
175
330
1B
100
AcDbEntity
 67
     1
  8
0
100
AcDbBlockEnd
  0
ENDSEC
  0
SECTION
  2
ENTITIES
  0
LINE
  5
29
330
1D
100
AcDbEntity
  8
1
100
AcDbLine
 10
222.999969482
 20
-30.75
 30
0.0
 11
221.999969482
 21
-31.75
 31
0.0
  0
LINE
  5
31
330
1D
100
AcDbEntity
  8
1
100
AcDbLine
 10
33.844357584
 20
-31.35
 30
0.0
 11
36.95
 21
-31.35
 31
0.0
  0
LINE
  5
32
330
1D
100
AcDbEntity
  8
1
100
AcDbLine
 10
36.95
 20
-31.35
 30
0.0
 11
37.35
 21
-31.75
 31
0.0
  0
LINE
  5
33
330
1D
100
AcDbEntity
  8
1
100
AcDbLine
 10
36.95
 20
-31.35
 30
0.0
 11
36.95
 21
31.35
 31
0.0
  0
LINE
  5
34
330
1D
100
AcDbEntity
  8
1
100
AcDbLine
 10
222.999969482
 20
30.75
 30
0.0
 11
222.999969482
 21
-30.75
 31
0.0
  0
LINE
  5
35
330
1D
100
AcDbEntity
  8
1
100
AcDbLine
 10
221.999969482
 20
-31.75
 30
0.0
 11
37.35
 21
-31.75
 31
0.0
  0
LINE
  5
36
330
1D
100
AcDbEntity
  8
1
100
AcDbLine
 10
221.999969482
 20
-31.75
 30
0.0
 11
221.999969482
 21
31.75
 31
0.0
  0
LINE
  5
37
330
1D
100
AcDbEntity
  8
1
100
AcDbLine
 10
18.124969482
 20
-47.622589111
 30
0.0
 11
16.752410889
 21
-50.0
 31
0.0
  0
LINE
  5
38
330
1D
100
AcDbEntity
  8
1
100
AcDbLine
 10
16.752410889
 20
-50.0
 30
0.0
 11
0.4
 21
-50.0
 31
0.0
  0
LINE
  5
39
330
1D
100
AcDbEntity
  8
1
100
AcDbLine
 10
0.4
 20
-50.0
 30
0.0
 11
0.0
 21
-49.6
 31
0.0
  0
LINE
  5
3A
330
1D
100
AcDbEntity
  8
1
100
AcDbLine
 10
0.0
 20
-49.6
 30
0.0
 11
0.0
 21
49.6
 31
0.0
  0
LINE
  5
3C
330
1D
100
AcDbEntity
  8
1
100
AcDbLine
 10
28.95
 20
49.6
 30
0.0
 11
28.95
 21
-49.6
 31
0.0
  0
LINE
  5
3D
330
1D
100
AcDbEntity
  8
1
100
AcDbLine
 10
28.95
 20
-49.6
 30
0.0
 11
28.55
 21
-50.0
 31
0.0
  0
LINE
  5
3E
330
1D
100
AcDbEntity
  8
1
100
AcDbLine
 10
28.55
 20
-50.0
 30
0.0
 11
23.247589111
 21
-50.0
 31
0.0
  0
LINE
  5
3F
330
1D
100
AcDbEntity
  8
1
100
AcDbLine
 10
23.247589111
 20
-50.0
 30
0.0
 11
21.875
 21
-47.622589111
 31
0.0
  0
LINE
  5
42
330
1D
100
AcDbEntity
  8
11
100
AcDbLine
 10
12.75
 20
12.000030518
 30
0.0
 11
26.25
 21
12.000030518
 31
0.0
  0
LINE
  5
47
330
1D
100
AcDbEntity
  8
SK1
100
AcDbLine
 10
-2.369628906
 20
37.881530762
 30
0.0
 11
-2.369628906
 21
-37.881530762
 31
0.0
  0
ARC
  5
48
330
1D
100
AcDbEntity
  8
SK1
100
AcDbCircle
 10
-1.600006104
 20
-38.520050049
 30
0.0
 40
1.0
100
AcDbArc
 50
90.0
 51
140.320755023
  0
LINE
  5
49
330
1D
100
AcDbEntity
  8
SK1
100
AcDbLine
 10
-1.600006104
 20
-37.520019531
 30
0.0
 11
-0.600006104
 21
-37.520019531
 31
0.0
  0
ARC
  5
4A
330
1D
100
AcDbEntity
  8
SK1
100
AcDbCircle
 10
-0.600006104
 20
-38.520050049
 30
0.0
 40
1.000000043
100
AcDbArc
 50
53.13027650099999
 51
90.0
  0
LINE
  5
4B
330
1D
100
AcDbEntity
  8
SK1
100
AcDbLine
 10
-2.369628906
 20
-37.881530762
 30
0.0
 11
-48.000146581
 21
-35.600020103
 31
0.0
  0
ARC
  5
4C
330
1D
100
AcDbEntity
  8
SK1
100
AcDbCircle
 10
-47.900021338
 20
-33.59753418
 30
0.0
 40
2.000008464
100
AcDbArc
 50
180.0
 51
267.137567656
  0
LINE
  5
4D
330
1D
100
AcDbEntity
  8
SK1
100
AcDbLine
 10
-49.900021338
 20
33.59753418
 30
0.0
 11
-49.900021338
 21
-33.59753418
 31
0.0
  0
ARC
  5
4E
330
1D
100
AcDbEntity
  8
1
100
AcDbCircle
 10
19.125
 20
-47.000030518
 30
0.0
 40
1.0
100
AcDbArc
 50
90.0
 51
180.0
  0
ARC
  5
4F
330
1D
100
AcDbEntity
  8
1
100
AcDbCircle
 10
20.875
 20
-47.000030518
 30
0.0
 40
1.000000119
100
AcDbArc
 50
0.0
 51
90.0
  0
LINE
  5
50
330
1D
100
AcDbEntity
  8
1
100
AcDbLine
 10
19.125
 20
-46.0
 30
0.0
 11
20.875
 21
-46.0
 31
0.0
  0
ARC
  5
52
330
1D
100
AcDbEntity
  8
1
100
AcDbCircle
 10
33.95
 20
-36.35
 30
0.0
 40
5.0
100
AcDbArc
 50
90.0
 51
180.0
  0
LINE
  5
53
330
1D
100
AcDbEntity
  8
3
100
AcDbLine
 10
222.572599714
 20
18.002897187
 30
0.0
 11
184.694340103
 21
18.002897187
 31
0.0
  0
LINE
  5
54
330
1D
100
AcDbEntity
  8
3
100
AcDbLine
 10
184.694340103
 20
18.002897187
 30
0.0
 11
184.266940308
 21
18.249647187
 31
0.0
  0
LINE
  5
55
330
1D
100
AcDbEntity
  8
3
100
AcDbLine
 10
184.266940308
 20
18.249647187
 30
0.0
 11
180.999984741
 21
18.249647187
 31
0.0
  0
LINE
  5
57
330
1D
100
AcDbEntity
  8
3
100
AcDbLine
 10
180.999984741
 20
16.499647187
 30
0.0
 11
178.39994812
 21
16.499677657
 31
0.0
  0
ARC
  5
58
330
1D
100
AcDbEntity
  8
3
100
AcDbCircle
 10
178.39994812
 20
16.099683808
 30
0.0
 40
0.399993849
100
AcDbArc
 50
90.0
 51
180.004371721
  0
LINE
  5
5A
330
1D
100
AcDbEntity
  8
3
100
AcDbLine
 10
177.999984741
 20
13.049647187
 30
0.0
 11
148.499984741
 21
13.049647187
 31
0.0
  0
LINE
  5
5B
330
1D
100
AcDbEntity
  8
3
100
AcDbLine
 10
148.499984741
 20
13.049647187
 30
0.0
 11
146.872414923
 21
6.0
 31
0.0
  0
LINE
  5
5C
330
1D
100
AcDbEntity
  8
3
100
AcDbLine
 10
146.872414923
 20
6.0
 30
0.0
 11
28.5
 21
6.0
 31
0.0
  0
LINE
  5
5E
330
1D
100
AcDbEntity
  8
3
100
AcDbLine
 10
28.5
 20
12.250030518
 30
0.0
 11
26.25
 21
12.250030518
 31
0.0
  0
LINE
  5
60
330
1D
100
AcDbEntity
  8
3
100
AcDbLine
 10
26.25
 20
11.250030518
 30
0.0
 11
13.5
 21
11.250030518
 31
0.0
  0
LINE
  5
61
330
1D
100
AcDbEntity
  8
3
100
AcDbLine
 10
13.5
 20
11.250030518
 30
0.0
 11
12.5
 21
12.250030518
 31
0.0
  0
ARC
  5
63
330
1D
100
AcDbEntity
  8
3
100
AcDbCircle
 10
10.0
 20
24.375030518
 30
0.0
 40
2.5
100
AcDbArc
 50
0.0
 51
90.0
  0
LINE
  5
64
330
1D
100
AcDbEntity
  8
3
100
AcDbLine
 10
10.0
 20
26.875030518
 30
0.0
 11
0.0
 21
26.87502745800096
 31
0.0
  0
ARC
  5
65
330
1D
100
AcDbEntity
  8
SK3
100
AcDbCircle
 10
-9.4662323
 20
19.500030518
 30
0.0
 40
12.00000308
100
AcDbArc
 50
37.92162081
 51
90.0
  0
LINE
  5
66
330
1D
100
AcDbEntity
  8
SK3
100
AcDbLine
 10
-9.4662323
 20
31.500030518
 30
0.0
 11
-26.539306734
 21
31.500030577
 31
0.0
  0
ARC
  5
67
330
1D
100
AcDbEntity
  8
SK3
100
AcDbCircle
 10
-26.539306641
 20
30.500030518
 30
0.0
 40
1.00000006
100
AcDbArc
 50
90.000005364
 51
150.000069564
  0
LINE
  5
68
330
1D
100
AcDbEntity
  8
SK3
100
AcDbLine
 10
-27.405334473
 20
31.000030518
 30
0.0
 11
-30.003417969
 21
26.500030518
 31
0.0
  0
LINE
  5
69
330
1D
100
AcDbEntity
  8
SK3
100
AcDbLine
 10
-30.003417969
 20
26.500030518
 30
0.0
 11
-48.399990821
 21
26.500030518
 31
0.0
  0
LINE
  5
6A
330
1D
100
AcDbEntity
  8
SK3
100
AcDbLine
 10
-48.399990821
 20
26.500030518
 30
0.0
 11
-49.899990821
 21
27.366023112
 31
0.0
  0
LINE
  5
6B
330
1D
100
AcDbEntity
  8
11
100
AcDbLine
 10
161.999984741
 20
13.999647187
 30
0.0
 11
177.999984741
 21
13.999647187
 31
0.0
  0
LINE
  5
6C
330
1D
100
AcDbEntity
  8
1
100
AcDbLine
 10
222.999969482
 20
30.75
 30
0.0
 11
221.999969482
 21
31.75
 31
0.0
  0
LINE
  5
6D
330
1D
100
AcDbEntity
  8
SK4
100
AcDbLine
 10
-55.071785892
 20
0.0
 30
0.0
 11
224.999969482
 21
0.0
 31
0.0
  0
LINE
  5
6E
330
1D
100
AcDbEntity
  8
3
100
AcDbLine
 10
148.499984741
 20
13.049647187
 30
0.0
 11
148.499984741
 21
-13.049647187
 31
0.0
  0
LINE
  5
6F
330
1D
100
AcDbEntity
  8
3
100
AcDbLine
 10
146.872414923
 20
-6.0
 30
0.0
 11
146.872414923
 21
6.0
 31
0.0
  0
LINE
  5
70
330
1D
100
AcDbEntity
  8
3
100
AcDbLine
 10
161.999984741
 20
13.999647187
 30
0.0
 11
161.999984741
 21
-13.999647187
 31
0.0
  0
LINE
  5
73
330
1D
100
AcDbEntity
  8
3
100
AcDbLine
 10
184.266940308
 20
-18.249647187
 30
0.0
 11
184.266940308
 21
18.249647187
 31
0.0
  0
LINE
  5
74
330
1D
100
AcDbEntity
  8
3
100
AcDbLine
 10
184.694340103
 20
-18.002897187
 30
0.0
 11
184.694340103
 21
18.002897187
 31
0.0
  0
LINE
  5
75
330
1D
100
AcDbEntity
  8
1
100
AcDbLine
 10
33.844357584
 20
31.35
 30
0.0
 11
36.95
 21
31.35
 31
0.0
  0
LINE
  5
76
330
1D
100
AcDbEntity
  8
1
100
AcDbLine
 10
36.95
 20
31.35
 30
0.0
 11
37.35
 21
31.75
 31
0.0
  0
LINE
  5
78
330
1D
100
AcDbEntity
  8
1
100
AcDbLine
 10
221.999969482
 20
31.75
 30
0.0
 11
37.35
 21
31.75
 31
0.0
  0
LINE
  5
7A
330
1D
100
AcDbEntity
  8
1
100
AcDbLine
 10
18.125046741
 20
-47.62245529
 30
0.0
 11
18.124969482
 21
47.622589111
 31
0.0
  0
LINE
  5
7B
330
1D
100
AcDbEntity
  8
1
100
AcDbLine
 10
18.124969482
 20
47.622589111
 30
0.0
 11
16.752410889
 21
50.0
 31
0.0
  0
LINE
  5
7C
330
1D
100
AcDbEntity
  8
1
100
AcDbLine
 10
16.752410889
 20
50.0
 30
0.0
 11
0.4
 21
50.0
 31
0.0
  0
LINE
  5
7D
330
1D
100
AcDbEntity
  8
1
100
AcDbLine
 10
0.4
 20
50.0
 30
0.0
 11
0.0
 21
49.6
 31
0.0
  0
LINE
  5
7F
330
1D
100
AcDbEntity
  8
SK3
100
AcDbLine
 10
-0.000003164
 20
26.875027458
 30
0.0
 11
-0.0000031645269871
 21
-26.87502745865912
 31
0.0
  0
LINE
  5
81
330
1D
100
AcDbEntity
  8
1
100
AcDbLine
 10
28.95
 20
49.6
 30
0.0
 11
28.55
 21
50.0
 31
0.0
  0
LINE
  5
82
330
1D
100
AcDbEntity
  8
1
100
AcDbLine
 10
28.55
 20
50.0
 30
0.0
 11
23.247589111
 21
50.0
 31
0.0
  0
LINE
  5
83
330
1D
100
AcDbEntity
  8
1
100
AcDbLine
 10
23.247589111
 20
50.0
 30
0.0
 11
21.875
 21
47.622589111
 31
0.0
  0
LINE
  5
84
330
1D
100
AcDbEntity
  8
1
100
AcDbLine
 10
21.875
 20
47.622589111
 30
0.0
 11
21.875
 21
-47.622589111
 31
0.0
  0
LINE
  5
85
330
1D
100
AcDbEntity
  8
3
100
AcDbLine
 10
13.5
 20
-11.250030518
 30
0.0
 11
13.5
 21
11.250030518
 31
0.0
  0
LINE
  5
87
330
1D
100
AcDbEntity
  8
11
100
AcDbLine
 10
12.75
 20
-12.000030518
 30
0.0
 11
26.25
 21
-12.000030518
 31
0.0
  0
LINE
  5
89
330
1D
100
AcDbEntity
  8
SK3
100
AcDbLine
 10
-27.116638184
 20
-31.31652832
 30
0.0
 11
-27.116638184
 21
31.31652832
 31
0.0
  0
LINE
  5
8A
330
1D
100
AcDbEntity
  8
SK3
100
AcDbLine
 10
-30.003417969
 20
-26.500030518
 30
0.0
 11
-30.003417969
 21
26.500030518
 31
0.0
  0
LINE
  5
8B
330
1D
100
AcDbEntity
  8
SK3
100
AcDbLine
 10
-48.399990821
 20
26.500030518
 30
0.0
 11
-48.399990821
 21
-26.500030518
 31
0.0
  0
ARC
  5
8D
330
1D
100
AcDbEntity
  8
SK1
100
AcDbCircle
 10
-1.600006104
 20
38.520050049
 30
0.0
 40
1.0
100
AcDbArc
 50
219.679244977
 51
270.0
  0
LINE
  5
8E
330
1D
100
AcDbEntity
  8
SK1
100
AcDbLine
 10
-1.600006104
 20
37.520019531
 30
0.0
 11
-0.600006104
 21
37.520019531
 31
0.0
  0
ARC
  5
8F
330
1D
100
AcDbEntity
  8
SK1
100
AcDbCircle
 10
-0.600006104
 20
38.520050049
 30
0.0
 40
1.000000043
100
AcDbArc
 50
270.0
 51
306.869723499
  0
LINE
  5
90
330
1D
100
AcDbEntity
  8
SK1
100
AcDbLine
 10
-2.369628906
 20
37.881530762
 30
0.0
 11
-48.000146581
 21
35.600020103
 31
0.0
  0
ARC
  5
91
330
1D
100
AcDbEntity
  8
SK1
100
AcDbCircle
 10
-47.900021338
 20
33.59753418
 30
0.0
 40
2.000008464
100
AcDbArc
 50
92.86243234400003
 51
180.0
  0
ARC
  5
93
330
1D
100
AcDbEntity
  8
1
100
AcDbCircle
 10
19.125
 20
47.000030518
 30
0.0
 40
1.0
100
AcDbArc
 50
180.0
 51
270.0
  0
LINE
  5
94
330
1D
100
AcDbEntity
  8
1
100
AcDbLine
 10
23.247589111
 20
50.0
 30
0.0
 11
23.247589111
 21
38.829711914
 31
0.0
  0
LINE
  5
95
330
1D
100
AcDbEntity
  8
1
100
AcDbLine
 10
16.752410889
 20
50.0
 30
0.0
 11
16.752410889
 21
38.829711914
 31
0.0
  0
ARC
  5
96
330
1D
100
AcDbEntity
  8
1
100
AcDbCircle
 10
20.875
 20
47.000030518
 30
0.0
 40
1.000000119
100
AcDbArc
 50
270.0
 51
0.0
  0
LINE
  5
97
330
1D
100
AcDbEntity
  8
1
100
AcDbLine
 10
19.125
 20
46.0
 30
0.0
 11
20.875
 21
46.0
 31
0.0
  0
ARC
  5
98
330
1D
100
AcDbEntity
  8
1
100
AcDbCircle
 10
14.636871338
 20
41.5
 30
0.0
 40
10.0
100
AcDbArc
 50
195.487525463
 51
270.0
  0
LINE
  5
99
330
1D
100
AcDbEntity
  8
1
100
AcDbLine
 10
28.95
 20
31.5
 30
0.0
 11
21.875
 21
31.5
 31
0.0
  0
LINE
  5
9A
330
1D
100
AcDbEntity
  8
1
100
AcDbLine
 10
28.95
 20
38.829711914
 30
0.0
 11
23.247589111
 21
38.829711914
 31
0.0
  0
LINE
  5
9B
330
1D
100
AcDbEntity
  8
1
100
AcDbLine
 10
16.752410889
 20
38.829711914
 30
0.0
 11
18.125
 21
36.452301025
 31
0.0
  0
LINE
  5
9C
330
1D
100
AcDbEntity
  8
1
100
AcDbLine
 10
23.247589111
 20
38.829711914
 30
0.0
 11
21.874969482
 21
36.452301025
 31
0.0
  0
LINE
  5
9D
330
1D
100
AcDbEntity
  8
1
100
AcDbLine
 10
16.752410889
 20
31.5
 30
0.0
 11
16.752410889
 21
-50.0
 31
0.0
  0
LINE
  5
9E
330
1D
100
AcDbEntity
  8
1
100
AcDbLine
 10
18.125
 20
31.5
 30
0.0
 11
14.636871338
 21
31.5
 31
0.0
  0
LINE
  5
9F
330
1D
100
AcDbEntity
  8
1
100
AcDbLine
 10
23.247589111
 20
31.5
 30
0.0
 11
23.247589111
 21
-50.0
 31
0.0
  0
LINE
  5
A0
330
1D
100
AcDbEntity
  8
1
100
AcDbLine
 10
16.752410889
 20
38.829711914
 30
0.0
 11
5.0
 21
38.829711914
 31
0.0
  0
ARC
  5
A2
330
1D
100
AcDbEntity
  8
1
100
AcDbCircle
 10
33.95
 20
36.35
 30
0.0
 40
5.0
100
AcDbArc
 50
180.0
 51
270.0
  0
LINE
  5
A3
330
1D
100
AcDbEntity
  8
3
100
AcDbLine
 10
222.572599714
 20
-18.002897187
 30
0.0
 11
184.694340103
 21
-18.002897187
 31
0.0
  0
LINE
  5
A4
330
1D
100
AcDbEntity
  8
3
100
AcDbLine
 10
184.694340103
 20
-18.002897187
 30
0.0
 11
184.266940308
 21
-18.249647187
 31
0.0
  0
LINE
  5
A5
330
1D
100
AcDbEntity
  8
3
100
AcDbLine
 10
184.266940308
 20
-18.249647187
 30
0.0
 11
180.999984741
 21
-18.249647187
 31
0.0
  0
LINE
  5
A6
330
1D
100
AcDbEntity
  8
3
100
AcDbLine
 10
180.999984741
 20
-18.249647187
 30
0.0
 11
180.999984741
 21
18.249647187
 31
0.0
  0
LINE
  5
A7
330
1D
100
AcDbEntity
  8
3
100
AcDbLine
 10
180.999984741
 20
-16.499647187
 30
0.0
 11
178.39994812
 21
-16.499677657
 31
0.0
  0
ARC
  5
A8
330
1D
100
AcDbEntity
  8
3
100
AcDbCircle
 10
178.39994812
 20
-16.099683808
 30
0.0
 40
0.399993849
100
AcDbArc
 50
179.995628279
 51
270.0
  0
LINE
  5
AA
330
1D
100
AcDbEntity
  8
3
100
AcDbLine
 10
177.999984741
 20
-13.049647187
 30
0.0
 11
148.499984741
 21
-13.049647187
 31
0.0
  0
LINE
  5
AB
330
1D
100
AcDbEntity
  8
3
100
AcDbLine
 10
148.499984741
 20
-13.049647187
 30
0.0
 11
146.872414923
 21
-6.0
 31
0.0
  0
LINE
  5
AC
330
1D
100
AcDbEntity
  8
3
100
AcDbLine
 10
146.872414923
 20
-6.0
 30
0.0
 11
28.5
 21
-6.0
 31
0.0
  0
LINE
  5
AD
330
1D
100
AcDbEntity
  8
3
100
AcDbLine
 10
28.5
 20
12.250030518
 30
0.0
 11
28.5
 21
-12.250030518
 31
0.0
  0
LINE
  5
AE
330
1D
100
AcDbEntity
  8
3
100
AcDbLine
 10
28.5
 20
-12.250030518
 30
0.0
 11
26.25
 21
-12.250030518
 31
0.0
  0
LINE
  5
AF
330
1D
100
AcDbEntity
  8
3
100
AcDbLine
 10
26.25
 20
-12.250030518
 30
0.0
 11
26.25
 21
12.250030518
 31
0.0
  0
LINE
  5
B0
330
1D
100
AcDbEntity
  8
3
100
AcDbLine
 10
26.25
 20
-11.250030518
 30
0.0
 11
13.5
 21
-11.250030518
 31
0.0
  0
LINE
  5
B1
330
1D
100
AcDbEntity
  8
3
100
AcDbLine
 10
13.5
 20
-11.250030518
 30
0.0
 11
12.5
 21
-12.250030518
 31
0.0
  0
LINE
  5
B2
330
1D
100
AcDbEntity
  8
3
100
AcDbLine
 10
12.5
 20
24.375030518
 30
0.0
 11
12.5
 21
-24.375030518
 31
0.0
  0
ARC
  5
B3
330
1D
100
AcDbEntity
  8
3
100
AcDbCircle
 10
10.0
 20
-24.375030518
 30
0.0
 40
2.5
100
AcDbArc
 50
270.0
 51
0.0
  0
LINE
  5
B4
330
1D
100
AcDbEntity
  8
3
100
AcDbLine
 10
10.0
 20
-26.875030518
 30
0.0
 11
0.0
 21
-26.87502745800098
 31
0.0
  0
ARC
  5
B5
330
1D
100
AcDbEntity
  8
SK3
100
AcDbCircle
 10
-9.4662323
 20
-19.500030518
 30
0.0
 40
12.00000308
100
AcDbArc
 50
270.0
 51
322.07837919
  0
LINE
  5
B6
330
1D
100
AcDbEntity
  8
SK3
100
AcDbLine
 10
-9.4662323
 20
-31.500030518
 30
0.0
 11
-26.539306734
 21
-31.500030577
 31
0.0
  0
ARC
  5
B7
330
1D
100
AcDbEntity
  8
SK3
100
AcDbCircle
 10
-26.539306641
 20
-30.500030518
 30
0.0
 40
1.00000006
100
AcDbArc
 50
209.999930436
 51
269.9999946359999
  0
LINE
  5
B8
330
1D
100
AcDbEntity
  8
SK3
100
AcDbLine
 10
-27.405334473
 20
-31.000030518
 30
0.0
 11
-30.003417969
 21
-26.500030518
 31
0.0
  0
LINE
  5
B9
330
1D
100
AcDbEntity
  8
SK3
100
AcDbLine
 10
-30.003417969
 20
-26.500030518
 30
0.0
 11
-48.399990821
 21
-26.500030518
 31
0.0
  0
LINE
  5
BA
330
1D
100
AcDbEntity
  8
SK3
100
AcDbLine
 10
-48.399990821
 20
-26.500030518
 30
0.0
 11
-49.899990821
 21
-27.366023112
 31
0.0
  0
LINE
  5
BB
330
1D
100
AcDbEntity
  8
11
100
AcDbLine
 10
161.999984741
 20
-13.999647187
 30
0.0
 11
177.999984741
 21
-13.999647187
 31
0.0
  0
LINE
  5
BC
330
1D
100
AcDbEntity
  8
SK4
100
AcDbLine
 10
206.950021362
 20
-6.484434952
 30
0.0
 11
206.950021362
 21
6.621945556
 31
0.0
  0
LINE
  5
BD
330
1D
100
AcDbEntity
  8
SK4
100
AcDbLine
 10
-10.000295063
 20
37.5
 30
0.0
 11
-10.000295063
 21
-37.5
 31
0.0
  0
LINE
  5
BE
330
1D
100
AcDbEntity
  8
SK6
100
AcDbLine
 10
-26.816344704
 20
-51.848591077
 30
0.0
 11
-26.816344704
 21
-53.918583137
 31
0.0
  0
ARC
  5
BF
330
1D
100
AcDbEntity
  8
SK6
100
AcDbCircle
 10
-29.696330514
 20
-54.998592597
 30
0.0
 40
1.08000004
100
AcDbArc
 50
90.00000763
 51
206.54360962
  0
LINE
  5
C0
330
1D
100
AcDbEntity
  8
SK6
100
AcDbLine
 10
-29.696330514
 20
-53.918613657
 30
0.0
 11
-26.816333264
 21
-53.918613657
 31
0.0
  0
ARC
  5
C1
330
1D
100
AcDbEntity
  8
SK6
100
AcDbCircle
 10
-30.866340134
 20
-54.548588017
 30
0.0
 40
2.70000005
100
AcDbArc
 50
90.00000763
 51
206.5436554
  0
ARC
  5
C2
330
1D
100
AcDbEntity
  8
SK6
100
AcDbCircle
 10
-30.146323654
 20
-64.448597177
 30
0.0
 40
1.08000004
100
AcDbArc
 50
270.0
 51
26.54360962
  0
LINE
  5
C3
330
1D
100
AcDbEntity
  8
SK6
100
AcDbLine
 10
-30.146323654
 20
-65.528599007
 30
0.0
 11
-33.566321824
 21
-65.528599007
 31
0.0
  0
LINE
  5
C4
330
1D
100
AcDbEntity
  8
SK6
100
AcDbLine
 10
-33.281741594
 20
-55.755161507
 30
0.0
 11
-29.180175274
 21
-63.965954047
 31
0.0
  0
ARC
  5
C5
330
1D
100
AcDbEntity
  8
SK6
100
AcDbCircle
 10
-28.976336924
 20
-64.898601757
 30
0.0
 40
2.70000005
100
AcDbArc
 50
270.0
 51
26.54364014
  0
LINE
  5
C6
330
1D
100
AcDbEntity
  8
SK6
100
AcDbLine
 10
-30.662497964
 20
-55.481220467
 30
0.0
 11
-26.560927834
 21
-63.692020637
 31
0.0
  0
LINE
  5
C7
330
1D
100
AcDbEntity
  8
SK6
100
AcDbLine
 10
-33.566344704
 20
-65.528599007
 30
0.0
 11
-33.566344704
 21
-67.598606327
 31
0.0
  0
LINE
  5
C8
330
1D
100
AcDbEntity
  8
SK6
100
AcDbLine
 10
-33.566344704
 20
-67.598606327
 30
0.0
 11
-28.976340744
 21
-67.598606327
 31
0.0
  0
LINE
  5
C9
330
1D
100
AcDbEntity
  8
SK6
100
AcDbLine
 10
-24.116340134
 20
-67.598606327
 30
0.0
 11
-24.116340134
 21
-51.848606327
 31
0.0
  0
LINE
  5
CA
330
1D
100
AcDbEntity
  8
SK6
100
AcDbLine
 10
-15.836333724
 20
-67.598606327
 30
0.0
 11
-15.836333724
 21
-51.848606327
 31
0.0
  0
LINE
  5
CB
330
1D
100
AcDbEntity
  8
SK6
100
AcDbLine
 10
-15.836333724
 20
-67.598606327
 30
0.0
 11
-13.136340584
 21
-67.598606327
 31
0.0
  0
LINE
  5
CC
330
1D
100
AcDbEntity
  8
SK6
100
AcDbLine
 10
-13.136340584
 20
-67.598606327
 30
0.0
 11
-13.136340584
 21
-60.758609997
 31
0.0
  0
ARC
  5
CD
330
1D
100
AcDbEntity
  8
SK6
100
AcDbCircle
 10
-11.786326854
 20
-61.838596567
 30
0.0
 40
1.08000004
100
AcDbArc
 50
0.0
 51
90.00000763
  0
LINE
  5
CE
330
1D
100
AcDbEntity
  8
SK6
100
AcDbLine
 10
-11.786326854
 20
-60.758594737
 30
0.0
 11
-13.136329144
 21
-60.758594737
 31
0.0
  0
ARC
  5
D0
330
1D
100
AcDbEntity
  8
SK6
100
AcDbCircle
 10
-5.576350664
 20
-66.068599927
 30
0.0
 40
2.51999998
100
AcDbArc
 50
180.0
 51
217.38319397
  0
ARC
  5
D1
330
1D
100
AcDbEntity
  8
SK6
100
AcDbCircle
 10
-8.186358904
 20
-66.068599927
 30
0.0
 40
2.51999998
100
AcDbArc
 50
180.0
 51
217.38319397
  0
LINE
  5
D2
330
1D
100
AcDbEntity
  8
SK6
100
AcDbLine
 10
-7.578746294
 20
-67.598606327
 30
0.0
 11
-10.188743084
 21
-67.598606327
 31
0.0
  0
LINE
  5
D3
330
1D
100
AcDbEntity
  8
SK6
100
AcDbLine
 10
-10.706347914
 20
-61.838611827
 30
0.0
 11
-10.706347914
 21
-66.068599927
 31
0.0
  0
ARC
  5
D4
330
1D
100
AcDbEntity
  8
SK6
100
AcDbCircle
 10
-10.616328684
 20
-62.018604497
 30
0.0
 40
2.51999998
100
AcDbArc
 50
358.70883179
 51
93.06652832
  0
ARC
  5
D5
330
1D
100
AcDbEntity
  8
SK6
100
AcDbCircle
 10
-10.886340584
 20
-56.978603587
 30
0.0
 40
2.51999998
100
AcDbArc
 50
273.06652832
 51
0.0
  0
ARC
  5
D6
330
1D
100
AcDbEntity
  8
SK6
100
AcDbCircle
 10
-10.886340584
 20
-54.368610607
 30
0.0
 40
2.51999998
100
AcDbArc
 50
0.0
 51
90.00000763
  0
LINE
  5
D7
330
1D
100
AcDbEntity
  8
SK6
100
AcDbLine
 10
-8.366328684
 20
-54.368610607
 30
0.0
 11
-8.366328684
 21
-56.978611217
 31
0.0
  0
ARC
  5
D8
330
1D
100
AcDbEntity
  8
SK6
100
AcDbCircle
 10
-11.516337844
 20
-54.818607557
 30
0.0
 40
0.90000004
100
AcDbArc
 50
0.0
 51
90.00000763
  0
LINE
  5
D9
330
1D
100
AcDbEntity
  8
SK6
100
AcDbLine
 10
-11.516337844
 20
-53.918613657
 30
0.0
 11
-13.136340584
 21
-53.918613657
 31
0.0
  0
ARC
  5
DA
330
1D
100
AcDbEntity
  8
SK6
100
AcDbCircle
 10
-11.516337844
 20
-57.698597177
 30
0.0
 40
0.90000004
100
AcDbArc
 50
270.0
 51
0.0
  0
LINE
  5
DB
330
1D
100
AcDbEntity
  8
SK6
100
AcDbLine
 10
-10.616328684
 20
-54.818607557
 30
0.0
 11
-10.616328684
 21
-57.698604807
 31
0.0
  0
LINE
  5
DC
330
1D
100
AcDbEntity
  8
SK6
100
AcDbLine
 10
-13.136340584
 20
-53.918613657
 30
0.0
 11
-13.136340584
 21
-58.598606327
 31
0.0
  0
LINE
  5
DD
330
1D
100
AcDbEntity
  8
SK6
100
AcDbLine
 10
-11.516337844
 20
-58.598606327
 30
0.0
 11
-13.136340584
 21
-58.598606327
 31
0.0
  0
LINE
  5
DE
330
1D
100
AcDbEntity
  8
SK6
100
AcDbLine
 10
-8.096980544
 20
-62.075390087
 30
0.0
 11
-8.096351114
 21
-66.069004277
 31
0.0
  0
LINE
  5
E0
330
1D
100
AcDbEntity
  8
SK6
100
AcDbLine
 10
-30.866340134
 20
-51.848591077
 30
0.0
 11
-26.816337084
 21
-51.848591077
 31
0.0
  0
LINE
  5
E1
330
1D
100
AcDbEntity
  8
SK6
100
AcDbLine
 10
-10.886340584
 20
-51.848591077
 30
0.0
 11
-15.836345164
 21
-51.848591077
 31
0.0
  0
LINE
  5
E2
330
1D
100
AcDbEntity
  8
SK6
100
AcDbLine
 10
-57.866340134
 20
-67.598606327
 30
0.0
 11
-60.656341044
 21
-67.598606327
 31
0.0
  0
LINE
  5
E3
330
1D
100
AcDbEntity
  8
SK6
100
AcDbLine
 10
-57.866340134
 20
-64.178608167
 30
0.0
 11
-57.866340134
 21
-67.598606327
 31
0.0
  0
LINE
  5
E4
330
1D
100
AcDbEntity
  8
SK6
100
AcDbLine
 10
-56.786338304
 20
-62.108600837
 30
0.0
 11
-57.866340134
 21
-64.178608167
 31
0.0
  0
LINE
  5
E5
330
1D
100
AcDbEntity
  8
SK6
100
AcDbLine
 10
-54.356345624
 20
-67.598606327
 30
0.0
 11
-56.786338304
 21
-62.108600837
 31
0.0
  0
LINE
  5
E6
330
1D
100
AcDbEntity
  8
SK6
100
AcDbLine
 10
-51.566344704
 20
-67.598606327
 30
0.0
 11
-54.356337994
 21
-67.598606327
 31
0.0
  0
LINE
  5
E7
330
1D
100
AcDbEntity
  8
SK6
100
AcDbLine
 10
-55.166350814
 20
-58.598606327
 30
0.0
 11
-51.566344704
 21
-67.598606327
 31
0.0
  0
LINE
  5
E8
330
1D
100
AcDbEntity
  8
SK6
100
AcDbLine
 10
-52.106345624
 20
-51.848606327
 30
0.0
 11
-55.166335554
 21
-58.598606327
 31
0.0
  0
LINE
  5
E9
330
1D
100
AcDbEntity
  8
SK6
100
AcDbLine
 10
-57.866340134
 20
-58.958614567
 30
0.0
 11
-54.896346544
 21
-51.848621587
 31
0.0
  0
LINE
  5
EA
330
1D
100
AcDbEntity
  8
SK6
100
AcDbLine
 10
-57.866340134
 20
-51.848606327
 30
0.0
 11
-57.866340134
 21
-58.958614567
 31
0.0
  0
LINE
  5
EB
330
1D
100
AcDbEntity
  8
SK6
100
AcDbLine
 10
-60.656341044
 20
-67.598606327
 30
0.0
 11
-60.656341044
 21
-51.848606327
 31
0.0
  0
LINE
  5
EC
330
1D
100
AcDbEntity
  8
SK6
100
AcDbLine
 10
-54.896346544
 20
-51.848606327
 30
0.0
 11
-52.106345624
 21
-51.848606327
 31
0.0
  0
LINE
  5
ED
330
1D
100
AcDbEntity
  8
SK6
100
AcDbLine
 10
-60.656341044
 20
-51.848606327
 30
0.0
 11
-57.866340134
 21
-51.848606327
 31
0.0
  0
LINE
  5
EE
330
1D
100
AcDbEntity
  8
SK6
100
AcDbLine
 10
-38.606334184
 20
-51.848606327
 30
0.0
 11
-38.606334184
 21
-67.598606327
 31
0.0
  0
LINE
  5
EF
330
1D
100
AcDbEntity
  8
SK6
100
AcDbLine
 10
-35.726336924
 20
-67.598606327
 30
0.0
 11
-35.726336924
 21
-51.848606327
 31
0.0
  0
LINE
  5
F0
330
1D
100
AcDbEntity
  8
SK6
100
AcDbLine
 10
-38.606334184
 20
-67.598606327
 30
0.0
 11
-35.726336924
 21
-67.598606327
 31
0.0
  0
LINE
  5
F1
330
1D
100
AcDbEntity
  8
SK6
100
AcDbLine
 10
-35.726336924
 20
-51.848606327
 30
0.0
 11
-38.606345624
 21
-51.848606327
 31
0.0
  0
LINE
  5
F2
330
1D
100
AcDbEntity
  8
SK6
100
AcDbLine
 10
-18.266337844
 20
-67.598606327
 30
0.0
 11
-18.266337844
 21
-65.528599007
 31
0.0
  0
LINE
  5
F3
330
1D
100
AcDbEntity
  8
SK6
100
AcDbLine
 10
-24.116340134
 20
-67.598606327
 30
0.0
 11
-18.266337844
 21
-67.598606327
 31
0.0
  0
LINE
  5
F4
330
1D
100
AcDbEntity
  8
SK6
100
AcDbLine
 10
-18.266349284
 20
-53.918598397
 30
0.0
 11
-18.266349284
 21
-51.848606327
 31
0.0
  0
LINE
  5
F5
330
1D
100
AcDbEntity
  8
SK6
100
AcDbLine
 10
-21.236365764
 20
-53.918598397
 30
0.0
 11
-18.266360734
 21
-53.918598397
 31
0.0
  0
LINE
  5
F6
330
1D
100
AcDbEntity
  8
SK6
100
AcDbLine
 10
-21.236365764
 20
-58.598606327
 30
0.0
 11
-21.236365764
 21
-53.918613657
 31
0.0
  0
LINE
  5
F7
330
1D
100
AcDbEntity
  8
SK6
100
AcDbLine
 10
-18.266349284
 20
-58.598606327
 30
0.0
 11
-21.236354324
 21
-58.598606327
 31
0.0
  0
LINE
  5
F8
330
1D
100
AcDbEntity
  8
SK6
100
AcDbLine
 10
-18.266349284
 20
-60.758587107
 30
0.0
 11
-18.266349284
 21
-58.598583447
 31
0.0
  0
LINE
  5
F9
330
1D
100
AcDbEntity
  8
SK6
100
AcDbLine
 10
-21.236365764
 20
-60.758587107
 30
0.0
 11
-18.266360734
 21
-60.758587107
 31
0.0
  0
LINE
  5
FA
330
1D
100
AcDbEntity
  8
SK6
100
AcDbLine
 10
-21.236365764
 20
-65.528599007
 30
0.0
 11
-21.236365764
 21
-60.758587107
 31
0.0
  0
LINE
  5
FB
330
1D
100
AcDbEntity
  8
SK6
100
AcDbLine
 10
-18.266349284
 20
-65.528599007
 30
0.0
 11
-21.236354324
 21
-65.528599007
 31
0.0
  0
LINE
  5
FC
330
1D
100
AcDbEntity
  8
SK6
100
AcDbLine
 10
-18.266349284
 20
-51.848606327
 30
0.0
 11
-24.116351574
 21
-51.848606327
 31
0.0
  0
LINE
  5
FD
330
1D
100
AcDbEntity
  8
SK6
100
AcDbLine
 10
-44.186339824
 20
-67.598606327
 30
0.0
 11
-50.486342874
 21
-67.598606327
 31
0.0
  0
LINE
  5
FE
330
1D
100
AcDbEntity
  8
SK6
100
AcDbLine
 10
-44.636329144
 20
-65.078594427
 30
0.0
 11
-44.186339824
 21
-67.598591077
 31
0.0
  0
LINE
  5
FF
330
1D
100
AcDbEntity
  8
SK6
100
AcDbLine
 10
-47.516349284
 20
-65.078594427
 30
0.0
 11
-44.636352034
 21
-65.078594427
 31
0.0
  0
LINE
  5
100
330
1D
100
AcDbEntity
  8
SK6
100
AcDbLine
 10
-45.986342874
 20
-55.718609077
 30
0.0
 11
-47.516341654
 21
-65.078617317
 31
0.0
  0
LINE
  5
101
330
1D
100
AcDbEntity
  8
SK6
100
AcDbLine
 10
-42.926345324
 20
-67.598606327
 30
0.0
 11
-45.986342874
 21
-55.718609077
 31
0.0
  0
LINE
  5
102
330
1D
100
AcDbEntity
  8
SK6
100
AcDbLine
 10
-39.956336474
 20
-67.598606327
 30
0.0
 11
-42.926330064
 21
-67.598606327
 31
0.0
  0
LINE
  5
103
330
1D
100
AcDbEntity
  8
SK6
100
AcDbLine
 10
-44.366340134
 20
-51.398601757
 30
0.0
 11
-39.956347914
 21
-67.598606327
 31
0.0
  0
LINE
  5
104
330
1D
100
AcDbEntity
  8
SK6
100
AcDbLine
 10
-47.426345324
 20
-51.398601757
 30
0.0
 11
-44.366347764
 21
-51.398601757
 31
0.0
  0
LINE
  5
105
330
1D
100
AcDbEntity
  8
SK6
100
AcDbLine
 10
-50.486342874
 20
-67.598606327
 30
0.0
 11
-47.426345324
 21
-51.398601757
 31
0.0
  0
LINE
  5
106
330
1D
100
AcDbEntity
  8
SK2
100
AcDbLine
 10
245.0
 20
-31.75
 30
0.0
 11
221.999969482
 21
-31.75
 31
0.0
  0
LINE
  5
107
330
1D
100
AcDbEntity
  8
SK2
100
AcDbLine
 10
243.0
 20
-31.75
 30
0.0
 11
242.55
 21
-28.25
 31
0.0
  0
LINE
  5
108
330
1D
100
AcDbEntity
  8
SK2
100
AcDbLine
 10
242.55
 20
-28.25
 30
0.0
 11
243.45
 21
-28.25
 31
0.0
  0
LINE
  5
109
330
1D
100
AcDbEntity
  8
SK2
100
AcDbLine
 10
243.45
 20
-28.25
 30
0.0
 11
243.0
 21
-31.75
 31
0.0
  0
LINE
  5
10A
330
1D
100
AcDbEntity
  8
SK2
100
AcDbLine
 10
245.0
 20
31.75
 30
0.0
 11
221.999969482
 21
31.75
 31
0.0
  0
LINE
  5
10B
330
1D
100
AcDbEntity
  8
SK2
100
AcDbLine
 10
243.0
 20
31.75
 30
0.0
 11
243.45
 21
28.25
 31
0.0
  0
LINE
  5
10C
330
1D
100
AcDbEntity
  8
SK2
100
AcDbLine
 10
243.45
 20
28.25
 30
0.0
 11
242.55
 21
28.25
 31
0.0
  0
LINE
  5
10D
330
1D
100
AcDbEntity
  8
SK2
100
AcDbLine
 10
242.55
 20
28.25
 30
0.0
 11
243.0
 21
31.75
 31
0.0
  0
LINE
  5
10E
330
1D
100
AcDbEntity
  8
SK2
100
AcDbLine
 10
243.0
 20
-28.25
 30
0.0
 11
243.0
 21
28.25
 31
0.0
  0
TEXT
  5
10F
330
1D
100
AcDbEntity
  8
SK2
100
AcDbText
 10
241.5
 20
-1.17250071
 30
0.0
 40
3.5
  1
63.5
 50
90.0
  7
BMG_Text
100
AcDbText
  0
CIRCLE
  5
110
330
1D
100
AcDbEntity
  8
SK2
100
AcDbCircle
 10
240.25
 20
-3.42250071
 30
0.0
 40
1.25
  0
LINE
  5
111
330
1D
100
AcDbEntity
  8
SK2
100
AcDbLine
 10
241.5
 20
-4.67250071
 30
0.0
 11
239.0
 21
-2.17250071
 31
0.0
  0
LINE
  5
112
330
1D
100
AcDbEntity
  8
SK2
100
AcDbLine
 10
237.000000303
 20
-18.002897187
 30
0.0
 11
222.572599714
 21
-18.002897187
 31
0.0
  0
LINE
  5
113
330
1D
100
AcDbEntity
  8
SK2
100
AcDbLine
 10
235.000000303
 20
-18.002897187
 30
0.0
 11
234.550000303
 21
-14.502897187
 31
0.0
  0
LINE
  5
114
330
1D
100
AcDbEntity
  8
SK2
100
AcDbLine
 10
234.550000303
 20
-14.502897187
 30
0.0
 11
235.450000303
 21
-14.502897187
 31
0.0
  0
LINE
  5
115
330
1D
100
AcDbEntity
  8
SK2
100
AcDbLine
 10
235.450000303
 20
-14.502897187
 30
0.0
 11
235.000000303
 21
-18.002897187
 31
0.0
  0
LINE
  5
116
330
1D
100
AcDbEntity
  8
SK2
100
AcDbLine
 10
237.000000303
 20
18.002897187
 30
0.0
 11
222.572599714
 21
18.002897187
 31
0.0
  0
LINE
  5
117
330
1D
100
AcDbEntity
  8
SK2
100
AcDbLine
 10
235.000000303
 20
18.002897187
 30
0.0
 11
235.450000303
 21
14.502897187
 31
0.0
  0
LINE
  5
118
330
1D
100
AcDbEntity
  8
SK2
100
AcDbLine
 10
235.450000303
 20
14.502897187
 30
0.0
 11
234.550000303
 21
14.502897187
 31
0.0
  0
LINE
  5
119
330
1D
100
AcDbEntity
  8
SK2
100
AcDbLine
 10
234.550000303
 20
14.502897187
 30
0.0
 11
235.000000303
 21
18.002897187
 31
0.0
  0
LINE
  5
11A
330
1D
100
AcDbEntity
  8
SK2
100
AcDbLine
 10
235.000000303
 20
-14.502897187
 30
0.0
 11
235.000000303
 21
14.502897187
 31
0.0
  0
TEXT
  5
11B
330
1D
100
AcDbEntity
  8
SK2
100
AcDbText
 10
233.500000303
 20
0.331405848
 30
0.0
 40
3.5
  1
36
 50
90.0
  7
BMG_Text
100
AcDbText
  0
CIRCLE
  5
11C
330
1D
100
AcDbEntity
  8
SK2
100
AcDbCircle
 10
232.250000303
 20
-1.918594152
 30
0.0
 40
1.25
  0
LINE
  5
11D
330
1D
100
AcDbEntity
  8
SK2
100
AcDbLine
 10
233.500000303
 20
-3.168594152
 30
0.0
 11
231.000000303
 21
-0.668594152
 31
0.0
  0
LINE
  5
11E
330
1D
100
AcDbEntity
  8
SK2
100
AcDbLine
 10
-62.000001331
 20
-37.5
 30
0.0
 11
-10.000295063
 21
-37.5
 31
0.0
  0
LINE
  5
11F
330
1D
100
AcDbEntity
  8
SK2
100
AcDbLine
 10
-60.000001331
 20
-37.5
 30
0.0
 11
-60.450001331
 21
-34.0
 31
0.0
  0
LINE
  5
120
330
1D
100
AcDbEntity
  8
SK2
100
AcDbLine
 10
-60.450001331
 20
-34.0
 30
0.0
 11
-59.550001331
 21
-34.0
 31
0.0
  0
LINE
  5
121
330
1D
100
AcDbEntity
  8
SK2
100
AcDbLine
 10
-59.550001331
 20
-34.0
 30
0.0
 11
-60.000001331
 21
-37.5
 31
0.0
  0
LINE
  5
122
330
1D
100
AcDbEntity
  8
SK2
100
AcDbLine
 10
-62.000001331
 20
37.5
 30
0.0
 11
-10.000295063
 21
37.5
 31
0.0
  0
LINE
  5
123
330
1D
100
AcDbEntity
  8
SK2
100
AcDbLine
 10
-60.000001331
 20
37.5
 30
0.0
 11
-59.550001331
 21
34.0
 31
0.0
  0
LINE
  5
124
330
1D
100
AcDbEntity
  8
SK2
100
AcDbLine
 10
-59.550001331
 20
34.0
 30
0.0
 11
-60.450001331
 21
34.0
 31
0.0
  0
LINE
  5
125
330
1D
100
AcDbEntity
  8
SK2
100
AcDbLine
 10
-60.450001331
 20
34.0
 30
0.0
 11
-60.000001331
 21
37.5
 31
0.0
  0
LINE
  5
126
330
1D
100
AcDbEntity
  8
SK2
100
AcDbLine
 10
-60.000001331
 20
-34.0
 30
0.0
 11
-60.000001331
 21
34.0
 31
0.0
  0
TEXT
  5
127
330
1D
100
AcDbEntity
  8
SK2
100
AcDbText
 10
-61.500001331
 20
0.194686662
 30
0.0
 40
3.5
  1
75
 50
90.0
  7
BMG_Text
100
AcDbText
  0
CIRCLE
  5
128
330
1D
100
AcDbEntity
  8
SK2
100
AcDbCircle
 10
-62.750001331
 20
-2.055313338
 30
0.0
 40
1.25
  0
LINE
  5
129
330
1D
100
AcDbEntity
  8
SK2
100
AcDbLine
 10
-61.500001331
 20
-3.305313338
 30
0.0
 11
-64.000001331
 21
-0.805313338
 31
0.0
  0
LINE
  5
12A
330
1D
100
AcDbEntity
  8
2
100
AcDbLine
 10
0.0
 20
-65.999999619
 30
0.0
 11
0.0
 21
-49.6
 31
0.0
  0
LINE
  5
12B
330
1D
100
AcDbEntity
  8
2
100
AcDbLine
 10
0.0
 20
-63.999999619
 30
0.0
 11
3.50000001
 21
-63.549999695
 31
0.0
  0
LINE
  5
12C
330
1D
100
AcDbEntity
  8
2
100
AcDbLine
 10
3.50000001
 20
-63.549999695
 30
0.0
 11
3.49999999
 21
-64.449999695
 31
0.0
  0
LINE
  5
12D
330
1D
100
AcDbEntity
  8
2
100
AcDbLine
 10
3.49999999
 20
-64.449999695
 30
0.0
 11
0.0
 21
-63.999999619
 31
0.0
  0
LINE
  5
12F
330
1D
100
AcDbEntity
  8
2
100
AcDbLine
 10
34.0
 20
-64.000000358
 30
0.0
 11
30.49999999
 21
-64.450000282
 31
0.0
  0
LINE
  5
130
330
1D
100
AcDbEntity
  8
2
100
AcDbLine
 10
30.49999999
 20
-64.450000282
 30
0.0
 11
30.50000001
 21
-63.550000282
 31
0.0
  0
LINE
  5
131
330
1D
100
AcDbEntity
  8
2
100
AcDbLine
 10
30.50000001
 20
-63.550000282
 30
0.0
 11
34.0
 21
-64.000000358
 31
0.0
  0
LINE
  5
132
330
1D
100
AcDbEntity
  8
2
100
AcDbLine
 10
3.5
 20
-63.999999695
 30
0.0
 11
30.5
 21
-64.000000282
 31
0.0
  0
TEXT
  5
133
330
1D
100
AcDbEntity
  8
2
100
AcDbText
 10
15.526718403
 20
-62.499999956
 30
0.0
 40
3.5
  1
34
 50
359.999998754
  7
BMG_Text
100
AcDbText
  0
LINE
  5
134
330
1D
100
AcDbEntity
  8
2
100
AcDbLine
 10
34.0
 20
-66.000000358
 30
0.0
 11
34.0
 21
-42.335276008
 31
0.0
  0
LINE
  5
135
330
1D
100
AcDbEntity
  8
2
100
AcDbLine
 10
34.0
 20
-64.000000358
 30
0.0
 11
37.5
 21
-63.550000358
 31
0.0
  0
LINE
  5
136
330
1D
100
AcDbEntity
  8
2
100
AcDbLine
 10
37.5
 20
-63.550000358
 30
0.0
 11
37.5
 21
-64.450000358
 31
0.0
  0
LINE
  5
137
330
1D
100
AcDbEntity
  8
2
100
AcDbLine
 10
37.5
 20
-64.450000358
 30
0.0
 11
34.0
 21
-64.000000358
 31
0.0
  0
LINE
  5
138
330
1D
100
AcDbEntity
  8
2
100
AcDbLine
 10
37.5
 20
-64.000000358
 30
0.0
 11
241.89996643
 21
-64.000000358
 31
0.0
  0
TEXT
  5
139
330
1D
100
AcDbEntity
  8
2
100
AcDbText
 10
123.953262142
 20
-62.500000358
 30
0.0
 40
3.5
  1
Ausdrehtiefe 260
  7
BMG_Text
100
AcDbText
  0
LINE
  5
13A
330
1D
100
AcDbEntity
  8
1
100
AcDbLine
 10
209.950021362
 20
1.732050808
 30
0.0
 11
206.950021362
 21
3.464101615
 31
0.0
  0
LINE
  5
13B
330
1D
100
AcDbEntity
  8
1
100
AcDbLine
 10
206.950021362
 20
3.464101615
 30
0.0
 11
203.950021362
 21
1.732050808
 31
0.0
  0
LINE
  5
13C
330
1D
100
AcDbEntity
  8
1
100
AcDbLine
 10
203.950021362
 20
1.732050808
 30
0.0
 11
203.950021362
 21
-1.732050808
 31
0.0
  0
LINE
  5
13D
330
1D
100
AcDbEntity
  8
1
100
AcDbLine
 10
203.950021362
 20
-1.732050808
 30
0.0
 11
206.950021362
 21
-3.464101615
 31
0.0
  0
LINE
  5
13E
330
1D
100
AcDbEntity
  8
1
100
AcDbLine
 10
206.950021362
 20
-3.464101615
 30
0.0
 11
209.950021362
 21
-1.732050808
 31
0.0
  0
LINE
  5
13F
330
1D
100
AcDbEntity
  8
1
100
AcDbLine
 10
209.950021362
 20
-1.732050808
 30
0.0
 11
209.950021362
 21
1.732050808
 31
0.0
  0
CIRCLE
  5
140
330
1D
100
AcDbEntity
  8
1
100
AcDbCircle
 10
206.950021362
 20
0.0
 30
0.0
 40
6.0
  0
TEXT
  5
141
330
1D
100
AcDbEntity
  8
SK6
100
AcDbText
 10
195.5313359893039
 20
-29.371682035
 30
0.0
 40
3.5
  1
324.566N
  7
BMG_Text
100
AcDbText
  0
LINE
  5
142
330
1D
100
AcDbEntity
  8
2
100
AcDbLine
 10
0.0
 20
60.321858025
 30
0.0
 11
0.0
 21
49.6
 31
0.0
  0
LINE
  5
143
330
1D
100
AcDbEntity
  8
2
100
AcDbLine
 10
0.0
 20
58.321858025
 30
0.0
 11
3.500000001
 21
58.771858016
 31
0.0
  0
LINE
  5
144
330
1D
100
AcDbEntity
  8
2
100
AcDbLine
 10
3.500000001
 20
58.771858016
 30
0.0
 11
3.499999999
 21
57.871858016
 31
0.0
  0
LINE
  5
145
330
1D
100
AcDbEntity
  8
2
100
AcDbLine
 10
3.499999999
 20
57.871858016
 30
0.0
 11
0.0
 21
58.321858025
 31
0.0
  0
LINE
  5
146
330
1D
100
AcDbEntity
  8
2
100
AcDbLine
 10
222.999969482
 20
60.321857452
 30
0.0
 11
222.999969482
 21
30.75
 31
0.0
  0
LINE
  5
147
330
1D
100
AcDbEntity
  8
2
100
AcDbLine
 10
222.999969482
 20
58.321857452
 30
0.0
 11
219.499969481
 21
57.871857461
 31
0.0
  0
LINE
  5
148
330
1D
100
AcDbEntity
  8
2
100
AcDbLine
 10
219.499969481
 20
57.871857461
 30
0.0
 11
219.499969483
 21
58.771857461
 31
0.0
  0
LINE
  5
149
330
1D
100
AcDbEntity
  8
2
100
AcDbLine
 10
219.499969483
 20
58.771857461
 30
0.0
 11
222.999969482
 21
58.321857452
 31
0.0
  0
LINE
  5
14A
330
1D
100
AcDbEntity
  8
2
100
AcDbLine
 10
3.5
 20
58.321858016
 30
0.0
 11
219.499969482
 21
58.321857461
 31
0.0
  0
TEXT
  5
14B
330
1D
100
AcDbEntity
  8
2
100
AcDbText
 10
108.905607253
 20
59.821857745
 30
0.0
 40
3.5
  1
223
 50
359.999999853
  7
BMG_Text
100
AcDbText
  0
LINE
  5
1ED
330
1D
100
AcDbEntity
  8
NOCUT
100
AcDbLine
 10
0.0
 20
49.6
 30
0.0
 11
0.4
 21
50.0
 31
0.0
  0
LINE
  5
1EE
330
1D
100
AcDbEntity
  8
NOCUT
100
AcDbLine
 10
0.4
 20
50.0
 30
0.0
 11
16.752410889
 21
50.0
 31
0.0
  0
LINE
  5
1EF
330
1D
100
AcDbEntity
  8
NOCUT
100
AcDbLine
 10
16.752410889
 20
50.0
 30
0.0
 11
18.124969482
 21
47.622589111
 31
0.0
  0
LINE
  5
1F0
330
1D
100
AcDbEntity
  8
NOCUT
100
AcDbLine
 10
18.124969482
 20
47.622589111
 30
0.0
 11
18.124969482
 21
46.9296328448592
 31
0.0
  0
LINE
  5
1F1
330
1D
100
AcDbEntity
  8
NOCUT
100
AcDbLine
 10
19.125
 20
46.000030518
 30
0.0
 11
20.90977203026969
 21
46.000030518
 31
0.0
  0
LINE
  5
1F2
330
1D
100
AcDbEntity
  8
NOCUT
100
AcDbLine
 10
21.875000119
 20
47.000030518
 30
0.0
 11
21.875000119
 21
47.64349678635039
 31
0.0
  0
LINE
  5
1F3
330
1D
100
AcDbEntity
  8
NOCUT
100
AcDbLine
 10
21.875000119
 20
47.64349678635039
 30
0.0
 11
23.247589111
 21
50.0
 31
0.0
  0
LINE
  5
1F4
330
1D
100
AcDbEntity
  8
NOCUT
100
AcDbLine
 10
23.247589111
 20
50.0
 30
0.0
 11
28.55
 21
50.0
 31
0.0
  0
LINE
  5
1F5
330
1D
100
AcDbEntity
  8
NOCUT
100
AcDbLine
 10
28.55
 20
50.0
 30
0.0
 11
28.95
 21
49.6
 31
0.0
  0
LINE
  5
1F6
330
1D
100
AcDbEntity
  8
NOCUT
100
AcDbLine
 10
28.95
 20
49.6
 30
0.0
 11
28.95
 21
36.35
 31
0.0
  0
LINE
  5
1F7
330
1D
100
AcDbEntity
  8
NOCUT
100
AcDbLine
 10
33.844357584
 20
31.35
 30
0.0
 11
36.95
 21
31.35
 31
0.0
  0
LINE
  5
1F8
330
1D
100
AcDbEntity
  8
NOCUT
100
AcDbLine
 10
36.95
 20
31.35
 30
0.0
 11
37.35
 21
31.75
 31
0.0
  0
LINE
  5
1F9
330
1D
100
AcDbEntity
  8
NOCUT
100
AcDbLine
 10
37.35
 20
31.75
 30
0.0
 11
221.999969482
 21
31.75
 31
0.0
  0
LINE
  5
1FA
330
1D
100
AcDbEntity
  8
NOCUT
100
AcDbLine
 10
221.999969482
 20
31.75
 30
0.0
 11
222.999969482
 21
30.75
 31
0.0
  0
LINE
  5
1FB
330
1D
100
AcDbEntity
  8
NOCUT
100
AcDbLine
 10
222.999969482
 20
30.75
 30
0.0
 11
222.999969482
 21
0.0
 31
0.0
  0
LINE
  5
1FC
330
1D
100
AcDbEntity
  8
NOCUT
100
AcDbLine
 10
222.999969482
 20
0.0
 30
0.0
 11
0.0
 21
0.0
 31
0.0
  0
ARC
  5
1FD
330
1D
100
AcDbEntity
  8
NOCUT
100
AcDbCircle
 10
19.125
 20
47.00003051800001
 30
0.0
 40
1.000000000000005
100
AcDbArc
 50
180.0000000000004
 51
269.9999999999998
  0
ARC
  5
1FE
330
1D
100
AcDbEntity
  8
NOCUT
100
AcDbCircle
 10
20.875
 20
47.000030518
 30
0.0
 40
1.000000118999995
100
AcDbArc
 50
269.9999999999998
 51
0.0000000000004071
  0
ARC
  5
204
330
1D
100
AcDbEntity
  8
NOCUT
100
AcDbCircle
 10
33.95
 20
36.35
 30
0.0
 40
5.0
100
AcDbArc
 50
180.0
 51
270.0
  0
LWPOLYLINE
  5
21D
330
1D
100
AcDbEntity
  8
INFTOTAL
100
AcDbPolyline
 90
        4
 70
     1
 43
0.0
 10
-87.81139266684312
 20
98.18337640110961
 10
-87.81139266684312
 20
-77.38864428896834
 10
269.5607102580623
 20
-77.38864428896834
 10
269.5607102580623
 20
98.18337640110961
  0
LINE
  5
257
330
1D
100
AcDbEntity
  8
4
100
AcDbLine
 10
224.999969482
 20
0.0
 30
0.0
 11
0.0
 21
0.0
 31
0.0
  0
LINE
  5
258
330
1D
100
AcDbEntity
  8
4
100
AcDbLine
 10
206.950021362
 20
6.621945556
 30
0.0
 11
206.950021362
 21
-6.484434952
 31
0.0
  0
LINE
  5
25F
330
1D
100
AcDbEntity
  8
3
100
AcDbLine
 10
177.9999542721644
 20
16.09965328809919
 30
0.0
 11
177.9999542721644
 21
-16.09965328809919
 31
0.0
  0
LINE
  5
27E
330
1D
100
AcDbEntity
  8
SK3
100
AcDbLine
 10
0.0
 20
26.87502745800096
 30
0.0
 11
-0.000003164
 21
26.875027458
 31
0.0
  0
LINE
  5
27F
330
1D
100
AcDbEntity
  8
SK3
100
AcDbLine
 10
0.0
 20
-26.87502745800098
 30
0.0
 11
-0.000003164
 21
-26.875027458
 31
0.0
  0
LINE
  5
291
330
1D
100
AcDbEntity
  8
SK1
100
AcDbLine
 10
-0.0000085097515247
 20
37.72004819094213
 30
0.0
 11
-0.000008509751524
 21
-37.72004819094213
 31
0.0
  0
LINE
  5
2A0
330
1D
100
AcDbEntity
  8
NOCUT
100
AcDbLine
 10
0.0
 20
49.6
 30
0.0
 11
0.0
 21
0.0
 31
0.0
  0
ENDSEC
  0
SECTION
  2
OBJECTS
  0
DICTIONARY
  5
C
330
0
100
AcDbDictionary
281
     1
  3
ACAD_COLOR
350
242
  3
ACAD_DETAILVIEWSTYLE
350
202
  3
ACAD_GROUP
350
D
  3
ACAD_LAYOUT
350
1A
  3
ACAD_MATERIAL
350
189
  3
ACAD_MLEADERSTYLE
350
196
  3
ACAD_MLINESTYLE
350
17
  3
ACAD_PLOTSETTINGS
350
19
  3
ACAD_PLOTSTYLENAME
350
E
  3
ACAD_SCALELIST
350
152
  3
ACAD_SECTIONVIEWSTYLE
350
203
  3
ACAD_TABLESTYLE
350
1DF
  3
ACAD_VISUALSTYLE
350
178
  3
ACDB_RECOMPOSE_DATA
350
2A8
  3
AcDbVariableDictionary
350
194
  3
APPDATA
350
1E2
  0
SUN
  5
234
330
14C
100
AcDbSun
 90
        1
290
     0
 63
     7
421
 16777215
 40
1.0
291
     1
 91
  2455826
 92
 54000000
292
     0
 70
     2
 71
   256
280
     1
  0
DICTIONARY
  5
1E3
330
2
100
AcDbDictionary
280
     1
281
     1
  3
ACAD_LAYERSTATES
360
1E4
  0
DICTIONARY
  5
242
102
{ACAD_REACTORS
330
C
102
}
330
C
100
AcDbDictionary
281
     1
  0
DICTIONARY
  5
202
102
{ACAD_REACTORS
330
C
102
}
330
C
100
AcDbDictionary
281
     1
  0
DICTIONARY
  5
D
102
{ACAD_REACTORS
330
C
102
}
330
C
100
AcDbDictionary
281
     1
  0
DICTIONARY
  5
1A
102
{ACAD_REACTORS
330
C
102
}
330
C
100
AcDbDictionary
281
     1
  3
Layout1
350
1C
  3
Model
350
1E
  0
DICTIONARY
  5
189
102
{ACAD_REACTORS
330
C
102
}
330
C
100
AcDbDictionary
281
     1
  3
ByBlock
350
18B
  3
ByLayer
350
18A
  3
Global
350
18C
  0
DICTIONARY
  5
196
102
{ACAD_REACTORS
330
C
102
}
330
C
100
AcDbDictionary
281
     1
  3
Standard
350
1E1
  0
DICTIONARY
  5
17
102
{ACAD_REACTORS
330
C
102
}
330
C
100
AcDbDictionary
281
     1
  3
Standard
350
18
  0
DICTIONARY
  5
19
102
{ACAD_REACTORS
330
C
102
}
330
C
100
AcDbDictionary
281
     1
  0
ACDBDICTIONARYWDFLT
  5
E
102
{ACAD_REACTORS
330
C
102
}
330
C
100
AcDbDictionary
281
     1
  3
Normal
350
F
100
AcDbDictionaryWithDefault
340
F
  0
DICTIONARY
  5
152
102
{ACAD_REACTORS
330
C
102
}
330
C
100
AcDbDictionary
281
     1
  3
A0
350
153
  3
A1
350
154
  3
A2
350
155
  3
A3
350
156
  3
A4
350
157
  3
A5
350
158
  3
A6
350
159
  3
A7
350
15A
  3
A8
350
15B
  3
A9
350
15C
  3
B0
350
15D
  3
B1
350
15E
  3
B2
350
15F
  3
B3
350
160
  3
B4
350
161
  3
B5
350
162
  3
B6
350
163
  3
B7
350
164
  3
B8
350
165
  3
B9
350
166
  3
C0
350
167
  3
C1
350
168
  3
C2
350
169
  3
C3
350
16A
  3
C4
350
16B
  3
C5
350
16C
  3
C6
350
16D
  3
C7
350
16E
  3
C8
350
16F
  3
C9
350
170
  3
D0
350
171
  3
D1
350
172
  3
D2
350
173
  0
DICTIONARY
  5
203
102
{ACAD_REACTORS
330
C
102
}
330
C
100
AcDbDictionary
281
     1
  0
DICTIONARY
  5
1DF
102
{ACAD_REACTORS
330
C
102
}
330
C
100
AcDbDictionary
281
     1
  3
Standard
350
1E0
  0
DICTIONARY
  5
178
102
{ACAD_REACTORS
330
C
102
}
330
C
100
AcDbDictionary
281
     1
  3
2dWireframe
350
17D
  3
3D Hidden
350
17F
  3
3dWireframe
350
17E
  3
Basic
350
180
  3
Brighten
350
184
  3
ColorChange
350
188
  3
Conceptual
350
182
  3
Dim
350
183
  3
EdgeColorOff
350
1D9
  3
Facepattern
350
187
  3
Flat
350
179
  3
FlatWithEdges
350
17A
  3
Gouraud
350
17B
  3
GouraudWithEdges
350
17C
  3
Hidden
350
1D6
  3
JitterOff
350
1D7
  3
Linepattern
350
186
  3
OverhangOff
350
1D8
  3
Realistic
350
181
  3
Shaded
350
1DE
  3
Shaded with edges
350
1DD
  3
Shades of Gray
350
1DA
  3
Sketchy
350
1DB
  3
Thicken
350
185
  3
Wireframe
350
1D5
  3
X-Ray
350
1DC
  0
XRECORD
  5
2A8
102
{ACAD_REACTORS
330
C
102
}
330
C
100
AcDbXrecord
280
     1
 90
        1
330
1E0
  0
DICTIONARY
  5
194
102
{ACAD_REACTORS
330
C
102
}
330
C
100
AcDbDictionary
281
     1
  3
CANNOSCALE
350
1FF
  3
CMLEADERSTYLE
350
201
  3
CTABLESTYLE
350
200
  3
DIMASSOC
350
198
  3
HIDETEXT
350
199
  3
MSLTSCALE
350
197
  0
DICTIONARY
  5
1E2
102
{ACAD_REACTORS
330
C
102
}
330
C
100
AcDbDictionary
281
     1
  0
DICTIONARY
  5
1E4
102
{ACAD_REACTORS
330
1E3
102
}
330
1E3
100
AcDbDictionary
281
     1
  0
LAYOUT
  5
1C
102
{ACAD_REACTORS
330
1A
102
}
330
1A
100
AcDbPlotSettings
  1

  2
none_device
  4

  6

 40
0.0
 41
0.0
 42
0.0
 43
0.0
 44
0.0
 45
0.0
 46
0.0
 47
0.0
 48
0.0
 49
0.0
140
0.0
141
0.0
142
1.0
143
1.0
 70
   688
 72
     0
 73
     0
 74
     5
  7

 75
    16
 76
     0
 77
     2
 78
   300
147
1.0
148
0.0
149
0.0
100
AcDbLayout
  1
Layout1
 70
     1
 71
     1
 10
0.0
 20
0.0
 11
12.0
 21
9.0
 12
0.0
 22
0.0
 32
0.0
 14
1.000000000000000E+20
 24
1.000000000000000E+20
 34
1.000000000000000E+20
 15
-1.000000000000000E+20
 25
-1.000000000000000E+20
 35
-1.000000000000000E+20
146
0.0
 13
0.0
 23
0.0
 33
0.0
 16
1.0
 26
0.0
 36
0.0
 17
0.0
 27
1.0
 37
0.0
 76
     0
330
1B
  0
LAYOUT
  5
1E
102
{ACAD_REACTORS
330
1A
102
}
330
1A
100
AcDbPlotSettings
  1

  2
none_device
  4

  6

 40
0.0
 41
0.0
 42
0.0
 43
0.0
 44
0.0
 45
0.0
 46
0.0
 47
0.0
 48
0.0
 49
0.0
140
0.0
141
0.0
142
1.0
143
1.0
 70
  1712
 72
     0
 73
     0
 74
     0
  7

 75
     0
 76
     0
 77
     2
 78
   300
147
1.0
148
0.0
149
0.0
100
AcDbLayout
  1
Model
 70
     1
 71
     0
 10
0.0
 20
0.0
 11
12.0
 21
9.0
 12
0.0
 22
0.0
 32
0.0
 14
-87.81139266684312
 24
-77.38864428896834
 34
0.0
 15
269.5607102580623
 25
98.18337640110961
 35
0.0
146
0.0
 13
0.0
 23
0.0
 33
0.0
 16
1.0
 26
0.0
 36
0.0
 17
0.0
 27
1.0
 37
0.0
 76
     0
330
1D
331
14C
  0
MATERIAL
  5
18B
102
{ACAD_REACTORS
330
189
102
}
330
189
100
AcDbMaterial
  1
ByBlock
 72
     1
 94
      127
  0
MATERIAL
  5
18A
102
{ACAD_REACTORS
330
189
102
}
330
189
100
AcDbMaterial
  1
ByLayer
 72
     1
 94
      127
  0
MATERIAL
  5
18C
102
{ACAD_REACTORS
330
189
102
}
330
189
100
AcDbMaterial
  1
Global
 72
     1
 94
      127
  0
MLEADERSTYLE
  5
1E1
102
{ACAD_REACTORS
330
196
102
}
330
196
100
AcDbMLeaderStyle
179
     2
170
     2
171
     1
172
     0
 90
        2
 40
0.0
 41
0.0
173
     1
 91
-1056964608
340
14
 92
       -2
290
     1
 42
0.09
291
     1
 43
0.36
  3
Standard
341
0
 44
0.18
300

342
11
174
     1
178
     1
175
     1
176
     0
 93
-1056964608
 45
0.18
292
     0
297
     0
 46
0.18
343
0
 94
-1056964608
 47
1.0
 49
1.0
140
1.0
293
     1
141
0.0
294
     1
177
     0
142
1.0
295
     0
296
     0
143
0.125
271
     0
272
     9
273
     9
298
     0
  0
MLINESTYLE
  5
18
102
{ACAD_REACTORS
330
17
102
}
330
17
100
AcDbMlineStyle
  2
Standard
 70
     0
  3

 62
   256
 51
90.0
 52
90.0
 71
     2
 49
0.5
 62
   256
  6
BYLAYER
 49
-0.5
 62
   256
  6
BYLAYER
  0
ACDBPLACEHOLDER
  5
F
102
{ACAD_REACTORS
330
E
102
}
330
E
  0
SCALE
  5
153
102
{ACAD_REACTORS
330
152
102
}
330
152
100
AcDbScale
 70
     0
300
1:1
140
1.0
141
1.0
290
     1
  0
SCALE
  5
154
102
{ACAD_REACTORS
330
152
102
}
330
152
100
AcDbScale
 70
     0
300
1:2
140
1.0
141
2.0
290
     0
  0
SCALE
  5
155
102
{ACAD_REACTORS
330
152
102
}
330
152
100
AcDbScale
 70
     0
300
1:4
140
1.0
141
4.0
290
     0
  0
SCALE
  5
156
102
{ACAD_REACTORS
330
152
102
}
330
152
100
AcDbScale
 70
     0
300
1:5
140
1.0
141
5.0
290
     0
  0
SCALE
  5
157
102
{ACAD_REACTORS
330
152
102
}
330
152
100
AcDbScale
 70
     0
300
1:8
140
1.0
141
8.0
290
     0
  0
SCALE
  5
158
102
{ACAD_REACTORS
330
152
102
}
330
152
100
AcDbScale
 70
     0
300
1:10
140
1.0
141
10.0
290
     0
  0
SCALE
  5
159
102
{ACAD_REACTORS
330
152
102
}
330
152
100
AcDbScale
 70
     0
300
1:16
140
1.0
141
16.0
290
     0
  0
SCALE
  5
15A
102
{ACAD_REACTORS
330
152
102
}
330
152
100
AcDbScale
 70
     0
300
1:20
140
1.0
141
20.0
290
     0
  0
SCALE
  5
15B
102
{ACAD_REACTORS
330
152
102
}
330
152
100
AcDbScale
 70
     0
300
1:30
140
1.0
141
30.0
290
     0
  0
SCALE
  5
15C
102
{ACAD_REACTORS
330
152
102
}
330
152
100
AcDbScale
 70
     0
300
1:40
140
1.0
141
40.0
290
     0
  0
SCALE
  5
15D
102
{ACAD_REACTORS
330
152
102
}
330
152
100
AcDbScale
 70
     0
300
1:50
140
1.0
141
50.0
290
     0
  0
SCALE
  5
15E
102
{ACAD_REACTORS
330
152
102
}
330
152
100
AcDbScale
 70
     0
300
1:100
140
1.0
141
100.0
290
     0
  0
SCALE
  5
15F
102
{ACAD_REACTORS
330
152
102
}
330
152
100
AcDbScale
 70
     0
300
2:1
140
2.0
141
1.0
290
     0
  0
SCALE
  5
160
102
{ACAD_REACTORS
330
152
102
}
330
152
100
AcDbScale
 70
     0
300
4:1
140
4.0
141
1.0
290
     0
  0
SCALE
  5
161
102
{ACAD_REACTORS
330
152
102
}
330
152
100
AcDbScale
 70
     0
300
8:1
140
8.0
141
1.0
290
     0
  0
SCALE
  5
162
102
{ACAD_REACTORS
330
152
102
}
330
152
100
AcDbScale
 70
     0
300
10:1
140
10.0
141
1.0
290
     0
  0
SCALE
  5
163
102
{ACAD_REACTORS
330
152
102
}
330
152
100
AcDbScale
 70
     0
300
100:1
140
100.0
141
1.0
290
     0
  0
SCALE
  5
164
102
{ACAD_REACTORS
330
152
102
}
330
152
100
AcDbScale
 70
     0
300
1/128" = 1'-0"
140
0.0078125
141
12.0
290
     0
  0
SCALE
  5
165
102
{ACAD_REACTORS
330
152
102
}
330
152
100
AcDbScale
 70
     0
300
1/64" = 1'-0"
140
0.015625
141
12.0
290
     0
  0
SCALE
  5
166
102
{ACAD_REACTORS
330
152
102
}
330
152
100
AcDbScale
 70
     0
300
1/32" = 1'-0"
140
0.03125
141
12.0
290
     0
  0
SCALE
  5
167
102
{ACAD_REACTORS
330
152
102
}
330
152
100
AcDbScale
 70
     0
300
1/16" = 1'-0"
140
0.0625
141
12.0
290
     0
  0
SCALE
  5
168
102
{ACAD_REACTORS
330
152
102
}
330
152
100
AcDbScale
 70
     0
300
3/32" = 1'-0"
140
0.09375
141
12.0
290
     0
  0
SCALE
  5
169
102
{ACAD_REACTORS
330
152
102
}
330
152
100
AcDbScale
 70
     0
300
1/8" = 1'-0"
140
0.125
141
12.0
290
     0
  0
SCALE
  5
16A
102
{ACAD_REACTORS
330
152
102
}
330
152
100
AcDbScale
 70
     0
300
3/16" = 1'-0"
140
0.1875
141
12.0
290
     0
  0
SCALE
  5
16B
102
{ACAD_REACTORS
330
152
102
}
330
152
100
AcDbScale
 70
     0
300
1/4" = 1'-0"
140
0.25
141
12.0
290
     0
  0
SCALE
  5
16C
102
{ACAD_REACTORS
330
152
102
}
330
152
100
AcDbScale
 70
     0
300
3/8" = 1'-0"
140
0.375
141
12.0
290
     0
  0
SCALE
  5
16D
102
{ACAD_REACTORS
330
152
102
}
330
152
100
AcDbScale
 70
     0
300
1/2" = 1'-0"
140
0.5
141
12.0
290
     0
  0
SCALE
  5
16E
102
{ACAD_REACTORS
330
152
102
}
330
152
100
AcDbScale
 70
     0
300
3/4" = 1'-0"
140
0.75
141
12.0
290
     0
  0
SCALE
  5
16F
102
{ACAD_REACTORS
330
152
102
}
330
152
100
AcDbScale
 70
     0
300
1" = 1'-0"
140
1.0
141
12.0
290
     0
  0
SCALE
  5
170
102
{ACAD_REACTORS
330
152
102
}
330
152
100
AcDbScale
 70
     0
300
1-1/2" = 1'-0"
140
1.5
141
12.0
290
     0
  0
SCALE
  5
171
102
{ACAD_REACTORS
330
152
102
}
330
152
100
AcDbScale
 70
     0
300
3" = 1'-0"
140
3.0
141
12.0
290
     0
  0
SCALE
  5
172
102
{ACAD_REACTORS
330
152
102
}
330
152
100
AcDbScale
 70
     0
300
6" = 1'-0"
140
6.0
141
12.0
290
     0
  0
SCALE
  5
173
102
{ACAD_REACTORS
330
152
102
}
330
152
100
AcDbScale
 70
     0
300
1'-0" = 1'-0"
140
12.0
141
12.0
290
     0
  0
TABLESTYLE
  5
1E0
102
{ACAD_REACTORS
330
1DF
102
}
102
{ACAD_XDICTIONARY
360
2A6
102
}
330
1DF
100
AcDbTableStyle
  3
Standard
 70
     0
 71
     0
 40
0.06
 41
0.06
280
     0
281
     0
  7
Standard
140
0.18
170
     2
 62
     0
 63
   257
283
     0
 90
        4
 91
        0
  1

274
    -2
284
     1
 64
     0
275
    -2
285
     1
 65
     0
276
    -2
286
     1
 66
     0
277
    -2
287
     1
 67
     0
278
    -2
288
     1
 68
     0
279
    -2
289
     1
 69
     0
  7
Standard
140
0.25
170
     5
 62
     0
 63
   257
283
     0
 90
        4
 91
        0
  1

274
    -2
284
     1
 64
     0
275
    -2
285
     1
 65
     0
276
    -2
286
     1
 66
     0
277
    -2
287
     1
 67
     0
278
    -2
288
     1
 68
     0
279
    -2
289
     1
 69
     0
  7
Standard
140
0.18
170
     5
 62
     0
 63
   257
283
     0
 90
        4
 91
        0
  1

274
    -2
284
     1
 64
     0
275
    -2
285
     1
 65
     0
276
    -2
286
     1
 66
     0
277
    -2
287
     1
 67
     0
278
    -2
288
     1
 68
     0
279
    -2
289
     1
 69
     0
  0
VISUALSTYLE
  5
17D
102
{ACAD_REACTORS
330
178
102
}
330
178
100
AcDbVisualStyle
  2
2dWireframe
 70
     4
177
     3
291
     0
 70
    58
 90
        0
176
     1
 90
        2
176
     1
 90
        0
176
     1
 90
        0
176
     1
 40
-0.6
176
     1
 40
-30.0
176
     1
 62
     7
176
     1
 90
        1
176
     1
 90
        4
176
     1
 62
     7
176
     1
 62
   257
176
     1
 90
        1
176
     1
 90
        1
176
     1
 40
1.0
176
     1
 90
        0
176
     1
 62
   257
176
     1
 40
1.0
176
     1
 90
        1
176
     1
 90
        6
176
     1
 90
        2
176
     1
 62
     7
176
     1
 90
        5
176
     1
 90
        0
176
     1
 90
        0
176
     1
290
     0
176
     1
 90
        1
176
     1
 40
0.0
176
     1
 90
        0
176
     1
290
     1
176
     1
290
     1
176
     1
290
     0
176
     1
290
     0
176
     1
290
     0
176
     1
290
     0
176
     1
290
     0
176
     1
290
     0
176
     1
290
     0
176
     1
 90
       50
176
     1
 40
0.0
176
     1
 40
1.0
176
     1
 90
        0
176
     1
 62
    18
420
        0
176
     1
 90
       50
176
     1
 90
        3
176
     1
 62
     5
420
      255
176
     1
290
     0
176
     1
 90
       50
176
     1
 90
       50
176
     1
 90
       50
176
     1
290
     0
176
     1
 90
       50
176
     1
 62
   256
176
     0
 40
1.0
176
     0
 90
        2
176
     1
  1
strokes_ogs.tif
176
     1
290
     0
176
     1
 40
1.0
176
     1
 40
1.0
176
     1
  0
VISUALSTYLE
  5
17F
102
{ACAD_REACTORS
330
178
102
}
330
178
100
AcDbVisualStyle
  2
3D Hidden
 70
     6
177
     3
291
     0
 70
    58
 90
        1
176
     1
 90
        2
176
     1
 90
        2
176
     1
 90
        0
176
     1
 40
-0.6
176
     1
 40
-30.0
176
     1
 62
     7
176
     1
 90
        2
176
     1
 90
        2
176
     1
 62
     7
176
     1
 62
   257
176
     1
 90
        2
176
     1
 90
        1
176
     1
 40
40.0
176
     1
 90
        0
176
     1
 62
   257
176
     1
 40
1.0
176
     1
 90
        1
176
     1
 90
        6
176
     1
 90
        2
176
     1
 62
     7
176
     1
 90
        3
176
     1
 90
        0
176
     1
 90
        0
176
     1
290
     0
176
     1
 90
        1
176
     1
 40
0.0
176
     1
 90
        0
176
     1
290
     0
176
     1
290
     1
176
     1
290
     1
176
     1
290
     0
176
     1
290
     0
176
     1
290
     0
176
     1
290
     0
176
     1
290
     0
176
     1
290
     0
176
     1
 90
       50
176
     1
 40
0.0
176
     1
 40
1.0
176
     1
 90
        0
176
     1
 62
    18
420
        0
176
     1
 90
       50
176
     1
 90
        3
176
     1
 62
     5
420
      255
176
     1
290
     0
176
     1
 90
       50
176
     1
 90
       50
176
     1
 90
       50
176
     1
290
     0
176
     1
 90
       50
176
     1
 62
   256
176
     0
 40
1.0
176
     0
 90
        2
176
     1
  1
strokes_ogs.tif
176
     1
290
     0
176
     1
 40
1.0
176
     1
 40
1.0
176
     1
  0
VISUALSTYLE
  5
17E
102
{ACAD_REACTORS
330
178
102
}
330
178
100
AcDbVisualStyle
  2
3dWireframe
 70
     5
177
     3
291
     0
 70
    58
 90
        0
176
     1
 90
        2
176
     1
 90
        0
176
     1
 90
        0
176
     1
 40
-0.6
176
     1
 40
-30.0
176
     1
 62
     7
176
     1
 90
        1
176
     1
 90
        4
176
     1
 62
     7
176
     1
 62
   257
176
     1
 90
        1
176
     1
 90
        1
176
     1
 40
1.0
176
     1
 90
        0
176
     1
 62
   257
176
     1
 40
1.0
176
     1
 90
        1
176
     1
 90
        6
176
     1
 90
        2
176
     1
 62
     7
176
     1
 90
        5
176
     1
 90
        0
176
     1
 90
        0
176
     1
290
     0
176
     1
 90
        1
176
     1
 40
0.0
176
     1
 90
        0
176
     1
290
     0
176
     1
290
     1
176
     1
290
     1
176
     1
290
     0
176
     1
290
     0
176
     1
290
     0
176
     1
290
     0
176
     1
290
     0
176
     1
290
     0
176
     1
 90
       50
176
     1
 40
0.0
176
     1
 40
1.0
176
     1
 90
        0
176
     1
 62
    18
420
        0
176
     1
 90
       50
176
     1
 90
        3
176
     1
 62
     5
420
      255
176
     1
290
     0
176
     1
 90
       50
176
     1
 90
       50
176
     1
 90
       50
176
     1
290
     0
176
     1
 90
       50
176
     1
 62
   256
176
     0
 40
1.0
176
     0
 90
        2
176
     1
  1
strokes_ogs.tif
176
     1
290
     0
176
     1
 40
1.0
176
     1
 40
1.0
176
     1
  0
VISUALSTYLE
  5
180
102
{ACAD_REACTORS
330
178
102
}
330
178
100
AcDbVisualStyle
  2
Basic
 70
     7
177
     3
291
     1
 70
    58
 90
        1
176
     1
 90
        0
176
     1
 90
        1
176
     1
 90
        0
176
     1
 40
-0.6
176
     1
 40
-30.0
176
     1
 62
     7
176
     1
 90
        0
176
     1
 90
        4
176
     1
 62
     7
176
     1
 62
   257
176
     1
 90
        1
176
     1
 90
        1
176
     1
 40
1.0
176
     1
 90
        8
176
     1
 62
     7
176
     1
 40
1.0
176
     1
 90
        1
176
     1
 90
        6
176
     1
 90
        2
176
     1
 62
     7
176
     1
 90
        5
176
     1
 90
        0
176
     1
 90
        0
176
     1
290
     0
176
     1
 90
        1
176
     1
 40
0.0
176
     1
 90
        0
176
     1
290
     0
176
     1
290
     1
176
     1
290
     1
176
     1
290
     0
176
     1
290
     0
176
     1
290
     0
176
     1
290
     0
176
     1
290
     0
176
     1
290
     0
176
     1
 90
       50
176
     1
 40
0.0
176
     1
 40
1.0
176
     1
 90
        0
176
     1
 62
    18
420
        0
176
     1
 90
       50
176
     1
 90
        3
176
     1
 62
     5
420
      255
176
     1
290
     0
176
     1
 90
       50
176
     1
 90
       50
176
     1
 90
       50
176
     1
290
     0
176
     1
 90
       50
176
     1
 62
   256
176
     0
 40
1.0
176
     0
 90
        2
176
     1
  1
strokes_ogs.tif
176
     1
290
     0
176
     1
 40
1.0
176
     1
 40
1.0
176
     1
  0
VISUALSTYLE
  5
184
102
{ACAD_REACTORS
330
178
102
}
330
178
100
AcDbVisualStyle
  2
Brighten
 70
    12
177
     3
291
     1
 70
    58
 90
        2
176
     1
 90
        2
176
     1
 90
        0
176
     1
 90
        0
176
     1
 40
-0.6
176
     1
 40
-30.0
176
     1
 62
     7
176
     1
 90
        1
176
     1
 90
        4
176
     1
 62
     7
176
     1
 62
   257
176
     1
 90
        1
176
     1
 90
        1
176
     1
 40
1.0
176
     1
 90
        8
176
     1
 62
     7
176
     1
 40
1.0
176
     1
 90
        1
176
     1
 90
        6
176
     1
 90
        2
176
     1
 62
     7
176
     1
 90
        5
176
     1
 90
        0
176
     1
 90
        0
176
     1
290
     0
176
     1
 90
        1
176
     1
 40
50.0
176
     1
 90
        0
176
     1
290
     0
176
     1
290
     1
176
     1
290
     1
176
     1
290
     0
176
     1
290
     0
176
     1
290
     0
176
     1
290
     0
176
     1
290
     0
176
     1
290
     0
176
     1
 90
       50
176
     1
 40
0.0
176
     1
 40
1.0
176
     1
 90
        0
176
     1
 62
    18
420
        0
176
     1
 90
       50
176
     1
 90
        3
176
     1
 62
     5
420
      255
176
     1
290
     0
176
     1
 90
       50
176
     1
 90
       50
176
     1
 90
       50
176
     1
290
     0
176
     1
 90
       50
176
     1
 62
   256
176
     0
 40
1.0
176
     0
 90
        2
176
     1
  1
strokes_ogs.tif
176
     1
290
     0
176
     1
 40
1.0
176
     1
 40
1.0
176
     1
  0
VISUALSTYLE
  5
188
102
{ACAD_REACTORS
330
178
102
}
330
178
100
AcDbVisualStyle
  2
ColorChange
 70
    16
177
     3
291
     1
 70
    58
 90
        2
176
     1
 90
        2
176
     1
 90
        3
176
     1
 90
        0
176
     1
 40
-0.6
176
     1
 40
-30.0
176
     1
 62
     8
176
     1
 90
        1
176
     1
 90
        4
176
     1
 62
     7
176
     1
 62
   257
176
     1
 90
        1
176
     1
 90
        1
176
     1
 40
1.0
176
     1
 90
        8
176
     1
 62
     8
176
     1
 40
1.0
176
     1
 90
        1
176
     1
 90
        6
176
     1
 90
        2
176
     1
 62
     7
176
     1
 90
        5
176
     1
 90
        0
176
     1
 90
        0
176
     1
290
     0
176
     1
 90
        1
176
     1
 40
0.0
176
     1
 90
        0
176
     1
290
     0
176
     1
290
     1
176
     1
290
     1
176
     1
290
     0
176
     1
290
     0
176
     1
290
     0
176
     1
290
     0
176
     1
290
     0
176
     1
290
     0
176
     1
 90
       50
176
     1
 40
0.0
176
     1
 40
1.0
176
     1
 90
        0
176
     1
 62
    18
420
        0
176
     1
 90
       50
176
     1
 90
        3
176
     1
 62
     5
420
      255
176
     1
290
     0
176
     1
 90
       50
176
     1
 90
       50
176
     1
 90
       50
176
     1
290
     0
176
     1
 90
       50
176
     1
 62
   256
176
     0
 40
1.0
176
     0
 90
        2
176
     1
  1
strokes_ogs.tif
176
     1
290
     0
176
     1
 40
1.0
176
     1
 40
1.0
176
     1
  0
VISUALSTYLE
  5
182
102
{ACAD_REACTORS
330
178
102
}
330
178
100
AcDbVisualStyle
  2
Conceptual
 70
     9
177
     3
291
     0
 70
    58
 90
        3
176
     1
 90
        2
176
     1
 90
        0
176
     1
 90
        0
176
     1
 40
-0.6
176
     1
 40
-30.0
176
     1
 62
     7
176
     1
 90
        2
176
     1
 90
        2
176
     1
 62
     7
176
     1
 62
   257
176
     1
 90
        1
176
     1
 90
        1
176
     1
 40
40.0
176
     1
 90
        8
176
     1
 62
     7
176
     1
 40
1.0
176
     1
 90
        1
176
     1
 90
        6
176
     1
 90
        2
176
     1
 62
     7
176
     1
 90
        3
176
     1
 90
        0
176
     1
 90
        0
176
     1
290
     0
176
     1
 90
        1
176
     1
 40
0.0
176
     1
 90
        0
176
     1
290
     0
176
     1
290
     1
176
     1
290
     1
176
     1
290
     0
176
     1
290
     0
176
     1
290
     0
176
     1
290
     0
176
     1
290
     0
176
     1
290
     0
176
     1
 90
       50
176
     1
 40
0.0
176
     1
 40
1.0
176
     1
 90
        0
176
     1
 62
    18
420
        0
176
     1
 90
       50
176
     1
 90
        3
176
     1
 62
     5
420
      255
176
     1
290
     0
176
     1
 90
       50
176
     1
 90
       50
176
     1
 90
       50
176
     1
290
     0
176
     1
 90
       50
176
     1
 62
   256
176
     0
 40
1.0
176
     0
 90
        2
176
     1
  1
strokes_ogs.tif
176
     1
290
     0
176
     1
 40
1.0
176
     1
 40
1.0
176
     1
  0
VISUALSTYLE
  5
183
102
{ACAD_REACTORS
330
178
102
}
330
178
100
AcDbVisualStyle
  2
Dim
 70
    11
177
     3
291
     1
 70
    58
 90
        2
176
     1
 90
        2
176
     1
 90
        0
176
     1
 90
        0
176
     1
 40
-0.6
176
     1
 40
-30.0
176
     1
 62
     7
176
     1
 90
        1
176
     1
 90
        4
176
     1
 62
     7
176
     1
 62
   257
176
     1
 90
        1
176
     1
 90
        1
176
     1
 40
1.0
176
     1
 90
        8
176
     1
 62
     7
176
     1
 40
1.0
176
     1
 90
        1
176
     1
 90
        6
176
     1
 90
        2
176
     1
 62
     7
176
     1
 90
        5
176
     1
 90
        0
176
     1
 90
        0
176
     1
290
     0
176
     1
 90
        1
176
     1
 40
-50.0
176
     1
 90
        0
176
     1
290
     0
176
     1
290
     1
176
     1
290
     1
176
     1
290
     0
176
     1
290
     0
176
     1
290
     0
176
     1
290
     0
176
     1
290
     0
176
     1
290
     0
176
     1
 90
       50
176
     1
 40
0.0
176
     1
 40
1.0
176
     1
 90
        0
176
     1
 62
    18
420
        0
176
     1
 90
       50
176
     1
 90
        3
176
     1
 62
     5
420
      255
176
     1
290
     0
176
     1
 90
       50
176
     1
 90
       50
176
     1
 90
       50
176
     1
290
     0
176
     1
 90
       50
176
     1
 62
   256
176
     0
 40
1.0
176
     0
 90
        2
176
     1
  1
strokes_ogs.tif
176
     1
290
     0
176
     1
 40
1.0
176
     1
 40
1.0
176
     1
  0
VISUALSTYLE
  5
1D9
102
{ACAD_REACTORS
330
178
102
}
330
178
100
AcDbVisualStyle
  2
EdgeColorOff
 70
    22
177
     3
291
     1
 70
    58
 90
        2
176
     0
 90
        2
176
     0
 90
        0
176
     0
 90
        0
176
     0
 40
0.6
176
     0
 40
30.0
176
     0
 62
     7
420
 16777215
176
     0
 90
        1
176
     0
 90
        4
176
     0
 62
     7
176
     0
 62
   257
176
     0
 90
        1
176
     0
 90
        1
176
     0
 40
1.0
176
     0
 90
        8
176
     2
 62
     7
176
     0
 40
1.0
176
     0
 90
        1
176
     0
 90
        6
176
     0
 90
        2
176
     0
 62
     7
176
     0
 90
        5
176
     0
 90
        0
176
     0
 90
        0
176
     0
290
     0
176
     0
 90
        1
176
     0
 40
0.0
176
     0
 90
        0
176
     0
290
     0
176
     0
290
     1
176
     0
290
     1
176
     0
290
     0
176
     0
290
     0
176
     0
290
     0
176
     0
290
     0
176
     0
290
     0
176
     0
290
     0
176
     0
 90
       50
176
     0
 40
0.0
176
     0
 40
1.0
176
     0
 90
        0
176
     0
 62
    18
420
        0
176
     0
 90
       50
176
     0
 90
        3
176
     0
 62
     5
420
      255
176
     0
290
     0
176
     0
 90
       50
176
     0
 90
       50
176
     0
 90
       50
176
     0
290
     0
176
     0
 90
       50
176
     0
 62
   256
176
     0
 40
1.0
176
     0
 90
        2
176
     0
  1
strokes_ogs.tif
176
     0
290
     0
176
     0
 40
1.0
176
     0
 40
1.0
176
     0
  0
VISUALSTYLE
  5
187
102
{ACAD_REACTORS
330
178
102
}
330
178
100
AcDbVisualStyle
  2
Facepattern
 70
    15
177
     3
291
     1
 70
    58
 90
        2
176
     1
 90
        2
176
     1
 90
        0
176
     1
 90
        0
176
     1
 40
-0.6
176
     1
 40
-30.0
176
     1
 62
     7
176
     1
 90
        1
176
     1
 90
        4
176
     1
 62
     7
176
     1
 62
   257
176
     1
 90
        1
176
     1
 90
        1
176
     1
 40
1.0
176
     1
 90
        8
176
     1
 62
     7
176
     1
 40
1.0
176
     1
 90
        1
176
     1
 90
        6
176
     1
 90
        2
176
     1
 62
     7
176
     1
 90
        5
176
     1
 90
        0
176
     1
 90
        0
176
     1
290
     0
176
     1
 90
        1
176
     1
 40
0.0
176
     1
 90
        0
176
     1
290
     0
176
     1
290
     1
176
     1
290
     1
176
     1
290
     0
176
     1
290
     0
176
     1
290
     0
176
     1
290
     0
176
     1
290
     0
176
     1
290
     0
176
     1
 90
       50
176
     1
 40
0.0
176
     1
 40
1.0
176
     1
 90
        0
176
     1
 62
    18
420
        0
176
     1
 90
       50
176
     1
 90
        3
176
     1
 62
     5
420
      255
176
     1
290
     0
176
     1
 90
       50
176
     1
 90
       50
176
     1
 90
       50
176
     1
290
     0
176
     1
 90
       50
176
     1
 62
   256
176
     0
 40
1.0
176
     0
 90
        2
176
     1
  1
strokes_ogs.tif
176
     1
290
     0
176
     1
 40
1.0
176
     1
 40
1.0
176
     1
  0
VISUALSTYLE
  5
179
102
{ACAD_REACTORS
330
178
102
}
330
178
100
AcDbVisualStyle
  2
Flat
 70
     0
177
     3
291
     1
 70
    58
 90
        2
176
     1
 90
        1
176
     1
 90
        1
176
     1
 90
        2
176
     1
 40
-0.6
176
     1
 40
30.0
176
     1
 62
     7
176
     1
 90
        0
176
     1
 90
        4
176
     1
 62
     7
176
     1
 62
   257
176
     1
 90
        1
176
     1
 90
        1
176
     1
 40
1.0
176
     1
 90
        8
176
     1
 62
     7
176
     1
 40
1.0
176
     1
 90
        1
176
     1
 90
        6
176
     1
 90
        2
176
     1
 62
     7
176
     1
 90
        5
176
     1
 90
        0
176
     1
 90
        0
176
     1
290
     0
176
     1
 90
       13
176
     1
 40
0.0
176
     1
 90
        0
176
     1
290
     0
176
     1
290
     1
176
     1
290
     1
176
     1
290
     0
176
     1
290
     0
176
     1
290
     0
176
     1
290
     0
176
     1
290
     0
176
     1
290
     0
176
     1
 90
       50
176
     1
 40
0.0
176
     1
 40
1.0
176
     1
 90
        0
176
     1
 62
    18
420
        0
176
     1
 90
       50
176
     1
 90
        3
176
     1
 62
     5
420
      255
176
     1
290
     0
176
     1
 90
       50
176
     1
 90
       50
176
     1
 90
       50
176
     1
290
     0
176
     1
 90
       50
176
     1
 62
   256
176
     0
 40
1.0
176
     0
 90
        2
176
     1
  1
strokes_ogs.tif
176
     1
290
     0
176
     1
 40
1.0
176
     1
 40
1.0
176
     1
  0
VISUALSTYLE
  5
17A
102
{ACAD_REACTORS
330
178
102
}
330
178
100
AcDbVisualStyle
  2
FlatWithEdges
 70
     1
177
     3
291
     1
 70
    58
 90
        2
176
     1
 90
        1
176
     1
 90
        1
176
     1
 90
        2
176
     1
 40
-0.6
176
     1
 40
30.0
176
     1
 62
     7
176
     1
 90
        1
176
     1
 90
        4
176
     1
 62
     7
176
     1
 62
   257
176
     1
 90
        1
176
     1
 90
        1
176
     1
 40
1.0
176
     1
 90
        0
176
     1
 62
   257
176
     1
 40
1.0
176
     1
 90
        1
176
     1
 90
        6
176
     1
 90
        2
176
     1
 62
     7
176
     1
 90
        5
176
     1
 90
        0
176
     1
 90
        0
176
     1
290
     0
176
     1
 90
       13
176
     1
 40
0.0
176
     1
 90
        0
176
     1
290
     0
176
     1
290
     1
176
     1
290
     1
176
     1
290
     0
176
     1
290
     0
176
     1
290
     0
176
     1
290
     0
176
     1
290
     0
176
     1
290
     0
176
     1
 90
       50
176
     1
 40
0.0
176
     1
 40
1.0
176
     1
 90
        0
176
     1
 62
    18
420
        0
176
     1
 90
       50
176
     1
 90
        3
176
     1
 62
     5
420
      255
176
     1
290
     0
176
     1
 90
       50
176
     1
 90
       50
176
     1
 90
       50
176
     1
290
     0
176
     1
 90
       50
176
     1
 62
   256
176
     0
 40
1.0
176
     0
 90
        2
176
     1
  1
strokes_ogs.tif
176
     1
290
     0
176
     1
 40
1.0
176
     1
 40
1.0
176
     1
  0
VISUALSTYLE
  5
17B
102
{ACAD_REACTORS
330
178
102
}
330
178
100
AcDbVisualStyle
  2
Gouraud
 70
     2
177
     3
291
     1
 70
    58
 90
        2
176
     1
 90
        2
176
     1
 90
        1
176
     1
 90
        2
176
     1
 40
-0.6
176
     1
 40
30.0
176
     1
 62
     7
176
     1
 90
        0
176
     1
 90
        4
176
     1
 62
     7
176
     1
 62
   257
176
     1
 90
        1
176
     1
 90
        1
176
     1
 40
1.0
176
     1
 90
        0
176
     1
 62
     7
176
     1
 40
1.0
176
     1
 90
        1
176
     1
 90
        6
176
     1
 90
        2
176
     1
 62
     7
176
     1
 90
        5
176
     1
 90
        0
176
     1
 90
        0
176
     1
290
     0
176
     1
 90
       13
176
     1
 40
0.0
176
     1
 90
        0
176
     1
290
     0
176
     1
290
     1
176
     1
290
     1
176
     1
290
     0
176
     1
290
     0
176
     1
290
     0
176
     1
290
     0
176
     1
290
     0
176
     1
290
     0
176
     1
 90
       50
176
     1
 40
0.0
176
     1
 40
1.0
176
     1
 90
        0
176
     1
 62
    18
420
        0
176
     1
 90
       50
176
     1
 90
        3
176
     1
 62
     5
420
      255
176
     1
290
     0
176
     1
 90
       50
176
     1
 90
       50
176
     1
 90
       50
176
     1
290
     0
176
     1
 90
       50
176
     1
 62
   256
176
     0
 40
1.0
176
     0
 90
        2
176
     1
  1
strokes_ogs.tif
176
     1
290
     0
176
     1
 40
1.0
176
     1
 40
1.0
176
     1
  0
VISUALSTYLE
  5
17C
102
{ACAD_REACTORS
330
178
102
}
330
178
100
AcDbVisualStyle
  2
GouraudWithEdges
 70
     3
177
     3
291
     1
 70
    58
 90
        2
176
     1
 90
        2
176
     1
 90
        1
176
     1
 90
        2
176
     1
 40
-0.6
176
     1
 40
30.0
176
     1
 62
     7
176
     1
 90
        1
176
     1
 90
        4
176
     1
 62
     7
176
     1
 62
   257
176
     1
 90
        1
176
     1
 90
        1
176
     1
 40
1.0
176
     1
 90
        0
176
     1
 62
   257
176
     1
 40
1.0
176
     1
 90
        1
176
     1
 90
        6
176
     1
 90
        2
176
     1
 62
     7
176
     1
 90
        5
176
     1
 90
        0
176
     1
 90
        0
176
     1
290
     0
176
     1
 90
       13
176
     1
 40
0.0
176
     1
 90
        0
176
     1
290
     0
176
     1
290
     1
176
     1
290
     1
176
     1
290
     0
176
     1
290
     0
176
     1
290
     0
176
     1
290
     0
176
     1
290
     0
176
     1
290
     0
176
     1
 90
       50
176
     1
 40
0.0
176
     1
 40
1.0
176
     1
 90
        0
176
     1
 62
    18
420
        0
176
     1
 90
       50
176
     1
 90
        3
176
     1
 62
     5
420
      255
176
     1
290
     0
176
     1
 90
       50
176
     1
 90
       50
176
     1
 90
       50
176
     1
290
     0
176
     1
 90
       50
176
     1
 62
   256
176
     0
 40
1.0
176
     0
 90
        2
176
     1
  1
strokes_ogs.tif
176
     1
290
     0
176
     1
 40
1.0
176
     1
 40
1.0
176
     1
  0
VISUALSTYLE
  5
1D6
102
{ACAD_REACTORS
330
178
102
}
330
178
100
AcDbVisualStyle
  2
Hidden
 70
     6
177
     3
291
     0
 70
    58
 90
        1
176
     1
 90
        2
176
     1
 90
        2
176
     1
 90
        0
176
     1
 40
0.6
176
     1
 40
30.0
176
     1
 62
     7
420
 16777215
176
     1
 90
        2
176
     1
 90
        2
176
     1
 62
     7
176
     1
 62
   257
176
     1
 90
        2
176
     1
 90
        1
176
     1
 40
40.0
176
     1
 90
        0
176
     1
 62
   257
176
     1
 40
1.0
176
     1
 90
        1
176
     1
 90
        6
176
     1
 90
        2
176
     1
 62
     7
176
     1
 90
        3
176
     1
 90
        0
176
     1
 90
        0
176
     1
290
     0
176
     1
 90
        1
176
     1
 40
0.0
176
     1
 90
        0
176
     1
290
     0
176
     1
290
     1
176
     1
290
     1
176
     1
290
     0
176
     1
290
     0
176
     1
290
     0
176
     1
290
     0
176
     1
290
     0
176
     1
290
     0
176
     1
 90
       50
176
     1
 40
0.0
176
     1
 40
1.0
176
     1
 90
        0
176
     1
 62
    18
420
        0
176
     1
 90
       50
176
     1
 90
        3
176
     1
 62
     5
420
      255
176
     1
290
     0
176
     1
 90
       50
176
     1
 90
       50
176
     1
 90
       50
176
     1
290
     0
176
     1
 90
       50
176
     1
 62
   256
176
     0
 40
1.0
176
     0
 90
        2
176
     1
  1
strokes_ogs.tif
176
     1
290
     0
176
     1
 40
1.0
176
     1
 40
1.0
176
     1
  0
VISUALSTYLE
  5
1D7
102
{ACAD_REACTORS
330
178
102
}
330
178
100
AcDbVisualStyle
  2
JitterOff
 70
    20
177
     3
291
     1
 70
    58
 90
        2
176
     0
 90
        2
176
     0
 90
        0
176
     0
 90
        0
176
     0
 40
0.6
176
     0
 40
30.0
176
     0
 62
     7
420
 16777215
176
     0
 90
        1
176
     0
 90
        4
176
     0
 62
     7
176
     0
 62
   257
176
     0
 90
        1
176
     0
 90
        1
176
     0
 40
1.0
176
     0
 90
       10
176
     2
 62
     7
176
     0
 40
1.0
176
     0
 90
        1
176
     0
 90
        6
176
     0
 90
        2
176
     0
 62
     7
176
     0
 90
        5
176
     0
 90
        0
176
     0
 90
        0
176
     0
290
     0
176
     0
 90
        1
176
     0
 40
0.0
176
     0
 90
        0
176
     0
290
     0
176
     0
290
     1
176
     0
290
     1
176
     0
290
     0
176
     0
290
     0
176
     0
290
     0
176
     0
290
     0
176
     0
290
     0
176
     0
290
     0
176
     0
 90
       50
176
     0
 40
0.0
176
     0
 40
1.0
176
     0
 90
        0
176
     0
 62
    18
420
        0
176
     0
 90
       50
176
     0
 90
        3
176
     0
 62
     5
420
      255
176
     0
290
     0
176
     0
 90
       50
176
     0
 90
       50
176
     0
 90
       50
176
     0
290
     0
176
     0
 90
       50
176
     0
 62
   256
176
     0
 40
1.0
176
     0
 90
        2
176
     0
  1
strokes_ogs.tif
176
     0
290
     0
176
     0
 40
1.0
176
     0
 40
1.0
176
     0
  0
VISUALSTYLE
  5
186
102
{ACAD_REACTORS
330
178
102
}
330
178
100
AcDbVisualStyle
  2
Linepattern
 70
    14
177
     3
291
     1
 70
    58
 90
        2
176
     1
 90
        2
176
     1
 90
        0
176
     1
 90
        0
176
     1
 40
-0.6
176
     1
 40
-30.0
176
     1
 62
     7
176
     1
 90
        1
176
     1
 90
        4
176
     1
 62
     7
176
     1
 62
   257
176
     1
 90
        7
176
     1
 90
        7
176
     1
 40
1.0
176
     1
 90
        8
176
     1
 62
     7
176
     1
 40
1.0
176
     1
 90
        1
176
     1
 90
        6
176
     1
 90
        2
176
     1
 62
     7
176
     1
 90
        5
176
     1
 90
        0
176
     1
 90
        0
176
     1
290
     0
176
     1
 90
        1
176
     1
 40
0.0
176
     1
 90
        0
176
     1
290
     0
176
     1
290
     1
176
     1
290
     1
176
     1
290
     0
176
     1
290
     0
176
     1
290
     0
176
     1
290
     0
176
     1
290
     0
176
     1
290
     0
176
     1
 90
       50
176
     1
 40
0.0
176
     1
 40
1.0
176
     1
 90
        0
176
     1
 62
    18
420
        0
176
     1
 90
       50
176
     1
 90
        3
176
     1
 62
     5
420
      255
176
     1
290
     0
176
     1
 90
       50
176
     1
 90
       50
176
     1
 90
       50
176
     1
290
     0
176
     1
 90
       50
176
     1
 62
   256
176
     0
 40
1.0
176
     0
 90
        2
176
     1
  1
strokes_ogs.tif
176
     1
290
     0
176
     1
 40
1.0
176
     1
 40
1.0
176
     1
  0
VISUALSTYLE
  5
1D8
102
{ACAD_REACTORS
330
178
102
}
330
178
100
AcDbVisualStyle
  2
OverhangOff
 70
    21
177
     3
291
     1
 70
    58
 90
        2
176
     0
 90
        2
176
     0
 90
        0
176
     0
 90
        0
176
     0
 40
0.6
176
     0
 40
30.0
176
     0
 62
     7
420
 16777215
176
     0
 90
        1
176
     0
 90
        4
176
     0
 62
     7
176
     0
 62
   257
176
     0
 90
        1
176
     0
 90
        1
176
     0
 40
1.0
176
     0
 90
        9
176
     2
 62
     7
176
     0
 40
1.0
176
     0
 90
        1
176
     0
 90
        6
176
     0
 90
        2
176
     0
 62
     7
176
     0
 90
        5
176
     0
 90
        0
176
     0
 90
        0
176
     0
290
     0
176
     0
 90
        1
176
     0
 40
0.0
176
     0
 90
        0
176
     0
290
     0
176
     0
290
     1
176
     0
290
     1
176
     0
290
     0
176
     0
290
     0
176
     0
290
     0
176
     0
290
     0
176
     0
290
     0
176
     0
290
     0
176
     0
 90
       50
176
     0
 40
0.0
176
     0
 40
1.0
176
     0
 90
        0
176
     0
 62
    18
420
        0
176
     0
 90
       50
176
     0
 90
        3
176
     0
 62
     5
420
      255
176
     0
290
     0
176
     0
 90
       50
176
     0
 90
       50
176
     0
 90
       50
176
     0
290
     0
176
     0
 90
       50
176
     0
 62
   256
176
     0
 40
1.0
176
     0
 90
        2
176
     0
  1
strokes_ogs.tif
176
     0
290
     0
176
     0
 40
1.0
176
     0
 40
1.0
176
     0
  0
VISUALSTYLE
  5
181
102
{ACAD_REACTORS
330
178
102
}
330
178
100
AcDbVisualStyle
  2
Realistic
 70
     8
177
     3
291
     0
 70
    58
 90
        2
176
     1
 90
        2
176
     1
 90
        0
176
     1
 90
        0
176
     1
 40
-0.6
176
     1
 40
-30.0
176
     1
 62
     7
176
     1
 90
        1
176
     1
 90
        0
176
     1
 62
     7
176
     1
 62
   257
176
     1
 90
        1
176
     1
 90
        1
176
     1
 40
1.0
176
     1
 90
        8
176
     1
 62
     8
176
     1
 40
1.0
176
     1
 90
        1
176
     1
 90
        6
176
     1
 90
        2
176
     1
 62
     7
176
     1
 90
        5
176
     1
 90
        0
176
     1
 90
        0
176
     1
290
     0
176
     1
 90
       13
176
     1
 40
0.0
176
     1
 90
        0
176
     1
290
     0
176
     1
290
     1
176
     1
290
     1
176
     1
290
     0
176
     1
290
     0
176
     1
290
     0
176
     1
290
     0
176
     1
290
     0
176
     1
290
     0
176
     1
 90
       50
176
     1
 40
0.0
176
     1
 40
1.0
176
     1
 90
        0
176
     1
 62
    18
420
        0
176
     1
 90
       50
176
     1
 90
        3
176
     1
 62
     5
420
      255
176
     1
290
     0
176
     1
 90
       50
176
     1
 90
       50
176
     1
 90
       50
176
     1
290
     0
176
     1
 90
       50
176
     1
 62
   256
176
     0
 40
1.0
176
     0
 90
        2
176
     1
  1
strokes_ogs.tif
176
     1
290
     0
176
     1
 40
1.0
176
     1
 40
1.0
176
     1
  0
VISUALSTYLE
  5
1DE
102
{ACAD_REACTORS
330
178
102
}
330
178
100
AcDbVisualStyle
  2
Shaded
 70
    27
177
     3
291
     0
 70
    58
 90
        2
176
     1
 90
        2
176
     1
 90
        1
176
     1
 90
        2
176
     1
 40
0.6
176
     1
 40
30.0
176
     1
 62
     7
420
 16777215
176
     1
 90
        0
176
     1
 90
        4
176
     1
 62
     7
176
     1
 62
   257
176
     1
 90
        1
176
     1
 90
        1
176
     1
 40
1.0
176
     1
 90
        8
176
     1
 62
   257
176
     1
 40
1.0
176
     1
 90
        1
176
     1
 90
        6
176
     1
 90
        2
176
     1
 62
     8
420
  7895160
176
     1
 90
        3
176
     1
 90
        0
176
     1
 90
        0
176
     1
290
     0
176
     1
 90
        5
176
     1
 40
0.0
176
     1
 90
        0
176
     1
290
     0
176
     1
290
     1
176
     1
290
     1
176
     1
290
     0
176
     1
290
     0
176
     1
290
     0
176
     1
290
     0
176
     1
290
     0
176
     1
290
     0
176
     1
 90
       50
176
     1
 40
0.0
176
     1
 40
1.0
176
     1
 90
        0
176
     1
 62
    18
420
        0
176
     1
 90
       50
176
     1
 90
        3
176
     1
 62
     5
420
      255
176
     1
290
     0
176
     1
 90
       50
176
     1
 90
       50
176
     1
 90
       50
176
     1
290
     0
176
     1
 90
       50
176
     1
 62
   256
176
     0
 40
1.0
176
     0
 90
        2
176
     1
  1
strokes_ogs.tif
176
     1
290
     0
176
     1
 40
1.0
176
     1
 40
1.0
176
     1
  0
VISUALSTYLE
  5
1DD
102
{ACAD_REACTORS
330
178
102
}
330
178
100
AcDbVisualStyle
  2
Shaded with edges
 70
    26
177
     3
291
     0
 70
    58
 90
        2
176
     1
 90
        2
176
     1
 90
        1
176
     1
 90
        2
176
     1
 40
0.6
176
     1
 40
30.0
176
     1
 62
     7
420
 16777215
176
     1
 90
        1
176
     1
 90
       10
176
     1
 62
     7
176
     1
 62
   257
176
     1
 90
        2
176
     1
 90
        1
176
     1
 40
1.0
176
     1
 90
        8
176
     1
 62
   257
176
     1
 40
1.0
176
     1
 90
        1
176
     1
 90
        6
176
     1
 90
        2
176
     1
 62
     7
176
     1
 90
        3
176
     1
 90
        0
176
     1
 90
        0
176
     1
290
     0
176
     1
 90
        5
176
     1
 40
0.0
176
     1
 90
        0
176
     1
290
     0
176
     1
290
     1
176
     1
290
     1
176
     1
290
     0
176
     1
290
     0
176
     1
290
     0
176
     1
290
     0
176
     1
290
     0
176
     1
290
     0
176
     1
 90
       50
176
     1
 40
0.0
176
     1
 40
1.0
176
     1
 90
        0
176
     1
 62
    18
420
        0
176
     1
 90
       50
176
     1
 90
        3
176
     1
 62
     5
420
      255
176
     1
290
     0
176
     1
 90
       50
176
     1
 90
       50
176
     1
 90
       50
176
     1
290
     0
176
     1
 90
       50
176
     1
 62
   256
176
     0
 40
1.0
176
     0
 90
        2
176
     1
  1
strokes_ogs.tif
176
     1
290
     0
176
     1
 40
1.0
176
     1
 40
1.0
176
     1
  0
VISUALSTYLE
  5
1DA
102
{ACAD_REACTORS
330
178
102
}
330
178
100
AcDbVisualStyle
  2
Shades of Gray
 70
    23
177
     3
291
     0
 70
    58
 90
        2
176
     1
 90
        2
176
     1
 90
        3
176
     1
 90
        0
176
     1
 40
0.6
176
     1
 40
30.0
176
     1
 62
     7
420
 16777215
176
     1
 90
        2
176
     1
 90
        2
176
     1
 62
     7
176
     1
 62
     7
176
     1
 90
        1
176
     1
 90
        1
176
     1
 40
40.0
176
     1
 90
        8
176
     1
 62
     7
176
     1
 40
1.0
176
     1
 90
        1
176
     1
 90
        6
176
     1
 90
        2
176
     1
 62
     7
176
     1
 90
        3
176
     1
 90
        0
176
     1
 90
        0
176
     1
290
     0
176
     1
 90
        1
176
     1
 40
0.0
176
     1
 90
        0
176
     1
290
     0
176
     1
290
     1
176
     1
290
     1
176
     1
290
     0
176
     1
290
     0
176
     1
290
     0
176
     1
290
     0
176
     1
290
     0
176
     1
290
     0
176
     1
 90
       50
176
     1
 40
0.0
176
     1
 40
1.0
176
     1
 90
        0
176
     1
 62
    18
420
        0
176
     1
 90
       50
176
     1
 90
        3
176
     1
 62
     5
420
      255
176
     1
290
     0
176
     1
 90
       50
176
     1
 90
       50
176
     1
 90
       50
176
     1
290
     0
176
     1
 90
       50
176
     1
 62
   256
176
     0
 40
1.0
176
     0
 90
        2
176
     1
  1
strokes_ogs.tif
176
     1
290
     0
176
     1
 40
1.0
176
     1
 40
1.0
176
     1
  0
VISUALSTYLE
  5
1DB
102
{ACAD_REACTORS
330
178
102
}
330
178
100
AcDbVisualStyle
  2
Sketchy
 70
    24
177
     3
291
     0
 70
    58
 90
        1
176
     1
 90
        2
176
     1
 90
        2
176
     1
 90
        0
176
     1
 40
0.6
176
     1
 40
30.0
176
     1
 62
     7
420
 16777215
176
     1
 90
        2
176
     1
 90
        2
176
     1
 62
     7
176
     1
 62
     7
176
     1
 90
        1
176
     1
 90
        1
176
     1
 40
40.0
176
     1
 90
       11
176
     1
 62
     7
176
     1
 40
1.0
176
     1
 90
        1
176
     1
 90
        6
176
     1
 90
        2
176
     1
 62
     7
176
     1
 90
        6
176
     1
 90
        0
176
     1
 90
        0
176
     1
290
     0
176
     1
 90
        1
176
     1
 40
0.0
176
     1
 90
        0
176
     1
290
     0
176
     1
290
     1
176
     1
290
     1
176
     1
290
     0
176
     1
290
     0
176
     1
290
     0
176
     1
290
     0
176
     1
290
     0
176
     1
290
     0
176
     1
 90
       50
176
     1
 40
0.0
176
     1
 40
1.0
176
     1
 90
        0
176
     1
 62
    18
420
        0
176
     1
 90
       50
176
     1
 90
        3
176
     1
 62
     5
420
      255
176
     1
290
     0
176
     1
 90
       50
176
     1
 90
       50
176
     1
 90
       50
176
     1
290
     0
176
     1
 90
       50
176
     1
 62
   256
176
     0
 40
1.0
176
     0
 90
        2
176
     1
  1
strokes_ogs.tif
176
     1
290
     0
176
     1
 40
1.0
176
     1
 40
1.0
176
     1
  0
VISUALSTYLE
  5
185
102
{ACAD_REACTORS
330
178
102
}
330
178
100
AcDbVisualStyle
  2
Thicken
 70
    13
177
     3
291
     1
 70
    58
 90
        2
176
     1
 90
        2
176
     1
 90
        0
176
     1
 90
        0
176
     1
 40
-0.6
176
     1
 40
-30.0
176
     1
 62
     7
176
     1
 90
        1
176
     1
 90
        4
176
     1
 62
     7
176
     1
 62
   257
176
     1
 90
        1
176
     1
 90
        1
176
     1
 40
1.0
176
     1
 90
       12
176
     1
 62
     7
176
     1
 40
1.0
176
     1
 90
        1
176
     1
 90
        6
176
     1
 90
        2
176
     1
 62
     7
176
     1
 90
        5
176
     1
 90
        0
176
     1
 90
        0
176
     1
290
     0
176
     1
 90
        1
176
     1
 40
0.0
176
     1
 90
        0
176
     1
290
     0
176
     1
290
     1
176
     1
290
     1
176
     1
290
     0
176
     1
290
     0
176
     1
290
     0
176
     1
290
     0
176
     1
290
     0
176
     1
290
     0
176
     1
 90
       50
176
     1
 40
0.0
176
     1
 40
1.0
176
     1
 90
        0
176
     1
 62
    18
420
        0
176
     1
 90
       50
176
     1
 90
        3
176
     1
 62
     5
420
      255
176
     1
290
     0
176
     1
 90
       50
176
     1
 90
       50
176
     1
 90
       50
176
     1
290
     0
176
     1
 90
       50
176
     1
 62
   256
176
     0
 40
1.0
176
     0
 90
        2
176
     1
  1
strokes_ogs.tif
176
     1
290
     0
176
     1
 40
1.0
176
     1
 40
1.0
176
     1
  0
VISUALSTYLE
  5
1D5
102
{ACAD_REACTORS
330
178
102
}
330
178
100
AcDbVisualStyle
  2
Wireframe
 70
     5
177
     3
291
     0
 70
    58
 90
        0
176
     1
 90
        2
176
     1
 90
        0
176
     1
 90
        0
176
     1
 40
0.6
176
     1
 40
30.0
176
     1
 62
     7
420
 16777215
176
     1
 90
        1
176
     1
 90
        4
176
     1
 62
     7
176
     1
 62
   257
176
     1
 90
        1
176
     1
 90
        1
176
     1
 40
1.0
176
     1
 90
        0
176
     1
 62
   257
176
     1
 40
1.0
176
     1
 90
        1
176
     1
 90
        6
176
     1
 90
        2
176
     1
 62
     7
176
     1
 90
        3
176
     1
 90
        0
176
     1
 90
        0
176
     1
290
     0
176
     1
 90
        1
176
     1
 40
0.0
176
     1
 90
        0
176
     1
290
     0
176
     1
290
     1
176
     1
290
     1
176
     1
290
     0
176
     1
290
     0
176
     1
290
     0
176
     1
290
     0
176
     1
290
     0
176
     1
290
     0
176
     1
 90
       50
176
     1
 40
0.0
176
     1
 40
1.0
176
     1
 90
        0
176
     1
 62
    18
420
        0
176
     1
 90
       50
176
     1
 90
        3
176
     1
 62
     5
420
      255
176
     1
290
     0
176
     1
 90
       50
176
     1
 90
       50
176
     1
 90
       50
176
     1
290
     0
176
     1
 90
       50
176
     1
 62
   256
176
     0
 40
1.0
176
     0
 90
        2
176
     1
  1
strokes_ogs.tif
176
     1
290
     0
176
     1
 40
1.0
176
     1
 40
1.0
176
     1
  0
VISUALSTYLE
  5
1DC
102
{ACAD_REACTORS
330
178
102
}
330
178
100
AcDbVisualStyle
  2
X-Ray
 70
    25
177
     3
291
     0
 70
    58
 90
        2
176
     1
 90
        2
176
     1
 90
        1
176
     1
 90
        1
176
     1
 40
0.5
176
     1
 40
30.0
176
     1
 62
     7
420
 16777215
176
     1
 90
        1
176
     1
 90
        0
176
     1
 62
     7
176
     1
 62
   257
176
     1
 90
        1
176
     1
 90
        1
176
     1
 40
1.0
176
     1
 90
        8
176
     1
 62
     7
176
     1
 40
1.0
176
     1
 90
        1
176
     1
 90
        6
176
     1
 90
        2
176
     1
 62
     7
176
     1
 90
        3
176
     1
 90
        0
176
     1
 90
        0
176
     1
290
     0
176
     1
 90
       13
176
     1
 40
0.0
176
     1
 90
        0
176
     1
290
     0
176
     1
290
     1
176
     1
290
     1
176
     1
290
     0
176
     1
290
     0
176
     1
290
     0
176
     1
290
     0
176
     1
290
     0
176
     1
290
     0
176
     1
 90
       50
176
     1
 40
0.0
176
     1
 40
1.0
176
     1
 90
        0
176
     1
 62
    18
420
        0
176
     1
 90
       50
176
     1
 90
        3
176
     1
 62
     5
420
      255
176
     1
290
     0
176
     1
 90
       50
176
     1
 90
       50
176
     1
 90
       50
176
     1
290
     0
176
     1
 90
       50
176
     1
 62
   256
176
     0
 40
1.0
176
     0
 90
        2
176
     1
  1
strokes_ogs.tif
176
     1
290
     0
176
     1
 40
1.0
176
     1
 40
1.0
176
     1
  0
DICTIONARYVAR
  5
1FF
102
{ACAD_REACTORS
330
194
102
}
330
194
100
DictionaryVariables
280
     0
  1
1:1
  0
DICTIONARYVAR
  5
201
102
{ACAD_REACTORS
330
194
102
}
330
194
100
DictionaryVariables
280
     0
  1
Standard
  0
DICTIONARYVAR
  5
200
102
{ACAD_REACTORS
330
194
102
}
330
194
100
DictionaryVariables
280
     0
  1
Standard
  0
DICTIONARYVAR
  5
198
102
{ACAD_REACTORS
330
194
102
}
330
194
100
DictionaryVariables
280
     0
  1
2
  0
DICTIONARYVAR
  5
199
102
{ACAD_REACTORS
330
194
102
}
330
194
100
DictionaryVariables
280
     0
  1
1
  0
DICTIONARYVAR
  5
197
102
{ACAD_REACTORS
330
194
102
}
330
194
100
DictionaryVariables
280
     0
  1
0
  0
DICTIONARY
  5
2A6
330
1E0
100
AcDbDictionary
280
     1
281
     1
  3
ACAD_ROUNDTRIP_2008_TABLESTYLE_CELLSTYLEMAP
360
2A7
  0
CELLSTYLEMAP
  5
2A7
102
{ACAD_REACTORS
330
2A6
102
}
330
2A6
100
AcDbCellStyleMap
 90
        3
300
CELLSTYLE
  1
TABLEFORMAT_BEGIN
 90
        5
170
     1
 91
        0
 92
    32768
 62
   257
 93
        1
300
CONTENTFORMAT
  1
CONTENTFORMAT_BEGIN
 90
        0
 91
        0
 92
        4
 93
        0
300

 40
0.0
140
1.0
 94
        5
 62
     0
340
11
144
0.25
309
CONTENTFORMAT_END
171
     1
301
MARGIN
  1
CELLMARGIN_BEGIN
 40
0.06
 40
0.06
 40
0.06
 40
0.06
 40
0.06
 40
0.06
309
CELLMARGIN_END
 94
        6
 95
        1
302
GRIDFORMAT
  1
GRIDFORMAT_BEGIN
 90
        0
 91
        1
 62
     0
 92
       -2
340
14
 93
        0
 40
0.045
309
GRIDFORMAT_END
 95
        2
302
GRIDFORMAT
  1
GRIDFORMAT_BEGIN
 90
        0
 91
        1
 62
     0
 92
       -2
340
14
 93
        0
 40
0.045
309
GRIDFORMAT_END
 95
        4
302
GRIDFORMAT
  1
GRIDFORMAT_BEGIN
 90
        0
 91
        1
 62
     0
 92
       -2
340
14
 93
        0
 40
0.045
309
GRIDFORMAT_END
 95
        8
302
GRIDFORMAT
  1
GRIDFORMAT_BEGIN
 90
        0
 91
        1
 62
     0
 92
       -2
340
14
 93
        0
 40
0.045
309
GRIDFORMAT_END
 95
       16
302
GRIDFORMAT
  1
GRIDFORMAT_BEGIN
 90
        0
 91
        1
 62
     0
 92
       -2
340
14
 93
        0
 40
0.045
309
GRIDFORMAT_END
 95
       32
302
GRIDFORMAT
  1
GRIDFORMAT_BEGIN
 90
        0
 91
        1
 62
     0
 92
       -2
340
14
 93
        0
 40
0.045
309
GRIDFORMAT_END
309
TABLEFORMAT_END
  1
CELLSTYLE_BEGIN
 90
        1
 91
        1
300
_TITLE
309
CELLSTYLE_END
300
CELLSTYLE
  1
TABLEFORMAT_BEGIN
 90
        5
170
     1
 91
        0
 92
        0
 62
   257
 93
        1
300
CONTENTFORMAT
  1
CONTENTFORMAT_BEGIN
 90
        0
 91
        0
 92
        4
 93
        0
300

 40
0.0
140
1.0
 94
        5
 62
     0
340
11
144
0.18
309
CONTENTFORMAT_END
171
     1
301
MARGIN
  1
CELLMARGIN_BEGIN
 40
0.06
 40
0.06
 40
0.06
 40
0.06
 40
0.06
 40
0.06
309
CELLMARGIN_END
 94
        6
 95
        1
302
GRIDFORMAT
  1
GRIDFORMAT_BEGIN
 90
        0
 91
        1
 62
     0
 92
       -2
340
14
 93
        0
 40
0.045
309
GRIDFORMAT_END
 95
        2
302
GRIDFORMAT
  1
GRIDFORMAT_BEGIN
 90
        0
 91
        1
 62
     0
 92
       -2
340
14
 93
        0
 40
0.045
309
GRIDFORMAT_END
 95
        4
302
GRIDFORMAT
  1
GRIDFORMAT_BEGIN
 90
        0
 91
        1
 62
     0
 92
       -2
340
14
 93
        0
 40
0.045
309
GRIDFORMAT_END
 95
        8
302
GRIDFORMAT
  1
GRIDFORMAT_BEGIN
 90
        0
 91
        1
 62
     0
 92
       -2
340
14
 93
        0
 40
0.045
309
GRIDFORMAT_END
 95
       16
302
GRIDFORMAT
  1
GRIDFORMAT_BEGIN
 90
        0
 91
        1
 62
     0
 92
       -2
340
14
 93
        0
 40
0.045
309
GRIDFORMAT_END
 95
       32
302
GRIDFORMAT
  1
GRIDFORMAT_BEGIN
 90
        0
 91
        1
 62
     0
 92
       -2
340
14
 93
        0
 40
0.045
309
GRIDFORMAT_END
309
TABLEFORMAT_END
  1
CELLSTYLE_BEGIN
 90
        2
 91
        1
300
_HEADER
309
CELLSTYLE_END
300
CELLSTYLE
  1
TABLEFORMAT_BEGIN
 90
        5
170
     1
 91
        0
 92
        0
 62
   257
 93
        1
300
CONTENTFORMAT
  1
CONTENTFORMAT_BEGIN
 90
        0
 91
        0
 92
        4
 93
        0
300

 40
0.0
140
1.0
 94
        2
 62
     0
340
11
144
0.18
309
CONTENTFORMAT_END
171
     1
301
MARGIN
  1
CELLMARGIN_BEGIN
 40
0.06
 40
0.06
 40
0.06
 40
0.06
 40
0.06
 40
0.06
309
CELLMARGIN_END
 94
        6
 95
        1
302
GRIDFORMAT
  1
GRIDFORMAT_BEGIN
 90
        0
 91
        1
 62
     0
 92
       -2
340
14
 93
        0
 40
0.045
309
GRIDFORMAT_END
 95
        2
302
GRIDFORMAT
  1
GRIDFORMAT_BEGIN
 90
        0
 91
        1
 62
     0
 92
       -2
340
14
 93
        0
 40
0.045
309
GRIDFORMAT_END
 95
        4
302
GRIDFORMAT
  1
GRIDFORMAT_BEGIN
 90
        0
 91
        1
 62
     0
 92
       -2
340
14
 93
        0
 40
0.045
309
GRIDFORMAT_END
 95
        8
302
GRIDFORMAT
  1
GRIDFORMAT_BEGIN
 90
        0
 91
        1
 62
     0
 92
       -2
340
14
 93
        0
 40
0.045
309
GRIDFORMAT_END
 95
       16
302
GRIDFORMAT
  1
GRIDFORMAT_BEGIN
 90
        0
 91
        1
 62
     0
 92
       -2
340
14
 93
        0
 40
0.045
309
GRIDFORMAT_END
 95
       32
302
GRIDFORMAT
  1
GRIDFORMAT_BEGIN
 90
        0
 91
        1
 62
     0
 92
       -2
340
14
 93
        0
 40
0.045
309
GRIDFORMAT_END
309
TABLEFORMAT_END
  1
CELLSTYLE_BEGIN
 90
        3
 91
        2
300
_DATA
309
CELLSTYLE_END
  0
ENDSEC
  0
EOF
