  0
SECTION
  2
HEADER
  9
$ACADVER
  1
AC1027
  9
$ACADMAINTVER
 70
   105
  9
$DWGCODEPAGE
  3
ANSI_1252
  9
$REQUIREDVERSIONS
160
                 0
  9
$LASTSAVEDBY
  1
matthias.ochs
  9
$INSBASE
 10
0.0
 20
0.0
 30
0.0
  9
$EXTMIN
 10
-171.5179740250799
 20
-111.2041678159525
 30
0.0
  9
$EXTMAX
 10
151.5931290655564
 20
146.7416707858158
 30
0.0
  9
$LIMMIN
 10
-116.620911983
 20
-71.84828374
  9
$LIMMAX
 10
151.620911988
 20
66.354933504
  9
$ORTHOMODE
 70
     0
  9
$REGENMODE
 70
     1
  9
$FILLMODE
 70
     1
  9
$QTEXTMODE
 70
     0
  9
$MIRRTEXT
 70
     1
  9
$LTSCALE
 40
1.0
  9
$ATTMODE
 70
     1
  9
$TEXTSIZE
 40
0.2
  9
$TRACEWID
 40
0.05
  9
$TEXTSTYLE
  7
Standard
  9
$CLAYER
  8
SK6
  9
$CELTYPE
  6
ByLayer
  9
$CECOLOR
 62
   256
  9
$CELTSCALE
 40
1.0
  9
$DISPSILH
 70
     0
  9
$DIMSCALE
 40
1.0
  9
$DIMASZ
 40
0.18
  9
$DIMEXO
 40
0.0625
  9
$DIMDLI
 40
0.38
  9
$DIMRND
 40
0.0
  9
$DIMDLE
 40
0.0
  9
$DIMEXE
 40
0.18
  9
$DIMTP
 40
0.0
  9
$DIMTM
 40
0.0
  9
$DIMTXT
 40
0.18
  9
$DIMCEN
 40
0.09
  9
$DIMTSZ
 40
0.0
  9
$DIMTOL
 70
     0
  9
$DIMLIM
 70
     0
  9
$DIMTIH
 70
     1
  9
$DIMTOH
 70
     1
  9
$DIMSE1
 70
     0
  9
$DIMSE2
 70
     0
  9
$DIMTAD
 70
     0
  9
$DIMZIN
 70
     0
  9
$DIMBLK
  1

  9
$DIMASO
 70
     1
  9
$DIMSHO
 70
     1
  9
$DIMPOST
  1

  9
$DIMAPOST
  1

  9
$DIMALT
 70
     0
  9
$DIMALTD
 70
     2
  9
$DIMALTF
 40
25.4
  9
$DIMLFAC
 40
1.0
  9
$DIMTOFL
 70
     0
  9
$DIMTVP
 40
0.0
  9
$DIMTIX
 70
     0
  9
$DIMSOXD
 70
     0
  9
$DIMSAH
 70
     0
  9
$DIMBLK1
  1

  9
$DIMBLK2
  1

  9
$DIMSTYLE
  2
Standard
  9
$DIMCLRD
 70
     0
  9
$DIMCLRE
 70
     0
  9
$DIMCLRT
 70
     0
  9
$DIMTFAC
 40
1.0
  9
$DIMGAP
 40
0.09
  9
$DIMJUST
 70
     0
  9
$DIMSD1
 70
     0
  9
$DIMSD2
 70
     0
  9
$DIMTOLJ
 70
     1
  9
$DIMTZIN
 70
     0
  9
$DIMALTZ
 70
     0
  9
$DIMALTTZ
 70
     0
  9
$DIMUPT
 70
     0
  9
$DIMDEC
 70
     4
  9
$DIMTDEC
 70
     4
  9
$DIMALTU
 70
     2
  9
$DIMALTTD
 70
     2
  9
$DIMTXSTY
  7
Standard
  9
$DIMAUNIT
 70
     0
  9
$DIMADEC
 70
     0
  9
$DIMALTRND
 40
0.0
  9
$DIMAZIN
 70
     0
  9
$DIMDSEP
 70
    46
  9
$DIMATFIT
 70
     3
  9
$DIMFRAC
 70
     0
  9
$DIMLDRBLK
  1

  9
$DIMLUNIT
 70
     2
  9
$DIMLWD
 70
    -2
  9
$DIMLWE
 70
    -2
  9
$DIMTMOVE
 70
     2
  9
$DIMFXL
 40
1.0
  9
$DIMFXLON
 70
     0
  9
$DIMJOGANG
 40
0.7853981633974483
  9
$DIMTFILL
 70
     0
  9
$DIMTFILLCLR
 70
     0
  9
$DIMARCSYM
 70
     0
  9
$DIMLTYPE
  6

  9
$DIMLTEX1
  6

  9
$DIMLTEX2
  6

  9
$DIMTXTDIRECTION
 70
     0
  9
$LUNITS
 70
     2
  9
$LUPREC
 70
     4
  9
$SKETCHINC
 40
0.1
  9
$FILLETRAD
 40
0.5
  9
$AUNITS
 70
     2
  9
$AUPREC
 70
     0
  9
$MENU
  1
.
  9
$ELEVATION
 40
0.0
  9
$PELEVATION
 40
0.0
  9
$THICKNESS
 40
0.0
  9
$LIMCHECK
 70
     0
  9
$CHAMFERA
 40
0.5
  9
$CHAMFERB
 40
0.5
  9
$CHAMFERC
 40
1.0
  9
$CHAMFERD
 40
0.0
  9
$SKPOLY
 70
     0
  9
$TDCREATE
 40
2458327.549380544
  9
$TDUCREATE
 40
2458327.466047211
  9
$TDUPDATE
 40
2458582.694387048
  9
$TDUUPDATE
 40
2458582.611053715
  9
$TDINDWG
 40
0.0159275347
  9
$TDUSRTIMER
 40
0.0074605093
  9
$USRTIMER
 70
     1
  9
$ANGBASE
 50
0.0
  9
$ANGDIR
 70
     0
  9
$PDMODE
 70
     0
  9
$PDSIZE
 40
0.0
  9
$PLINEWID
 40
0.0
  9
$SPLFRAME
 70
     0
  9
$SPLINETYPE
 70
     6
  9
$SPLINESEGS
 70
     8
  9
$HANDSEED
  5
275
  9
$SURFTAB1
 70
     6
  9
$SURFTAB2
 70
     6
  9
$SURFTYPE
 70
     6
  9
$SURFU
 70
     6
  9
$SURFV
 70
     6
  9
$UCSBASE
  2

  9
$UCSNAME
  2

  9
$UCSORG
 10
0.0
 20
0.0
 30
0.0
  9
$UCSXDIR
 10
1.0
 20
0.0
 30
0.0
  9
$UCSYDIR
 10
0.0
 20
1.0
 30
0.0
  9
$UCSORTHOREF
  2

  9
$UCSORTHOVIEW
 70
     0
  9
$UCSORGTOP
 10
0.0
 20
0.0
 30
0.0
  9
$UCSORGBOTTOM
 10
0.0
 20
0.0
 30
0.0
  9
$UCSORGLEFT
 10
0.0
 20
0.0
 30
0.0
  9
$UCSORGRIGHT
 10
0.0
 20
0.0
 30
0.0
  9
$UCSORGFRONT
 10
0.0
 20
0.0
 30
0.0
  9
$UCSORGBACK
 10
0.0
 20
0.0
 30
0.0
  9
$PUCSBASE
  2

  9
$PUCSNAME
  2

  9
$PUCSORG
 10
0.0
 20
0.0
 30
0.0
  9
$PUCSXDIR
 10
1.0
 20
0.0
 30
0.0
  9
$PUCSYDIR
 10
0.0
 20
1.0
 30
0.0
  9
$PUCSORTHOREF
  2

  9
$PUCSORTHOVIEW
 70
     0
  9
$PUCSORGTOP
 10
0.0
 20
0.0
 30
0.0
  9
$PUCSORGBOTTOM
 10
0.0
 20
0.0
 30
0.0
  9
$PUCSORGLEFT
 10
0.0
 20
0.0
 30
0.0
  9
$PUCSORGRIGHT
 10
0.0
 20
0.0
 30
0.0
  9
$PUCSORGFRONT
 10
0.0
 20
0.0
 30
0.0
  9
$PUCSORGBACK
 10
0.0
 20
0.0
 30
0.0
  9
$USERI1
 70
     0
  9
$USERI2
 70
     0
  9
$USERI3
 70
     0
  9
$USERI4
 70
     0
  9
$USERI5
 70
     0
  9
$USERR1
 40
0.0
  9
$USERR2
 40
0.0
  9
$USERR3
 40
0.0
  9
$USERR4
 40
0.0
  9
$USERR5
 40
0.0
  9
$WORLDVIEW
 70
     1
  9
$SHADEDGE
 70
     3
  9
$SHADEDIF
 70
    70
  9
$TILEMODE
 70
     1
  9
$MAXACTVP
 70
    64
  9
$PINSBASE
 10
0.0
 20
0.0
 30
0.0
  9
$PLIMCHECK
 70
     0
  9
$PEXTMIN
 10
1.000000000000000E+20
 20
1.000000000000000E+20
 30
1.000000000000000E+20
  9
$PEXTMAX
 10
-1.000000000000000E+20
 20
-1.000000000000000E+20
 30
-1.000000000000000E+20
  9
$PLIMMIN
 10
0.0
 20
0.0
  9
$PLIMMAX
 10
0.0
 20
0.0
  9
$UNITMODE
 70
     0
  9
$VISRETAIN
 70
     1
  9
$PLINEGEN
 70
     0
  9
$PSLTSCALE
 70
     1
  9
$TREEDEPTH
 70
  3020
  9
$CMLSTYLE
  2
Standard
  9
$CMLJUST
 70
     0
  9
$CMLSCALE
 40
1.0
  9
$PROXYGRAPHICS
 70
     1
  9
$MEASUREMENT
 70
     0
  9
$CELWEIGHT
370
    -1
  9
$ENDCAPS
280
     0
  9
$JOINSTYLE
280
     0
  9
$LWDISPLAY
290
     0
  9
$INSUNITS
 70
     0
  9
$HYPERLINKBASE
  1

  9
$STYLESHEET
  1

  9
$XEDIT
290
     1
  9
$CEPSNTYPE
380
     0
  9
$PSTYLEMODE
290
     1
  9
$FINGERPRINTGUID
  2
{ED379B5A-2A45-4488-A80F-FE5172DE7A2E}
  9
$VERSIONGUID
  2
{FAEB1C32-E019-11D5-929B-00C0DF256EC4}
  9
$EXTNAMES
290
     1
  9
$PSVPSCALE
 40
0.0
  9
$OLESTARTUP
290
     0
  9
$SORTENTS
280
   127
  9
$INDEXCTL
280
     0
  9
$HIDETEXT
280
     1
  9
$XCLIPFRAME
280
     2
  9
$HALOGAP
280
     0
  9
$OBSCOLOR
 70
   257
  9
$OBSLTYPE
280
     0
  9
$INTERSECTIONDISPLAY
280
     0
  9
$INTERSECTIONCOLOR
 70
   257
  9
$DIMASSOC
280
     2
  9
$PROJECTNAME
  1

  9
$CAMERADISPLAY
290
     0
  9
$LENSLENGTH
 40
50.0
  9
$CAMERAHEIGHT
 40
0.0
  9
$STEPSPERSEC
 40
2.0
  9
$STEPSIZE
 40
6.0
  9
$3DDWFPREC
 40
2.0
  9
$PSOLWIDTH
 40
0.25
  9
$PSOLHEIGHT
 40
4.0
  9
$LOFTANG1
 40
1.570796326794897
  9
$LOFTANG2
 40
1.570796326794897
  9
$LOFTMAG1
 40
0.0
  9
$LOFTMAG2
 40
0.0
  9
$LOFTPARAM
 70
     7
  9
$LOFTNORMALS
280
     1
  9
$LATITUDE
 40
37.795
  9
$LONGITUDE
 40
-122.394
  9
$NORTHDIRECTION
 40
0.0
  9
$TIMEZONE
 70
 -8000
  9
$LIGHTGLYPHDISPLAY
280
     1
  9
$TILEMODELIGHTSYNCH
280
     1
  9
$SOLIDHIST
280
     0
  9
$SHOWHIST
280
     1
  9
$DWFFRAME
280
     2
  9
$DGNFRAME
280
     2
  9
$REALWORLDSCALE
290
     1
  9
$INTERFERECOLOR
 62
   256
  9
$CSHADOW
280
     0
  9
$SHADOWPLANELOCATION
 40
0.0
  0
ENDSEC
  0
SECTION
  2
CLASSES
  0
CLASS
  1
ACDBDICTIONARYWDFLT
  2
AcDbDictionaryWithDefault
  3
ObjectDBX Classes
 90
        0
 91
       13
280
     0
281
     0
  0
CLASS
  1
SCALE
  2
AcDbScale
  3
ObjectDBX Classes
 90
     1153
 91
       13
280
     0
281
     0
  0
CLASS
  1
VISUALSTYLE
  2
AcDbVisualStyle
  3
ObjectDBX Classes
 90
     4095
 91
       13
280
     0
281
     0
  0
CLASS
  1
MATERIAL
  2
AcDbMaterial
  3
ObjectDBX Classes
 90
     1153
 91
       13
280
     0
281
     0
  0
CLASS
  1
DICTIONARYVAR
  2
AcDbDictionaryVar
  3
ObjectDBX Classes
 90
        0
 91
       12
280
     0
281
     0
  0
CLASS
  1
ACDBPLACEHOLDER
  2
AcDbPlaceHolder
  3
ObjectDBX Classes
 90
        0
 91
        1
280
     0
281
     0
  0
CLASS
  1
LAYOUT
  2
AcDbLayout
  3
ObjectDBX Classes
 90
        0
 91
        1
280
     0
281
     0
  0
CLASS
  1
TABLESTYLE
  2
AcDbTableStyle
  3
ObjectDBX Classes
 90
     4095
 91
       13
280
     0
281
     0
  0
CLASS
  1
MLEADERSTYLE
  2
AcDbMLeaderStyle
  3
ACDB_MLEADERSTYLE_CLASS
 90
     4095
 91
       13
280
     0
281
     0
  0
CLASS
  1
SUN
  2
AcDbSun
  3
SCENEOE
 90
     1153
 91
       13
280
     0
281
     0
  0
CLASS
  1
CELLSTYLEMAP
  2
AcDbCellStyleMap
  3
ObjectDBX Classes
 90
     1152
 91
        4
280
     0
281
     0
  0
ENDSEC
  0
SECTION
  2
TABLES
  0
TABLE
  2
VPORT
  5
8
330
0
100
AcDbSymbolTable
 70
     1
  0
VPORT
  5
14F
330
8
100
AcDbSymbolTableRecord
100
AcDbViewportTableRecord
  2
*Active
 70
     0
 10
0.0
 20
0.0
 11
1.0
 21
1.0
 12
-316.1948902806735
 22
21.00976493065151
 13
0.0
 23
0.0
 14
0.5
 24
0.5
 15
0.5
 25
0.5
 16
0.0
 26
0.0
 36
1.0
 17
0.0
 27
0.0
 37
0.0
 40
1107.846799610802
 41
1.978589420654912
 42
50.0
 43
0.0
 44
0.0
 50
0.0
 51
0.0
 71
    16
 72
   100
 73
     1
 74
     3
 75
     0
 76
     0
 77
     0
 78
     0
281
     0
 65
     1
110
0.0
120
0.0
130
0.0
111
1.0
121
0.0
131
0.0
112
0.0
122
1.0
132
0.0
 79
     0
146
0.0
348
180
 60
     3
 61
     5
292
     1
282
     1
141
0.0
142
0.0
 63
   256
361
22F
  0
ENDTAB
  0
TABLE
  2
LTYPE
  5
5
330
0
100
AcDbSymbolTable
 70
     8
  0
LTYPE
  5
14
330
5
100
AcDbSymbolTableRecord
100
AcDbLinetypeTableRecord
  2
ByBlock
 70
     0
  3

 72
    65
 73
     0
 40
0.0
  0
LTYPE
  5
15
330
5
100
AcDbSymbolTableRecord
100
AcDbLinetypeTableRecord
  2
ByLayer
 70
     0
  3

 72
    65
 73
     0
 40
0.0
  0
LTYPE
  5
16
330
5
100
AcDbSymbolTableRecord
100
AcDbLinetypeTableRecord
  2
Continuous
 70
     0
  3
Solid line
 72
    65
 73
     0
 40
0.0
  0
LTYPE
  5
20
330
5
100
AcDbSymbolTableRecord
100
AcDbLinetypeTableRecord
  2
PUNKT
 70
     0
  3
..............
 72
    65
 73
     2
 40
1.5
 49
0.7
 74
     0
 49
-0.8
 74
     0
  0
LTYPE
  5
21
330
5
100
AcDbSymbolTableRecord
100
AcDbLinetypeTableRecord
  2
GESTRICHELT
 70
     0
  3
-- -- -- -- --
 72
    65
 73
     7
 40
2.8
 49
0.9
 74
     0
 49
0.0
 74
     0
 49
0.9
 74
     0
 49
0.0
 74
     0
 49
0.2
 74
     0
 49
0.0
 74
     0
 49
-0.8
 74
     0
  0
LTYPE
  5
22
330
5
100
AcDbSymbolTableRecord
100
AcDbLinetypeTableRecord
  2
STRICHPUNKT
 70
     0
  3
--.--.--.--.--
 72
    65
 73
     4
 40
8.8
 49
5.5
 74
     0
 49
-1.3
 74
     0
 49
0.7
 74
     0
 49
-1.3
 74
     0
  0
LTYPE
  5
25
330
5
100
AcDbSymbolTableRecord
100
AcDbLinetypeTableRecord
  2
PHANTOM
 70
     0
  3
--..--..--..--
 72
    65
 73
     6
 40
14.2
 49
7.0
 74
     0
 49
-1.8
 74
     0
 49
0.9
 74
     0
 49
-1.8
 74
     0
 49
0.9
 74
     0
 49
-1.8
 74
     0
  0
LTYPE
  5
1C7
330
5
100
AcDbSymbolTableRecord
100
AcDbLinetypeTableRecord
  2
DASH
 70
     0
  3
DASH _ _ _ _ _
 72
    65
 73
     2
 40
0.75
 49
0.4
 74
     0
 49
-0.35
 74
     0
  0
LTYPE
  5
1C8
330
5
100
AcDbSymbolTableRecord
100
AcDbLinetypeTableRecord
  2
LONGDASH_DASH
 70
     0
  3
LONGDASH_DASH __ . __ . __
 72
    65
 73
     4
 40
0.85
 49
0.4
 74
     0
 49
-0.2
 74
     0
 49
0.05
 74
     0
 49
-0.2
 74
     0
  0
LTYPE
  5
1C9
330
5
100
AcDbSymbolTableRecord
100
AcDbLinetypeTableRecord
  2
LONGDASH_DASH_DASH
 70
     0
  3
LONGDASH_DASH_DASH __ . . __ . . __
 72
    65
 73
     6
 40
1.1
 49
0.4
 74
     0
 49
-0.2
 74
     0
 49
0.05
 74
     0
 49
-0.2
 74
     0
 49
0.05
 74
     0
 49
-0.2
 74
     0
  0
ENDTAB
  0
TABLE
  2
LAYER
  5
2
102
{ACAD_XDICTIONARY
360
1E6
102
}
330
0
100
AcDbSymbolTable
 70
    15
  0
LAYER
  5
191
330
2
100
AcDbSymbolTableRecord
100
AcDbLayerTableRecord
  2
200
 70
     0
 62
     2
  6
Continuous
370
    50
390
F
347
18F
348
0
  0
LAYER
  5
1CA
330
2
100
AcDbSymbolTableRecord
100
AcDbLayerTableRecord
  2
0
 70
     0
 62
     1
  6
Continuous
370
    -3
390
F
347
18F
348
0
  0
LAYER
  5
1CB
330
2
100
AcDbSymbolTableRecord
100
AcDbLayerTableRecord
  2
1
 70
     0
 62
     4
  6
Continuous
370
    50
390
F
347
18F
348
0
  0
LAYER
  5
1CC
330
2
100
AcDbSymbolTableRecord
100
AcDbLayerTableRecord
  2
2
 70
     0
 62
     7
  6
Continuous
370
    25
390
F
347
18F
348
0
  0
LAYER
  5
1CD
330
2
100
AcDbSymbolTableRecord
100
AcDbLayerTableRecord
  2
3
 70
     0
 62
     1
  6
DASH
370
    35
390
F
347
18F
348
0
  0
LAYER
  5
1CE
330
2
100
AcDbSymbolTableRecord
100
AcDbLayerTableRecord
  2
4
 70
     0
 62
     2
  6
LONGDASH_DASH
370
    25
390
F
347
18F
348
0
  0
LAYER
  5
1CF
330
2
100
AcDbSymbolTableRecord
100
AcDbLayerTableRecord
  2
6
 70
     0
 62
     5
  6
Continuous
370
    -3
390
F
347
18F
348
0
  0
LAYER
  5
1D0
330
2
100
AcDbSymbolTableRecord
100
AcDbLayerTableRecord
  2
CUT
 70
     0
 62
     1
  6
Continuous
370
    25
390
F
347
18F
348
0
  0
LAYER
  5
1D1
330
2
100
AcDbSymbolTableRecord
100
AcDbLayerTableRecord
  2
NOCUT
 70
     0
 62
     7
  6
Continuous
370
    25
390
F
347
18F
348
0
  0
LAYER
  5
1D2
330
2
100
AcDbSymbolTableRecord
100
AcDbLayerTableRecord
  2
SK1
 70
     0
 62
     4
  6
Continuous
370
    50
390
F
347
18F
348
0
  0
LAYER
  5
1D3
330
2
100
AcDbSymbolTableRecord
100
AcDbLayerTableRecord
  2
SK2
 70
     0
 62
     7
  6
Continuous
370
    25
390
F
347
18F
348
0
  0
LAYER
  5
1D4
330
2
100
AcDbSymbolTableRecord
100
AcDbLayerTableRecord
  2
SK3
 70
     0
 62
     1
  6
DASH
370
    35
390
F
347
18F
348
0
  0
LAYER
  5
1D5
330
2
100
AcDbSymbolTableRecord
100
AcDbLayerTableRecord
  2
SK4
 70
     0
 62
     2
  6
LONGDASH_DASH
370
    25
390
F
347
18F
348
0
  0
LAYER
  5
1D6
330
2
100
AcDbSymbolTableRecord
100
AcDbLayerTableRecord
  2
SK6
 70
     0
 62
     5
  6
Continuous
370
    -3
390
F
347
18F
348
0
  0
LAYER
  5
1D7
330
2
100
AcDbSymbolTableRecord
100
AcDbLayerTableRecord
  2
INFTOTAL
 70
     0
 62
     9
  6
Continuous
370
    18
390
F
347
18F
348
0
  0
ENDTAB
  0
TABLE
  2
STYLE
  5
3
330
0
100
AcDbSymbolTable
 70
     2
  0
STYLE
  5
11
330
3
100
AcDbSymbolTableRecord
100
AcDbTextStyleTableRecord
  2
Standard
 70
     0
 40
0.0
 41
1.0
 50
0.0
 71
     0
 42
0.2
  3
txt
  4

  0
STYLE
  5
190
330
3
100
AcDbSymbolTableRecord
100
AcDbTextStyleTableRecord
  2
BMG_Text
 70
     0
 40
3.5
 41
1.0
 50
0.0
 71
     0
 42
0.2
  3
monos.ttf
  4

1001
ACAD
1000
Monospac821 BT
1071
       49
  0
ENDTAB
  0
TABLE
  2
VIEW
  5
6
330
0
100
AcDbSymbolTable
 70
     0
  0
ENDTAB
  0
TABLE
  2
UCS
  5
7
330
0
100
AcDbSymbolTable
 70
     0
  0
ENDTAB
  0
TABLE
  2
APPID
  5
9
330
0
100
AcDbSymbolTable
 70
     1
  0
APPID
  5
12
330
9
100
AcDbSymbolTableRecord
100
AcDbRegAppTableRecord
  2
ACAD
 70
     0
  0
ENDTAB
  0
TABLE
  2
DIMSTYLE
  5
A
330
0
100
AcDbSymbolTable
 70
     1
100
AcDbDimStyleTable
  0
DIMSTYLE
105
28
330
A
100
AcDbSymbolTableRecord
100
AcDbDimStyleTableRecord
  2
Standard
 70
     0
178
     0
340
11
  0
ENDTAB
  0
TABLE
  2
BLOCK_RECORD
  5
1
330
0
100
AcDbSymbolTable
 70
     0
  0
BLOCK_RECORD
  5
1D
330
1
100
AcDbSymbolTableRecord
100
AcDbBlockTableRecord
  2
*Model_Space
340
1E
 70
     0
280
     1
281
     0
  0
BLOCK_RECORD
  5
1B
330
1
100
AcDbSymbolTableRecord
100
AcDbBlockTableRecord
  2
*Paper_Space
340
1C
 70
     0
280
     1
281
     0
  0
ENDTAB
  0
ENDSEC
  0
SECTION
  2
BLOCKS
  0
BLOCK
  5
179
330
1D
100
AcDbEntity
  8
0
100
AcDbBlockBegin
  2
*Model_Space
 70
     0
 10
0.0
 20
0.0
 30
0.0
  3
*Model_Space
  1

  0
ENDBLK
  5
17A
330
1D
100
AcDbEntity
  8
0
100
AcDbBlockEnd
  0
BLOCK
  5
177
330
1B
100
AcDbEntity
 67
     1
  8
0
100
AcDbBlockBegin
  2
*Paper_Space
 70
     0
 10
0.0
 20
0.0
 30
0.0
  3
*Paper_Space
  1

  0
ENDBLK
  5
178
330
1B
100
AcDbEntity
 67
     1
  8
0
100
AcDbBlockEnd
  0
ENDSEC
  0
SECTION
  2
ENTITIES
  0
LINE
  5
29
330
1D
100
AcDbEntity
  8
SK6
100
AcDbLine
 10
-10.755133679
 20
-67.973345968
 30
0.0
 11
-10.755144649
 21
-68.963343838
 31
0.0
  0
ARC
  5
2A
330
1D
100
AcDbEntity
  8
SK6
100
AcDbCircle
 10
-8.235144669
 20
-68.963343838
 30
0.0
 40
2.51999998
100
AcDbArc
 50
180.0
 51
217.383167876
  0
LINE
  5
2B
330
1D
100
AcDbEntity
  8
SK6
100
AcDbLine
 10
-10.237528849
 20
-70.493350238
 30
0.0
 11
-7.717528399
 21
-70.493350238
 31
0.0
  0
LINE
  5
2C
330
1D
100
AcDbEntity
  8
SK6
100
AcDbLine
 10
-7.717528399
 20
-70.493350238
 30
0.0
 11
-7.627510123
 21
-70.49334367
 31
0.0
  0
ARC
  5
2D
330
1D
100
AcDbEntity
  8
SK6
100
AcDbCircle
 10
-5.625136429
 20
-68.963343838
 30
0.0
 40
2.51999998
100
AcDbArc
 50
180.00919347
 51
217.38319397
  0
LINE
  5
2E
330
1D
100
AcDbEntity
  8
SK6
100
AcDbLine
 10
-8.145136889
 20
-68.963748188
 30
0.0
 11
-8.14575431
 21
-64.970132145
 31
0.0
  0
ARC
  5
2F
330
1D
100
AcDbEntity
  8
SK6
100
AcDbCircle
 10
-10.665114449
 20
-64.913348408
 30
0.0
 40
2.51999998
100
AcDbArc
 50
358.70883179
 51
93.06671133100001
  0
ARC
  5
30
330
1D
100
AcDbEntity
  8
SK6
100
AcDbCircle
 10
-10.935126359
 20
-59.873347498
 30
0.0
 40
2.51999998
100
AcDbArc
 50
273.06652832
 51
359.999826522
  0
LINE
  5
31
330
1D
100
AcDbEntity
  8
SK6
100
AcDbLine
 10
-8.415114449
 20
-59.873355128
 30
0.0
 11
-8.415126379
 21
-57.263354518
 31
0.0
  0
ARC
  5
32
330
1D
100
AcDbEntity
  8
SK6
100
AcDbCircle
 10
-10.935126359
 20
-57.263354518
 30
0.0
 40
2.51999998
100
AcDbArc
 50
0.0
 51
90.0
  0
LINE
  5
33
330
1D
100
AcDbEntity
  8
SK6
100
AcDbLine
 10
-10.935126359
 20
-54.743334988
 30
0.0
 11
-15.885119489
 21
-54.743350238
 31
0.0
  0
LINE
  5
34
330
1D
100
AcDbEntity
  8
SK6
100
AcDbLine
 10
-15.885119489
 20
-54.743350238
 30
0.0
 11
-15.885119489
 21
-70.493350238
 31
0.0
  0
LINE
  5
35
330
1D
100
AcDbEntity
  8
SK6
100
AcDbLine
 10
-15.885119489
 20
-70.493350238
 30
0.0
 11
-13.185126359
 21
-70.493350238
 31
0.0
  0
LINE
  5
36
330
1D
100
AcDbEntity
  8
SK6
100
AcDbLine
 10
-13.185126359
 20
-70.493350238
 30
0.0
 11
-13.185114909
 21
-63.653338648
 31
0.0
  0
LINE
  5
37
330
1D
100
AcDbEntity
  8
SK6
100
AcDbLine
 10
-13.185114909
 20
-63.653338648
 30
0.0
 11
-11.835112762
 21
-63.653340438
 31
0.0
  0
ARC
  5
38
330
1D
100
AcDbEntity
  8
SK6
100
AcDbCircle
 10
-11.835112619
 20
-64.733340478
 30
0.0
 40
1.08000004
100
AcDbArc
 50
359.999190416
 51
90.00000763
  0
LINE
  5
39
330
1D
100
AcDbEntity
  8
SK6
100
AcDbLine
 10
-10.755133679
 20
-64.733355738
 30
0.0
 11
-10.755133679
 21
-68.963343838
 31
0.0
  0
LINE
  5
3A
330
1D
100
AcDbEntity
  8
SK3
100
AcDbLine
 10
-49.99998474
 20
27.36602783
 30
0.0
 11
-48.49998474
 21
26.5
 31
0.0
  0
LINE
  5
3B
330
1D
100
AcDbEntity
  8
SK3
100
AcDbLine
 10
-48.49998474
 20
26.5
 30
0.0
 11
-48.49998474
 21
-26.5
 31
0.0
  0
LINE
  5
3C
330
1D
100
AcDbEntity
  8
SK3
100
AcDbLine
 10
-48.49998474
 20
-26.5
 30
0.0
 11
-30.00340271
 21
-26.5
 31
0.0
  0
LINE
  5
3D
330
1D
100
AcDbEntity
  8
SK3
100
AcDbLine
 10
-30.00340271
 20
-26.5
 30
0.0
 11
-27.405317687
 21
-31.000029196
 31
0.0
  0
ARC
  5
3E
330
1D
100
AcDbEntity
  8
SK3
100
AcDbCircle
 10
-26.53929138
 20
-30.50003052
 30
0.0
 40
1.00000012
100
AcDbArc
 50
209.99990845
 51
269.9982512789999
  0
LINE
  5
3F
330
1D
100
AcDbEntity
  8
SK3
100
AcDbLine
 10
-26.5393219
 20
-31.5
 30
0.0
 11
-9.74681091
 21
-31.50003624
 31
0.0
  0
ARC
  5
40
330
1D
100
AcDbEntity
  8
SK3
100
AcDbCircle
 10
-9.74681091
 20
-19.50003052
 30
0.0
 40
12.00000572
100
AcDbArc
 50
270.0
 51
324.314787287
  0
LINE
  5
41
330
1D
100
AcDbEntity
  8
3
100
AcDbLine
 10
-0.000015259
 20
-26.5
 30
0.0
 11
12.50001526
 21
-26.5
 31
0.0
  0
LINE
  5
42
330
1D
100
AcDbEntity
  8
3
100
AcDbLine
 10
12.50001526
 20
-26.5
 30
0.0
 11
12.50001526
 21
26.5
 31
0.0
  0
LINE
  5
43
330
1D
100
AcDbEntity
  8
3
100
AcDbLine
 10
12.50001526
 20
26.5
 30
0.0
 11
-0.000009876
 21
26.500000492
 31
0.0
  0
ARC
  5
44
330
1D
100
AcDbEntity
  8
SK3
100
AcDbCircle
 10
-9.74681091
 20
19.5
 30
0.0
 40
12.00000572
100
AcDbArc
 50
35.68531799
 51
90.00014572200001
  0
LINE
  5
45
330
1D
100
AcDbEntity
  8
SK3
100
AcDbLine
 10
-9.74684143
 20
31.5
 30
0.0
 11
-26.539291513
 21
31.50000012
 31
0.0
  0
ARC
  5
46
330
1D
100
AcDbEntity
  8
SK3
100
AcDbCircle
 10
-26.53929138
 20
30.5
 30
0.0
 40
1.00000012
100
AcDbArc
 50
90.00000763
 51
149.999195439
  0
LINE
  5
47
330
1D
100
AcDbEntity
  8
SK3
100
AcDbLine
 10
-27.4052887
 20
31.0
 30
0.0
 11
-30.00340271
 21
26.5
 31
0.0
  0
LINE
  5
48
330
1D
100
AcDbEntity
  8
SK3
100
AcDbLine
 10
-30.00340271
 20
26.5
 30
0.0
 11
-30.00340271
 21
-26.5
 31
0.0
  0
ARC
  5
49
330
1D
100
AcDbEntity
  8
1
100
AcDbCircle
 10
34.00003052
 20
36.59999084
 30
0.0
 40
5.0
100
AcDbArc
 50
180.0
 51
270.0
  0
LINE
  5
4A
330
1D
100
AcDbEntity
  8
1
100
AcDbLine
 10
34.00003052
 20
31.6000061
 30
0.0
 11
37.00003052
 21
31.6000061
 31
0.0
  0
LINE
  5
4B
330
1D
100
AcDbEntity
  8
1
100
AcDbLine
 10
37.00003052
 20
31.6000061
 30
0.0
 11
37.15002441
 21
31.75
 31
0.0
  0
LINE
  5
4C
330
1D
100
AcDbEntity
  8
1
100
AcDbLine
 10
37.15002441
 20
31.75
 30
0.0
 11
77.00003815
 21
31.75
 31
0.0
  0
LINE
  5
4D
330
1D
100
AcDbEntity
  8
1
100
AcDbLine
 10
77.00003815
 20
31.75
 30
0.0
 11
77.00003815
 21
-31.75
 31
0.0
  0
LINE
  5
4E
330
1D
100
AcDbEntity
  8
1
100
AcDbLine
 10
77.00003815
 20
-31.75
 30
0.0
 11
78.00003815
 21
-30.75
 31
0.0
  0
LINE
  5
4F
330
1D
100
AcDbEntity
  8
1
100
AcDbLine
 10
78.00003815
 20
-30.75
 30
0.0
 11
78.00003052
 21
30.75
 31
0.0
  0
LINE
  5
50
330
1D
100
AcDbEntity
  8
1
100
AcDbLine
 10
78.00003052
 20
30.75
 30
0.0
 11
77.00003052
 21
31.75
 31
0.0
  0
LINE
  5
51
330
1D
100
AcDbEntity
  8
SK6
100
AcDbLine
 10
-13.185126359
 20
-61.493350238
 30
0.0
 11
-11.565123609
 21
-61.493341128
 31
0.0
  0
ARC
  5
52
330
1D
100
AcDbEntity
  8
SK6
100
AcDbCircle
 10
-11.565123609
 20
-60.593341088
 30
0.0
 40
0.90000004
100
AcDbArc
 50
270.0
 51
359.9995142640001
  0
LINE
  5
53
330
1D
100
AcDbEntity
  8
SK6
100
AcDbLine
 10
-10.665114449
 20
-60.593348718
 30
0.0
 11
-10.665123569
 21
-57.713351458
 31
0.0
  0
ARC
  5
54
330
1D
100
AcDbEntity
  8
SK6
100
AcDbCircle
 10
-11.565123609
 20
-57.713351458
 30
0.0
 40
0.90000004
100
AcDbArc
 50
0.0
 51
90.0
  0
LINE
  5
55
330
1D
100
AcDbEntity
  8
SK6
100
AcDbLine
 10
-11.565123609
 20
-56.813357568
 30
0.0
 11
-13.185126359
 21
-56.813357568
 31
0.0
  0
LINE
  5
56
330
1D
100
AcDbEntity
  8
SK6
100
AcDbLine
 10
-13.185126359
 20
-56.813357568
 30
0.0
 11
-13.185126359
 21
-61.493350238
 31
0.0
  0
ARC
  5
57
330
1D
100
AcDbEntity
  8
1
100
AcDbCircle
 10
19.12501526
 20
47.00003052
 30
0.0
 40
1.00000012
100
AcDbArc
 50
180.0
 51
270.000874307
  0
LINE
  5
58
330
1D
100
AcDbEntity
  8
1
100
AcDbLine
 10
19.12503052
 20
46.0
 30
0.0
 11
20.87501526
 21
46.0000304
 31
0.0
  0
ARC
  5
59
330
1D
100
AcDbEntity
  8
1
100
AcDbCircle
 10
20.87501526
 20
47.00003052
 30
0.0
 40
1.00000012
100
AcDbArc
 50
270.0
 51
0.0
  0
LINE
  5
5A
330
1D
100
AcDbEntity
  8
1
100
AcDbLine
 10
37.00003815
 20
31.6000061
 30
0.0
 11
37.00003815
 21
-31.6000061
 31
0.0
  0
LINE
  5
5B
330
1D
100
AcDbEntity
  8
1
100
AcDbLine
 10
37.00003815
 20
-31.6000061
 30
0.0
 11
34.00003815
 21
-31.6000061
 31
0.0
  0
ARC
  5
5C
330
1D
100
AcDbEntity
  8
1
100
AcDbCircle
 10
34.00003815
 20
-36.6000061
 30
0.0
 40
5.0
100
AcDbArc
 50
90.0
 51
180.0
  0
ARC
  5
5D
330
1D
100
AcDbEntity
  8
SK1
100
AcDbCircle
 10
-0.59994507
 20
-38.52008057
 30
0.0
 40
1.00000012
100
AcDbArc
 50
53.13027954
 51
90.00174856
  0
LINE
  5
5E
330
1D
100
AcDbEntity
  8
SK1
100
AcDbLine
 10
-0.59997559
 20
-37.52001953
 30
0.0
 11
-1.599945203
 21
-37.52008045
 31
0.0
  0
ARC
  5
5F
330
1D
100
AcDbEntity
  8
SK1
100
AcDbCircle
 10
-1.59994507
 20
-38.52008057
 30
0.0
 40
1.00000012
100
AcDbArc
 50
90.00000763
 51
140.320013369
  0
LINE
  5
60
330
1D
100
AcDbEntity
  8
SK1
100
AcDbLine
 10
-2.36962891
 20
-37.88153076
 30
0.0
 11
-2.36962891
 21
37.88153076
 31
0.0
  0
LINE
  5
61
330
1D
100
AcDbEntity
  8
SK1
100
AcDbLine
 10
-2.36962891
 20
37.88153076
 30
0.0
 11
-48.099846147
 21
35.595016617
 31
0.0
  0
ARC
  5
62
330
1D
100
AcDbEntity
  8
SK1
100
AcDbCircle
 10
-47.99996948
 20
33.59750366
 30
0.0
 40
2.00000834
100
AcDbArc
 50
92.86243438999998
 51
179.999125666
  0
LINE
  5
63
330
1D
100
AcDbEntity
  8
SK1
100
AcDbLine
 10
-49.99996948
 20
33.59753418
 30
0.0
 11
-49.99997782
 21
-33.59753418
 31
0.0
  0
ARC
  5
64
330
1D
100
AcDbEntity
  8
SK1
100
AcDbCircle
 10
-47.99996948
 20
-33.59753418
 30
0.0
 40
2.00000834
100
AcDbArc
 50
180.0
 51
267.138205875
  0
LINE
  5
65
330
1D
100
AcDbEntity
  8
SK1
100
AcDbLine
 10
-48.099823
 20
-35.59503174
 30
0.0
 11
-2.36962891
 21
-37.88153076
 31
0.0
  0
ARC
  5
66
330
1D
100
AcDbEntity
  8
1
100
AcDbCircle
 10
20.87503815
 20
-47.00006104
 30
0.0
 40
1.00000012
100
AcDbArc
 50
0.0
 51
90.0
  0
LINE
  5
67
330
1D
100
AcDbEntity
  8
1
100
AcDbLine
 10
20.87503815
 20
-46.0
 30
0.0
 11
19.125038017
 21
-46.00006092
 31
0.0
  0
ARC
  5
68
330
1D
100
AcDbEntity
  8
1
100
AcDbCircle
 10
19.12503815
 20
-47.00006104
 30
0.0
 40
1.00000012
100
AcDbArc
 50
90.00000763
 51
180.0
  0
LINE
  5
69
330
1D
100
AcDbEntity
  8
SK6
100
AcDbLine
 10
-26.865130479
 20
-54.743334988
 30
0.0
 11
-26.865119029
 21
-56.813357568
 31
0.0
  0
LINE
  5
6A
330
1D
100
AcDbEntity
  8
SK6
100
AcDbLine
 10
-26.865119029
 20
-56.813357568
 30
0.0
 11
-29.745116432
 21
-56.813336468
 31
0.0
  0
ARC
  5
6B
330
1D
100
AcDbEntity
  8
SK6
100
AcDbCircle
 10
-29.745116289
 20
-57.893336508
 30
0.0
 40
1.08000004
100
AcDbArc
 50
90.00000763
 51
206.543420561
  0
LINE
  5
6C
330
1D
100
AcDbEntity
  8
SK6
100
AcDbLine
 10
-30.711283739
 20
-58.375964378
 30
0.0
 11
-26.609718171
 21
-66.586771474
 31
0.0
  0
ARC
  5
6D
330
1D
100
AcDbEntity
  8
SK6
100
AcDbCircle
 10
-29.025122689
 20
-67.793345668
 30
0.0
 40
2.70000005
100
AcDbArc
 50
269.999918937
 51
26.54364014
  0
LINE
  5
6E
330
1D
100
AcDbEntity
  8
SK6
100
AcDbLine
 10
-29.025126509
 20
-70.493350238
 30
0.0
 11
-33.615130479
 21
-70.493350238
 31
0.0
  0
LINE
  5
6F
330
1D
100
AcDbEntity
  8
SK6
100
AcDbLine
 10
-33.615130479
 20
-70.493350238
 30
0.0
 11
-33.615107589
 21
-68.423342918
 31
0.0
  0
LINE
  5
70
330
1D
100
AcDbEntity
  8
SK6
100
AcDbLine
 10
-33.615107589
 20
-68.423342918
 30
0.0
 11
-30.195109419
 21
-68.423341128
 31
0.0
  0
ARC
  5
71
330
1D
100
AcDbEntity
  8
SK6
100
AcDbCircle
 10
-30.195109419
 20
-67.343341088
 30
0.0
 40
1.08000004
100
AcDbArc
 50
270.0
 51
26.544596906
  0
LINE
  5
72
330
1D
100
AcDbEntity
  8
SK6
100
AcDbLine
 10
-29.228961039
 20
-66.860697958
 30
0.0
 11
-33.330530095
 21
-58.649906766
 31
0.0
  0
ARC
  5
73
330
1D
100
AcDbEntity
  8
SK6
100
AcDbCircle
 10
-30.915125899
 20
-57.443331928
 30
0.0
 40
2.70000005
100
AcDbArc
 50
90.0
 51
206.5436554
  0
LINE
  5
74
330
1D
100
AcDbEntity
  8
SK6
100
AcDbLine
 10
-30.915125899
 20
-54.743334988
 30
0.0
 11
-26.865122849
 21
-54.743334988
 31
0.0
  0
LINE
  5
75
330
1D
100
AcDbEntity
  8
1
100
AcDbLine
 10
18.12503052
 20
36.45233154
 30
0.0
 11
16.75247192
 21
38.82971191
 31
0.0
  0
LINE
  5
76
330
1D
100
AcDbEntity
  8
1
100
AcDbLine
 10
16.75247192
 20
38.82971191
 30
0.0
 11
5.000106226
 21
38.829687585
 31
0.0
  0
ARC
  5
77
330
1D
100
AcDbEntity
  8
1
100
AcDbCircle
 10
14.63699341
 20
41.49996948
 30
0.0
 40
10.0
100
AcDbArc
 50
195.48750305
 51
270.0
  0
LINE
  5
78
330
1D
100
AcDbEntity
  8
1
100
AcDbLine
 10
14.63699341
 20
31.5
 30
0.0
 11
18.12503052
 21
31.5
 31
0.0
  0
ARC
  5
79
330
1D
100
AcDbEntity
  8
SK1
100
AcDbCircle
 10
-1.59994507
 20
38.52005005
 30
0.0
 40
1.00000012
100
AcDbArc
 50
219.679245
 51
269.998251386
  0
LINE
  5
7A
330
1D
100
AcDbEntity
  8
SK1
100
AcDbLine
 10
-1.59997559
 20
37.52001953
 30
0.0
 11
-0.59994507
 21
37.52004993
 31
0.0
  0
ARC
  5
7B
330
1D
100
AcDbEntity
  8
SK1
100
AcDbCircle
 10
-0.59994507
 20
38.52005005
 30
0.0
 40
1.00000012
100
AcDbArc
 50
270.0
 51
306.86972046
  0
LINE
  5
7C
330
1D
100
AcDbEntity
  8
1
100
AcDbLine
 10
64.95005035
 20
-1.73205566
 30
0.0
 11
64.95005035
 21
1.73205566
 31
0.0
  0
LINE
  5
7D
330
1D
100
AcDbEntity
  8
1
100
AcDbLine
 10
64.95005035
 20
1.73205566
 30
0.0
 11
61.9500351
 21
3.46411133
 31
0.0
  0
LINE
  5
7E
330
1D
100
AcDbEntity
  8
1
100
AcDbLine
 10
61.9500351
 20
3.46411133
 30
0.0
 11
58.95001984
 21
1.73205566
 31
0.0
  0
LINE
  5
7F
330
1D
100
AcDbEntity
  8
1
100
AcDbLine
 10
58.95001984
 20
1.73205566
 30
0.0
 11
58.9500351
 21
-1.73205566
 31
0.0
  0
LINE
  5
80
330
1D
100
AcDbEntity
  8
1
100
AcDbLine
 10
58.9500351
 20
-1.73205566
 30
0.0
 11
61.9500351
 21
-3.46411133
 31
0.0
  0
LINE
  5
81
330
1D
100
AcDbEntity
  8
1
100
AcDbLine
 10
61.9500351
 20
-3.46411133
 30
0.0
 11
64.95005035
 21
-1.73205566
 31
0.0
  0
LINE
  5
82
330
1D
100
AcDbEntity
  8
3
100
AcDbLine
 10
26.25003052
 20
-12.25
 30
0.0
 11
26.25003052
 21
12.25
 31
0.0
  0
LINE
  5
83
330
1D
100
AcDbEntity
  8
3
100
AcDbLine
 10
26.25003052
 20
12.25
 30
0.0
 11
28.50003052
 21
12.25
 31
0.0
  0
LINE
  5
84
330
1D
100
AcDbEntity
  8
3
100
AcDbLine
 10
28.50003052
 20
12.25
 30
0.0
 11
28.50003052
 21
-12.25
 31
0.0
  0
LINE
  5
85
330
1D
100
AcDbEntity
  8
3
100
AcDbLine
 10
28.50003052
 20
-12.25
 30
0.0
 11
26.25003052
 21
-12.25
 31
0.0
  0
LINE
  5
86
330
1D
100
AcDbEntity
  8
3
100
AcDbLine
 10
12.50001526
 20
12.25
 30
0.0
 11
13.50002289
 21
11.25
 31
0.0
  0
LINE
  5
87
330
1D
100
AcDbEntity
  8
3
100
AcDbLine
 10
13.50002289
 20
11.25
 30
0.0
 11
13.50002289
 21
-11.25
 31
0.0
  0
LINE
  5
88
330
1D
100
AcDbEntity
  8
3
100
AcDbLine
 10
13.50002289
 20
-11.25
 30
0.0
 11
12.50001526
 21
-12.25
 31
0.0
  0
LINE
  5
89
330
1D
100
AcDbEntity
  8
SK4
100
AcDbLine
 10
61.9500351
 20
7.823569682
 30
0.0
 11
61.9500351
 21
-7.139874163
 31
0.0
  0
LINE
  5
8A
330
1D
100
AcDbEntity
  8
SK4
100
AcDbLine
 10
-51.99997711
 20
0.0
 30
0.0
 11
80.00002289
 21
0.0
 31
0.0
  0
LINE
  5
8B
330
1D
100
AcDbEntity
  8
1
100
AcDbLine
 10
16.75247192
 20
50.00003052
 30
0.0
 11
18.12503052
 21
47.62261963
 31
0.0
  0
LINE
  5
8C
330
1D
100
AcDbEntity
  8
1
100
AcDbLine
 10
18.12503052
 20
47.62261963
 30
0.0
 11
18.12503815
 21
-47.62261963
 31
0.0
  0
LINE
  5
8D
330
1D
100
AcDbEntity
  8
1
100
AcDbLine
 10
18.12503815
 20
-47.62261963
 30
0.0
 11
16.75247192
 21
-50.00001526
 31
0.0
  0
LINE
  5
8E
330
1D
100
AcDbEntity
  8
1
100
AcDbLine
 10
16.75247192
 20
-50.00001526
 30
0.0
 11
0.0
 21
-50.0
 31
0.0
  0
LINE
  5
8F
330
1D
100
AcDbEntity
  8
1
100
AcDbLine
 10
0.0
 20
-50.0
 30
0.0
 11
0.0
 21
50.00003052
 31
0.0
  0
LINE
  5
90
330
1D
100
AcDbEntity
  8
1
100
AcDbLine
 10
0.0
 20
50.00003052
 30
0.0
 11
16.75247192
 21
50.00003052
 31
0.0
  0
LINE
  5
91
330
1D
100
AcDbEntity
  8
1
100
AcDbLine
 10
16.75247192
 20
50.00003052
 30
0.0
 11
16.75247192
 21
38.82971191
 31
0.0
  0
LINE
  5
92
330
1D
100
AcDbEntity
  8
1
100
AcDbLine
 10
21.87503052
 20
36.45233154
 30
0.0
 11
23.24758911
 21
38.82971191
 31
0.0
  0
LINE
  5
93
330
1D
100
AcDbEntity
  8
1
100
AcDbLine
 10
23.24758911
 20
38.82971191
 30
0.0
 11
23.24758911
 21
50.00003052
 31
0.0
  0
LINE
  5
94
330
1D
100
AcDbEntity
  8
1
100
AcDbLine
 10
23.24758911
 20
50.00003052
 30
0.0
 11
29.00003815
 21
50.00003052
 31
0.0
  0
LINE
  5
95
330
1D
100
AcDbEntity
  8
1
100
AcDbLine
 10
29.00003815
 20
50.00003052
 30
0.0
 11
29.00003815
 21
-50.00001526
 31
0.0
  0
LINE
  5
96
330
1D
100
AcDbEntity
  8
1
100
AcDbLine
 10
29.00003815
 20
-50.00001526
 30
0.0
 11
23.24759674
 21
-50.00001526
 31
0.0
  0
LINE
  5
97
330
1D
100
AcDbEntity
  8
1
100
AcDbLine
 10
23.24759674
 20
-50.00001526
 30
0.0
 11
21.87503052
 21
-47.62261963
 31
0.0
  0
LINE
  5
98
330
1D
100
AcDbEntity
  8
1
100
AcDbLine
 10
21.87503052
 20
-47.62261963
 30
0.0
 11
21.87503052
 21
47.62261963
 31
0.0
  0
LINE
  5
99
330
1D
100
AcDbEntity
  8
1
100
AcDbLine
 10
21.87503052
 20
47.62261963
 30
0.0
 11
23.24758911
 21
50.00003052
 31
0.0
  0
LINE
  5
9A
330
1D
100
AcDbEntity
  8
1
100
AcDbLine
 10
37.00003815
 20
-31.6000061
 30
0.0
 11
37.15003204
 21
-31.75
 31
0.0
  0
LINE
  5
9B
330
1D
100
AcDbEntity
  8
1
100
AcDbLine
 10
37.15003204
 20
-31.75
 30
0.0
 11
77.00003815
 21
-31.75
 31
0.0
  0
LINE
  5
9C
330
1D
100
AcDbEntity
  8
SK4
100
AcDbLine
 10
-10.00022125
 20
37.5
 30
0.0
 11
-10.00022125
 21
-37.5
 31
0.0
  0
LINE
  5
9D
330
1D
100
AcDbEntity
  8
SK6
100
AcDbLine
 10
-24.165137339
 20
-54.743350238
 30
0.0
 11
-18.315135049
 21
-54.743350238
 31
0.0
  0
LINE
  5
9E
330
1D
100
AcDbEntity
  8
SK6
100
AcDbLine
 10
-18.315135049
 20
-54.743350238
 30
0.0
 11
-18.315146499
 21
-56.813342308
 31
0.0
  0
LINE
  5
9F
330
1D
100
AcDbEntity
  8
SK6
100
AcDbLine
 10
-18.315146499
 20
-56.813342308
 30
0.0
 11
-21.285151529
 21
-56.813357568
 31
0.0
  0
LINE
  5
A0
330
1D
100
AcDbEntity
  8
SK6
100
AcDbLine
 10
-21.285151529
 20
-56.813357568
 30
0.0
 11
-21.285140089
 21
-61.493350238
 31
0.0
  0
LINE
  5
A1
330
1D
100
AcDbEntity
  8
SK6
100
AcDbLine
 10
-21.285140089
 20
-61.493350238
 30
0.0
 11
-18.315135049
 21
-61.493327358
 31
0.0
  0
LINE
  5
A2
330
1D
100
AcDbEntity
  8
SK6
100
AcDbLine
 10
-18.315135049
 20
-61.493327358
 30
0.0
 11
-18.315146499
 21
-63.653331018
 31
0.0
  0
LINE
  5
A3
330
1D
100
AcDbEntity
  8
SK6
100
AcDbLine
 10
-18.315146499
 20
-63.653331018
 30
0.0
 11
-21.285151529
 21
-63.653331018
 31
0.0
  0
LINE
  5
A4
330
1D
100
AcDbEntity
  8
SK6
100
AcDbLine
 10
-21.285151529
 20
-63.653331018
 30
0.0
 11
-21.285140089
 21
-68.423342918
 31
0.0
  0
LINE
  5
A5
330
1D
100
AcDbEntity
  8
SK6
100
AcDbLine
 10
-21.285140089
 20
-68.423342918
 30
0.0
 11
-18.315123609
 21
-68.423342918
 31
0.0
  0
LINE
  5
A6
330
1D
100
AcDbEntity
  8
SK6
100
AcDbLine
 10
-18.315123609
 20
-68.423342918
 30
0.0
 11
-18.315123609
 21
-70.493350238
 31
0.0
  0
LINE
  5
A7
330
1D
100
AcDbEntity
  8
SK6
100
AcDbLine
 10
-18.315123609
 20
-70.493350238
 30
0.0
 11
-24.165125899
 21
-70.493350238
 31
0.0
  0
LINE
  5
A8
330
1D
100
AcDbEntity
  8
SK6
100
AcDbLine
 10
-24.165125899
 20
-70.493350238
 30
0.0
 11
-24.165125899
 21
-54.743350238
 31
0.0
  0
LINE
  5
A9
330
1D
100
AcDbEntity
  8
SK6
100
AcDbLine
 10
-57.915125899
 20
-54.743350238
 30
0.0
 11
-57.915125899
 21
-61.853358478
 31
0.0
  0
LINE
  5
AA
330
1D
100
AcDbEntity
  8
SK6
100
AcDbLine
 10
-57.915125899
 20
-61.853358478
 30
0.0
 11
-54.945132309
 21
-54.743350238
 31
0.0
  0
LINE
  5
AB
330
1D
100
AcDbEntity
  8
SK6
100
AcDbLine
 10
-54.945132309
 20
-54.743350238
 30
0.0
 11
-52.155131389
 21
-54.743350238
 31
0.0
  0
LINE
  5
AC
330
1D
100
AcDbEntity
  8
SK6
100
AcDbLine
 10
-52.155131389
 20
-54.743350238
 30
0.0
 11
-55.215136579
 21
-61.493350238
 31
0.0
  0
LINE
  5
AD
330
1D
100
AcDbEntity
  8
SK6
100
AcDbLine
 10
-55.215136579
 20
-61.493350238
 30
0.0
 11
-51.615130479
 21
-70.493350238
 31
0.0
  0
LINE
  5
AE
330
1D
100
AcDbEntity
  8
SK6
100
AcDbLine
 10
-51.615130479
 20
-70.493350238
 30
0.0
 11
-54.405131389
 21
-70.493350238
 31
0.0
  0
LINE
  5
AF
330
1D
100
AcDbEntity
  8
SK6
100
AcDbLine
 10
-54.405131389
 20
-70.493350238
 30
0.0
 11
-56.835124069
 21
-65.003344748
 31
0.0
  0
LINE
  5
B0
330
1D
100
AcDbEntity
  8
SK6
100
AcDbLine
 10
-56.835124069
 20
-65.003344748
 30
0.0
 11
-57.915125899
 21
-67.073352078
 31
0.0
  0
LINE
  5
B1
330
1D
100
AcDbEntity
  8
SK6
100
AcDbLine
 10
-57.915125899
 20
-67.073352078
 30
0.0
 11
-57.915125899
 21
-70.493350238
 31
0.0
  0
LINE
  5
B2
330
1D
100
AcDbEntity
  8
SK6
100
AcDbLine
 10
-57.915125899
 20
-70.493350238
 30
0.0
 11
-60.705126809
 21
-70.493350238
 31
0.0
  0
LINE
  5
B3
330
1D
100
AcDbEntity
  8
SK6
100
AcDbLine
 10
-60.705126809
 20
-70.493350238
 30
0.0
 11
-60.705126809
 21
-54.743350238
 31
0.0
  0
LINE
  5
B4
330
1D
100
AcDbEntity
  8
SK6
100
AcDbLine
 10
-60.705126809
 20
-54.743350238
 30
0.0
 11
-57.915125899
 21
-54.743350238
 31
0.0
  0
LINE
  5
B5
330
1D
100
AcDbEntity
  8
SK6
100
AcDbLine
 10
-38.655119949
 20
-54.743350238
 30
0.0
 11
-38.655119949
 21
-70.493350238
 31
0.0
  0
LINE
  5
B6
330
1D
100
AcDbEntity
  8
SK6
100
AcDbLine
 10
-38.655119949
 20
-70.493350238
 30
0.0
 11
-35.775122689
 21
-70.493350238
 31
0.0
  0
LINE
  5
B7
330
1D
100
AcDbEntity
  8
SK6
100
AcDbLine
 10
-35.775122689
 20
-70.493350238
 30
0.0
 11
-35.775122689
 21
-54.743350238
 31
0.0
  0
LINE
  5
B8
330
1D
100
AcDbEntity
  8
SK6
100
AcDbLine
 10
-35.775122689
 20
-54.743350238
 30
0.0
 11
-38.655131389
 21
-54.743350238
 31
0.0
  0
LINE
  5
B9
330
1D
100
AcDbEntity
  8
SK6
100
AcDbLine
 10
-47.475131089
 20
-54.293345668
 30
0.0
 11
-44.415125899
 21
-54.293345668
 31
0.0
  0
LINE
  5
BA
330
1D
100
AcDbEntity
  8
SK6
100
AcDbLine
 10
-44.415125899
 20
-54.293345668
 30
0.0
 11
-40.005122239
 21
-70.493350238
 31
0.0
  0
LINE
  5
BB
330
1D
100
AcDbEntity
  8
SK6
100
AcDbLine
 10
-40.005122239
 20
-70.493350238
 30
0.0
 11
-42.975131089
 21
-70.493350238
 31
0.0
  0
LINE
  5
BC
330
1D
100
AcDbEntity
  8
SK6
100
AcDbLine
 10
-42.975131089
 20
-70.493350238
 30
0.0
 11
-46.035128649
 21
-58.613352988
 31
0.0
  0
LINE
  5
BD
330
1D
100
AcDbEntity
  8
SK6
100
AcDbLine
 10
-46.035128649
 20
-58.613352988
 30
0.0
 11
-47.565135049
 21
-67.973338338
 31
0.0
  0
LINE
  5
BE
330
1D
100
AcDbEntity
  8
SK6
100
AcDbLine
 10
-47.565135049
 20
-67.973338338
 30
0.0
 11
-44.685114909
 21
-67.973338338
 31
0.0
  0
LINE
  5
BF
330
1D
100
AcDbEntity
  8
SK6
100
AcDbLine
 10
-44.685114909
 20
-67.973338338
 30
0.0
 11
-44.235125589
 21
-70.493350238
 31
0.0
  0
LINE
  5
C0
330
1D
100
AcDbEntity
  8
SK6
100
AcDbLine
 10
-44.235125589
 20
-70.493350238
 30
0.0
 11
-50.535128649
 21
-70.493350238
 31
0.0
  0
LINE
  5
C1
330
1D
100
AcDbEntity
  8
SK6
100
AcDbLine
 10
-50.535128649
 20
-70.493350238
 30
0.0
 11
-47.475131089
 21
-54.293345668
 31
0.0
  0
LINE
  5
C2
330
1D
100
AcDbEntity
  8
3
100
AcDbLine
 10
28.50003052
 20
-6.0
 30
0.0
 11
36.00003052
 21
-6.0
 31
0.0
  0
LINE
  5
C3
330
1D
100
AcDbEntity
  8
3
100
AcDbLine
 10
12.75001526
 20
-12.0
 30
0.0
 11
26.25003052
 21
-12.0
 31
0.0
  0
LINE
  5
C4
330
1D
100
AcDbEntity
  8
3
100
AcDbLine
 10
13.50002289
 20
-11.25
 30
0.0
 11
26.25003052
 21
-11.25
 31
0.0
  0
LINE
  5
C5
330
1D
100
AcDbEntity
  8
3
100
AcDbLine
 10
39.99990845
 20
18.0
 30
0.0
 11
38.26797485
 21
19.0
 31
0.0
  0
LINE
  5
C6
330
1D
100
AcDbEntity
  8
3
100
AcDbLine
 10
38.26797485
 20
19.0
 30
0.0
 11
36.00003052
 21
19.0
 31
0.0
  0
LINE
  5
C7
330
1D
100
AcDbEntity
  8
3
100
AcDbLine
 10
36.00003052
 20
19.0
 30
0.0
 11
36.00003052
 21
-19.0
 31
0.0
  0
LINE
  5
C8
330
1D
100
AcDbEntity
  8
3
100
AcDbLine
 10
36.00003052
 20
-19.0
 30
0.0
 11
38.26797485
 21
-19.0
 31
0.0
  0
LINE
  5
C9
330
1D
100
AcDbEntity
  8
3
100
AcDbLine
 10
38.26797485
 20
-19.0
 30
0.0
 11
39.99990845
 21
-18.0
 31
0.0
  0
LINE
  5
CA
330
1D
100
AcDbEntity
  8
3
100
AcDbLine
 10
39.99990845
 20
-18.0
 30
0.0
 11
39.99990845
 21
18.0
 31
0.0
  0
LINE
  5
CB
330
1D
100
AcDbEntity
  8
3
100
AcDbLine
 10
39.99990845
 20
18.0
 30
0.0
 11
78.00003815
 21
18.0
 31
0.0
  0
LINE
  5
CC
330
1D
100
AcDbEntity
  8
3
100
AcDbLine
 10
28.50003052
 20
6.0
 30
0.0
 11
36.00003052
 21
6.0
 31
0.0
  0
LINE
  5
CD
330
1D
100
AcDbEntity
  8
SK3
100
AcDbLine
 10
-48.49998474
 20
-26.5
 30
0.0
 11
-49.99998474
 21
-27.36602783
 31
0.0
  0
LINE
  5
CE
330
1D
100
AcDbEntity
  8
3
100
AcDbLine
 10
39.99990845
 20
-18.0
 30
0.0
 11
78.00003815
 21
-18.0
 31
0.0
  0
LINE
  5
CF
330
1D
100
AcDbEntity
  8
SK3
100
AcDbLine
 10
-27.11659241
 20
31.31652832
 30
0.0
 11
-27.11659241
 21
-31.5
 31
0.0
  0
LINE
  5
D0
330
1D
100
AcDbEntity
  8
3
100
AcDbLine
 10
13.50002289
 20
11.25
 30
0.0
 11
26.25003052
 21
11.25
 31
0.0
  0
LINE
  5
D1
330
1D
100
AcDbEntity
  8
3
100
AcDbLine
 10
12.75001526
 20
12.0
 30
0.0
 11
26.25003052
 21
12.0
 31
0.0
  0
LINE
  5
D2
330
1D
100
AcDbEntity
  8
SK3
100
AcDbLine
 10
-48.49998474
 20
26.5
 30
0.0
 11
-30.00340271
 21
26.5
 31
0.0
  0
LINE
  5
D3
330
1D
100
AcDbEntity
  8
1
100
AcDbLine
 10
29.00003052
 20
38.82971191
 30
0.0
 11
23.24758911
 21
38.82971191
 31
0.0
  0
LINE
  5
D4
330
1D
100
AcDbEntity
  8
1
100
AcDbLine
 10
29.00003052
 20
31.5
 30
0.0
 11
21.87503052
 21
31.5
 31
0.0
  0
LINE
  5
D5
330
1D
100
AcDbEntity
  8
1
100
AcDbLine
 10
16.75247192
 20
31.5
 30
0.0
 11
16.75247192
 21
-50.00001526
 31
0.0
  0
LINE
  5
D6
330
1D
100
AcDbEntity
  8
1
100
AcDbLine
 10
23.24758911
 20
31.5
 30
0.0
 11
23.24758911
 21
-50.00001526
 31
0.0
  0
CIRCLE
  5
D7
330
1D
100
AcDbEntity
  8
1
100
AcDbCircle
 10
61.9500351
 20
0.0
 30
0.0
 40
6.0
  0
LINE
  5
D8
330
1D
100
AcDbEntity
  8
2
100
AcDbLine
 10
0.0
 20
62.000000002
 30
0.0
 11
0.0
 21
50.00003052
 31
0.0
  0
LINE
  5
D9
330
1D
100
AcDbEntity
  8
2
100
AcDbLine
 10
0.0
 20
60.000000002
 30
0.0
 11
3.5
 21
60.450000002
 31
0.0
  0
LINE
  5
DA
330
1D
100
AcDbEntity
  8
2
100
AcDbLine
 10
3.5
 20
60.450000002
 30
0.0
 11
3.5
 21
59.550000002
 31
0.0
  0
LINE
  5
DB
330
1D
100
AcDbEntity
  8
2
100
AcDbLine
 10
3.5
 20
59.550000002
 30
0.0
 11
0.0
 21
60.000000002
 31
0.0
  0
LINE
  5
DC
330
1D
100
AcDbEntity
  8
2
100
AcDbLine
 10
3.4
 20
60.000000002
 30
0.0
 11
0.1
 21
60.000000002
 31
0.0
  0
LINE
  5
DD
330
1D
100
AcDbEntity
  8
2
100
AcDbLine
 10
3.4
 20
59.800000002
 30
0.0
 11
1.655555556
 21
59.800000002
 31
0.0
  0
LINE
  5
DE
330
1D
100
AcDbEntity
  8
2
100
AcDbLine
 10
3.4
 20
60.200000002
 30
0.0
 11
1.655555556
 21
60.200000002
 31
0.0
  0
LINE
  5
DF
330
1D
100
AcDbEntity
  8
2
100
AcDbLine
 10
3.4
 20
59.600000002
 30
0.0
 11
3.211111111
 21
59.600000002
 31
0.0
  0
LINE
  5
E0
330
1D
100
AcDbEntity
  8
2
100
AcDbLine
 10
3.4
 20
60.400000002
 30
0.0
 11
3.211111111
 21
60.400000002
 31
0.0
  0
LINE
  5
E1
330
1D
100
AcDbEntity
  8
2
100
AcDbLine
 10
78.00003815
 20
62.0
 30
0.0
 11
78.00003815
 21
30.75
 31
0.0
  0
LINE
  5
E2
330
1D
100
AcDbEntity
  8
2
100
AcDbLine
 10
78.00003815
 20
60.0
 30
0.0
 11
74.50003815
 21
59.55
 31
0.0
  0
LINE
  5
E3
330
1D
100
AcDbEntity
  8
2
100
AcDbLine
 10
74.50003815
 20
59.55
 30
0.0
 11
74.50003815
 21
60.45
 31
0.0
  0
LINE
  5
E4
330
1D
100
AcDbEntity
  8
2
100
AcDbLine
 10
74.50003815
 20
60.45
 30
0.0
 11
78.00003815
 21
60.0
 31
0.0
  0
LINE
  5
E5
330
1D
100
AcDbEntity
  8
2
100
AcDbLine
 10
74.60003815
 20
60.0
 30
0.0
 11
77.90003815
 21
60.0
 31
0.0
  0
LINE
  5
E6
330
1D
100
AcDbEntity
  8
2
100
AcDbLine
 10
74.60003815
 20
60.2
 30
0.0
 11
76.344482594
 21
60.2
 31
0.0
  0
LINE
  5
E7
330
1D
100
AcDbEntity
  8
2
100
AcDbLine
 10
74.60003815
 20
59.8
 30
0.0
 11
76.344482594
 21
59.8
 31
0.0
  0
LINE
  5
E8
330
1D
100
AcDbEntity
  8
2
100
AcDbLine
 10
74.60003815
 20
60.4
 30
0.0
 11
74.788927039
 21
60.4
 31
0.0
  0
LINE
  5
E9
330
1D
100
AcDbEntity
  8
2
100
AcDbLine
 10
74.60003815
 20
59.6
 30
0.0
 11
74.788927039
 21
59.6
 31
0.0
  0
LINE
  5
EA
330
1D
100
AcDbEntity
  8
2
100
AcDbLine
 10
3.5
 20
60.000000002
 30
0.0
 11
74.50003815
 21
60.0
 31
0.0
  0
TEXT
  5
EB
330
1D
100
AcDbEntity
  8
2
100
AcDbText
 10
37.335330703
 20
61.500000001
 30
0.0
 40
3.5
  1
78
 50
359.999999998
  7
BMG_Text
100
AcDbText
  0
LINE
  5
EC
330
1D
100
AcDbEntity
  8
2
100
AcDbLine
 10
102.000000003
 20
-31.75
 30
0.0
 11
77.00003815
 21
-31.75
 31
0.0
  0
LINE
  5
ED
330
1D
100
AcDbEntity
  8
2
100
AcDbLine
 10
100.000000003
 20
-31.75
 30
0.0
 11
99.550000003
 21
-28.25
 31
0.0
  0
LINE
  5
EE
330
1D
100
AcDbEntity
  8
2
100
AcDbLine
 10
99.550000003
 20
-28.25
 30
0.0
 11
100.450000003
 21
-28.25
 31
0.0
  0
LINE
  5
EF
330
1D
100
AcDbEntity
  8
2
100
AcDbLine
 10
100.450000003
 20
-28.25
 30
0.0
 11
100.000000003
 21
-31.75
 31
0.0
  0
LINE
  5
F0
330
1D
100
AcDbEntity
  8
2
100
AcDbLine
 10
100.000000003
 20
-28.35
 30
0.0
 11
100.000000003
 21
-31.65
 31
0.0
  0
LINE
  5
F1
330
1D
100
AcDbEntity
  8
2
100
AcDbLine
 10
100.200000003
 20
-28.35
 30
0.0
 11
100.200000003
 21
-30.094444444
 31
0.0
  0
LINE
  5
F2
330
1D
100
AcDbEntity
  8
2
100
AcDbLine
 10
99.800000003
 20
-28.35
 30
0.0
 11
99.800000003
 21
-30.094444444
 31
0.0
  0
LINE
  5
F3
330
1D
100
AcDbEntity
  8
2
100
AcDbLine
 10
100.400000003
 20
-28.35
 30
0.0
 11
100.400000003
 21
-28.538888889
 31
0.0
  0
LINE
  5
F4
330
1D
100
AcDbEntity
  8
2
100
AcDbLine
 10
99.600000003
 20
-28.35
 30
0.0
 11
99.600000003
 21
-28.538888889
 31
0.0
  0
LINE
  5
F5
330
1D
100
AcDbEntity
  8
2
100
AcDbLine
 10
102.000000003
 20
31.75
 30
0.0
 11
77.00003815
 21
31.75
 31
0.0
  0
LINE
  5
F6
330
1D
100
AcDbEntity
  8
2
100
AcDbLine
 10
100.000000003
 20
31.75
 30
0.0
 11
100.450000003
 21
28.25
 31
0.0
  0
LINE
  5
F7
330
1D
100
AcDbEntity
  8
2
100
AcDbLine
 10
100.450000003
 20
28.25
 30
0.0
 11
99.550000003
 21
28.25
 31
0.0
  0
LINE
  5
F8
330
1D
100
AcDbEntity
  8
2
100
AcDbLine
 10
99.550000003
 20
28.25
 30
0.0
 11
100.000000003
 21
31.75
 31
0.0
  0
LINE
  5
F9
330
1D
100
AcDbEntity
  8
2
100
AcDbLine
 10
100.000000003
 20
28.35
 30
0.0
 11
100.000000003
 21
31.65
 31
0.0
  0
LINE
  5
FA
330
1D
100
AcDbEntity
  8
2
100
AcDbLine
 10
99.800000003
 20
28.35
 30
0.0
 11
99.800000003
 21
30.094444444
 31
0.0
  0
LINE
  5
FB
330
1D
100
AcDbEntity
  8
2
100
AcDbLine
 10
100.200000003
 20
28.35
 30
0.0
 11
100.200000003
 21
30.094444444
 31
0.0
  0
LINE
  5
FC
330
1D
100
AcDbEntity
  8
2
100
AcDbLine
 10
99.600000003
 20
28.35
 30
0.0
 11
99.600000003
 21
28.538888889
 31
0.0
  0
LINE
  5
FD
330
1D
100
AcDbEntity
  8
2
100
AcDbLine
 10
100.400000003
 20
28.35
 30
0.0
 11
100.400000003
 21
28.538888889
 31
0.0
  0
LINE
  5
FE
330
1D
100
AcDbEntity
  8
2
100
AcDbLine
 10
100.000000003
 20
-28.25
 30
0.0
 11
100.000000003
 21
28.25
 31
0.0
  0
TEXT
  5
FF
330
1D
100
AcDbEntity
  8
2
100
AcDbText
 10
98.500000003
 20
-1.17250071
 30
0.0
 40
3.5
  1
63.5
 50
90.0
  7
BMG_Text
100
AcDbText
  0
CIRCLE
  5
100
330
1D
100
AcDbEntity
  8
2
100
AcDbCircle
 10
97.250000003
 20
-3.42250071
 30
0.0
 40
1.25
  0
LINE
  5
101
330
1D
100
AcDbEntity
  8
2
100
AcDbLine
 10
98.500000003
 20
-4.67250071
 30
0.0
 11
96.000000003
 21
-2.17250071
 31
0.0
  0
LINE
  5
102
330
1D
100
AcDbEntity
  8
2
100
AcDbLine
 10
94.000000002
 20
-18.0
 30
0.0
 11
77.00002289
 21
-18.0
 31
0.0
  0
LINE
  5
103
330
1D
100
AcDbEntity
  8
2
100
AcDbLine
 10
92.000000002
 20
-18.0
 30
0.0
 11
91.550000002
 21
-14.5
 31
0.0
  0
LINE
  5
104
330
1D
100
AcDbEntity
  8
2
100
AcDbLine
 10
91.550000002
 20
-14.5
 30
0.0
 11
92.450000002
 21
-14.5
 31
0.0
  0
LINE
  5
105
330
1D
100
AcDbEntity
  8
2
100
AcDbLine
 10
92.450000002
 20
-14.5
 30
0.0
 11
92.000000002
 21
-18.0
 31
0.0
  0
LINE
  5
106
330
1D
100
AcDbEntity
  8
2
100
AcDbLine
 10
92.000000002
 20
-14.6
 30
0.0
 11
92.000000002
 21
-17.9
 31
0.0
  0
LINE
  5
107
330
1D
100
AcDbEntity
  8
2
100
AcDbLine
 10
92.200000002
 20
-14.6
 30
0.0
 11
92.200000002
 21
-16.344444444
 31
0.0
  0
LINE
  5
108
330
1D
100
AcDbEntity
  8
2
100
AcDbLine
 10
91.800000002
 20
-14.6
 30
0.0
 11
91.800000002
 21
-16.344444444
 31
0.0
  0
LINE
  5
109
330
1D
100
AcDbEntity
  8
2
100
AcDbLine
 10
92.400000002
 20
-14.6
 30
0.0
 11
92.400000002
 21
-14.788888889
 31
0.0
  0
LINE
  5
10A
330
1D
100
AcDbEntity
  8
2
100
AcDbLine
 10
91.600000002
 20
-14.6
 30
0.0
 11
91.600000002
 21
-14.788888889
 31
0.0
  0
LINE
  5
10B
330
1D
100
AcDbEntity
  8
2
100
AcDbLine
 10
94.000000002
 20
18.0
 30
0.0
 11
77.00002289
 21
18.0
 31
0.0
  0
LINE
  5
10C
330
1D
100
AcDbEntity
  8
2
100
AcDbLine
 10
92.000000002
 20
18.0
 30
0.0
 11
92.450000002
 21
14.5
 31
0.0
  0
LINE
  5
10D
330
1D
100
AcDbEntity
  8
2
100
AcDbLine
 10
92.450000002
 20
14.5
 30
0.0
 11
91.550000002
 21
14.5
 31
0.0
  0
LINE
  5
10E
330
1D
100
AcDbEntity
  8
2
100
AcDbLine
 10
91.550000002
 20
14.5
 30
0.0
 11
92.000000002
 21
18.0
 31
0.0
  0
LINE
  5
10F
330
1D
100
AcDbEntity
  8
2
100
AcDbLine
 10
92.000000002
 20
14.6
 30
0.0
 11
92.000000002
 21
17.9
 31
0.0
  0
LINE
  5
110
330
1D
100
AcDbEntity
  8
2
100
AcDbLine
 10
91.800000002
 20
14.6
 30
0.0
 11
91.800000002
 21
16.344444444
 31
0.0
  0
LINE
  5
111
330
1D
100
AcDbEntity
  8
2
100
AcDbLine
 10
92.200000002
 20
14.6
 30
0.0
 11
92.200000002
 21
16.344444444
 31
0.0
  0
LINE
  5
112
330
1D
100
AcDbEntity
  8
2
100
AcDbLine
 10
91.600000002
 20
14.6
 30
0.0
 11
91.600000002
 21
14.788888889
 31
0.0
  0
LINE
  5
113
330
1D
100
AcDbEntity
  8
2
100
AcDbLine
 10
92.400000002
 20
14.6
 30
0.0
 11
92.400000002
 21
14.788888889
 31
0.0
  0
LINE
  5
114
330
1D
100
AcDbEntity
  8
2
100
AcDbLine
 10
92.000000002
 20
-14.5
 30
0.0
 11
92.000000002
 21
14.5
 31
0.0
  0
TEXT
  5
115
330
1D
100
AcDbEntity
  8
2
100
AcDbText
 10
90.500000002
 20
0.331405848
 30
0.0
 40
3.5
  1
36
 50
90.0
  7
BMG_Text
100
AcDbText
  0
CIRCLE
  5
116
330
1D
100
AcDbEntity
  8
2
100
AcDbCircle
 10
89.250000002
 20
-1.918594152
 30
0.0
 40
1.25
  0
LINE
  5
117
330
1D
100
AcDbEntity
  8
2
100
AcDbLine
 10
90.500000002
 20
-3.168594152
 30
0.0
 11
88.000000002
 21
-0.668594152
 31
0.0
  0
LINE
  5
118
330
1D
100
AcDbEntity
  8
SK2
100
AcDbLine
 10
-61.999999998
 20
-37.5
 30
0.0
 11
-10.00022125
 21
-37.5
 31
0.0
  0
LINE
  5
119
330
1D
100
AcDbEntity
  8
SK2
100
AcDbLine
 10
-59.999999998
 20
-37.5
 30
0.0
 11
-60.449999998
 21
-34.0
 31
0.0
  0
LINE
  5
11A
330
1D
100
AcDbEntity
  8
SK2
100
AcDbLine
 10
-60.449999998
 20
-34.0
 30
0.0
 11
-59.549999998
 21
-34.0
 31
0.0
  0
LINE
  5
11B
330
1D
100
AcDbEntity
  8
SK2
100
AcDbLine
 10
-59.549999998
 20
-34.0
 30
0.0
 11
-59.999999998
 21
-37.5
 31
0.0
  0
LINE
  5
11C
330
1D
100
AcDbEntity
  8
SK2
100
AcDbLine
 10
-59.999999998
 20
-34.1
 30
0.0
 11
-59.999999998
 21
-37.4
 31
0.0
  0
LINE
  5
11D
330
1D
100
AcDbEntity
  8
SK2
100
AcDbLine
 10
-59.799999998
 20
-34.1
 30
0.0
 11
-59.799999998
 21
-35.844444444
 31
0.0
  0
LINE
  5
11E
330
1D
100
AcDbEntity
  8
SK2
100
AcDbLine
 10
-60.199999998
 20
-34.1
 30
0.0
 11
-60.199999998
 21
-35.844444444
 31
0.0
  0
LINE
  5
11F
330
1D
100
AcDbEntity
  8
SK2
100
AcDbLine
 10
-59.599999998
 20
-34.1
 30
0.0
 11
-59.599999998
 21
-34.288888889
 31
0.0
  0
LINE
  5
120
330
1D
100
AcDbEntity
  8
SK2
100
AcDbLine
 10
-60.399999998
 20
-34.1
 30
0.0
 11
-60.399999998
 21
-34.288888889
 31
0.0
  0
LINE
  5
121
330
1D
100
AcDbEntity
  8
SK2
100
AcDbLine
 10
-61.999999998
 20
37.5
 30
0.0
 11
-10.00022125
 21
37.5
 31
0.0
  0
LINE
  5
122
330
1D
100
AcDbEntity
  8
SK2
100
AcDbLine
 10
-59.999999998
 20
37.5
 30
0.0
 11
-59.549999998
 21
34.0
 31
0.0
  0
LINE
  5
123
330
1D
100
AcDbEntity
  8
SK2
100
AcDbLine
 10
-59.549999998
 20
34.0
 30
0.0
 11
-60.449999998
 21
34.0
 31
0.0
  0
LINE
  5
124
330
1D
100
AcDbEntity
  8
SK2
100
AcDbLine
 10
-60.449999998
 20
34.0
 30
0.0
 11
-59.999999998
 21
37.5
 31
0.0
  0
LINE
  5
125
330
1D
100
AcDbEntity
  8
SK2
100
AcDbLine
 10
-59.999999998
 20
34.1
 30
0.0
 11
-59.999999998
 21
37.4
 31
0.0
  0
LINE
  5
126
330
1D
100
AcDbEntity
  8
SK2
100
AcDbLine
 10
-60.199999998
 20
34.1
 30
0.0
 11
-60.199999998
 21
35.844444444
 31
0.0
  0
LINE
  5
127
330
1D
100
AcDbEntity
  8
SK2
100
AcDbLine
 10
-59.799999998
 20
34.1
 30
0.0
 11
-59.799999998
 21
35.844444444
 31
0.0
  0
LINE
  5
128
330
1D
100
AcDbEntity
  8
SK2
100
AcDbLine
 10
-60.399999998
 20
34.1
 30
0.0
 11
-60.399999998
 21
34.288888889
 31
0.0
  0
LINE
  5
129
330
1D
100
AcDbEntity
  8
SK2
100
AcDbLine
 10
-59.599999998
 20
34.1
 30
0.0
 11
-59.599999998
 21
34.288888889
 31
0.0
  0
LINE
  5
12A
330
1D
100
AcDbEntity
  8
SK2
100
AcDbLine
 10
-59.999999998
 20
-34.0
 30
0.0
 11
-59.999999998
 21
34.0
 31
0.0
  0
TEXT
  5
12B
330
1D
100
AcDbEntity
  8
SK2
100
AcDbText
 10
-61.499999998
 20
0.194686662
 30
0.0
 40
3.5
  1
75
 50
90.0
  7
BMG_Text
100
AcDbText
  0
CIRCLE
  5
12C
330
1D
100
AcDbEntity
  8
SK2
100
AcDbCircle
 10
-62.749999998
 20
-2.055313338
 30
0.0
 40
1.25
  0
LINE
  5
12D
330
1D
100
AcDbEntity
  8
SK2
100
AcDbLine
 10
-61.499999998
 20
-3.305313338
 30
0.0
 11
-63.999999998
 21
-0.805313338
 31
0.0
  0
LINE
  5
12E
330
1D
100
AcDbEntity
  8
2
100
AcDbLine
 10
0.0
 20
-66.0
 30
0.0
 11
0.0
 21
-50.0
 31
0.0
  0
LINE
  5
12F
330
1D
100
AcDbEntity
  8
2
100
AcDbLine
 10
0.0
 20
-64.0
 30
0.0
 11
3.5
 21
-63.55
 31
0.0
  0
LINE
  5
130
330
1D
100
AcDbEntity
  8
2
100
AcDbLine
 10
3.5
 20
-63.55
 30
0.0
 11
3.5
 21
-64.45
 31
0.0
  0
LINE
  5
131
330
1D
100
AcDbEntity
  8
2
100
AcDbLine
 10
3.5
 20
-64.45
 30
0.0
 11
0.0
 21
-64.0
 31
0.0
  0
LINE
  5
132
330
1D
100
AcDbEntity
  8
2
100
AcDbLine
 10
3.4
 20
-64.0
 30
0.0
 11
0.1
 21
-64.0
 31
0.0
  0
LINE
  5
133
330
1D
100
AcDbEntity
  8
2
100
AcDbLine
 10
3.4
 20
-64.2
 30
0.0
 11
1.655555556
 21
-64.2
 31
0.0
  0
LINE
  5
134
330
1D
100
AcDbEntity
  8
2
100
AcDbLine
 10
3.4
 20
-63.8
 30
0.0
 11
1.655555556
 21
-63.8
 31
0.0
  0
LINE
  5
135
330
1D
100
AcDbEntity
  8
2
100
AcDbLine
 10
3.4
 20
-64.4
 30
0.0
 11
3.211111111
 21
-64.4
 31
0.0
  0
LINE
  5
136
330
1D
100
AcDbEntity
  8
2
100
AcDbLine
 10
3.4
 20
-63.6
 30
0.0
 11
3.211111111
 21
-63.6
 31
0.0
  0
LINE
  5
137
330
1D
100
AcDbEntity
  8
2
100
AcDbLine
 10
34.00003052
 20
-65.999999996
 30
0.0
 11
34.00003052
 21
-36.6000061
 31
0.0
  0
LINE
  5
138
330
1D
100
AcDbEntity
  8
2
100
AcDbLine
 10
34.00003052
 20
-63.999999996
 30
0.0
 11
30.50003052
 21
-64.449999997
 31
0.0
  0
LINE
  5
139
330
1D
100
AcDbEntity
  8
2
100
AcDbLine
 10
30.50003052
 20
-64.449999997
 30
0.0
 11
30.50003052
 21
-63.549999997
 31
0.0
  0
LINE
  5
13A
330
1D
100
AcDbEntity
  8
2
100
AcDbLine
 10
30.50003052
 20
-63.549999997
 30
0.0
 11
34.00003052
 21
-63.999999996
 31
0.0
  0
LINE
  5
13B
330
1D
100
AcDbEntity
  8
2
100
AcDbLine
 10
30.60003052
 20
-63.999999997
 30
0.0
 11
33.90003052
 21
-63.999999996
 31
0.0
  0
LINE
  5
13C
330
1D
100
AcDbEntity
  8
2
100
AcDbLine
 10
30.60003052
 20
-63.799999997
 30
0.0
 11
32.344474964
 21
-63.799999997
 31
0.0
  0
LINE
  5
13D
330
1D
100
AcDbEntity
  8
2
100
AcDbLine
 10
30.60003052
 20
-64.199999997
 30
0.0
 11
32.344474964
 21
-64.199999997
 31
0.0
  0
LINE
  5
13E
330
1D
100
AcDbEntity
  8
2
100
AcDbLine
 10
30.60003052
 20
-63.599999997
 30
0.0
 11
30.788919409
 21
-63.599999997
 31
0.0
  0
LINE
  5
13F
330
1D
100
AcDbEntity
  8
2
100
AcDbLine
 10
30.60003052
 20
-64.399999997
 30
0.0
 11
30.788919409
 21
-64.399999997
 31
0.0
  0
LINE
  5
140
330
1D
100
AcDbEntity
  8
2
100
AcDbLine
 10
3.5
 20
-64.0
 30
0.0
 11
30.50003052
 21
-63.999999997
 31
0.0
  0
TEXT
  5
141
330
1D
100
AcDbEntity
  8
2
100
AcDbText
 10
15.52673363
 20
-62.499999998
 30
0.0
 40
3.5
  1
34
 50
0.000000006
  7
BMG_Text
100
AcDbText
  0
LINE
  5
142
330
1D
100
AcDbEntity
  8
2
100
AcDbLine
 10
34.00003052
 20
-65.749999996
 30
0.0
 11
34.00003052
 21
-36.6000061
 31
0.0
  0
LINE
  5
143
330
1D
100
AcDbEntity
  8
2
100
AcDbLine
 10
34.00003052
 20
-63.749999996
 30
0.0
 11
37.50003052
 21
-63.299999996
 31
0.0
  0
LINE
  5
144
330
1D
100
AcDbEntity
  8
2
100
AcDbLine
 10
37.50003052
 20
-63.299999996
 30
0.0
 11
37.50003052
 21
-64.199999996
 31
0.0
  0
LINE
  5
145
330
1D
100
AcDbEntity
  8
2
100
AcDbLine
 10
37.50003052
 20
-64.199999996
 30
0.0
 11
34.00003052
 21
-63.749999996
 31
0.0
  0
LINE
  5
146
330
1D
100
AcDbEntity
  8
2
100
AcDbLine
 10
37.40003052
 20
-63.749999996
 30
0.0
 11
34.10003052
 21
-63.749999996
 31
0.0
  0
LINE
  5
147
330
1D
100
AcDbEntity
  8
2
100
AcDbLine
 10
37.40003052
 20
-63.949999996
 30
0.0
 11
35.655586076
 21
-63.949999996
 31
0.0
  0
LINE
  5
148
330
1D
100
AcDbEntity
  8
2
100
AcDbLine
 10
37.40003052
 20
-63.549999996
 30
0.0
 11
35.655586076
 21
-63.549999996
 31
0.0
  0
LINE
  5
149
330
1D
100
AcDbEntity
  8
2
100
AcDbLine
 10
37.40003052
 20
-64.149999996
 30
0.0
 11
37.211141631
 21
-64.149999996
 31
0.0
  0
LINE
  5
14A
330
1D
100
AcDbEntity
  8
2
100
AcDbLine
 10
37.40003052
 20
-63.349999996
 30
0.0
 11
37.211141631
 21
-63.349999996
 31
0.0
  0
LINE
  5
14B
330
1D
100
AcDbEntity
  8
2
100
AcDbLine
 10
37.50003052
 20
-63.749999996
 30
0.0
 11
82.400038913
 21
-63.749999996
 31
0.0
  0
TEXT
  5
14C
330
1D
100
AcDbEntity
  8
2
100
AcDbText
 10
80.01984940312921
 20
-62.249999996
 30
0.0
 40
3.5
  1
115
  7
BMG_Text
100
AcDbText
  0
TEXT
  5
14D
330
1D
100
AcDbEntity
  8
2
100
AcDbText
 10
43.429252926
 20
-62.249999996
 30
0.0
 40
3.5
  1
Ausdrehtiefe
  7
BMG_Text
100
AcDbText
  0
TEXT
  5
14E
330
1D
100
AcDbEntity
  8
SK6
100
AcDbText
 10
47.23503253188753
 20
-30.722415343
 30
0.0
 40
3.5
  1
324.561N
  7
BMG_Text
100
AcDbText
  0
LINE
  5
1EE
330
1D
100
AcDbEntity
  8
NOCUT
100
AcDbLine
 10
0.0
 20
0.0000152599999979
 30
0.0
 11
77.73872183977812
 21
0.0000152599999979
 31
0.0
  0
LINE
  5
1EF
330
1D
100
AcDbEntity
  8
NOCUT
100
AcDbLine
 10
77.73872183977812
 20
0.0000152599999979
 30
0.0
 11
78.01621468722028
 21
0.0000152599999979
 31
0.0
  0
LINE
  5
1F0
330
1D
100
AcDbEntity
  8
NOCUT
100
AcDbLine
 10
78.01621468722028
 20
0.0000152599999979
 30
0.0
 11
78.00003052
 21
30.75
 31
0.0
  0
LINE
  5
1F1
330
1D
100
AcDbEntity
  8
NOCUT
100
AcDbLine
 10
78.00003052
 20
30.75
 30
0.0
 11
77.00003815
 21
31.75
 31
0.0
  0
LINE
  5
1F2
330
1D
100
AcDbEntity
  8
NOCUT
100
AcDbLine
 10
77.00003815
 20
31.75
 30
0.0
 11
37.15002441
 21
31.75
 31
0.0
  0
LINE
  5
1F3
330
1D
100
AcDbEntity
  8
NOCUT
100
AcDbLine
 10
37.15002441
 20
31.75
 30
0.0
 11
37.00003052
 21
31.6000061
 31
0.0
  0
LINE
  5
1F4
330
1D
100
AcDbEntity
  8
NOCUT
100
AcDbLine
 10
37.00003052
 20
31.6000061
 30
0.0
 11
34.00003052
 21
31.6000061
 31
0.0
  0
LINE
  5
1F5
330
1D
100
AcDbEntity
  8
NOCUT
100
AcDbLine
 10
29.00003052
 20
36.59999084
 30
0.0
 11
29.00003052
 21
50.00153245414374
 31
0.0
  0
LINE
  5
1F6
330
1D
100
AcDbEntity
  8
NOCUT
100
AcDbLine
 10
29.00003052
 20
50.00153245414374
 30
0.0
 11
23.2705573450212
 21
50.00153245414374
 31
0.0
  0
LINE
  5
1F7
330
1D
100
AcDbEntity
  8
NOCUT
100
AcDbLine
 10
23.2705573450212
 20
50.00153245414374
 30
0.0
 11
21.87503052
 21
47.62261963
 31
0.0
  0
LINE
  5
1F8
330
1D
100
AcDbEntity
  8
NOCUT
100
AcDbLine
 10
21.87503052
 20
47.62261963
 30
0.0
 11
21.87503052
 21
46.85106577928367
 31
0.0
  0
LINE
  5
1F9
330
1D
100
AcDbEntity
  8
NOCUT
100
AcDbLine
 10
20.87501526
 20
46.0000304
 30
0.0
 11
19.16774104067337
 21
46.0000304
 31
0.0
  0
LINE
  5
1FA
330
1D
100
AcDbEntity
  8
NOCUT
100
AcDbLine
 10
18.12501514
 20
47.00003052
 30
0.0
 11
18.12503052
 21
47.62261963
 31
0.0
  0
LINE
  5
1FB
330
1D
100
AcDbEntity
  8
NOCUT
100
AcDbLine
 10
18.12503052
 20
47.62261963
 30
0.0
 11
16.75247192
 21
50.00003052
 31
0.0
  0
LINE
  5
1FC
330
1D
100
AcDbEntity
  8
NOCUT
100
AcDbLine
 10
16.75247192
 20
50.00003052
 30
0.0
 11
0.0
 21
50.00003052
 31
0.0
  0
ARC
  5
1FE
330
1D
100
AcDbEntity
  8
NOCUT
100
AcDbCircle
 10
19.12501526
 20
47.00003052
 30
0.0
 40
1.000000119999998
100
AcDbArc
 50
180.0
 51
270.0008743070001
  0
ARC
  5
1FF
330
1D
100
AcDbEntity
  8
NOCUT
100
AcDbCircle
 10
20.87501525999999
 20
47.00003052
 30
0.0
 40
1.000000120000005
100
AcDbArc
 50
270.0000000000004
 51
0.0
  0
ARC
  5
200
330
1D
100
AcDbEntity
  8
NOCUT
100
AcDbCircle
 10
34.00003052
 20
36.59999084
 30
0.0
 40
5.0
100
AcDbArc
 50
180.0
 51
270.0
  0
LWPOLYLINE
  5
228
330
1D
100
AcDbEntity
  8
INFTOTAL
100
AcDbPolyline
 90
        4
 70
     1
 43
0.0
 10
-171.5179740250799
 20
146.7416707858158
 10
-171.5179740250799
 20
-111.2041678159525
 10
151.5931290655564
 20
-111.2041678159525
 10
151.5931290655564
 20
146.7416707858158
  0
LINE
  5
23D
330
1D
100
AcDbEntity
  8
SK1
100
AcDbLine
 10
0.0000525280157413
 20
-37.72007861851778
 30
0.0
 11
0.0000525280157406
 21
37.72004809851779
 31
0.0
  0
LINE
  5
24B
330
1D
100
AcDbEntity
  8
NOCUT
100
AcDbLine
 10
0.0
 20
50.00003052
 30
0.0
 11
0.0
 21
0.0000152599999979
 31
0.0
  0
LINE
  5
25B
330
1D
100
AcDbEntity
  8
4
100
AcDbLine
 10
80.00002289
 20
0.0
 30
0.0
 11
0.0
 21
0.0000152599999979
 31
0.0
  0
LINE
  5
25C
330
1D
100
AcDbEntity
  8
4
100
AcDbLine
 10
61.9500351
 20
7.823569682
 30
0.0
 11
61.9500351
 21
-7.139874163
 31
0.0
  0
ENDSEC
  0
SECTION
  2
OBJECTS
  0
DICTIONARY
  5
C
330
0
100
AcDbDictionary
281
     1
  3
ACAD_DETAILVIEWSTYLE
350
22D
  3
ACAD_GROUP
350
D
  3
ACAD_LAYOUT
350
1A
  3
ACAD_MATERIAL
350
18C
  3
ACAD_MLEADERSTYLE
350
199
  3
ACAD_MLINESTYLE
350
17
  3
ACAD_PLOTSETTINGS
350
19
  3
ACAD_PLOTSTYLENAME
350
E
  3
ACAD_SCALELIST
350
155
  3
ACAD_SECTIONVIEWSTYLE
350
22E
  3
ACAD_TABLESTYLE
350
1E2
  3
ACAD_VISUALSTYLE
350
17B
  3
ACDB_RECOMPOSE_DATA
350
274
  3
AcDbVariableDictionary
350
197
  3
APPDATA
350
1E5
  0
SUN
  5
22F
330
14F
100
AcDbSun
 90
        1
290
     0
 63
     7
421
 16777215
 40
1.0
291
     1
 91
  2455826
 92
 54000000
292
     0
 70
     2
 71
   256
280
     1
  0
DICTIONARY
  5
1E6
330
2
100
AcDbDictionary
280
     1
281
     1
  3
ACAD_LAYERSTATES
360
1E7
  0
DICTIONARY
  5
22D
102
{ACAD_REACTORS
330
C
102
}
330
C
100
AcDbDictionary
281
     1
  0
DICTIONARY
  5
D
102
{ACAD_REACTORS
330
C
102
}
330
C
100
AcDbDictionary
281
     1
  0
DICTIONARY
  5
1A
102
{ACAD_REACTORS
330
C
102
}
330
C
100
AcDbDictionary
281
     1
  3
Layout1
350
1C
  3
Model
350
1E
  0
DICTIONARY
  5
18C
102
{ACAD_REACTORS
330
C
102
}
330
C
100
AcDbDictionary
281
     1
  3
ByBlock
350
18E
  3
ByLayer
350
18D
  3
Global
350
18F
  0
DICTIONARY
  5
199
102
{ACAD_REACTORS
330
C
102
}
330
C
100
AcDbDictionary
281
     1
  3
Standard
350
1E4
  0
DICTIONARY
  5
17
102
{ACAD_REACTORS
330
C
102
}
330
C
100
AcDbDictionary
281
     1
  3
Standard
350
18
  0
DICTIONARY
  5
19
102
{ACAD_REACTORS
330
C
102
}
330
C
100
AcDbDictionary
281
     1
  0
ACDBDICTIONARYWDFLT
  5
E
102
{ACAD_REACTORS
330
C
102
}
330
C
100
AcDbDictionary
281
     1
  3
Normal
350
F
100
AcDbDictionaryWithDefault
340
F
  0
DICTIONARY
  5
155
102
{ACAD_REACTORS
330
C
102
}
330
C
100
AcDbDictionary
281
     1
  3
A0
350
156
  3
A1
350
157
  3
A2
350
158
  3
A3
350
159
  3
A4
350
15A
  3
A5
350
15B
  3
A6
350
15C
  3
A7
350
15D
  3
A8
350
15E
  3
A9
350
15F
  3
B0
350
160
  3
B1
350
161
  3
B2
350
162
  3
B3
350
163
  3
B4
350
164
  3
B5
350
165
  3
B6
350
166
  3
B7
350
167
  3
B8
350
168
  3
B9
350
169
  3
C0
350
16A
  3
C1
350
16B
  3
C2
350
16C
  3
C3
350
16D
  3
C4
350
16E
  3
C5
350
16F
  3
C6
350
170
  3
C7
350
171
  3
C8
350
172
  3
C9
350
173
  3
D0
350
174
  3
D1
350
175
  3
D2
350
176
  0
DICTIONARY
  5
22E
102
{ACAD_REACTORS
330
C
102
}
330
C
100
AcDbDictionary
281
     1
  0
DICTIONARY
  5
1E2
102
{ACAD_REACTORS
330
C
102
}
330
C
100
AcDbDictionary
281
     1
  3
Standard
350
1E3
  0
DICTIONARY
  5
17B
102
{ACAD_REACTORS
330
C
102
}
330
C
100
AcDbDictionary
281
     1
  3
2dWireframe
350
180
  3
3D Hidden
350
182
  3
3dWireframe
350
181
  3
Basic
350
183
  3
Brighten
350
187
  3
ColorChange
350
18B
  3
Conceptual
350
185
  3
Dim
350
186
  3
EdgeColorOff
350
1DC
  3
Facepattern
350
18A
  3
Flat
350
17C
  3
FlatWithEdges
350
17D
  3
Gouraud
350
17E
  3
GouraudWithEdges
350
17F
  3
Hidden
350
1D9
  3
JitterOff
350
1DA
  3
Linepattern
350
189
  3
OverhangOff
350
1DB
  3
Realistic
350
184
  3
Shaded
350
1E1
  3
Shaded with edges
350
1E0
  3
Shades of Gray
350
1DD
  3
Sketchy
350
1DE
  3
Thicken
350
188
  3
Wireframe
350
1D8
  3
X-Ray
350
1DF
  0
XRECORD
  5
274
102
{ACAD_REACTORS
330
C
102
}
330
C
100
AcDbXrecord
280
     1
 90
        1
330
1E3
  0
DICTIONARY
  5
197
102
{ACAD_REACTORS
330
C
102
}
330
C
100
AcDbDictionary
281
     1
  3
CANNOSCALE
350
22A
  3
CMLEADERSTYLE
350
22C
  3
CTABLESTYLE
350
22B
  3
DIMASSOC
350
19B
  3
HIDETEXT
350
19C
  3
MSLTSCALE
350
19A
  0
DICTIONARY
  5
1E5
102
{ACAD_REACTORS
330
C
102
}
330
C
100
AcDbDictionary
281
     1
  0
DICTIONARY
  5
1E7
102
{ACAD_REACTORS
330
1E6
102
}
330
1E6
100
AcDbDictionary
281
     1
  0
LAYOUT
  5
1C
102
{ACAD_REACTORS
330
1A
102
}
330
1A
100
AcDbPlotSettings
  1

  2
none_device
  4

  6

 40
0.0
 41
0.0
 42
0.0
 43
0.0
 44
0.0
 45
0.0
 46
0.0
 47
0.0
 48
0.0
 49
0.0
140
0.0
141
0.0
142
1.0
143
1.0
 70
   688
 72
     0
 73
     0
 74
     5
  7

 75
    16
 76
     0
 77
     2
 78
   300
147
1.0
148
0.0
149
0.0
100
AcDbLayout
  1
Layout1
 70
     1
 71
     1
 10
0.0
 20
0.0
 11
12.0
 21
9.0
 12
0.0
 22
0.0
 32
0.0
 14
1.000000000000000E+20
 24
1.000000000000000E+20
 34
1.000000000000000E+20
 15
-1.000000000000000E+20
 25
-1.000000000000000E+20
 35
-1.000000000000000E+20
146
0.0
 13
0.0
 23
0.0
 33
0.0
 16
1.0
 26
0.0
 36
0.0
 17
0.0
 27
1.0
 37
0.0
 76
     0
330
1B
  0
LAYOUT
  5
1E
102
{ACAD_REACTORS
330
1A
102
}
330
1A
100
AcDbPlotSettings
  1

  2
none_device
  4

  6

 40
0.0
 41
0.0
 42
0.0
 43
0.0
 44
0.0
 45
0.0
 46
0.0
 47
0.0
 48
0.0
 49
0.0
140
0.0
141
0.0
142
1.0
143
1.0
 70
  1712
 72
     0
 73
     0
 74
     0
  7

 75
     0
 76
     0
 77
     2
 78
   300
147
1.0
148
0.0
149
0.0
100
AcDbLayout
  1
Model
 70
     1
 71
     0
 10
0.0
 20
0.0
 11
12.0
 21
9.0
 12
0.0
 22
0.0
 32
0.0
 14
-171.5179740250799
 24
-111.2041678159525
 34
0.0
 15
151.5931290655564
 25
146.7416707858158
 35
0.0
146
0.0
 13
0.0
 23
0.0
 33
0.0
 16
1.0
 26
0.0
 36
0.0
 17
0.0
 27
1.0
 37
0.0
 76
     0
330
1D
331
14F
  0
MATERIAL
  5
18E
102
{ACAD_REACTORS
330
18C
102
}
330
18C
100
AcDbMaterial
  1
ByBlock
 72
     1
 94
      127
  0
MATERIAL
  5
18D
102
{ACAD_REACTORS
330
18C
102
}
330
18C
100
AcDbMaterial
  1
ByLayer
 72
     1
 94
      127
  0
MATERIAL
  5
18F
102
{ACAD_REACTORS
330
18C
102
}
330
18C
100
AcDbMaterial
  1
Global
 72
     1
 94
      127
  0
MLEADERSTYLE
  5
1E4
102
{ACAD_REACTORS
330
199
102
}
330
199
100
AcDbMLeaderStyle
179
     2
170
     2
171
     1
172
     0
 90
        2
 40
0.0
 41
0.0
173
     1
 91
-1056964608
340
14
 92
       -2
290
     1
 42
0.09
291
     1
 43
0.36
  3
Standard
341
0
 44
0.18
300

342
11
174
     1
178
     1
175
     1
176
     0
 93
-1056964608
 45
0.18
292
     0
297
     0
 46
0.18
343
0
 94
-1056964608
 47
1.0
 49
1.0
140
1.0
293
     1
141
0.0
294
     1
177
     0
142
1.0
295
     0
296
     0
143
0.125
271
     0
272
     9
273
     9
298
     0
  0
MLINESTYLE
  5
18
102
{ACAD_REACTORS
330
17
102
}
330
17
100
AcDbMlineStyle
  2
Standard
 70
     0
  3

 62
   256
 51
90.0
 52
90.0
 71
     2
 49
0.5
 62
   256
  6
BYLAYER
 49
-0.5
 62
   256
  6
BYLAYER
  0
ACDBPLACEHOLDER
  5
F
102
{ACAD_REACTORS
330
E
102
}
330
E
  0
SCALE
  5
156
102
{ACAD_REACTORS
330
155
102
}
330
155
100
AcDbScale
 70
     0
300
1:1
140
1.0
141
1.0
290
     1
  0
SCALE
  5
157
102
{ACAD_REACTORS
330
155
102
}
330
155
100
AcDbScale
 70
     0
300
1:2
140
1.0
141
2.0
290
     0
  0
SCALE
  5
158
102
{ACAD_REACTORS
330
155
102
}
330
155
100
AcDbScale
 70
     0
300
1:4
140
1.0
141
4.0
290
     0
  0
SCALE
  5
159
102
{ACAD_REACTORS
330
155
102
}
330
155
100
AcDbScale
 70
     0
300
1:5
140
1.0
141
5.0
290
     0
  0
SCALE
  5
15A
102
{ACAD_REACTORS
330
155
102
}
330
155
100
AcDbScale
 70
     0
300
1:8
140
1.0
141
8.0
290
     0
  0
SCALE
  5
15B
102
{ACAD_REACTORS
330
155
102
}
330
155
100
AcDbScale
 70
     0
300
1:10
140
1.0
141
10.0
290
     0
  0
SCALE
  5
15C
102
{ACAD_REACTORS
330
155
102
}
330
155
100
AcDbScale
 70
     0
300
1:16
140
1.0
141
16.0
290
     0
  0
SCALE
  5
15D
102
{ACAD_REACTORS
330
155
102
}
330
155
100
AcDbScale
 70
     0
300
1:20
140
1.0
141
20.0
290
     0
  0
SCALE
  5
15E
102
{ACAD_REACTORS
330
155
102
}
330
155
100
AcDbScale
 70
     0
300
1:30
140
1.0
141
30.0
290
     0
  0
SCALE
  5
15F
102
{ACAD_REACTORS
330
155
102
}
330
155
100
AcDbScale
 70
     0
300
1:40
140
1.0
141
40.0
290
     0
  0
SCALE
  5
160
102
{ACAD_REACTORS
330
155
102
}
330
155
100
AcDbScale
 70
     0
300
1:50
140
1.0
141
50.0
290
     0
  0
SCALE
  5
161
102
{ACAD_REACTORS
330
155
102
}
330
155
100
AcDbScale
 70
     0
300
1:100
140
1.0
141
100.0
290
     0
  0
SCALE
  5
162
102
{ACAD_REACTORS
330
155
102
}
330
155
100
AcDbScale
 70
     0
300
2:1
140
2.0
141
1.0
290
     0
  0
SCALE
  5
163
102
{ACAD_REACTORS
330
155
102
}
330
155
100
AcDbScale
 70
     0
300
4:1
140
4.0
141
1.0
290
     0
  0
SCALE
  5
164
102
{ACAD_REACTORS
330
155
102
}
330
155
100
AcDbScale
 70
     0
300
8:1
140
8.0
141
1.0
290
     0
  0
SCALE
  5
165
102
{ACAD_REACTORS
330
155
102
}
330
155
100
AcDbScale
 70
     0
300
10:1
140
10.0
141
1.0
290
     0
  0
SCALE
  5
166
102
{ACAD_REACTORS
330
155
102
}
330
155
100
AcDbScale
 70
     0
300
100:1
140
100.0
141
1.0
290
     0
  0
SCALE
  5
167
102
{ACAD_REACTORS
330
155
102
}
330
155
100
AcDbScale
 70
     0
300
1/128" = 1'-0"
140
0.0078125
141
12.0
290
     0
  0
SCALE
  5
168
102
{ACAD_REACTORS
330
155
102
}
330
155
100
AcDbScale
 70
     0
300
1/64" = 1'-0"
140
0.015625
141
12.0
290
     0
  0
SCALE
  5
169
102
{ACAD_REACTORS
330
155
102
}
330
155
100
AcDbScale
 70
     0
300
1/32" = 1'-0"
140
0.03125
141
12.0
290
     0
  0
SCALE
  5
16A
102
{ACAD_REACTORS
330
155
102
}
330
155
100
AcDbScale
 70
     0
300
1/16" = 1'-0"
140
0.0625
141
12.0
290
     0
  0
SCALE
  5
16B
102
{ACAD_REACTORS
330
155
102
}
330
155
100
AcDbScale
 70
     0
300
3/32" = 1'-0"
140
0.09375
141
12.0
290
     0
  0
SCALE
  5
16C
102
{ACAD_REACTORS
330
155
102
}
330
155
100
AcDbScale
 70
     0
300
1/8" = 1'-0"
140
0.125
141
12.0
290
     0
  0
SCALE
  5
16D
102
{ACAD_REACTORS
330
155
102
}
330
155
100
AcDbScale
 70
     0
300
3/16" = 1'-0"
140
0.1875
141
12.0
290
     0
  0
SCALE
  5
16E
102
{ACAD_REACTORS
330
155
102
}
330
155
100
AcDbScale
 70
     0
300
1/4" = 1'-0"
140
0.25
141
12.0
290
     0
  0
SCALE
  5
16F
102
{ACAD_REACTORS
330
155
102
}
330
155
100
AcDbScale
 70
     0
300
3/8" = 1'-0"
140
0.375
141
12.0
290
     0
  0
SCALE
  5
170
102
{ACAD_REACTORS
330
155
102
}
330
155
100
AcDbScale
 70
     0
300
1/2" = 1'-0"
140
0.5
141
12.0
290
     0
  0
SCALE
  5
171
102
{ACAD_REACTORS
330
155
102
}
330
155
100
AcDbScale
 70
     0
300
3/4" = 1'-0"
140
0.75
141
12.0
290
     0
  0
SCALE
  5
172
102
{ACAD_REACTORS
330
155
102
}
330
155
100
AcDbScale
 70
     0
300
1" = 1'-0"
140
1.0
141
12.0
290
     0
  0
SCALE
  5
173
102
{ACAD_REACTORS
330
155
102
}
330
155
100
AcDbScale
 70
     0
300
1-1/2" = 1'-0"
140
1.5
141
12.0
290
     0
  0
SCALE
  5
174
102
{ACAD_REACTORS
330
155
102
}
330
155
100
AcDbScale
 70
     0
300
3" = 1'-0"
140
3.0
141
12.0
290
     0
  0
SCALE
  5
175
102
{ACAD_REACTORS
330
155
102
}
330
155
100
AcDbScale
 70
     0
300
6" = 1'-0"
140
6.0
141
12.0
290
     0
  0
SCALE
  5
176
102
{ACAD_REACTORS
330
155
102
}
330
155
100
AcDbScale
 70
     0
300
1'-0" = 1'-0"
140
12.0
141
12.0
290
     0
  0
TABLESTYLE
  5
1E3
102
{ACAD_REACTORS
330
1E2
102
}
102
{ACAD_XDICTIONARY
360
272
102
}
330
1E2
100
AcDbTableStyle
  3
Standard
 70
     0
 71
     0
 40
0.06
 41
0.06
280
     0
281
     0
  7
Standard
140
0.18
170
     2
 62
     0
 63
   257
283
     0
 90
        4
 91
        0
  1

274
    -2
284
     1
 64
     0
275
    -2
285
     1
 65
     0
276
    -2
286
     1
 66
     0
277
    -2
287
     1
 67
     0
278
    -2
288
     1
 68
     0
279
    -2
289
     1
 69
     0
  7
Standard
140
0.25
170
     5
 62
     0
 63
   257
283
     0
 90
        4
 91
        0
  1

274
    -2
284
     1
 64
     0
275
    -2
285
     1
 65
     0
276
    -2
286
     1
 66
     0
277
    -2
287
     1
 67
     0
278
    -2
288
     1
 68
     0
279
    -2
289
     1
 69
     0
  7
Standard
140
0.18
170
     5
 62
     0
 63
   257
283
     0
 90
        4
 91
        0
  1

274
    -2
284
     1
 64
     0
275
    -2
285
     1
 65
     0
276
    -2
286
     1
 66
     0
277
    -2
287
     1
 67
     0
278
    -2
288
     1
 68
     0
279
    -2
289
     1
 69
     0
  0
VISUALSTYLE
  5
180
102
{ACAD_REACTORS
330
17B
102
}
330
17B
100
AcDbVisualStyle
  2
2dWireframe
 70
     4
177
     3
291
     0
 70
    58
 90
        0
176
     1
 90
        2
176
     1
 90
        0
176
     1
 90
        0
176
     1
 40
-0.6
176
     1
 40
-30.0
176
     1
 62
     7
176
     1
 90
        1
176
     1
 90
        4
176
     1
 62
     7
176
     1
 62
   257
176
     1
 90
        1
176
     1
 90
        1
176
     1
 40
1.0
176
     1
 90
        0
176
     1
 62
   257
176
     1
 40
1.0
176
     1
 90
        1
176
     1
 90
        6
176
     1
 90
        2
176
     1
 62
     7
176
     1
 90
        5
176
     1
 90
        0
176
     1
 90
        0
176
     1
290
     0
176
     1
 90
        1
176
     1
 40
0.0
176
     1
 90
        0
176
     1
290
     1
176
     1
290
     1
176
     1
290
     0
176
     1
290
     0
176
     1
290
     0
176
     1
290
     0
176
     1
290
     0
176
     1
290
     0
176
     1
290
     0
176
     1
 90
       50
176
     1
 40
0.0
176
     1
 40
1.0
176
     1
 90
        0
176
     1
 62
    18
420
        0
176
     1
 90
       50
176
     1
 90
        3
176
     1
 62
     5
420
      255
176
     1
290
     0
176
     1
 90
       50
176
     1
 90
       50
176
     1
 90
       50
176
     1
290
     0
176
     1
 90
       50
176
     1
 62
   256
176
     0
 40
1.0
176
     0
 90
        2
176
     1
  1
strokes_ogs.tif
176
     1
290
     0
176
     1
 40
1.0
176
     1
 40
1.0
176
     1
  0
VISUALSTYLE
  5
182
102
{ACAD_REACTORS
330
17B
102
}
330
17B
100
AcDbVisualStyle
  2
3D Hidden
 70
     6
177
     3
291
     0
 70
    58
 90
        1
176
     1
 90
        2
176
     1
 90
        2
176
     1
 90
        0
176
     1
 40
-0.6
176
     1
 40
-30.0
176
     1
 62
     7
176
     1
 90
        2
176
     1
 90
        2
176
     1
 62
     7
176
     1
 62
   257
176
     1
 90
        2
176
     1
 90
        1
176
     1
 40
40.0
176
     1
 90
        0
176
     1
 62
   257
176
     1
 40
1.0
176
     1
 90
        1
176
     1
 90
        6
176
     1
 90
        2
176
     1
 62
     7
176
     1
 90
        3
176
     1
 90
        0
176
     1
 90
        0
176
     1
290
     0
176
     1
 90
        1
176
     1
 40
0.0
176
     1
 90
        0
176
     1
290
     0
176
     1
290
     1
176
     1
290
     1
176
     1
290
     0
176
     1
290
     0
176
     1
290
     0
176
     1
290
     0
176
     1
290
     0
176
     1
290
     0
176
     1
 90
       50
176
     1
 40
0.0
176
     1
 40
1.0
176
     1
 90
        0
176
     1
 62
    18
420
        0
176
     1
 90
       50
176
     1
 90
        3
176
     1
 62
     5
420
      255
176
     1
290
     0
176
     1
 90
       50
176
     1
 90
       50
176
     1
 90
       50
176
     1
290
     0
176
     1
 90
       50
176
     1
 62
   256
176
     0
 40
1.0
176
     0
 90
        2
176
     1
  1
strokes_ogs.tif
176
     1
290
     0
176
     1
 40
1.0
176
     1
 40
1.0
176
     1
  0
VISUALSTYLE
  5
181
102
{ACAD_REACTORS
330
17B
102
}
330
17B
100
AcDbVisualStyle
  2
3dWireframe
 70
     5
177
     3
291
     0
 70
    58
 90
        0
176
     1
 90
        2
176
     1
 90
        0
176
     1
 90
        0
176
     1
 40
-0.6
176
     1
 40
-30.0
176
     1
 62
     7
176
     1
 90
        1
176
     1
 90
        4
176
     1
 62
     7
176
     1
 62
   257
176
     1
 90
        1
176
     1
 90
        1
176
     1
 40
1.0
176
     1
 90
        0
176
     1
 62
   257
176
     1
 40
1.0
176
     1
 90
        1
176
     1
 90
        6
176
     1
 90
        2
176
     1
 62
     7
176
     1
 90
        5
176
     1
 90
        0
176
     1
 90
        0
176
     1
290
     0
176
     1
 90
        1
176
     1
 40
0.0
176
     1
 90
        0
176
     1
290
     0
176
     1
290
     1
176
     1
290
     1
176
     1
290
     0
176
     1
290
     0
176
     1
290
     0
176
     1
290
     0
176
     1
290
     0
176
     1
290
     0
176
     1
 90
       50
176
     1
 40
0.0
176
     1
 40
1.0
176
     1
 90
        0
176
     1
 62
    18
420
        0
176
     1
 90
       50
176
     1
 90
        3
176
     1
 62
     5
420
      255
176
     1
290
     0
176
     1
 90
       50
176
     1
 90
       50
176
     1
 90
       50
176
     1
290
     0
176
     1
 90
       50
176
     1
 62
   256
176
     0
 40
1.0
176
     0
 90
        2
176
     1
  1
strokes_ogs.tif
176
     1
290
     0
176
     1
 40
1.0
176
     1
 40
1.0
176
     1
  0
VISUALSTYLE
  5
183
102
{ACAD_REACTORS
330
17B
102
}
330
17B
100
AcDbVisualStyle
  2
Basic
 70
     7
177
     3
291
     1
 70
    58
 90
        1
176
     1
 90
        0
176
     1
 90
        1
176
     1
 90
        0
176
     1
 40
-0.6
176
     1
 40
-30.0
176
     1
 62
     7
176
     1
 90
        0
176
     1
 90
        4
176
     1
 62
     7
176
     1
 62
   257
176
     1
 90
        1
176
     1
 90
        1
176
     1
 40
1.0
176
     1
 90
        8
176
     1
 62
     7
176
     1
 40
1.0
176
     1
 90
        1
176
     1
 90
        6
176
     1
 90
        2
176
     1
 62
     7
176
     1
 90
        5
176
     1
 90
        0
176
     1
 90
        0
176
     1
290
     0
176
     1
 90
        1
176
     1
 40
0.0
176
     1
 90
        0
176
     1
290
     0
176
     1
290
     1
176
     1
290
     1
176
     1
290
     0
176
     1
290
     0
176
     1
290
     0
176
     1
290
     0
176
     1
290
     0
176
     1
290
     0
176
     1
 90
       50
176
     1
 40
0.0
176
     1
 40
1.0
176
     1
 90
        0
176
     1
 62
    18
420
        0
176
     1
 90
       50
176
     1
 90
        3
176
     1
 62
     5
420
      255
176
     1
290
     0
176
     1
 90
       50
176
     1
 90
       50
176
     1
 90
       50
176
     1
290
     0
176
     1
 90
       50
176
     1
 62
   256
176
     0
 40
1.0
176
     0
 90
        2
176
     1
  1
strokes_ogs.tif
176
     1
290
     0
176
     1
 40
1.0
176
     1
 40
1.0
176
     1
  0
VISUALSTYLE
  5
187
102
{ACAD_REACTORS
330
17B
102
}
330
17B
100
AcDbVisualStyle
  2
Brighten
 70
    12
177
     3
291
     1
 70
    58
 90
        2
176
     1
 90
        2
176
     1
 90
        0
176
     1
 90
        0
176
     1
 40
-0.6
176
     1
 40
-30.0
176
     1
 62
     7
176
     1
 90
        1
176
     1
 90
        4
176
     1
 62
     7
176
     1
 62
   257
176
     1
 90
        1
176
     1
 90
        1
176
     1
 40
1.0
176
     1
 90
        8
176
     1
 62
     7
176
     1
 40
1.0
176
     1
 90
        1
176
     1
 90
        6
176
     1
 90
        2
176
     1
 62
     7
176
     1
 90
        5
176
     1
 90
        0
176
     1
 90
        0
176
     1
290
     0
176
     1
 90
        1
176
     1
 40
50.0
176
     1
 90
        0
176
     1
290
     0
176
     1
290
     1
176
     1
290
     1
176
     1
290
     0
176
     1
290
     0
176
     1
290
     0
176
     1
290
     0
176
     1
290
     0
176
     1
290
     0
176
     1
 90
       50
176
     1
 40
0.0
176
     1
 40
1.0
176
     1
 90
        0
176
     1
 62
    18
420
        0
176
     1
 90
       50
176
     1
 90
        3
176
     1
 62
     5
420
      255
176
     1
290
     0
176
     1
 90
       50
176
     1
 90
       50
176
     1
 90
       50
176
     1
290
     0
176
     1
 90
       50
176
     1
 62
   256
176
     0
 40
1.0
176
     0
 90
        2
176
     1
  1
strokes_ogs.tif
176
     1
290
     0
176
     1
 40
1.0
176
     1
 40
1.0
176
     1
  0
VISUALSTYLE
  5
18B
102
{ACAD_REACTORS
330
17B
102
}
330
17B
100
AcDbVisualStyle
  2
ColorChange
 70
    16
177
     3
291
     1
 70
    58
 90
        2
176
     1
 90
        2
176
     1
 90
        3
176
     1
 90
        0
176
     1
 40
-0.6
176
     1
 40
-30.0
176
     1
 62
     8
176
     1
 90
        1
176
     1
 90
        4
176
     1
 62
     7
176
     1
 62
   257
176
     1
 90
        1
176
     1
 90
        1
176
     1
 40
1.0
176
     1
 90
        8
176
     1
 62
     8
176
     1
 40
1.0
176
     1
 90
        1
176
     1
 90
        6
176
     1
 90
        2
176
     1
 62
     7
176
     1
 90
        5
176
     1
 90
        0
176
     1
 90
        0
176
     1
290
     0
176
     1
 90
        1
176
     1
 40
0.0
176
     1
 90
        0
176
     1
290
     0
176
     1
290
     1
176
     1
290
     1
176
     1
290
     0
176
     1
290
     0
176
     1
290
     0
176
     1
290
     0
176
     1
290
     0
176
     1
290
     0
176
     1
 90
       50
176
     1
 40
0.0
176
     1
 40
1.0
176
     1
 90
        0
176
     1
 62
    18
420
        0
176
     1
 90
       50
176
     1
 90
        3
176
     1
 62
     5
420
      255
176
     1
290
     0
176
     1
 90
       50
176
     1
 90
       50
176
     1
 90
       50
176
     1
290
     0
176
     1
 90
       50
176
     1
 62
   256
176
     0
 40
1.0
176
     0
 90
        2
176
     1
  1
strokes_ogs.tif
176
     1
290
     0
176
     1
 40
1.0
176
     1
 40
1.0
176
     1
  0
VISUALSTYLE
  5
185
102
{ACAD_REACTORS
330
17B
102
}
330
17B
100
AcDbVisualStyle
  2
Conceptual
 70
     9
177
     3
291
     0
 70
    58
 90
        3
176
     1
 90
        2
176
     1
 90
        0
176
     1
 90
        0
176
     1
 40
-0.6
176
     1
 40
-30.0
176
     1
 62
     7
176
     1
 90
        2
176
     1
 90
        2
176
     1
 62
     7
176
     1
 62
   257
176
     1
 90
        1
176
     1
 90
        1
176
     1
 40
40.0
176
     1
 90
        8
176
     1
 62
     7
176
     1
 40
1.0
176
     1
 90
        1
176
     1
 90
        6
176
     1
 90
        2
176
     1
 62
     7
176
     1
 90
        3
176
     1
 90
        0
176
     1
 90
        0
176
     1
290
     0
176
     1
 90
        1
176
     1
 40
0.0
176
     1
 90
        0
176
     1
290
     0
176
     1
290
     1
176
     1
290
     1
176
     1
290
     0
176
     1
290
     0
176
     1
290
     0
176
     1
290
     0
176
     1
290
     0
176
     1
290
     0
176
     1
 90
       50
176
     1
 40
0.0
176
     1
 40
1.0
176
     1
 90
        0
176
     1
 62
    18
420
        0
176
     1
 90
       50
176
     1
 90
        3
176
     1
 62
     5
420
      255
176
     1
290
     0
176
     1
 90
       50
176
     1
 90
       50
176
     1
 90
       50
176
     1
290
     0
176
     1
 90
       50
176
     1
 62
   256
176
     0
 40
1.0
176
     0
 90
        2
176
     1
  1
strokes_ogs.tif
176
     1
290
     0
176
     1
 40
1.0
176
     1
 40
1.0
176
     1
  0
VISUALSTYLE
  5
186
102
{ACAD_REACTORS
330
17B
102
}
330
17B
100
AcDbVisualStyle
  2
Dim
 70
    11
177
     3
291
     1
 70
    58
 90
        2
176
     1
 90
        2
176
     1
 90
        0
176
     1
 90
        0
176
     1
 40
-0.6
176
     1
 40
-30.0
176
     1
 62
     7
176
     1
 90
        1
176
     1
 90
        4
176
     1
 62
     7
176
     1
 62
   257
176
     1
 90
        1
176
     1
 90
        1
176
     1
 40
1.0
176
     1
 90
        8
176
     1
 62
     7
176
     1
 40
1.0
176
     1
 90
        1
176
     1
 90
        6
176
     1
 90
        2
176
     1
 62
     7
176
     1
 90
        5
176
     1
 90
        0
176
     1
 90
        0
176
     1
290
     0
176
     1
 90
        1
176
     1
 40
-50.0
176
     1
 90
        0
176
     1
290
     0
176
     1
290
     1
176
     1
290
     1
176
     1
290
     0
176
     1
290
     0
176
     1
290
     0
176
     1
290
     0
176
     1
290
     0
176
     1
290
     0
176
     1
 90
       50
176
     1
 40
0.0
176
     1
 40
1.0
176
     1
 90
        0
176
     1
 62
    18
420
        0
176
     1
 90
       50
176
     1
 90
        3
176
     1
 62
     5
420
      255
176
     1
290
     0
176
     1
 90
       50
176
     1
 90
       50
176
     1
 90
       50
176
     1
290
     0
176
     1
 90
       50
176
     1
 62
   256
176
     0
 40
1.0
176
     0
 90
        2
176
     1
  1
strokes_ogs.tif
176
     1
290
     0
176
     1
 40
1.0
176
     1
 40
1.0
176
     1
  0
VISUALSTYLE
  5
1DC
102
{ACAD_REACTORS
330
17B
102
}
330
17B
100
AcDbVisualStyle
  2
EdgeColorOff
 70
    22
177
     3
291
     1
 70
    58
 90
        2
176
     0
 90
        2
176
     0
 90
        0
176
     0
 90
        0
176
     0
 40
0.6
176
     0
 40
30.0
176
     0
 62
     7
420
 16777215
176
     0
 90
        1
176
     0
 90
        4
176
     0
 62
     7
176
     0
 62
   257
176
     0
 90
        1
176
     0
 90
        1
176
     0
 40
1.0
176
     0
 90
        8
176
     2
 62
     7
176
     0
 40
1.0
176
     0
 90
        1
176
     0
 90
        6
176
     0
 90
        2
176
     0
 62
     7
176
     0
 90
        5
176
     0
 90
        0
176
     0
 90
        0
176
     0
290
     0
176
     0
 90
        1
176
     0
 40
0.0
176
     0
 90
        0
176
     0
290
     0
176
     0
290
     1
176
     0
290
     1
176
     0
290
     0
176
     0
290
     0
176
     0
290
     0
176
     0
290
     0
176
     0
290
     0
176
     0
290
     0
176
     0
 90
       50
176
     0
 40
0.0
176
     0
 40
1.0
176
     0
 90
        0
176
     0
 62
    18
420
        0
176
     0
 90
       50
176
     0
 90
        3
176
     0
 62
     5
420
      255
176
     0
290
     0
176
     0
 90
       50
176
     0
 90
       50
176
     0
 90
       50
176
     0
290
     0
176
     0
 90
       50
176
     0
 62
   256
176
     0
 40
1.0
176
     0
 90
        2
176
     0
  1
strokes_ogs.tif
176
     0
290
     0
176
     0
 40
1.0
176
     0
 40
1.0
176
     0
  0
VISUALSTYLE
  5
18A
102
{ACAD_REACTORS
330
17B
102
}
330
17B
100
AcDbVisualStyle
  2
Facepattern
 70
    15
177
     3
291
     1
 70
    58
 90
        2
176
     1
 90
        2
176
     1
 90
        0
176
     1
 90
        0
176
     1
 40
-0.6
176
     1
 40
-30.0
176
     1
 62
     7
176
     1
 90
        1
176
     1
 90
        4
176
     1
 62
     7
176
     1
 62
   257
176
     1
 90
        1
176
     1
 90
        1
176
     1
 40
1.0
176
     1
 90
        8
176
     1
 62
     7
176
     1
 40
1.0
176
     1
 90
        1
176
     1
 90
        6
176
     1
 90
        2
176
     1
 62
     7
176
     1
 90
        5
176
     1
 90
        0
176
     1
 90
        0
176
     1
290
     0
176
     1
 90
        1
176
     1
 40
0.0
176
     1
 90
        0
176
     1
290
     0
176
     1
290
     1
176
     1
290
     1
176
     1
290
     0
176
     1
290
     0
176
     1
290
     0
176
     1
290
     0
176
     1
290
     0
176
     1
290
     0
176
     1
 90
       50
176
     1
 40
0.0
176
     1
 40
1.0
176
     1
 90
        0
176
     1
 62
    18
420
        0
176
     1
 90
       50
176
     1
 90
        3
176
     1
 62
     5
420
      255
176
     1
290
     0
176
     1
 90
       50
176
     1
 90
       50
176
     1
 90
       50
176
     1
290
     0
176
     1
 90
       50
176
     1
 62
   256
176
     0
 40
1.0
176
     0
 90
        2
176
     1
  1
strokes_ogs.tif
176
     1
290
     0
176
     1
 40
1.0
176
     1
 40
1.0
176
     1
  0
VISUALSTYLE
  5
17C
102
{ACAD_REACTORS
330
17B
102
}
330
17B
100
AcDbVisualStyle
  2
Flat
 70
     0
177
     3
291
     1
 70
    58
 90
        2
176
     1
 90
        1
176
     1
 90
        1
176
     1
 90
        2
176
     1
 40
-0.6
176
     1
 40
30.0
176
     1
 62
     7
176
     1
 90
        0
176
     1
 90
        4
176
     1
 62
     7
176
     1
 62
   257
176
     1
 90
        1
176
     1
 90
        1
176
     1
 40
1.0
176
     1
 90
        8
176
     1
 62
     7
176
     1
 40
1.0
176
     1
 90
        1
176
     1
 90
        6
176
     1
 90
        2
176
     1
 62
     7
176
     1
 90
        5
176
     1
 90
        0
176
     1
 90
        0
176
     1
290
     0
176
     1
 90
       13
176
     1
 40
0.0
176
     1
 90
        0
176
     1
290
     0
176
     1
290
     1
176
     1
290
     1
176
     1
290
     0
176
     1
290
     0
176
     1
290
     0
176
     1
290
     0
176
     1
290
     0
176
     1
290
     0
176
     1
 90
       50
176
     1
 40
0.0
176
     1
 40
1.0
176
     1
 90
        0
176
     1
 62
    18
420
        0
176
     1
 90
       50
176
     1
 90
        3
176
     1
 62
     5
420
      255
176
     1
290
     0
176
     1
 90
       50
176
     1
 90
       50
176
     1
 90
       50
176
     1
290
     0
176
     1
 90
       50
176
     1
 62
   256
176
     0
 40
1.0
176
     0
 90
        2
176
     1
  1
strokes_ogs.tif
176
     1
290
     0
176
     1
 40
1.0
176
     1
 40
1.0
176
     1
  0
VISUALSTYLE
  5
17D
102
{ACAD_REACTORS
330
17B
102
}
330
17B
100
AcDbVisualStyle
  2
FlatWithEdges
 70
     1
177
     3
291
     1
 70
    58
 90
        2
176
     1
 90
        1
176
     1
 90
        1
176
     1
 90
        2
176
     1
 40
-0.6
176
     1
 40
30.0
176
     1
 62
     7
176
     1
 90
        1
176
     1
 90
        4
176
     1
 62
     7
176
     1
 62
   257
176
     1
 90
        1
176
     1
 90
        1
176
     1
 40
1.0
176
     1
 90
        0
176
     1
 62
   257
176
     1
 40
1.0
176
     1
 90
        1
176
     1
 90
        6
176
     1
 90
        2
176
     1
 62
     7
176
     1
 90
        5
176
     1
 90
        0
176
     1
 90
        0
176
     1
290
     0
176
     1
 90
       13
176
     1
 40
0.0
176
     1
 90
        0
176
     1
290
     0
176
     1
290
     1
176
     1
290
     1
176
     1
290
     0
176
     1
290
     0
176
     1
290
     0
176
     1
290
     0
176
     1
290
     0
176
     1
290
     0
176
     1
 90
       50
176
     1
 40
0.0
176
     1
 40
1.0
176
     1
 90
        0
176
     1
 62
    18
420
        0
176
     1
 90
       50
176
     1
 90
        3
176
     1
 62
     5
420
      255
176
     1
290
     0
176
     1
 90
       50
176
     1
 90
       50
176
     1
 90
       50
176
     1
290
     0
176
     1
 90
       50
176
     1
 62
   256
176
     0
 40
1.0
176
     0
 90
        2
176
     1
  1
strokes_ogs.tif
176
     1
290
     0
176
     1
 40
1.0
176
     1
 40
1.0
176
     1
  0
VISUALSTYLE
  5
17E
102
{ACAD_REACTORS
330
17B
102
}
330
17B
100
AcDbVisualStyle
  2
Gouraud
 70
     2
177
     3
291
     1
 70
    58
 90
        2
176
     1
 90
        2
176
     1
 90
        1
176
     1
 90
        2
176
     1
 40
-0.6
176
     1
 40
30.0
176
     1
 62
     7
176
     1
 90
        0
176
     1
 90
        4
176
     1
 62
     7
176
     1
 62
   257
176
     1
 90
        1
176
     1
 90
        1
176
     1
 40
1.0
176
     1
 90
        0
176
     1
 62
     7
176
     1
 40
1.0
176
     1
 90
        1
176
     1
 90
        6
176
     1
 90
        2
176
     1
 62
     7
176
     1
 90
        5
176
     1
 90
        0
176
     1
 90
        0
176
     1
290
     0
176
     1
 90
       13
176
     1
 40
0.0
176
     1
 90
        0
176
     1
290
     0
176
     1
290
     1
176
     1
290
     1
176
     1
290
     0
176
     1
290
     0
176
     1
290
     0
176
     1
290
     0
176
     1
290
     0
176
     1
290
     0
176
     1
 90
       50
176
     1
 40
0.0
176
     1
 40
1.0
176
     1
 90
        0
176
     1
 62
    18
420
        0
176
     1
 90
       50
176
     1
 90
        3
176
     1
 62
     5
420
      255
176
     1
290
     0
176
     1
 90
       50
176
     1
 90
       50
176
     1
 90
       50
176
     1
290
     0
176
     1
 90
       50
176
     1
 62
   256
176
     0
 40
1.0
176
     0
 90
        2
176
     1
  1
strokes_ogs.tif
176
     1
290
     0
176
     1
 40
1.0
176
     1
 40
1.0
176
     1
  0
VISUALSTYLE
  5
17F
102
{ACAD_REACTORS
330
17B
102
}
330
17B
100
AcDbVisualStyle
  2
GouraudWithEdges
 70
     3
177
     3
291
     1
 70
    58
 90
        2
176
     1
 90
        2
176
     1
 90
        1
176
     1
 90
        2
176
     1
 40
-0.6
176
     1
 40
30.0
176
     1
 62
     7
176
     1
 90
        1
176
     1
 90
        4
176
     1
 62
     7
176
     1
 62
   257
176
     1
 90
        1
176
     1
 90
        1
176
     1
 40
1.0
176
     1
 90
        0
176
     1
 62
   257
176
     1
 40
1.0
176
     1
 90
        1
176
     1
 90
        6
176
     1
 90
        2
176
     1
 62
     7
176
     1
 90
        5
176
     1
 90
        0
176
     1
 90
        0
176
     1
290
     0
176
     1
 90
       13
176
     1
 40
0.0
176
     1
 90
        0
176
     1
290
     0
176
     1
290
     1
176
     1
290
     1
176
     1
290
     0
176
     1
290
     0
176
     1
290
     0
176
     1
290
     0
176
     1
290
     0
176
     1
290
     0
176
     1
 90
       50
176
     1
 40
0.0
176
     1
 40
1.0
176
     1
 90
        0
176
     1
 62
    18
420
        0
176
     1
 90
       50
176
     1
 90
        3
176
     1
 62
     5
420
      255
176
     1
290
     0
176
     1
 90
       50
176
     1
 90
       50
176
     1
 90
       50
176
     1
290
     0
176
     1
 90
       50
176
     1
 62
   256
176
     0
 40
1.0
176
     0
 90
        2
176
     1
  1
strokes_ogs.tif
176
     1
290
     0
176
     1
 40
1.0
176
     1
 40
1.0
176
     1
  0
VISUALSTYLE
  5
1D9
102
{ACAD_REACTORS
330
17B
102
}
330
17B
100
AcDbVisualStyle
  2
Hidden
 70
     6
177
     3
291
     0
 70
    58
 90
        1
176
     1
 90
        2
176
     1
 90
        2
176
     1
 90
        0
176
     1
 40
0.6
176
     1
 40
30.0
176
     1
 62
     7
420
 16777215
176
     1
 90
        2
176
     1
 90
        2
176
     1
 62
     7
176
     1
 62
   257
176
     1
 90
        2
176
     1
 90
        1
176
     1
 40
40.0
176
     1
 90
        0
176
     1
 62
   257
176
     1
 40
1.0
176
     1
 90
        1
176
     1
 90
        6
176
     1
 90
        2
176
     1
 62
     7
176
     1
 90
        3
176
     1
 90
        0
176
     1
 90
        0
176
     1
290
     0
176
     1
 90
        1
176
     1
 40
0.0
176
     1
 90
        0
176
     1
290
     0
176
     1
290
     1
176
     1
290
     1
176
     1
290
     0
176
     1
290
     0
176
     1
290
     0
176
     1
290
     0
176
     1
290
     0
176
     1
290
     0
176
     1
 90
       50
176
     1
 40
0.0
176
     1
 40
1.0
176
     1
 90
        0
176
     1
 62
    18
420
        0
176
     1
 90
       50
176
     1
 90
        3
176
     1
 62
     5
420
      255
176
     1
290
     0
176
     1
 90
       50
176
     1
 90
       50
176
     1
 90
       50
176
     1
290
     0
176
     1
 90
       50
176
     1
 62
   256
176
     0
 40
1.0
176
     0
 90
        2
176
     1
  1
strokes_ogs.tif
176
     1
290
     0
176
     1
 40
1.0
176
     1
 40
1.0
176
     1
  0
VISUALSTYLE
  5
1DA
102
{ACAD_REACTORS
330
17B
102
}
330
17B
100
AcDbVisualStyle
  2
JitterOff
 70
    20
177
     3
291
     1
 70
    58
 90
        2
176
     0
 90
        2
176
     0
 90
        0
176
     0
 90
        0
176
     0
 40
0.6
176
     0
 40
30.0
176
     0
 62
     7
420
 16777215
176
     0
 90
        1
176
     0
 90
        4
176
     0
 62
     7
176
     0
 62
   257
176
     0
 90
        1
176
     0
 90
        1
176
     0
 40
1.0
176
     0
 90
       10
176
     2
 62
     7
176
     0
 40
1.0
176
     0
 90
        1
176
     0
 90
        6
176
     0
 90
        2
176
     0
 62
     7
176
     0
 90
        5
176
     0
 90
        0
176
     0
 90
        0
176
     0
290
     0
176
     0
 90
        1
176
     0
 40
0.0
176
     0
 90
        0
176
     0
290
     0
176
     0
290
     1
176
     0
290
     1
176
     0
290
     0
176
     0
290
     0
176
     0
290
     0
176
     0
290
     0
176
     0
290
     0
176
     0
290
     0
176
     0
 90
       50
176
     0
 40
0.0
176
     0
 40
1.0
176
     0
 90
        0
176
     0
 62
    18
420
        0
176
     0
 90
       50
176
     0
 90
        3
176
     0
 62
     5
420
      255
176
     0
290
     0
176
     0
 90
       50
176
     0
 90
       50
176
     0
 90
       50
176
     0
290
     0
176
     0
 90
       50
176
     0
 62
   256
176
     0
 40
1.0
176
     0
 90
        2
176
     0
  1
strokes_ogs.tif
176
     0
290
     0
176
     0
 40
1.0
176
     0
 40
1.0
176
     0
  0
VISUALSTYLE
  5
189
102
{ACAD_REACTORS
330
17B
102
}
330
17B
100
AcDbVisualStyle
  2
Linepattern
 70
    14
177
     3
291
     1
 70
    58
 90
        2
176
     1
 90
        2
176
     1
 90
        0
176
     1
 90
        0
176
     1
 40
-0.6
176
     1
 40
-30.0
176
     1
 62
     7
176
     1
 90
        1
176
     1
 90
        4
176
     1
 62
     7
176
     1
 62
   257
176
     1
 90
        7
176
     1
 90
        7
176
     1
 40
1.0
176
     1
 90
        8
176
     1
 62
     7
176
     1
 40
1.0
176
     1
 90
        1
176
     1
 90
        6
176
     1
 90
        2
176
     1
 62
     7
176
     1
 90
        5
176
     1
 90
        0
176
     1
 90
        0
176
     1
290
     0
176
     1
 90
        1
176
     1
 40
0.0
176
     1
 90
        0
176
     1
290
     0
176
     1
290
     1
176
     1
290
     1
176
     1
290
     0
176
     1
290
     0
176
     1
290
     0
176
     1
290
     0
176
     1
290
     0
176
     1
290
     0
176
     1
 90
       50
176
     1
 40
0.0
176
     1
 40
1.0
176
     1
 90
        0
176
     1
 62
    18
420
        0
176
     1
 90
       50
176
     1
 90
        3
176
     1
 62
     5
420
      255
176
     1
290
     0
176
     1
 90
       50
176
     1
 90
       50
176
     1
 90
       50
176
     1
290
     0
176
     1
 90
       50
176
     1
 62
   256
176
     0
 40
1.0
176
     0
 90
        2
176
     1
  1
strokes_ogs.tif
176
     1
290
     0
176
     1
 40
1.0
176
     1
 40
1.0
176
     1
  0
VISUALSTYLE
  5
1DB
102
{ACAD_REACTORS
330
17B
102
}
330
17B
100
AcDbVisualStyle
  2
OverhangOff
 70
    21
177
     3
291
     1
 70
    58
 90
        2
176
     0
 90
        2
176
     0
 90
        0
176
     0
 90
        0
176
     0
 40
0.6
176
     0
 40
30.0
176
     0
 62
     7
420
 16777215
176
     0
 90
        1
176
     0
 90
        4
176
     0
 62
     7
176
     0
 62
   257
176
     0
 90
        1
176
     0
 90
        1
176
     0
 40
1.0
176
     0
 90
        9
176
     2
 62
     7
176
     0
 40
1.0
176
     0
 90
        1
176
     0
 90
        6
176
     0
 90
        2
176
     0
 62
     7
176
     0
 90
        5
176
     0
 90
        0
176
     0
 90
        0
176
     0
290
     0
176
     0
 90
        1
176
     0
 40
0.0
176
     0
 90
        0
176
     0
290
     0
176
     0
290
     1
176
     0
290
     1
176
     0
290
     0
176
     0
290
     0
176
     0
290
     0
176
     0
290
     0
176
     0
290
     0
176
     0
290
     0
176
     0
 90
       50
176
     0
 40
0.0
176
     0
 40
1.0
176
     0
 90
        0
176
     0
 62
    18
420
        0
176
     0
 90
       50
176
     0
 90
        3
176
     0
 62
     5
420
      255
176
     0
290
     0
176
     0
 90
       50
176
     0
 90
       50
176
     0
 90
       50
176
     0
290
     0
176
     0
 90
       50
176
     0
 62
   256
176
     0
 40
1.0
176
     0
 90
        2
176
     0
  1
strokes_ogs.tif
176
     0
290
     0
176
     0
 40
1.0
176
     0
 40
1.0
176
     0
  0
VISUALSTYLE
  5
184
102
{ACAD_REACTORS
330
17B
102
}
330
17B
100
AcDbVisualStyle
  2
Realistic
 70
     8
177
     3
291
     0
 70
    58
 90
        2
176
     1
 90
        2
176
     1
 90
        0
176
     1
 90
        0
176
     1
 40
-0.6
176
     1
 40
-30.0
176
     1
 62
     7
176
     1
 90
        1
176
     1
 90
        0
176
     1
 62
     7
176
     1
 62
   257
176
     1
 90
        1
176
     1
 90
        1
176
     1
 40
1.0
176
     1
 90
        8
176
     1
 62
     8
176
     1
 40
1.0
176
     1
 90
        1
176
     1
 90
        6
176
     1
 90
        2
176
     1
 62
     7
176
     1
 90
        5
176
     1
 90
        0
176
     1
 90
        0
176
     1
290
     0
176
     1
 90
       13
176
     1
 40
0.0
176
     1
 90
        0
176
     1
290
     0
176
     1
290
     1
176
     1
290
     1
176
     1
290
     0
176
     1
290
     0
176
     1
290
     0
176
     1
290
     0
176
     1
290
     0
176
     1
290
     0
176
     1
 90
       50
176
     1
 40
0.0
176
     1
 40
1.0
176
     1
 90
        0
176
     1
 62
    18
420
        0
176
     1
 90
       50
176
     1
 90
        3
176
     1
 62
     5
420
      255
176
     1
290
     0
176
     1
 90
       50
176
     1
 90
       50
176
     1
 90
       50
176
     1
290
     0
176
     1
 90
       50
176
     1
 62
   256
176
     0
 40
1.0
176
     0
 90
        2
176
     1
  1
strokes_ogs.tif
176
     1
290
     0
176
     1
 40
1.0
176
     1
 40
1.0
176
     1
  0
VISUALSTYLE
  5
1E1
102
{ACAD_REACTORS
330
17B
102
}
330
17B
100
AcDbVisualStyle
  2
Shaded
 70
    27
177
     3
291
     0
 70
    58
 90
        2
176
     1
 90
        2
176
     1
 90
        1
176
     1
 90
        2
176
     1
 40
0.6
176
     1
 40
30.0
176
     1
 62
     7
420
 16777215
176
     1
 90
        0
176
     1
 90
        4
176
     1
 62
     7
176
     1
 62
   257
176
     1
 90
        1
176
     1
 90
        1
176
     1
 40
1.0
176
     1
 90
        8
176
     1
 62
   257
176
     1
 40
1.0
176
     1
 90
        1
176
     1
 90
        6
176
     1
 90
        2
176
     1
 62
     8
420
  7895160
176
     1
 90
        3
176
     1
 90
        0
176
     1
 90
        0
176
     1
290
     0
176
     1
 90
        5
176
     1
 40
0.0
176
     1
 90
        0
176
     1
290
     0
176
     1
290
     1
176
     1
290
     1
176
     1
290
     0
176
     1
290
     0
176
     1
290
     0
176
     1
290
     0
176
     1
290
     0
176
     1
290
     0
176
     1
 90
       50
176
     1
 40
0.0
176
     1
 40
1.0
176
     1
 90
        0
176
     1
 62
    18
420
        0
176
     1
 90
       50
176
     1
 90
        3
176
     1
 62
     5
420
      255
176
     1
290
     0
176
     1
 90
       50
176
     1
 90
       50
176
     1
 90
       50
176
     1
290
     0
176
     1
 90
       50
176
     1
 62
   256
176
     0
 40
1.0
176
     0
 90
        2
176
     1
  1
strokes_ogs.tif
176
     1
290
     0
176
     1
 40
1.0
176
     1
 40
1.0
176
     1
  0
VISUALSTYLE
  5
1E0
102
{ACAD_REACTORS
330
17B
102
}
330
17B
100
AcDbVisualStyle
  2
Shaded with edges
 70
    26
177
     3
291
     0
 70
    58
 90
        2
176
     1
 90
        2
176
     1
 90
        1
176
     1
 90
        2
176
     1
 40
0.6
176
     1
 40
30.0
176
     1
 62
     7
420
 16777215
176
     1
 90
        1
176
     1
 90
       10
176
     1
 62
     7
176
     1
 62
   257
176
     1
 90
        2
176
     1
 90
        1
176
     1
 40
1.0
176
     1
 90
        8
176
     1
 62
   257
176
     1
 40
1.0
176
     1
 90
        1
176
     1
 90
        6
176
     1
 90
        2
176
     1
 62
     7
176
     1
 90
        3
176
     1
 90
        0
176
     1
 90
        0
176
     1
290
     0
176
     1
 90
        5
176
     1
 40
0.0
176
     1
 90
        0
176
     1
290
     0
176
     1
290
     1
176
     1
290
     1
176
     1
290
     0
176
     1
290
     0
176
     1
290
     0
176
     1
290
     0
176
     1
290
     0
176
     1
290
     0
176
     1
 90
       50
176
     1
 40
0.0
176
     1
 40
1.0
176
     1
 90
        0
176
     1
 62
    18
420
        0
176
     1
 90
       50
176
     1
 90
        3
176
     1
 62
     5
420
      255
176
     1
290
     0
176
     1
 90
       50
176
     1
 90
       50
176
     1
 90
       50
176
     1
290
     0
176
     1
 90
       50
176
     1
 62
   256
176
     0
 40
1.0
176
     0
 90
        2
176
     1
  1
strokes_ogs.tif
176
     1
290
     0
176
     1
 40
1.0
176
     1
 40
1.0
176
     1
  0
VISUALSTYLE
  5
1DD
102
{ACAD_REACTORS
330
17B
102
}
330
17B
100
AcDbVisualStyle
  2
Shades of Gray
 70
    23
177
     3
291
     0
 70
    58
 90
        2
176
     1
 90
        2
176
     1
 90
        3
176
     1
 90
        0
176
     1
 40
0.6
176
     1
 40
30.0
176
     1
 62
     7
420
 16777215
176
     1
 90
        2
176
     1
 90
        2
176
     1
 62
     7
176
     1
 62
     7
176
     1
 90
        1
176
     1
 90
        1
176
     1
 40
40.0
176
     1
 90
        8
176
     1
 62
     7
176
     1
 40
1.0
176
     1
 90
        1
176
     1
 90
        6
176
     1
 90
        2
176
     1
 62
     7
176
     1
 90
        3
176
     1
 90
        0
176
     1
 90
        0
176
     1
290
     0
176
     1
 90
        1
176
     1
 40
0.0
176
     1
 90
        0
176
     1
290
     0
176
     1
290
     1
176
     1
290
     1
176
     1
290
     0
176
     1
290
     0
176
     1
290
     0
176
     1
290
     0
176
     1
290
     0
176
     1
290
     0
176
     1
 90
       50
176
     1
 40
0.0
176
     1
 40
1.0
176
     1
 90
        0
176
     1
 62
    18
420
        0
176
     1
 90
       50
176
     1
 90
        3
176
     1
 62
     5
420
      255
176
     1
290
     0
176
     1
 90
       50
176
     1
 90
       50
176
     1
 90
       50
176
     1
290
     0
176
     1
 90
       50
176
     1
 62
   256
176
     0
 40
1.0
176
     0
 90
        2
176
     1
  1
strokes_ogs.tif
176
     1
290
     0
176
     1
 40
1.0
176
     1
 40
1.0
176
     1
  0
VISUALSTYLE
  5
1DE
102
{ACAD_REACTORS
330
17B
102
}
330
17B
100
AcDbVisualStyle
  2
Sketchy
 70
    24
177
     3
291
     0
 70
    58
 90
        1
176
     1
 90
        2
176
     1
 90
        2
176
     1
 90
        0
176
     1
 40
0.6
176
     1
 40
30.0
176
     1
 62
     7
420
 16777215
176
     1
 90
        2
176
     1
 90
        2
176
     1
 62
     7
176
     1
 62
     7
176
     1
 90
        1
176
     1
 90
        1
176
     1
 40
40.0
176
     1
 90
       11
176
     1
 62
     7
176
     1
 40
1.0
176
     1
 90
        1
176
     1
 90
        6
176
     1
 90
        2
176
     1
 62
     7
176
     1
 90
        6
176
     1
 90
        0
176
     1
 90
        0
176
     1
290
     0
176
     1
 90
        1
176
     1
 40
0.0
176
     1
 90
        0
176
     1
290
     0
176
     1
290
     1
176
     1
290
     1
176
     1
290
     0
176
     1
290
     0
176
     1
290
     0
176
     1
290
     0
176
     1
290
     0
176
     1
290
     0
176
     1
 90
       50
176
     1
 40
0.0
176
     1
 40
1.0
176
     1
 90
        0
176
     1
 62
    18
420
        0
176
     1
 90
       50
176
     1
 90
        3
176
     1
 62
     5
420
      255
176
     1
290
     0
176
     1
 90
       50
176
     1
 90
       50
176
     1
 90
       50
176
     1
290
     0
176
     1
 90
       50
176
     1
 62
   256
176
     0
 40
1.0
176
     0
 90
        2
176
     1
  1
strokes_ogs.tif
176
     1
290
     0
176
     1
 40
1.0
176
     1
 40
1.0
176
     1
  0
VISUALSTYLE
  5
188
102
{ACAD_REACTORS
330
17B
102
}
330
17B
100
AcDbVisualStyle
  2
Thicken
 70
    13
177
     3
291
     1
 70
    58
 90
        2
176
     1
 90
        2
176
     1
 90
        0
176
     1
 90
        0
176
     1
 40
-0.6
176
     1
 40
-30.0
176
     1
 62
     7
176
     1
 90
        1
176
     1
 90
        4
176
     1
 62
     7
176
     1
 62
   257
176
     1
 90
        1
176
     1
 90
        1
176
     1
 40
1.0
176
     1
 90
       12
176
     1
 62
     7
176
     1
 40
1.0
176
     1
 90
        1
176
     1
 90
        6
176
     1
 90
        2
176
     1
 62
     7
176
     1
 90
        5
176
     1
 90
        0
176
     1
 90
        0
176
     1
290
     0
176
     1
 90
        1
176
     1
 40
0.0
176
     1
 90
        0
176
     1
290
     0
176
     1
290
     1
176
     1
290
     1
176
     1
290
     0
176
     1
290
     0
176
     1
290
     0
176
     1
290
     0
176
     1
290
     0
176
     1
290
     0
176
     1
 90
       50
176
     1
 40
0.0
176
     1
 40
1.0
176
     1
 90
        0
176
     1
 62
    18
420
        0
176
     1
 90
       50
176
     1
 90
        3
176
     1
 62
     5
420
      255
176
     1
290
     0
176
     1
 90
       50
176
     1
 90
       50
176
     1
 90
       50
176
     1
290
     0
176
     1
 90
       50
176
     1
 62
   256
176
     0
 40
1.0
176
     0
 90
        2
176
     1
  1
strokes_ogs.tif
176
     1
290
     0
176
     1
 40
1.0
176
     1
 40
1.0
176
     1
  0
VISUALSTYLE
  5
1D8
102
{ACAD_REACTORS
330
17B
102
}
330
17B
100
AcDbVisualStyle
  2
Wireframe
 70
     5
177
     3
291
     0
 70
    58
 90
        0
176
     1
 90
        2
176
     1
 90
        0
176
     1
 90
        0
176
     1
 40
0.6
176
     1
 40
30.0
176
     1
 62
     7
420
 16777215
176
     1
 90
        1
176
     1
 90
        4
176
     1
 62
     7
176
     1
 62
   257
176
     1
 90
        1
176
     1
 90
        1
176
     1
 40
1.0
176
     1
 90
        0
176
     1
 62
   257
176
     1
 40
1.0
176
     1
 90
        1
176
     1
 90
        6
176
     1
 90
        2
176
     1
 62
     7
176
     1
 90
        3
176
     1
 90
        0
176
     1
 90
        0
176
     1
290
     0
176
     1
 90
        1
176
     1
 40
0.0
176
     1
 90
        0
176
     1
290
     0
176
     1
290
     1
176
     1
290
     1
176
     1
290
     0
176
     1
290
     0
176
     1
290
     0
176
     1
290
     0
176
     1
290
     0
176
     1
290
     0
176
     1
 90
       50
176
     1
 40
0.0
176
     1
 40
1.0
176
     1
 90
        0
176
     1
 62
    18
420
        0
176
     1
 90
       50
176
     1
 90
        3
176
     1
 62
     5
420
      255
176
     1
290
     0
176
     1
 90
       50
176
     1
 90
       50
176
     1
 90
       50
176
     1
290
     0
176
     1
 90
       50
176
     1
 62
   256
176
     0
 40
1.0
176
     0
 90
        2
176
     1
  1
strokes_ogs.tif
176
     1
290
     0
176
     1
 40
1.0
176
     1
 40
1.0
176
     1
  0
VISUALSTYLE
  5
1DF
102
{ACAD_REACTORS
330
17B
102
}
330
17B
100
AcDbVisualStyle
  2
X-Ray
 70
    25
177
     3
291
     0
 70
    58
 90
        2
176
     1
 90
        2
176
     1
 90
        1
176
     1
 90
        1
176
     1
 40
0.5
176
     1
 40
30.0
176
     1
 62
     7
420
 16777215
176
     1
 90
        1
176
     1
 90
        0
176
     1
 62
     7
176
     1
 62
   257
176
     1
 90
        1
176
     1
 90
        1
176
     1
 40
1.0
176
     1
 90
        8
176
     1
 62
     7
176
     1
 40
1.0
176
     1
 90
        1
176
     1
 90
        6
176
     1
 90
        2
176
     1
 62
     7
176
     1
 90
        3
176
     1
 90
        0
176
     1
 90
        0
176
     1
290
     0
176
     1
 90
       13
176
     1
 40
0.0
176
     1
 90
        0
176
     1
290
     0
176
     1
290
     1
176
     1
290
     1
176
     1
290
     0
176
     1
290
     0
176
     1
290
     0
176
     1
290
     0
176
     1
290
     0
176
     1
290
     0
176
     1
 90
       50
176
     1
 40
0.0
176
     1
 40
1.0
176
     1
 90
        0
176
     1
 62
    18
420
        0
176
     1
 90
       50
176
     1
 90
        3
176
     1
 62
     5
420
      255
176
     1
290
     0
176
     1
 90
       50
176
     1
 90
       50
176
     1
 90
       50
176
     1
290
     0
176
     1
 90
       50
176
     1
 62
   256
176
     0
 40
1.0
176
     0
 90
        2
176
     1
  1
strokes_ogs.tif
176
     1
290
     0
176
     1
 40
1.0
176
     1
 40
1.0
176
     1
  0
DICTIONARYVAR
  5
22A
102
{ACAD_REACTORS
330
197
102
}
330
197
100
DictionaryVariables
280
     0
  1
1:1
  0
DICTIONARYVAR
  5
22C
102
{ACAD_REACTORS
330
197
102
}
330
197
100
DictionaryVariables
280
     0
  1
Standard
  0
DICTIONARYVAR
  5
22B
102
{ACAD_REACTORS
330
197
102
}
330
197
100
DictionaryVariables
280
     0
  1
Standard
  0
DICTIONARYVAR
  5
19B
102
{ACAD_REACTORS
330
197
102
}
330
197
100
DictionaryVariables
280
     0
  1
2
  0
DICTIONARYVAR
  5
19C
102
{ACAD_REACTORS
330
197
102
}
330
197
100
DictionaryVariables
280
     0
  1
1
  0
DICTIONARYVAR
  5
19A
102
{ACAD_REACTORS
330
197
102
}
330
197
100
DictionaryVariables
280
     0
  1
0
  0
DICTIONARY
  5
272
330
1E3
100
AcDbDictionary
280
     1
281
     1
  3
ACAD_ROUNDTRIP_2008_TABLESTYLE_CELLSTYLEMAP
360
273
  0
CELLSTYLEMAP
  5
273
102
{ACAD_REACTORS
330
272
102
}
330
272
100
AcDbCellStyleMap
 90
        3
300
CELLSTYLE
  1
TABLEFORMAT_BEGIN
 90
        5
170
     1
 91
        0
 92
    32768
 62
   257
 93
        1
300
CONTENTFORMAT
  1
CONTENTFORMAT_BEGIN
 90
        0
 91
        0
 92
        4
 93
        0
300

 40
0.0
140
1.0
 94
        5
 62
     0
340
11
144
0.25
309
CONTENTFORMAT_END
171
     1
301
MARGIN
  1
CELLMARGIN_BEGIN
 40
0.06
 40
0.06
 40
0.06
 40
0.06
 40
0.06
 40
0.06
309
CELLMARGIN_END
 94
        6
 95
        1
302
GRIDFORMAT
  1
GRIDFORMAT_BEGIN
 90
        0
 91
        1
 62
     0
 92
       -2
340
14
 93
        0
 40
0.045
309
GRIDFORMAT_END
 95
        2
302
GRIDFORMAT
  1
GRIDFORMAT_BEGIN
 90
        0
 91
        1
 62
     0
 92
       -2
340
14
 93
        0
 40
0.045
309
GRIDFORMAT_END
 95
        4
302
GRIDFORMAT
  1
GRIDFORMAT_BEGIN
 90
        0
 91
        1
 62
     0
 92
       -2
340
14
 93
        0
 40
0.045
309
GRIDFORMAT_END
 95
        8
302
GRIDFORMAT
  1
GRIDFORMAT_BEGIN
 90
        0
 91
        1
 62
     0
 92
       -2
340
14
 93
        0
 40
0.045
309
GRIDFORMAT_END
 95
       16
302
GRIDFORMAT
  1
GRIDFORMAT_BEGIN
 90
        0
 91
        1
 62
     0
 92
       -2
340
14
 93
        0
 40
0.045
309
GRIDFORMAT_END
 95
       32
302
GRIDFORMAT
  1
GRIDFORMAT_BEGIN
 90
        0
 91
        1
 62
     0
 92
       -2
340
14
 93
        0
 40
0.045
309
GRIDFORMAT_END
309
TABLEFORMAT_END
  1
CELLSTYLE_BEGIN
 90
        1
 91
        1
300
_TITLE
309
CELLSTYLE_END
300
CELLSTYLE
  1
TABLEFORMAT_BEGIN
 90
        5
170
     1
 91
        0
 92
        0
 62
   257
 93
        1
300
CONTENTFORMAT
  1
CONTENTFORMAT_BEGIN
 90
        0
 91
        0
 92
        4
 93
        0
300

 40
0.0
140
1.0
 94
        5
 62
     0
340
11
144
0.18
309
CONTENTFORMAT_END
171
     1
301
MARGIN
  1
CELLMARGIN_BEGIN
 40
0.06
 40
0.06
 40
0.06
 40
0.06
 40
0.06
 40
0.06
309
CELLMARGIN_END
 94
        6
 95
        1
302
GRIDFORMAT
  1
GRIDFORMAT_BEGIN
 90
        0
 91
        1
 62
     0
 92
       -2
340
14
 93
        0
 40
0.045
309
GRIDFORMAT_END
 95
        2
302
GRIDFORMAT
  1
GRIDFORMAT_BEGIN
 90
        0
 91
        1
 62
     0
 92
       -2
340
14
 93
        0
 40
0.045
309
GRIDFORMAT_END
 95
        4
302
GRIDFORMAT
  1
GRIDFORMAT_BEGIN
 90
        0
 91
        1
 62
     0
 92
       -2
340
14
 93
        0
 40
0.045
309
GRIDFORMAT_END
 95
        8
302
GRIDFORMAT
  1
GRIDFORMAT_BEGIN
 90
        0
 91
        1
 62
     0
 92
       -2
340
14
 93
        0
 40
0.045
309
GRIDFORMAT_END
 95
       16
302
GRIDFORMAT
  1
GRIDFORMAT_BEGIN
 90
        0
 91
        1
 62
     0
 92
       -2
340
14
 93
        0
 40
0.045
309
GRIDFORMAT_END
 95
       32
302
GRIDFORMAT
  1
GRIDFORMAT_BEGIN
 90
        0
 91
        1
 62
     0
 92
       -2
340
14
 93
        0
 40
0.045
309
GRIDFORMAT_END
309
TABLEFORMAT_END
  1
CELLSTYLE_BEGIN
 90
        2
 91
        1
300
_HEADER
309
CELLSTYLE_END
300
CELLSTYLE
  1
TABLEFORMAT_BEGIN
 90
        5
170
     1
 91
        0
 92
        0
 62
   257
 93
        1
300
CONTENTFORMAT
  1
CONTENTFORMAT_BEGIN
 90
        0
 91
        0
 92
        4
 93
        0
300

 40
0.0
140
1.0
 94
        2
 62
     0
340
11
144
0.18
309
CONTENTFORMAT_END
171
     1
301
MARGIN
  1
CELLMARGIN_BEGIN
 40
0.06
 40
0.06
 40
0.06
 40
0.06
 40
0.06
 40
0.06
309
CELLMARGIN_END
 94
        6
 95
        1
302
GRIDFORMAT
  1
GRIDFORMAT_BEGIN
 90
        0
 91
        1
 62
     0
 92
       -2
340
14
 93
        0
 40
0.045
309
GRIDFORMAT_END
 95
        2
302
GRIDFORMAT
  1
GRIDFORMAT_BEGIN
 90
        0
 91
        1
 62
     0
 92
       -2
340
14
 93
        0
 40
0.045
309
GRIDFORMAT_END
 95
        4
302
GRIDFORMAT
  1
GRIDFORMAT_BEGIN
 90
        0
 91
        1
 62
     0
 92
       -2
340
14
 93
        0
 40
0.045
309
GRIDFORMAT_END
 95
        8
302
GRIDFORMAT
  1
GRIDFORMAT_BEGIN
 90
        0
 91
        1
 62
     0
 92
       -2
340
14
 93
        0
 40
0.045
309
GRIDFORMAT_END
 95
       16
302
GRIDFORMAT
  1
GRIDFORMAT_BEGIN
 90
        0
 91
        1
 62
     0
 92
       -2
340
14
 93
        0
 40
0.045
309
GRIDFORMAT_END
 95
       32
302
GRIDFORMAT
  1
GRIDFORMAT_BEGIN
 90
        0
 91
        1
 62
     0
 92
       -2
340
14
 93
        0
 40
0.045
309
GRIDFORMAT_END
309
TABLEFORMAT_END
  1
CELLSTYLE_BEGIN
 90
        3
 91
        2
300
_DATA
309
CELLSTYLE_END
  0
ENDSEC
  0
EOF
