  0
SECTION
  2
HEADER
  9
$ACADVER
  1
AC1027
  9
$ACADMAINTVER
 70
   105
  9
$DWGCODEPAGE
  3
ANSI_1252
  9
$REQUIREDVERSIONS
160
                 0
  9
$LASTSAVEDBY
  1
matthias.ochs
  9
$INSBASE
 10
0.0
 20
0.0
 30
0.0
  9
$EXTMIN
 10
-117.5539809705919
 20
-85.8250150796529
 30
0.0
  9
$EXTMAX
 10
172.718173168621
 20
93.97319023007668
 30
0.0
  9
$LIMMIN
 10
-77.230174766
 20
-71.827601836
  9
$LIMMAX
 10
136.396687529
 20
64.266061126
  9
$ORTHOMODE
 70
     0
  9
$REGENMODE
 70
     1
  9
$FILLMODE
 70
     1
  9
$QTEXTMODE
 70
     0
  9
$MIRRTEXT
 70
     1
  9
$LTSCALE
 40
1.0
  9
$ATTMODE
 70
     1
  9
$TEXTSIZE
 40
0.2
  9
$TRACEWID
 40
0.05
  9
$TEXTSTYLE
  7
Standard
  9
$CLAYER
  8
SK3
  9
$CELTYPE
  6
ByLayer
  9
$CECOLOR
 62
   256
  9
$CELTSCALE
 40
1.0
  9
$DISPSILH
 70
     0
  9
$DIMSCALE
 40
1.0
  9
$DIMASZ
 40
0.18
  9
$DIMEXO
 40
0.0625
  9
$DIMDLI
 40
0.38
  9
$DIMRND
 40
0.0
  9
$DIMDLE
 40
0.0
  9
$DIMEXE
 40
0.18
  9
$DIMTP
 40
0.0
  9
$DIMTM
 40
0.0
  9
$DIMTXT
 40
0.18
  9
$DIMCEN
 40
0.09
  9
$DIMTSZ
 40
0.0
  9
$DIMTOL
 70
     0
  9
$DIMLIM
 70
     0
  9
$DIMTIH
 70
     1
  9
$DIMTOH
 70
     1
  9
$DIMSE1
 70
     0
  9
$DIMSE2
 70
     0
  9
$DIMTAD
 70
     0
  9
$DIMZIN
 70
     0
  9
$DIMBLK
  1

  9
$DIMASO
 70
     1
  9
$DIMSHO
 70
     1
  9
$DIMPOST
  1

  9
$DIMAPOST
  1

  9
$DIMALT
 70
     0
  9
$DIMALTD
 70
     2
  9
$DIMALTF
 40
25.4
  9
$DIMLFAC
 40
1.0
  9
$DIMTOFL
 70
     0
  9
$DIMTVP
 40
0.0
  9
$DIMTIX
 70
     0
  9
$DIMSOXD
 70
     0
  9
$DIMSAH
 70
     0
  9
$DIMBLK1
  1

  9
$DIMBLK2
  1

  9
$DIMSTYLE
  2
Standard
  9
$DIMCLRD
 70
     0
  9
$DIMCLRE
 70
     0
  9
$DIMCLRT
 70
     0
  9
$DIMTFAC
 40
1.0
  9
$DIMGAP
 40
0.09
  9
$DIMJUST
 70
     0
  9
$DIMSD1
 70
     0
  9
$DIMSD2
 70
     0
  9
$DIMTOLJ
 70
     1
  9
$DIMTZIN
 70
     0
  9
$DIMALTZ
 70
     0
  9
$DIMALTTZ
 70
     0
  9
$DIMUPT
 70
     0
  9
$DIMDEC
 70
     4
  9
$DIMTDEC
 70
     4
  9
$DIMALTU
 70
     2
  9
$DIMALTTD
 70
     2
  9
$DIMTXSTY
  7
Standard
  9
$DIMAUNIT
 70
     0
  9
$DIMADEC
 70
     0
  9
$DIMALTRND
 40
0.0
  9
$DIMAZIN
 70
     0
  9
$DIMDSEP
 70
    46
  9
$DIMATFIT
 70
     3
  9
$DIMFRAC
 70
     0
  9
$DIMLDRBLK
  1

  9
$DIMLUNIT
 70
     2
  9
$DIMLWD
 70
    -2
  9
$DIMLWE
 70
    -2
  9
$DIMTMOVE
 70
     2
  9
$DIMFXL
 40
1.0
  9
$DIMFXLON
 70
     0
  9
$DIMJOGANG
 40
0.7853981633974483
  9
$DIMTFILL
 70
     0
  9
$DIMTFILLCLR
 70
     0
  9
$DIMARCSYM
 70
     0
  9
$DIMLTYPE
  6

  9
$DIMLTEX1
  6

  9
$DIMLTEX2
  6

  9
$DIMTXTDIRECTION
 70
     0
  9
$LUNITS
 70
     2
  9
$LUPREC
 70
     4
  9
$SKETCHINC
 40
0.1
  9
$FILLETRAD
 40
0.5
  9
$AUNITS
 70
     2
  9
$AUPREC
 70
     0
  9
$MENU
  1
.
  9
$ELEVATION
 40
0.0
  9
$PELEVATION
 40
0.0
  9
$THICKNESS
 40
0.0
  9
$LIMCHECK
 70
     0
  9
$CHAMFERA
 40
0.5
  9
$CHAMFERB
 40
0.5
  9
$CHAMFERC
 40
1.0
  9
$CHAMFERD
 40
0.0
  9
$SKPOLY
 70
     0
  9
$TDCREATE
 40
2458327.549379248
  9
$TDUCREATE
 40
2458327.466045914
  9
$TDUPDATE
 40
2458682.476797477
  9
$TDUUPDATE
 40
2458682.393464143
  9
$TDINDWG
 40
0.0036662963
  9
$TDUSRTIMER
 40
0.0151113079
  9
$USRTIMER
 70
     1
  9
$ANGBASE
 50
0.0
  9
$ANGDIR
 70
     0
  9
$PDMODE
 70
     0
  9
$PDSIZE
 40
0.0
  9
$PLINEWID
 40
0.0
  9
$SPLFRAME
 70
     0
  9
$SPLINETYPE
 70
     6
  9
$SPLINESEGS
 70
     8
  9
$HANDSEED
  5
2A2
  9
$SURFTAB1
 70
     6
  9
$SURFTAB2
 70
     6
  9
$SURFTYPE
 70
     6
  9
$SURFU
 70
     6
  9
$SURFV
 70
     6
  9
$UCSBASE
  2

  9
$UCSNAME
  2

  9
$UCSORG
 10
0.0
 20
0.0
 30
0.0
  9
$UCSXDIR
 10
1.0
 20
0.0
 30
0.0
  9
$UCSYDIR
 10
0.0
 20
1.0
 30
0.0
  9
$UCSORTHOREF
  2

  9
$UCSORTHOVIEW
 70
     0
  9
$UCSORGTOP
 10
0.0
 20
0.0
 30
0.0
  9
$UCSORGBOTTOM
 10
0.0
 20
0.0
 30
0.0
  9
$UCSORGLEFT
 10
0.0
 20
0.0
 30
0.0
  9
$UCSORGRIGHT
 10
0.0
 20
0.0
 30
0.0
  9
$UCSORGFRONT
 10
0.0
 20
0.0
 30
0.0
  9
$UCSORGBACK
 10
0.0
 20
0.0
 30
0.0
  9
$PUCSBASE
  2

  9
$PUCSNAME
  2

  9
$PUCSORG
 10
0.0
 20
0.0
 30
0.0
  9
$PUCSXDIR
 10
1.0
 20
0.0
 30
0.0
  9
$PUCSYDIR
 10
0.0
 20
1.0
 30
0.0
  9
$PUCSORTHOREF
  2

  9
$PUCSORTHOVIEW
 70
     0
  9
$PUCSORGTOP
 10
0.0
 20
0.0
 30
0.0
  9
$PUCSORGBOTTOM
 10
0.0
 20
0.0
 30
0.0
  9
$PUCSORGLEFT
 10
0.0
 20
0.0
 30
0.0
  9
$PUCSORGRIGHT
 10
0.0
 20
0.0
 30
0.0
  9
$PUCSORGFRONT
 10
0.0
 20
0.0
 30
0.0
  9
$PUCSORGBACK
 10
0.0
 20
0.0
 30
0.0
  9
$USERI1
 70
     0
  9
$USERI2
 70
     0
  9
$USERI3
 70
     0
  9
$USERI4
 70
     0
  9
$USERI5
 70
     0
  9
$USERR1
 40
0.0
  9
$USERR2
 40
0.0
  9
$USERR3
 40
0.0
  9
$USERR4
 40
0.0
  9
$USERR5
 40
0.0
  9
$WORLDVIEW
 70
     1
  9
$SHADEDGE
 70
     3
  9
$SHADEDIF
 70
    70
  9
$TILEMODE
 70
     1
  9
$MAXACTVP
 70
    64
  9
$PINSBASE
 10
0.0
 20
0.0
 30
0.0
  9
$PLIMCHECK
 70
     0
  9
$PEXTMIN
 10
1.000000000000000E+20
 20
1.000000000000000E+20
 30
1.000000000000000E+20
  9
$PEXTMAX
 10
-1.000000000000000E+20
 20
-1.000000000000000E+20
 30
-1.000000000000000E+20
  9
$PLIMMIN
 10
0.0
 20
0.0
  9
$PLIMMAX
 10
0.0
 20
0.0
  9
$UNITMODE
 70
     0
  9
$VISRETAIN
 70
     1
  9
$PLINEGEN
 70
     0
  9
$PSLTSCALE
 70
     1
  9
$TREEDEPTH
 70
  3020
  9
$CMLSTYLE
  2
Standard
  9
$CMLJUST
 70
     0
  9
$CMLSCALE
 40
1.0
  9
$PROXYGRAPHICS
 70
     1
  9
$MEASUREMENT
 70
     0
  9
$CELWEIGHT
370
    -1
  9
$ENDCAPS
280
     0
  9
$JOINSTYLE
280
     0
  9
$LWDISPLAY
290
     0
  9
$INSUNITS
 70
     0
  9
$HYPERLINKBASE
  1

  9
$STYLESHEET
  1

  9
$XEDIT
290
     1
  9
$CEPSNTYPE
380
     0
  9
$PSTYLEMODE
290
     1
  9
$FINGERPRINTGUID
  2
{6E08B1E5-9FF7-4C3B-A998-86CAC41A6FE6}
  9
$VERSIONGUID
  2
{FAEB1C32-E019-11D5-929B-00C0DF256EC4}
  9
$EXTNAMES
290
     1
  9
$PSVPSCALE
 40
0.0
  9
$OLESTARTUP
290
     0
  9
$SORTENTS
280
   127
  9
$INDEXCTL
280
     0
  9
$HIDETEXT
280
     1
  9
$XCLIPFRAME
280
     2
  9
$HALOGAP
280
     0
  9
$OBSCOLOR
 70
   257
  9
$OBSLTYPE
280
     0
  9
$INTERSECTIONDISPLAY
280
     0
  9
$INTERSECTIONCOLOR
 70
   257
  9
$DIMASSOC
280
     2
  9
$PROJECTNAME
  1

  9
$CAMERADISPLAY
290
     0
  9
$LENSLENGTH
 40
50.0
  9
$CAMERAHEIGHT
 40
0.0
  9
$STEPSPERSEC
 40
2.0
  9
$STEPSIZE
 40
6.0
  9
$3DDWFPREC
 40
2.0
  9
$PSOLWIDTH
 40
0.25
  9
$PSOLHEIGHT
 40
4.0
  9
$LOFTANG1
 40
1.570796326794897
  9
$LOFTANG2
 40
1.570796326794897
  9
$LOFTMAG1
 40
0.0
  9
$LOFTMAG2
 40
0.0
  9
$LOFTPARAM
 70
     7
  9
$LOFTNORMALS
280
     1
  9
$LATITUDE
 40
37.795
  9
$LONGITUDE
 40
-122.394
  9
$NORTHDIRECTION
 40
0.0
  9
$TIMEZONE
 70
 -8000
  9
$LIGHTGLYPHDISPLAY
280
     1
  9
$TILEMODELIGHTSYNCH
280
     1
  9
$SOLIDHIST
280
     0
  9
$SHOWHIST
280
     1
  9
$DWFFRAME
280
     2
  9
$DGNFRAME
280
     2
  9
$REALWORLDSCALE
290
     1
  9
$INTERFERECOLOR
 62
   256
  9
$CSHADOW
280
     0
  9
$SHADOWPLANELOCATION
 40
0.0
  0
ENDSEC
  0
SECTION
  2
CLASSES
  0
CLASS
  1
ACDBDICTIONARYWDFLT
  2
AcDbDictionaryWithDefault
  3
ObjectDBX Classes
 90
        0
 91
      272
280
     0
281
     0
  0
CLASS
  1
SCALE
  2
AcDbScale
  3
ObjectDBX Classes
 90
     1153
 91
      272
280
     0
281
     0
  0
CLASS
  1
VISUALSTYLE
  2
AcDbVisualStyle
  3
ObjectDBX Classes
 90
     4095
 91
      272
280
     0
281
     0
  0
CLASS
  1
MATERIAL
  2
AcDbMaterial
  3
ObjectDBX Classes
 90
     1153
 91
      272
280
     0
281
     0
  0
CLASS
  1
DICTIONARYVAR
  2
AcDbDictionaryVar
  3
ObjectDBX Classes
 90
        0
 91
        6
280
     0
281
     0
  0
CLASS
  1
ACDBPLACEHOLDER
  2
AcDbPlaceHolder
  3
ObjectDBX Classes
 90
        0
 91
        1
280
     0
281
     0
  0
CLASS
  1
LAYOUT
  2
AcDbLayout
  3
ObjectDBX Classes
 90
        0
 91
        1
280
     0
281
     0
  0
CLASS
  1
TABLESTYLE
  2
AcDbTableStyle
  3
ObjectDBX Classes
 90
     4095
 91
      272
280
     0
281
     0
  0
CLASS
  1
MLEADERSTYLE
  2
AcDbMLeaderStyle
  3
ACDB_MLEADERSTYLE_CLASS
 90
     4095
 91
      272
280
     0
281
     0
  0
CLASS
  1
SUN
  2
AcDbSun
  3
SCENEOE
 90
     1153
 91
      272
280
     0
281
     0
  0
CLASS
  1
SORTENTSTABLE
  2
AcDbSortentsTable
  3
ObjectDBX Classes
 90
        0
 91
        5
280
     0
281
     0
  0
CLASS
  1
CELLSTYLEMAP
  2
AcDbCellStyleMap
  3
ObjectDBX Classes
 90
     1152
 91
        6
280
     0
281
     0
  0
ENDSEC
  0
SECTION
  2
TABLES
  0
TABLE
  2
VPORT
  5
8
330
0
100
AcDbSymbolTable
 70
     1
  0
VPORT
  5
132
330
8
100
AcDbSymbolTableRecord
100
AcDbViewportTableRecord
  2
*Active
 70
     0
 10
0.0
 20
0.0
 11
1.0
 21
1.0
 12
-300.3426401404844
 22
164.6131800391186
 13
0.0
 23
0.0
 14
0.5
 24
0.5
 15
0.5
 25
0.5
 16
0.0
 26
0.0
 36
1.0
 17
0.0
 27
0.0
 37
0.0
 40
957.7154197138574
 41
1.831002331002331
 42
50.0
 43
0.0
 44
0.0
 50
0.0
 51
0.0
 71
    16
 72
   100
 73
     1
 74
     3
 75
     1
 76
     0
 77
     0
 78
     0
281
     0
 65
     1
110
0.0
120
0.0
130
0.0
111
1.0
121
0.0
131
0.0
112
0.0
122
1.0
132
0.0
 79
     0
146
0.0
348
163
 60
     3
 61
     5
292
     1
282
     1
141
0.0
142
0.0
 63
   256
361
227
  0
ENDTAB
  0
TABLE
  2
LTYPE
  5
5
330
0
100
AcDbSymbolTable
 70
     8
  0
LTYPE
  5
14
330
5
100
AcDbSymbolTableRecord
100
AcDbLinetypeTableRecord
  2
ByBlock
 70
     0
  3

 72
    65
 73
     0
 40
0.0
  0
LTYPE
  5
15
330
5
100
AcDbSymbolTableRecord
100
AcDbLinetypeTableRecord
  2
ByLayer
 70
     0
  3

 72
    65
 73
     0
 40
0.0
  0
LTYPE
  5
16
330
5
100
AcDbSymbolTableRecord
100
AcDbLinetypeTableRecord
  2
Continuous
 70
     0
  3
Solid line
 72
    65
 73
     0
 40
0.0
  0
LTYPE
  5
20
330
5
100
AcDbSymbolTableRecord
100
AcDbLinetypeTableRecord
  2
PUNKT
 70
     0
  3
..............
 72
    65
 73
     2
 40
1.5
 49
0.7
 74
     0
 49
-0.8
 74
     0
  0
LTYPE
  5
21
330
5
100
AcDbSymbolTableRecord
100
AcDbLinetypeTableRecord
  2
GESTRICHELT
 70
     0
  3
-- -- -- -- --
 72
    65
 73
     7
 40
2.8
 49
0.9
 74
     0
 49
0.0
 74
     0
 49
0.9
 74
     0
 49
0.0
 74
     0
 49
0.2
 74
     0
 49
0.0
 74
     0
 49
-0.8
 74
     0
  0
LTYPE
  5
22
330
5
100
AcDbSymbolTableRecord
100
AcDbLinetypeTableRecord
  2
STRICHPUNKT
 70
     0
  3
--.--.--.--.--
 72
    65
 73
     4
 40
8.8
 49
5.5
 74
     0
 49
-1.3
 74
     0
 49
0.7
 74
     0
 49
-1.3
 74
     0
  0
LTYPE
  5
25
330
5
100
AcDbSymbolTableRecord
100
AcDbLinetypeTableRecord
  2
PHANTOM
 70
     0
  3
--..--..--..--
 72
    65
 73
     6
 40
14.2
 49
7.0
 74
     0
 49
-1.8
 74
     0
 49
0.9
 74
     0
 49
-1.8
 74
     0
 49
0.9
 74
     0
 49
-1.8
 74
     0
  0
LTYPE
  5
1AA
330
5
100
AcDbSymbolTableRecord
100
AcDbLinetypeTableRecord
  2
DASH
 70
     0
  3
DASH _ _ _ _ _
 72
    65
 73
     2
 40
0.75
 49
0.4
 74
     0
 49
-0.35
 74
     0
  0
LTYPE
  5
1AB
330
5
100
AcDbSymbolTableRecord
100
AcDbLinetypeTableRecord
  2
LONGDASH_DASH
 70
     0
  3
LONGDASH_DASH __ . __ . __
 72
    65
 73
     4
 40
0.85
 49
0.4
 74
     0
 49
-0.2
 74
     0
 49
0.05
 74
     0
 49
-0.2
 74
     0
  0
LTYPE
  5
1AC
330
5
100
AcDbSymbolTableRecord
100
AcDbLinetypeTableRecord
  2
LONGDASH_DASH_DASH
 70
     0
  3
LONGDASH_DASH_DASH __ . . __ . . __
 72
    65
 73
     6
 40
1.1
 49
0.4
 74
     0
 49
-0.2
 74
     0
 49
0.05
 74
     0
 49
-0.2
 74
     0
 49
0.05
 74
     0
 49
-0.2
 74
     0
  0
ENDTAB
  0
TABLE
  2
LAYER
  5
2
102
{ACAD_XDICTIONARY
360
1C9
102
}
330
0
100
AcDbSymbolTable
 70
    16
  0
LAYER
  5
174
330
2
100
AcDbSymbolTableRecord
100
AcDbLayerTableRecord
  2
200
 70
     0
 62
     2
  6
Continuous
370
    50
390
F
347
172
348
0
  0
LAYER
  5
1AD
330
2
100
AcDbSymbolTableRecord
100
AcDbLayerTableRecord
  2
0
 70
     0
 62
     1
  6
Continuous
370
    -3
390
F
347
172
348
0
  0
LAYER
  5
1AE
330
2
100
AcDbSymbolTableRecord
100
AcDbLayerTableRecord
  2
1
 70
     0
 62
     4
  6
Continuous
370
    50
390
F
347
172
348
0
  0
LAYER
  5
1AF
330
2
100
AcDbSymbolTableRecord
100
AcDbLayerTableRecord
  2
2
 70
     0
 62
     7
  6
Continuous
370
    25
390
F
347
172
348
0
  0
LAYER
  5
1B0
330
2
100
AcDbSymbolTableRecord
100
AcDbLayerTableRecord
  2
3
 70
     0
 62
     1
  6
DASH
370
    35
390
F
347
172
348
0
  0
LAYER
  5
1B1
330
2
100
AcDbSymbolTableRecord
100
AcDbLayerTableRecord
  2
4
 70
     0
 62
     2
  6
LONGDASH_DASH
370
    25
390
F
347
172
348
0
  0
LAYER
  5
1B2
330
2
100
AcDbSymbolTableRecord
100
AcDbLayerTableRecord
  2
6
 70
     0
 62
     5
  6
Continuous
370
    -3
390
F
347
172
348
0
  0
LAYER
  5
1B3
330
2
100
AcDbSymbolTableRecord
100
AcDbLayerTableRecord
  2
CUT
 70
     0
 62
     1
  6
Continuous
370
    25
390
F
347
172
348
0
  0
LAYER
  5
1B4
330
2
100
AcDbSymbolTableRecord
100
AcDbLayerTableRecord
  2
NOCUT
 70
     0
 62
     7
  6
Continuous
370
    25
390
F
347
172
348
0
  0
LAYER
  5
1B5
330
2
100
AcDbSymbolTableRecord
100
AcDbLayerTableRecord
  2
SK1
 70
     0
 62
     4
  6
Continuous
370
    50
390
F
347
172
348
0
  0
LAYER
  5
1B6
330
2
100
AcDbSymbolTableRecord
100
AcDbLayerTableRecord
  2
SK2
 70
     0
 62
     7
  6
Continuous
370
    25
390
F
347
172
348
0
  0
LAYER
  5
1B7
330
2
100
AcDbSymbolTableRecord
100
AcDbLayerTableRecord
  2
SK3
 70
     0
 62
     1
  6
DASH
370
    35
390
F
347
172
348
0
  0
LAYER
  5
1B8
330
2
100
AcDbSymbolTableRecord
100
AcDbLayerTableRecord
  2
SK4
 70
     0
 62
     2
  6
LONGDASH_DASH
370
    25
390
F
347
172
348
0
  0
LAYER
  5
1B9
330
2
100
AcDbSymbolTableRecord
100
AcDbLayerTableRecord
  2
SK6
 70
     0
 62
     5
  6
Continuous
370
    -3
390
F
347
172
348
0
  0
LAYER
  5
1BA
330
2
100
AcDbSymbolTableRecord
100
AcDbLayerTableRecord
  2
INFTOTAL
 70
     0
 62
     9
  6
Continuous
370
    18
390
F
347
172
348
0
  0
LAYER
  5
22B
330
2
100
AcDbSymbolTableRecord
100
AcDbLayerTableRecord
  2
11
 70
     0
 62
     4
  6
Continuous
370
    50
390
F
347
172
348
0
1001
AcAecLayerStandard
1000

1000

  0
ENDTAB
  0
TABLE
  2
STYLE
  5
3
330
0
100
AcDbSymbolTable
 70
     3
  0
STYLE
  5
11
330
3
100
AcDbSymbolTableRecord
100
AcDbTextStyleTableRecord
  2
Standard
 70
     0
 40
0.0
 41
1.0
 50
0.0
 71
     0
 42
0.2
  3
txt
  4

  0
STYLE
  5
173
330
3
100
AcDbSymbolTableRecord
100
AcDbTextStyleTableRecord
  2
BMG_Text
 70
     0
 40
3.5
 41
1.0
 50
0.0
 71
     0
 42
0.2
  3
monos.ttf
  4

1001
ACAD
1000
Monospac821 BT
1071
       49
  0
STYLE
  5
231
330
3
100
AcDbSymbolTableRecord
100
AcDbTextStyleTableRecord
  2
SLDTEXTSTYLE0
 70
     0
 40
0.0
 41
0.605
 50
0.0
 71
     0
 42
0.2
  3
TXT
  4

  0
ENDTAB
  0
TABLE
  2
VIEW
  5
6
330
0
100
AcDbSymbolTable
 70
     0
  0
ENDTAB
  0
TABLE
  2
UCS
  5
7
330
0
100
AcDbSymbolTable
 70
     0
  0
ENDTAB
  0
TABLE
  2
APPID
  5
9
330
0
100
AcDbSymbolTable
 70
     2
  0
APPID
  5
12
330
9
100
AcDbSymbolTableRecord
100
AcDbRegAppTableRecord
  2
ACAD
 70
     0
  0
APPID
  5
22C
330
9
100
AcDbSymbolTableRecord
100
AcDbRegAppTableRecord
  2
AcAecLayerStandard
 70
     0
  0
ENDTAB
  0
TABLE
  2
DIMSTYLE
  5
A
330
0
100
AcDbSymbolTable
 70
     6
100
AcDbDimStyleTable
  0
DIMSTYLE
105
28
330
A
100
AcDbSymbolTableRecord
100
AcDbDimStyleTableRecord
  2
Standard
 70
     0
178
     0
340
11
  0
DIMSTYLE
105
22D
330
A
100
AcDbSymbolTableRecord
100
AcDbDimStyleTableRecord
  2
Matthias
 70
     0
 41
3.0
 44
2.0
 73
     0
 77
     1
140
3.0
147
2.0
178
     0
340
11
  0
DIMSTYLE
105
22F
102
{ACAD_REACTORS
102
}
330
A
100
AcDbSymbolTableRecord
100
AcDbDimStyleTableRecord
  2
ISO-25
 70
     0
 41
2.5
 42
0.625
 43
3.75
 44
1.25
 73
     0
 74
     0
 77
     1
 78
     8
140
2.5
141
2.5
143
0.0393700787
147
0.625
171
     3
172
     1
178
     0
271
     2
272
     2
274
     3
278
    44
283
     0
284
     8
340
11
  0
DIMSTYLE
105
230
330
A
100
AcDbSymbolTableRecord
100
AcDbDimStyleTableRecord
  2
SLDDIMSTYLE0
 70
     0
 41
3.5
 44
0.0
 45
0.000000001
 73
     0
 74
     0
 77
     1
 78
    12
 79
     3
140
3.5
144
0.5
147
0.875
173
     1
178
     0
271
     2
272
     1
276
     2
284
    12
340
231
  0
DIMSTYLE
105
232
330
A
100
AcDbSymbolTableRecord
100
AcDbDimStyleTableRecord
  2
SLDDIMSTYLE1
 70
     0
 41
3.5
 44
0.0
 45
0.000000001
 73
     0
 74
     0
 77
     1
 78
    12
 79
     3
140
3.5
144
0.5
147
0.875
173
     1
178
     0
271
     2
272
     3
276
     2
284
    12
340
231
  0
DIMSTYLE
105
233
330
A
100
AcDbSymbolTableRecord
100
AcDbDimStyleTableRecord
  2
SLDDIMSTYLE2
 70
     0
 41
3.5
 44
0.0
 45
0.000000001
 73
     0
 74
     0
 77
     1
 78
    12
 79
     3
140
3.5
147
0.875
173
     1
178
     0
271
     2
272
     0
276
     2
284
    12
340
231
  0
ENDTAB
  0
TABLE
  2
BLOCK_RECORD
  5
1
330
0
100
AcDbSymbolTable
 70
     1
  0
BLOCK_RECORD
  5
1D
330
1
100
AcDbSymbolTableRecord
100
AcDbBlockTableRecord
  2
*Model_Space
340
1E
 70
     0
280
     1
281
     0
  0
BLOCK_RECORD
  5
1B
330
1
100
AcDbSymbolTableRecord
100
AcDbBlockTableRecord
  2
*Paper_Space
340
1C
 70
     0
280
     1
281
     0
  0
ENDTAB
  0
ENDSEC
  0
SECTION
  2
BLOCKS
  0
BLOCK
  5
15C
330
1D
100
AcDbEntity
  8
0
100
AcDbBlockBegin
  2
*Model_Space
 70
     0
 10
0.0
 20
0.0
 30
0.0
  3
*Model_Space
  1

  0
ENDBLK
  5
15D
330
1D
100
AcDbEntity
  8
0
100
AcDbBlockEnd
  0
BLOCK
  5
15A
330
1B
100
AcDbEntity
 67
     1
  8
0
100
AcDbBlockBegin
  2
*Paper_Space
 70
     0
 10
0.0
 20
0.0
 30
0.0
  3
*Paper_Space
  1

  0
ENDBLK
  5
15B
330
1B
100
AcDbEntity
 67
     1
  8
0
100
AcDbBlockEnd
  0
ENDSEC
  0
SECTION
  2
ENTITIES
  0
ARC
  5
29
330
1D
100
AcDbEntity
  8
SK3
100
AcDbCircle
 10
-46.4
 20
-30.03
 30
0.0
 40
3.5
100
AcDbArc
 50
90.0
 51
180.0
  0
LINE
  5
2A
330
1D
100
AcDbEntity
  8
SK3
100
AcDbLine
 10
-46.4
 20
-26.53
 30
0.0
 11
-30.000413215
 21
-26.53
 31
0.0
  0
LINE
  5
2B
330
1D
100
AcDbEntity
  8
SK3
100
AcDbLine
 10
-30.000413215
 20
-26.53
 30
0.0
 11
-27.363684163
 21
-31.051273977
 31
0.0
  0
ARC
  5
2C
330
1D
100
AcDbEntity
  8
SK3
100
AcDbCircle
 10
-26.499848658
 20
-30.5475
 30
0.0
 40
1.0
100
AcDbArc
 50
210.25
 51
270.0
  0
LINE
  5
2D
330
1D
100
AcDbEntity
  8
SK3
100
AcDbLine
 10
-26.499848658
 20
-31.5475
 30
0.0
 11
-9.552985569
 21
-31.5475
 31
0.0
  0
ARC
  5
2E
330
1D
100
AcDbEntity
  8
SK3
100
AcDbCircle
 10
-9.552985569
 20
-19.5475
 30
0.0
 40
12.0
100
AcDbArc
 50
270.0
 51
322.365291735
  0
LINE
  5
2F
330
1D
100
AcDbEntity
  8
3
100
AcDbLine
 10
0.0
 20
-26.875
 30
0.0
 11
9.950058829
 21
-26.875
 31
0.0
  0
ARC
  5
30
330
1D
100
AcDbEntity
  8
3
100
AcDbCircle
 10
9.950058829
 20
-24.375
 30
0.0
 40
2.5
100
AcDbArc
 50
270.0
 51
359.9998684629999
  0
LINE
  5
31
330
1D
100
AcDbEntity
  8
3
100
AcDbLine
 10
12.450086665
 20
-12.25
 30
0.0
 11
13.450056147
 21
-11.250030518
 31
0.0
  0
LINE
  5
32
330
1D
100
AcDbEntity
  8
3
100
AcDbLine
 10
13.450056147
 20
-11.250030518
 30
0.0
 11
25.80008896
 21
-11.250030518
 31
0.0
  0
LINE
  5
33
330
1D
100
AcDbEntity
  8
11
100
AcDbLine
 10
12.75
 20
-12.000030518
 30
0.0
 11
25.800087239
 21
-12.000030518
 31
0.0
  0
LINE
  5
34
330
1D
100
AcDbEntity
  8
3
100
AcDbLine
 10
25.800086665
 20
-12.25
 30
0.0
 11
28.300086665
 21
-12.25
 31
0.0
  0
LINE
  5
35
330
1D
100
AcDbEntity
  8
3
100
AcDbLine
 10
28.300104026
 20
-6.0
 30
0.0
 11
43.834115635
 21
-6.0
 31
0.0
  0
LINE
  5
36
330
1D
100
AcDbEntity
  8
3
100
AcDbLine
 10
43.834115635
 20
-6.0
 30
0.0
 11
45.0
 21
-11.05
 31
0.0
  0
ARC
  5
37
330
1D
100
AcDbEntity
  8
3
100
AcDbCircle
 10
72.399993896
 20
-13.849990845
 30
0.0
 40
0.400001523
100
AcDbArc
 50
180.0
 51
270.0
  0
LINE
  5
38
330
1D
100
AcDbEntity
  8
3
100
AcDbLine
 10
78.614617615
 20
-14.25
 30
0.0
 11
79.0
 21
-14.0275
 31
0.0
  0
LINE
  5
39
330
1D
100
AcDbEntity
  8
3
100
AcDbLine
 10
57.0
 20
-12.0
 30
0.0
 11
53.454547119
 21
-11.05
 31
0.0
  0
LINE
  5
3A
330
1D
100
AcDbEntity
  8
3
100
AcDbLine
 10
45.0
 20
-11.05
 30
0.0
 11
72.0
 21
-11.05
 31
0.0
  0
LINE
  5
3B
330
1D
100
AcDbEntity
  8
11
100
AcDbLine
 10
57.0
 20
-12.0
 30
0.0
 11
72.0
 21
-12.0
 31
0.0
  0
LINE
  5
3C
330
1D
100
AcDbEntity
  8
3
100
AcDbLine
 10
72.399993896
 20
-14.25
 30
0.0
 11
78.614617615
 21
-14.25
 31
0.0
  0
LINE
  5
3D
330
1D
100
AcDbEntity
  8
3
100
AcDbLine
 10
79.0
 20
-14.0275
 30
0.0
 11
107.0
 21
-14.0275
 31
0.0
  0
LINE
  5
3E
330
1D
100
AcDbEntity
  8
1
100
AcDbLine
 10
0.470030518
 20
-49.965
 30
0.0
 11
16.758172905
 21
-49.965
 31
0.0
  0
LINE
  5
3F
330
1D
100
AcDbEntity
  8
1
100
AcDbLine
 10
23.241818662
 20
-49.965
 30
0.0
 11
28.560030518
 21
-49.965
 31
0.0
  0
LINE
  5
40
330
1D
100
AcDbEntity
  8
SK1
100
AcDbLine
 10
-49.9
 20
33.603751561
 30
0.0
 11
-49.9
 21
-33.603751561
 31
0.0
  0
LINE
  5
41
330
1D
100
AcDbEntity
  8
SK3
100
AcDbLine
 10
-34.799997362
 20
-36.262900132
 30
0.0
 11
-34.799997942
 21
-26.53
 31
0.0
  0
ARC
  5
42
330
1D
100
AcDbEntity
  8
SK1
100
AcDbCircle
 10
-0.75
 20
-38.667025
 30
0.0
 40
1.0
100
AcDbArc
 50
41.409622109
 51
105.0
  0
LINE
  5
43
330
1D
100
AcDbEntity
  8
SK1
100
AcDbLine
 10
-1.008819045
 20
-37.701099174
 30
0.0
 11
-1.812354125
 21
-37.916405749
 31
0.0
  0
LINE
  5
44
330
1D
100
AcDbEntity
  8
SK1
100
AcDbLine
 10
-1.812354125
 20
-37.916405749
 30
0.0
 11
-48.000124297
 21
-35.60124377
 31
0.0
  0
ARC
  5
45
330
1D
100
AcDbEntity
  8
SK1
100
AcDbCircle
 10
-47.9
 20
-33.603751561
 30
0.0
 40
2.0
100
AcDbArc
 50
180.0
 51
267.1304507060001
  0
LINE
  5
46
330
1D
100
AcDbEntity
  8
1
100
AcDbLine
 10
0.0
 20
49.494969482
 30
0.0
 11
0.0
 21
-49.494969482
 31
0.0
  0
LINE
  5
47
330
1D
100
AcDbEntity
  8
1
100
AcDbLine
 10
23.241818662
 20
49.965
 30
0.0
 11
23.241818662
 21
38.979711914
 31
0.0
  0
LINE
  5
48
330
1D
100
AcDbEntity
  8
1
100
AcDbLine
 10
16.758172905
 20
49.965
 30
0.0
 11
16.758172905
 21
38.979711914
 31
0.0
  0
ARC
  5
49
330
1D
100
AcDbEntity
  8
1
100
AcDbCircle
 10
14.58688614
 20
41.649997579
 30
0.0
 40
10.0
100
AcDbArc
 50
195.487525463
 51
270.0
  0
LINE
  5
4A
330
1D
100
AcDbEntity
  8
1
100
AcDbLine
 10
28.95
 20
31.65
 30
0.0
 11
21.912542471
 21
31.65
 31
0.0
  0
LINE
  5
4B
330
1D
100
AcDbEntity
  8
1
100
AcDbLine
 10
28.95
 20
38.979711914
 30
0.0
 11
23.241818662
 21
38.979711914
 31
0.0
  0
LINE
  5
4C
330
1D
100
AcDbEntity
  8
1
100
AcDbLine
 10
16.758172905
 20
38.979711914
 30
0.0
 11
18.08753093
 21
36.677179992
 31
0.0
  0
LINE
  5
4D
330
1D
100
AcDbEntity
  8
1
100
AcDbLine
 10
23.241818662
 20
38.979711914
 30
0.0
 11
21.91253093
 21
36.677352934
 31
0.0
  0
LINE
  5
4E
330
1D
100
AcDbEntity
  8
1
100
AcDbLine
 10
16.758172905
 20
31.65
 30
0.0
 11
16.758172905
 21
-49.965
 31
0.0
  0
LINE
  5
4F
330
1D
100
AcDbEntity
  8
1
100
AcDbLine
 10
18.087542471
 20
31.65
 30
0.0
 11
14.58688614
 21
31.65
 31
0.0
  0
LINE
  5
50
330
1D
100
AcDbEntity
  8
1
100
AcDbLine
 10
23.241818662
 20
31.65
 30
0.0
 11
23.241818662
 21
-49.965
 31
0.0
  0
LINE
  5
51
330
1D
100
AcDbEntity
  8
1
100
AcDbLine
 10
16.758172905
 20
38.979711914
 30
0.0
 11
4.95
 21
38.979711914
 31
0.0
  0
LINE
  5
52
330
1D
100
AcDbEntity
  8
SK4
100
AcDbLine
 10
-52.632423467
 20
0.0
 30
0.0
 11
108.874355396
 21
0.0
 31
0.0
  0
LINE
  5
53
330
1D
100
AcDbEntity
  8
3
100
AcDbLine
 10
45.0
 20
-11.05
 30
0.0
 11
45.0
 21
11.05
 31
0.0
  0
LINE
  5
54
330
1D
100
AcDbEntity
  8
3
100
AcDbLine
 10
57.0
 20
-12.0
 30
0.0
 11
57.0
 21
12.0
 31
0.0
  0
LINE
  5
55
330
1D
100
AcDbEntity
  8
3
100
AcDbLine
 10
57.0
 20
12.0
 30
0.0
 11
53.454547119
 21
11.05
 31
0.0
  0
LINE
  5
56
330
1D
100
AcDbEntity
  8
11
100
AcDbLine
 10
57.0
 20
12.0
 30
0.0
 11
72.0
 21
12.0
 31
0.0
  0
LINE
  5
57
330
1D
100
AcDbEntity
  8
3
100
AcDbLine
 10
79.0
 20
-14.0275
 30
0.0
 11
79.0
 21
14.0275
 31
0.0
  0
LINE
  5
58
330
1D
100
AcDbEntity
  8
SK3
100
AcDbLine
 10
-30.003417969
 20
-26.53
 30
0.0
 11
-30.003417969
 21
26.53
 31
0.0
  0
LINE
  5
59
330
1D
100
AcDbEntity
  8
11
100
AcDbLine
 10
12.75
 20
12.000030518
 30
0.0
 11
25.800087239
 21
12.000030518
 31
0.0
  0
LINE
  5
5A
330
1D
100
AcDbEntity
  8
1
100
AcDbLine
 10
107.0
 20
24.0
 30
0.0
 11
107.0
 21
-24.0
 31
0.0
  0
LINE
  5
5B
330
1D
100
AcDbEntity
  8
1
100
AcDbLine
 10
36.95
 20
-24.85
 30
0.0
 11
37.1
 21
-25.0
 31
0.0
  0
LINE
  5
5C
330
1D
100
AcDbEntity
  8
1
100
AcDbLine
 10
33.95
 20
-24.85
 30
0.0
 11
36.95
 21
-24.85
 31
0.0
  0
LINE
  5
5D
330
1D
100
AcDbEntity
  8
1
100
AcDbLine
 10
37.1
 20
-25.0
 30
0.0
 11
104.653589838
 21
-25.0
 31
0.0
  0
LINE
  5
5E
330
1D
100
AcDbEntity
  8
1
100
AcDbLine
 10
105.0
 20
-24.4
 30
0.0
 11
104.653589838
 21
-25.0
 31
0.0
  0
LINE
  5
5F
330
1D
100
AcDbEntity
  8
1
100
AcDbLine
 10
105.0
 20
-24.4
 30
0.0
 11
106.6
 21
-24.4
 31
0.0
  0
LINE
  5
60
330
1D
100
AcDbEntity
  8
1
100
AcDbLine
 10
106.6
 20
-24.4
 30
0.0
 11
107.0
 21
-24.0
 31
0.0
  0
LINE
  5
61
330
1D
100
AcDbEntity
  8
1
100
AcDbLine
 10
28.95
 20
49.575030518
 30
0.0
 11
28.95
 21
-49.575030518
 31
0.0
  0
LINE
  5
62
330
1D
100
AcDbEntity
  8
SK1
100
AcDbLine
 10
-1.8
 20
37.917025
 30
0.0
 11
-1.8
 21
-37.913095472
 31
0.0
  0
LINE
  5
63
330
1D
100
AcDbEntity
  8
SK3
100
AcDbLine
 10
-39.8
 20
26.53
 30
0.0
 11
-39.8
 21
36.012275
 31
0.0
  0
LINE
  5
64
330
1D
100
AcDbEntity
  8
3
100
AcDbLine
 10
13.5
 20
11.250030518
 30
0.0
 11
13.5
 21
-11.250030518
 31
0.0
  0
LINE
  5
65
330
1D
100
AcDbEntity
  8
3
100
AcDbLine
 10
43.834115635
 20
6.0
 30
0.0
 11
43.834115635
 21
-6.0
 31
0.0
  0
LINE
  5
66
330
1D
100
AcDbEntity
  8
3
100
AcDbLine
 10
12.450086665
 20
24.375
 30
0.0
 11
12.450086665
 21
-24.375
 31
0.0
  0
LINE
  5
67
330
1D
100
AcDbEntity
  8
3
100
AcDbLine
 10
28.300104026
 20
12.25
 30
0.0
 11
28.300104026
 21
-12.25
 31
0.0
  0
LINE
  5
68
330
1D
100
AcDbEntity
  8
1
100
AcDbLine
 10
18.087505366
 20
-47.662553051
 30
0.0
 11
16.758172905
 21
-49.965
 31
0.0
  0
ARC
  5
69
330
1D
100
AcDbEntity
  8
1
100
AcDbCircle
 10
18.837507519
 20
-46.725
 30
0.0
 40
0.75
100
AcDbArc
 50
90.0
 51
179.999868463
  0
LINE
  5
6A
330
1D
100
AcDbEntity
  8
1
100
AcDbLine
 10
18.087505366
 20
47.662553051
 30
0.0
 11
18.087505366
 21
-47.662553051
 31
0.0
  0
LINE
  5
6B
330
1D
100
AcDbEntity
  8
1
100
AcDbLine
 10
21.162507519
 20
-45.975
 30
0.0
 11
18.837507519
 21
-45.975
 31
0.0
  0
ARC
  5
6C
330
1D
100
AcDbEntity
  8
1
100
AcDbCircle
 10
21.162507519
 20
-46.725
 30
0.0
 40
0.75
100
AcDbArc
 50
359.9998684629999
 51
90.0
  0
LINE
  5
6D
330
1D
100
AcDbEntity
  8
1
100
AcDbLine
 10
21.912505366
 20
-47.662561832
 30
0.0
 11
21.91272421
 21
47.662940881
 31
0.0
  0
LINE
  5
6E
330
1D
100
AcDbEntity
  8
1
100
AcDbLine
 10
21.912505366
 20
-47.662561832
 30
0.0
 11
23.241818662
 21
-49.965
 31
0.0
  0
LINE
  5
6F
330
1D
100
AcDbEntity
  8
1
100
AcDbLine
 10
36.95
 20
-24.85
 30
0.0
 11
36.95
 21
24.85
 31
0.0
  0
LINE
  5
70
330
1D
100
AcDbEntity
  8
1
100
AcDbLine
 10
106.6
 20
-24.4
 30
0.0
 11
106.6
 21
24.4
 31
0.0
  0
LINE
  5
71
330
1D
100
AcDbEntity
  8
1
100
AcDbLine
 10
104.653589838
 20
-25.0
 30
0.0
 11
104.653589838
 21
25.0
 31
0.0
  0
LINE
  5
72
330
1D
100
AcDbEntity
  8
1
100
AcDbLine
 10
4.95
 20
-0.021
 30
0.0
 11
4.95
 21
0.0
 31
0.0
  0
ARC
  5
73
330
1D
100
AcDbEntity
  8
1
100
AcDbCircle
 10
33.95
 20
29.85
 30
0.0
 40
5.0
100
AcDbArc
 50
180.0
 51
270.0
  0
LINE
  5
74
330
1D
100
AcDbEntity
  8
1
100
AcDbLine
 10
28.950020947
 20
49.575009571
 30
0.0
 11
28.560030518
 21
49.965
 31
0.0
  0
LINE
  5
75
330
1D
100
AcDbEntity
  8
1
100
AcDbLine
 10
28.560030518
 20
49.965
 30
0.0
 11
23.241818662
 21
49.965
 31
0.0
  0
LINE
  5
76
330
1D
100
AcDbEntity
  8
1
100
AcDbLine
 10
23.241818662
 20
49.965
 30
0.0
 11
21.912505366
 21
47.662561832
 31
0.0
  0
LINE
  5
77
330
1D
100
AcDbEntity
  8
1
100
AcDbLine
 10
21.912505366
 20
47.662561832
 30
0.0
 11
21.912507519
 21
46.725001722
 31
0.0
  0
ARC
  5
78
330
1D
100
AcDbEntity
  8
1
100
AcDbCircle
 10
21.162507519
 20
46.725
 30
0.0
 40
0.75
100
AcDbArc
 50
270.0
 51
0.000131537
  0
LINE
  5
79
330
1D
100
AcDbEntity
  8
1
100
AcDbLine
 10
21.162507519
 20
45.975
 30
0.0
 11
18.837507519
 21
45.975
 31
0.0
  0
ARC
  5
7A
330
1D
100
AcDbEntity
  8
1
100
AcDbCircle
 10
18.837507519
 20
46.725
 30
0.0
 40
0.75
100
AcDbArc
 50
180.000131537
 51
270.0
  0
LINE
  5
7C
330
1D
100
AcDbEntity
  8
1
100
AcDbLine
 10
18.087505366
 20
47.662553051
 30
0.0
 11
16.758172905
 21
49.965
 31
0.0
  0
LINE
  5
7D
330
1D
100
AcDbEntity
  8
1
100
AcDbLine
 10
16.758172905
 20
49.965
 30
0.0
 11
0.470030518
 21
49.965
 31
0.0
  0
LINE
  5
7E
330
1D
100
AcDbEntity
  8
1
100
AcDbLine
 10
0.470030518
 20
49.965
 30
0.0
 11
0.000000077
 21
49.494969559
 31
0.0
  0
ARC
  5
7F
330
1D
100
AcDbEntity
  8
SK1
100
AcDbCircle
 10
-0.75
 20
38.667025
 30
0.0
 40
1.0
100
AcDbArc
 50
255.0
 51
318.590377891
  0
LINE
  5
80
330
1D
100
AcDbEntity
  8
SK1
100
AcDbLine
 10
-1.008819045
 20
37.701099174
 30
0.0
 11
-1.812354125
 21
37.916405749
 31
0.0
  0
LINE
  5
81
330
1D
100
AcDbEntity
  8
SK1
100
AcDbLine
 10
-1.812354125
 20
37.916405749
 30
0.0
 11
-48.000124297
 21
35.60124377
 31
0.0
  0
ARC
  5
82
330
1D
100
AcDbEntity
  8
SK1
100
AcDbCircle
 10
-47.9
 20
33.603751561
 30
0.0
 40
2.0
100
AcDbArc
 50
92.869549294
 51
180.0
  0
ARC
  5
84
330
1D
100
AcDbEntity
  8
SK3
100
AcDbCircle
 10
-46.4
 20
30.03
 30
0.0
 40
3.5
100
AcDbArc
 50
180.0
 51
270.0
  0
LINE
  5
85
330
1D
100
AcDbEntity
  8
SK3
100
AcDbLine
 10
-46.4
 20
26.53
 30
0.0
 11
-30.000413215
 21
26.53
 31
0.0
  0
LINE
  5
86
330
1D
100
AcDbEntity
  8
SK3
100
AcDbLine
 10
-30.000413215
 20
26.53
 30
0.0
 11
-27.363684163
 21
31.051273977
 31
0.0
  0
ARC
  5
87
330
1D
100
AcDbEntity
  8
SK3
100
AcDbCircle
 10
-26.499848658
 20
30.5475
 30
0.0
 40
1.0
100
AcDbArc
 50
90.0
 51
149.75
  0
LINE
  5
88
330
1D
100
AcDbEntity
  8
SK3
100
AcDbLine
 10
-26.499848658
 20
31.5475
 30
0.0
 11
-9.552985569
 21
31.5475
 31
0.0
  0
ARC
  5
89
330
1D
100
AcDbEntity
  8
SK3
100
AcDbCircle
 10
-9.552985569
 20
19.5475
 30
0.0
 40
12.0
100
AcDbArc
 50
37.63470826499999
 51
90.0
  0
LINE
  5
8A
330
1D
100
AcDbEntity
  8
3
100
AcDbLine
 10
0.0
 20
26.875
 30
0.0
 11
9.950058829
 21
26.875
 31
0.0
  0
ARC
  5
8B
330
1D
100
AcDbEntity
  8
3
100
AcDbCircle
 10
9.950058829
 20
24.375
 30
0.0
 40
2.5
100
AcDbArc
 50
0.000131537
 51
90.0
  0
LINE
  5
8C
330
1D
100
AcDbEntity
  8
3
100
AcDbLine
 10
12.450086665
 20
12.25
 30
0.0
 11
13.450056147
 21
11.250030518
 31
0.0
  0
LINE
  5
8D
330
1D
100
AcDbEntity
  8
3
100
AcDbLine
 10
13.450056147
 20
11.250030518
 30
0.0
 11
25.80008896
 21
11.250030518
 31
0.0
  0
LINE
  5
8E
330
1D
100
AcDbEntity
  8
3
100
AcDbLine
 10
25.800142911
 20
-12.25
 30
0.0
 11
25.800086665
 21
12.25
 31
0.0
  0
LINE
  5
8F
330
1D
100
AcDbEntity
  8
3
100
AcDbLine
 10
25.800086665
 20
12.25
 30
0.0
 11
28.300086665
 21
12.25
 31
0.0
  0
LINE
  5
90
330
1D
100
AcDbEntity
  8
3
100
AcDbLine
 10
28.300104026
 20
6.0
 30
0.0
 11
43.834115635
 21
6.0
 31
0.0
  0
LINE
  5
91
330
1D
100
AcDbEntity
  8
3
100
AcDbLine
 10
43.834115635
 20
6.0
 30
0.0
 11
45.0
 21
11.05
 31
0.0
  0
LINE
  5
92
330
1D
100
AcDbEntity
  8
3
100
AcDbLine
 10
45.0
 20
11.05
 30
0.0
 11
72.0
 21
11.05
 31
0.0
  0
LINE
  5
93
330
1D
100
AcDbEntity
  8
3
100
AcDbLine
 10
72.000067821
 20
-13.849991934
 30
0.0
 11
71.999992374
 21
13.849990845
 31
0.0
  0
ARC
  5
94
330
1D
100
AcDbEntity
  8
3
100
AcDbCircle
 10
72.399993896
 20
13.849990845
 30
0.0
 40
0.400001523
100
AcDbArc
 50
90.0
 51
180.0
  0
LINE
  5
95
330
1D
100
AcDbEntity
  8
3
100
AcDbLine
 10
72.399993896
 20
14.25
 30
0.0
 11
78.614617615
 21
14.25
 31
0.0
  0
LINE
  5
96
330
1D
100
AcDbEntity
  8
3
100
AcDbLine
 10
78.614617615
 20
14.25
 30
0.0
 11
79.0
 21
14.0275
 31
0.0
  0
LINE
  5
97
330
1D
100
AcDbEntity
  8
3
100
AcDbLine
 10
79.0
 20
14.0275
 30
0.0
 11
107.0
 21
14.0275
 31
0.0
  0
LINE
  5
99
330
1D
100
AcDbEntity
  8
1
100
AcDbLine
 10
107.0
 20
24.0
 30
0.0
 11
106.6
 21
24.4
 31
0.0
  0
LINE
  5
9A
330
1D
100
AcDbEntity
  8
1
100
AcDbLine
 10
106.6
 20
24.4
 30
0.0
 11
105.0
 21
24.4
 31
0.0
  0
LINE
  5
9B
330
1D
100
AcDbEntity
  8
1
100
AcDbLine
 10
105.0
 20
24.4
 30
0.0
 11
104.653589838
 21
25.0
 31
0.0
  0
LINE
  5
9C
330
1D
100
AcDbEntity
  8
1
100
AcDbLine
 10
104.653589838
 20
25.0
 30
0.0
 11
37.1
 21
25.0
 31
0.0
  0
LINE
  5
9D
330
1D
100
AcDbEntity
  8
1
100
AcDbLine
 10
37.1
 20
25.0
 30
0.0
 11
36.95
 21
24.85
 31
0.0
  0
LINE
  5
9E
330
1D
100
AcDbEntity
  8
1
100
AcDbLine
 10
36.95
 20
24.85
 30
0.0
 11
33.95
 21
24.85
 31
0.0
  0
ARC
  5
9F
330
1D
100
AcDbEntity
  8
1
100
AcDbCircle
 10
33.95
 20
-29.85
 30
0.0
 40
5.0
100
AcDbArc
 50
90.0
 51
180.0
  0
LINE
  5
A0
330
1D
100
AcDbEntity
  8
1
100
AcDbLine
 10
0.000000077
 20
-49.494969559
 30
0.0
 11
0.470030518
 21
-49.965
 31
0.0
  0
LINE
  5
A1
330
1D
100
AcDbEntity
  8
1
100
AcDbLine
 10
28.560030518
 20
-49.965
 30
0.0
 11
28.950020947
 21
-49.575009571
 31
0.0
  0
LINE
  5
A2
330
1D
100
AcDbEntity
  8
SK6
100
AcDbLine
 10
-26.865130479
 20
-54.743334988
 30
0.0
 11
-26.865130479
 21
-56.813327048
 31
0.0
  0
ARC
  5
A3
330
1D
100
AcDbEntity
  8
SK6
100
AcDbCircle
 10
-29.745116289
 20
-57.893336508
 30
0.0
 40
1.08000004
100
AcDbArc
 50
90.00000763
 51
206.54360962
  0
LINE
  5
A4
330
1D
100
AcDbEntity
  8
SK6
100
AcDbLine
 10
-29.745116289
 20
-56.813357568
 30
0.0
 11
-26.865119029
 21
-56.813357568
 31
0.0
  0
ARC
  5
A5
330
1D
100
AcDbEntity
  8
SK6
100
AcDbCircle
 10
-30.915125899
 20
-57.443331928
 30
0.0
 40
2.70000005
100
AcDbArc
 50
90.00000763
 51
206.5436554
  0
ARC
  5
A6
330
1D
100
AcDbEntity
  8
SK6
100
AcDbCircle
 10
-30.195109419
 20
-67.343341088
 30
0.0
 40
1.08000004
100
AcDbArc
 50
270.0
 51
26.54360962
  0
LINE
  5
A7
330
1D
100
AcDbEntity
  8
SK6
100
AcDbLine
 10
-30.195109419
 20
-68.423342918
 30
0.0
 11
-33.615107589
 21
-68.423342918
 31
0.0
  0
LINE
  5
A8
330
1D
100
AcDbEntity
  8
SK6
100
AcDbLine
 10
-33.330527359
 20
-58.649905418
 30
0.0
 11
-29.228961039
 21
-66.860697958
 31
0.0
  0
ARC
  5
A9
330
1D
100
AcDbEntity
  8
SK6
100
AcDbCircle
 10
-29.025122689
 20
-67.793345668
 30
0.0
 40
2.70000005
100
AcDbArc
 50
270.0
 51
26.54364014
  0
LINE
  5
AA
330
1D
100
AcDbEntity
  8
SK6
100
AcDbLine
 10
-30.711283739
 20
-58.375964378
 30
0.0
 11
-26.609713609
 21
-66.586764548
 31
0.0
  0
LINE
  5
AB
330
1D
100
AcDbEntity
  8
SK6
100
AcDbLine
 10
-33.615130479
 20
-68.423342918
 30
0.0
 11
-33.615130479
 21
-70.493350238
 31
0.0
  0
LINE
  5
AC
330
1D
100
AcDbEntity
  8
SK6
100
AcDbLine
 10
-33.615130479
 20
-70.493350238
 30
0.0
 11
-29.025126509
 21
-70.493350238
 31
0.0
  0
LINE
  5
AD
330
1D
100
AcDbEntity
  8
SK6
100
AcDbLine
 10
-24.165125899
 20
-70.493350238
 30
0.0
 11
-24.165125899
 21
-54.743350238
 31
0.0
  0
LINE
  5
AE
330
1D
100
AcDbEntity
  8
SK6
100
AcDbLine
 10
-15.885119489
 20
-70.493350238
 30
0.0
 11
-15.885119489
 21
-54.743350238
 31
0.0
  0
LINE
  5
AF
330
1D
100
AcDbEntity
  8
SK6
100
AcDbLine
 10
-15.885119489
 20
-70.493350238
 30
0.0
 11
-13.185126359
 21
-70.493350238
 31
0.0
  0
LINE
  5
B0
330
1D
100
AcDbEntity
  8
SK6
100
AcDbLine
 10
-13.185126359
 20
-70.493350238
 30
0.0
 11
-13.185126359
 21
-63.653353908
 31
0.0
  0
ARC
  5
B1
330
1D
100
AcDbEntity
  8
SK6
100
AcDbCircle
 10
-11.835112619
 20
-64.733340478
 30
0.0
 40
1.08000004
100
AcDbArc
 50
0.0
 51
90.00000763
  0
LINE
  5
B2
330
1D
100
AcDbEntity
  8
SK6
100
AcDbLine
 10
-11.835112619
 20
-63.653338648
 30
0.0
 11
-13.185114909
 21
-63.653338648
 31
0.0
  0
ARC
  5
B4
330
1D
100
AcDbEntity
  8
SK6
100
AcDbCircle
 10
-5.625136429
 20
-68.963343838
 30
0.0
 40
2.51999998
100
AcDbArc
 50
180.0
 51
217.38319397
  0
ARC
  5
B5
330
1D
100
AcDbEntity
  8
SK6
100
AcDbCircle
 10
-8.235144669
 20
-68.963343838
 30
0.0
 40
2.51999998
100
AcDbArc
 50
180.0
 51
217.38319397
  0
LINE
  5
B6
330
1D
100
AcDbEntity
  8
SK6
100
AcDbLine
 10
-7.627532059
 20
-70.493350238
 30
0.0
 11
-10.237528849
 21
-70.493350238
 31
0.0
  0
LINE
  5
B7
330
1D
100
AcDbEntity
  8
SK6
100
AcDbLine
 10
-10.755133679
 20
-64.733355738
 30
0.0
 11
-10.755133679
 21
-68.963343838
 31
0.0
  0
ARC
  5
B8
330
1D
100
AcDbEntity
  8
SK6
100
AcDbCircle
 10
-10.665114449
 20
-64.913348408
 30
0.0
 40
2.51999998
100
AcDbArc
 50
358.70883179
 51
93.06652832
  0
ARC
  5
B9
330
1D
100
AcDbEntity
  8
SK6
100
AcDbCircle
 10
-10.935126359
 20
-59.873347498
 30
0.0
 40
2.51999998
100
AcDbArc
 50
273.06652832
 51
0.0
  0
ARC
  5
BA
330
1D
100
AcDbEntity
  8
SK6
100
AcDbCircle
 10
-10.935126359
 20
-57.263354518
 30
0.0
 40
2.51999998
100
AcDbArc
 50
0.0
 51
90.00000763
  0
LINE
  5
BB
330
1D
100
AcDbEntity
  8
SK6
100
AcDbLine
 10
-8.415114449
 20
-57.263354518
 30
0.0
 11
-8.415114449
 21
-59.873355128
 31
0.0
  0
ARC
  5
BC
330
1D
100
AcDbEntity
  8
SK6
100
AcDbCircle
 10
-11.565123609
 20
-57.713351458
 30
0.0
 40
0.90000004
100
AcDbArc
 50
0.0
 51
90.00000763
  0
LINE
  5
BD
330
1D
100
AcDbEntity
  8
SK6
100
AcDbLine
 10
-11.565123609
 20
-56.813357568
 30
0.0
 11
-13.185126359
 21
-56.813357568
 31
0.0
  0
ARC
  5
BE
330
1D
100
AcDbEntity
  8
SK6
100
AcDbCircle
 10
-11.565123609
 20
-60.593341088
 30
0.0
 40
0.90000004
100
AcDbArc
 50
270.0
 51
0.0
  0
LINE
  5
BF
330
1D
100
AcDbEntity
  8
SK6
100
AcDbLine
 10
-10.665114449
 20
-57.713351458
 30
0.0
 11
-10.665114449
 21
-60.593348718
 31
0.0
  0
LINE
  5
C0
330
1D
100
AcDbEntity
  8
SK6
100
AcDbLine
 10
-13.185126359
 20
-56.813357568
 30
0.0
 11
-13.185126359
 21
-61.493350238
 31
0.0
  0
LINE
  5
C1
330
1D
100
AcDbEntity
  8
SK6
100
AcDbLine
 10
-11.565123609
 20
-61.493350238
 30
0.0
 11
-13.185126359
 21
-61.493350238
 31
0.0
  0
LINE
  5
C2
330
1D
100
AcDbEntity
  8
SK6
100
AcDbLine
 10
-8.145766309
 20
-64.970133998
 30
0.0
 11
-8.145136889
 21
-68.963748188
 31
0.0
  0
LINE
  5
C4
330
1D
100
AcDbEntity
  8
SK6
100
AcDbLine
 10
-30.915125899
 20
-54.743334988
 30
0.0
 11
-26.865122849
 21
-54.743334988
 31
0.0
  0
LINE
  5
C5
330
1D
100
AcDbEntity
  8
SK6
100
AcDbLine
 10
-10.935126359
 20
-54.743334988
 30
0.0
 11
-15.885130929
 21
-54.743334988
 31
0.0
  0
LINE
  5
C6
330
1D
100
AcDbEntity
  8
SK6
100
AcDbLine
 10
-57.915125899
 20
-70.493350238
 30
0.0
 11
-60.705126809
 21
-70.493350238
 31
0.0
  0
LINE
  5
C7
330
1D
100
AcDbEntity
  8
SK6
100
AcDbLine
 10
-57.915125899
 20
-67.073352078
 30
0.0
 11
-57.915125899
 21
-70.493350238
 31
0.0
  0
LINE
  5
C8
330
1D
100
AcDbEntity
  8
SK6
100
AcDbLine
 10
-56.835124069
 20
-65.003344748
 30
0.0
 11
-57.915125899
 21
-67.073352078
 31
0.0
  0
LINE
  5
C9
330
1D
100
AcDbEntity
  8
SK6
100
AcDbLine
 10
-54.405131389
 20
-70.493350238
 30
0.0
 11
-56.835124069
 21
-65.003344748
 31
0.0
  0
LINE
  5
CA
330
1D
100
AcDbEntity
  8
SK6
100
AcDbLine
 10
-51.615130479
 20
-70.493350238
 30
0.0
 11
-54.405123759
 21
-70.493350238
 31
0.0
  0
LINE
  5
CB
330
1D
100
AcDbEntity
  8
SK6
100
AcDbLine
 10
-55.215136579
 20
-61.493350238
 30
0.0
 11
-51.615130479
 21
-70.493350238
 31
0.0
  0
LINE
  5
CC
330
1D
100
AcDbEntity
  8
SK6
100
AcDbLine
 10
-52.155131389
 20
-54.743350238
 30
0.0
 11
-55.215121319
 21
-61.493350238
 31
0.0
  0
LINE
  5
CD
330
1D
100
AcDbEntity
  8
SK6
100
AcDbLine
 10
-57.915125899
 20
-61.853358478
 30
0.0
 11
-54.945132309
 21
-54.743365498
 31
0.0
  0
LINE
  5
CE
330
1D
100
AcDbEntity
  8
SK6
100
AcDbLine
 10
-57.915125899
 20
-54.743350238
 30
0.0
 11
-57.915125899
 21
-61.853358478
 31
0.0
  0
LINE
  5
CF
330
1D
100
AcDbEntity
  8
SK6
100
AcDbLine
 10
-60.705126809
 20
-70.493350238
 30
0.0
 11
-60.705126809
 21
-54.743350238
 31
0.0
  0
LINE
  5
D0
330
1D
100
AcDbEntity
  8
SK6
100
AcDbLine
 10
-54.945132309
 20
-54.743350238
 30
0.0
 11
-52.155131389
 21
-54.743350238
 31
0.0
  0
LINE
  5
D1
330
1D
100
AcDbEntity
  8
SK6
100
AcDbLine
 10
-60.705126809
 20
-54.743350238
 30
0.0
 11
-57.915125899
 21
-54.743350238
 31
0.0
  0
LINE
  5
D2
330
1D
100
AcDbEntity
  8
SK6
100
AcDbLine
 10
-38.655119949
 20
-54.743350238
 30
0.0
 11
-38.655119949
 21
-70.493350238
 31
0.0
  0
LINE
  5
D3
330
1D
100
AcDbEntity
  8
SK6
100
AcDbLine
 10
-35.775122689
 20
-70.493350238
 30
0.0
 11
-35.775122689
 21
-54.743350238
 31
0.0
  0
LINE
  5
D4
330
1D
100
AcDbEntity
  8
SK6
100
AcDbLine
 10
-38.655119949
 20
-70.493350238
 30
0.0
 11
-35.775122689
 21
-70.493350238
 31
0.0
  0
LINE
  5
D5
330
1D
100
AcDbEntity
  8
SK6
100
AcDbLine
 10
-35.775122689
 20
-54.743350238
 30
0.0
 11
-38.655131389
 21
-54.743350238
 31
0.0
  0
LINE
  5
D6
330
1D
100
AcDbEntity
  8
SK6
100
AcDbLine
 10
-18.315123609
 20
-70.493350238
 30
0.0
 11
-18.315123609
 21
-68.423342918
 31
0.0
  0
LINE
  5
D7
330
1D
100
AcDbEntity
  8
SK6
100
AcDbLine
 10
-24.165125899
 20
-70.493350238
 30
0.0
 11
-18.315123609
 21
-70.493350238
 31
0.0
  0
LINE
  5
D8
330
1D
100
AcDbEntity
  8
SK6
100
AcDbLine
 10
-18.315135049
 20
-56.813342308
 30
0.0
 11
-18.315135049
 21
-54.743350238
 31
0.0
  0
LINE
  5
D9
330
1D
100
AcDbEntity
  8
SK6
100
AcDbLine
 10
-21.285151529
 20
-56.813342308
 30
0.0
 11
-18.315146499
 21
-56.813342308
 31
0.0
  0
LINE
  5
DA
330
1D
100
AcDbEntity
  8
SK6
100
AcDbLine
 10
-21.285151529
 20
-61.493350238
 30
0.0
 11
-21.285151529
 21
-56.813357568
 31
0.0
  0
LINE
  5
DB
330
1D
100
AcDbEntity
  8
SK6
100
AcDbLine
 10
-18.315135049
 20
-61.493350238
 30
0.0
 11
-21.285140089
 21
-61.493350238
 31
0.0
  0
LINE
  5
DC
330
1D
100
AcDbEntity
  8
SK6
100
AcDbLine
 10
-18.315135049
 20
-63.653331018
 30
0.0
 11
-18.315135049
 21
-61.493327358
 31
0.0
  0
LINE
  5
DD
330
1D
100
AcDbEntity
  8
SK6
100
AcDbLine
 10
-21.285151529
 20
-63.653331018
 30
0.0
 11
-18.315146499
 21
-63.653331018
 31
0.0
  0
LINE
  5
DE
330
1D
100
AcDbEntity
  8
SK6
100
AcDbLine
 10
-21.285151529
 20
-68.423342918
 30
0.0
 11
-21.285151529
 21
-63.653331018
 31
0.0
  0
LINE
  5
DF
330
1D
100
AcDbEntity
  8
SK6
100
AcDbLine
 10
-18.315135049
 20
-68.423342918
 30
0.0
 11
-21.285140089
 21
-68.423342918
 31
0.0
  0
LINE
  5
E0
330
1D
100
AcDbEntity
  8
SK6
100
AcDbLine
 10
-18.315135049
 20
-54.743350238
 30
0.0
 11
-24.165137339
 21
-54.743350238
 31
0.0
  0
LINE
  5
E1
330
1D
100
AcDbEntity
  8
SK6
100
AcDbLine
 10
-44.235125589
 20
-70.493350238
 30
0.0
 11
-50.535128649
 21
-70.493350238
 31
0.0
  0
LINE
  5
E2
330
1D
100
AcDbEntity
  8
SK6
100
AcDbLine
 10
-44.685114909
 20
-67.973338338
 30
0.0
 11
-44.235125589
 21
-70.493334988
 31
0.0
  0
LINE
  5
E3
330
1D
100
AcDbEntity
  8
SK6
100
AcDbLine
 10
-47.565135049
 20
-67.973338338
 30
0.0
 11
-44.685137799
 21
-67.973338338
 31
0.0
  0
LINE
  5
E4
330
1D
100
AcDbEntity
  8
SK6
100
AcDbLine
 10
-46.035128649
 20
-58.613352988
 30
0.0
 11
-47.565127419
 21
-67.973361228
 31
0.0
  0
LINE
  5
E5
330
1D
100
AcDbEntity
  8
SK6
100
AcDbLine
 10
-42.975131089
 20
-70.493350238
 30
0.0
 11
-46.035128649
 21
-58.613352988
 31
0.0
  0
LINE
  5
E6
330
1D
100
AcDbEntity
  8
SK6
100
AcDbLine
 10
-40.005122239
 20
-70.493350238
 30
0.0
 11
-42.975115829
 21
-70.493350238
 31
0.0
  0
LINE
  5
E7
330
1D
100
AcDbEntity
  8
SK6
100
AcDbLine
 10
-44.415125899
 20
-54.293345668
 30
0.0
 11
-40.005133679
 21
-70.493350238
 31
0.0
  0
LINE
  5
E8
330
1D
100
AcDbEntity
  8
SK6
100
AcDbLine
 10
-47.475131089
 20
-54.293345668
 30
0.0
 11
-44.415133529
 21
-54.293345668
 31
0.0
  0
LINE
  5
E9
330
1D
100
AcDbEntity
  8
SK6
100
AcDbLine
 10
-50.535128649
 20
-70.493350238
 30
0.0
 11
-47.475131089
 21
-54.293345668
 31
0.0
  0
TEXT
  5
EA
330
1D
100
AcDbEntity
  8
SK6
100
AcDbText
 10
81.18008595477238
 20
-22.992130433
 30
0.0
 40
3.5
  1
324.551
  7
BMG_Text
100
AcDbText
  0
LINE
  5
EB
330
1D
100
AcDbEntity
  8
SK4
100
AcDbLine
 10
93.95
 20
5.953916973
 30
0.0
 11
93.95
 21
-5.841829018
 31
0.0
  0
CIRCLE
  5
EC
330
1D
100
AcDbEntity
  8
1
100
AcDbCircle
 10
93.95
 20
0.0
 30
0.0
 40
5.0
  0
LINE
  5
ED
330
1D
100
AcDbEntity
  8
1
100
AcDbLine
 10
96.836751346
 20
0.0
 30
0.0
 11
95.393375673
 21
2.5
 31
0.0
  0
LINE
  5
EE
330
1D
100
AcDbEntity
  8
1
100
AcDbLine
 10
95.393375673
 20
2.5
 30
0.0
 11
92.506624327
 21
2.5
 31
0.0
  0
LINE
  5
EF
330
1D
100
AcDbEntity
  8
1
100
AcDbLine
 10
92.506624327
 20
2.5
 30
0.0
 11
91.063248654
 21
0.0
 31
0.0
  0
LINE
  5
F0
330
1D
100
AcDbEntity
  8
1
100
AcDbLine
 10
91.063248654
 20
0.0
 30
0.0
 11
92.506624327
 21
-2.5
 31
0.0
  0
LINE
  5
F1
330
1D
100
AcDbEntity
  8
1
100
AcDbLine
 10
92.506624327
 20
-2.5
 30
0.0
 11
95.393375673
 21
-2.5
 31
0.0
  0
LINE
  5
F2
330
1D
100
AcDbEntity
  8
1
100
AcDbLine
 10
95.393375673
 20
-2.5
 30
0.0
 11
96.836751346
 21
0.0
 31
0.0
  0
LINE
  5
F3
330
1D
100
AcDbEntity
  8
SK2
100
AcDbLine
 10
117.819148064
 20
-14.0275
 30
0.0
 11
107.0
 21
-14.0275
 31
0.0
  0
LINE
  5
F4
330
1D
100
AcDbEntity
  8
SK2
100
AcDbLine
 10
115.819148064
 20
-14.0275
 30
0.0
 11
115.369148064
 21
-10.5275
 31
0.0
  0
LINE
  5
F5
330
1D
100
AcDbEntity
  8
SK2
100
AcDbLine
 10
115.369148064
 20
-10.5275
 30
0.0
 11
116.269148064
 21
-10.5275
 31
0.0
  0
LINE
  5
F6
330
1D
100
AcDbEntity
  8
SK2
100
AcDbLine
 10
116.269148064
 20
-10.5275
 30
0.0
 11
115.819148064
 21
-14.0275
 31
0.0
  0
LINE
  5
F7
330
1D
100
AcDbEntity
  8
SK2
100
AcDbLine
 10
117.819148064
 20
14.0275
 30
0.0
 11
107.0
 21
14.0275
 31
0.0
  0
LINE
  5
F8
330
1D
100
AcDbEntity
  8
SK2
100
AcDbLine
 10
115.819148064
 20
14.0275
 30
0.0
 11
116.269148064
 21
10.5275
 31
0.0
  0
LINE
  5
F9
330
1D
100
AcDbEntity
  8
SK2
100
AcDbLine
 10
116.269148064
 20
10.5275
 30
0.0
 11
115.369148064
 21
10.5275
 31
0.0
  0
LINE
  5
FA
330
1D
100
AcDbEntity
  8
SK2
100
AcDbLine
 10
115.369148064
 20
10.5275
 30
0.0
 11
115.819148064
 21
14.0275
 31
0.0
  0
LINE
  5
FB
330
1D
100
AcDbEntity
  8
SK2
100
AcDbLine
 10
115.819148064
 20
-10.5275
 30
0.0
 11
115.819148064
 21
10.5275
 31
0.0
  0
TEXT
  5
FC
330
1D
100
AcDbEntity
  8
SK2
100
AcDbText
 10
114.319148064
 20
0.085312186
 30
0.0
 40
3.5
  1
28
 50
90.0
  7
BMG_Text
100
AcDbText
  0
CIRCLE
  5
FD
330
1D
100
AcDbEntity
  8
SK2
100
AcDbCircle
 10
113.069148064
 20
-2.164687814
 30
0.0
 40
1.25
  0
LINE
  5
FE
330
1D
100
AcDbEntity
  8
SK2
100
AcDbLine
 10
114.319148064
 20
-3.414687814
 30
0.0
 11
111.819148064
 21
-0.914687814
 31
0.0
  0
LINE
  5
FF
330
1D
100
AcDbEntity
  8
SK2
100
AcDbLine
 10
125.682190531
 20
-25.0
 30
0.0
 11
104.653589838
 21
-25.0
 31
0.0
  0
LINE
  5
100
330
1D
100
AcDbEntity
  8
SK2
100
AcDbLine
 10
123.682190531
 20
-25.0
 30
0.0
 11
123.232190531
 21
-21.5
 31
0.0
  0
LINE
  5
101
330
1D
100
AcDbEntity
  8
SK2
100
AcDbLine
 10
123.232190531
 20
-21.5
 30
0.0
 11
124.132190531
 21
-21.5
 31
0.0
  0
LINE
  5
102
330
1D
100
AcDbEntity
  8
SK2
100
AcDbLine
 10
124.132190531
 20
-21.5
 30
0.0
 11
123.682190531
 21
-25.0
 31
0.0
  0
LINE
  5
103
330
1D
100
AcDbEntity
  8
SK2
100
AcDbLine
 10
125.682190531
 20
25.0
 30
0.0
 11
104.653589838
 21
25.0
 31
0.0
  0
LINE
  5
104
330
1D
100
AcDbEntity
  8
SK2
100
AcDbLine
 10
123.682190531
 20
25.0
 30
0.0
 11
124.132190531
 21
21.5
 31
0.0
  0
LINE
  5
105
330
1D
100
AcDbEntity
  8
SK2
100
AcDbLine
 10
124.132190531
 20
21.5
 30
0.0
 11
123.232190531
 21
21.5
 31
0.0
  0
LINE
  5
106
330
1D
100
AcDbEntity
  8
SK2
100
AcDbLine
 10
123.232190531
 20
21.5
 30
0.0
 11
123.682190531
 21
25.0
 31
0.0
  0
LINE
  5
107
330
1D
100
AcDbEntity
  8
SK2
100
AcDbLine
 10
123.682190531
 20
-21.5
 30
0.0
 11
123.682190531
 21
21.5
 31
0.0
  0
TEXT
  5
108
330
1D
100
AcDbEntity
  8
SK2
100
AcDbText
 10
122.182190531
 20
0.194686941
 30
0.0
 40
3.5
  1
50
 50
90.0
  7
BMG_Text
100
AcDbText
  0
CIRCLE
  5
109
330
1D
100
AcDbEntity
  8
SK2
100
AcDbCircle
 10
120.932190531
 20
-2.055313059
 30
0.0
 40
1.25
  0
LINE
  5
10A
330
1D
100
AcDbEntity
  8
SK2
100
AcDbLine
 10
122.182190531
 20
-3.305313059
 30
0.0
 11
119.682190531
 21
-0.805313059
 31
0.0
  0
LINE
  5
10B
330
1D
100
AcDbEntity
  8
2
100
AcDbLine
 10
0.0
 20
59.931810493
 30
0.0
 11
0.0
 21
49.494969482
 31
0.0
  0
LINE
  5
10C
330
1D
100
AcDbEntity
  8
2
100
AcDbLine
 10
0.0
 20
57.931810493
 30
0.0
 11
3.500000009
 21
58.381810427
 31
0.0
  0
LINE
  5
10D
330
1D
100
AcDbEntity
  8
2
100
AcDbLine
 10
3.500000009
 20
58.381810427
 30
0.0
 11
3.499999991
 21
57.481810427
 31
0.0
  0
LINE
  5
10E
330
1D
100
AcDbEntity
  8
2
100
AcDbLine
 10
3.499999991
 20
57.481810427
 30
0.0
 11
0.0
 21
57.931810493
 31
0.0
  0
LINE
  5
10F
330
1D
100
AcDbEntity
  8
2
100
AcDbLine
 10
107.0
 20
59.931808472
 30
0.0
 11
107.0
 21
24.0
 31
0.0
  0
LINE
  5
110
330
1D
100
AcDbEntity
  8
2
100
AcDbLine
 10
107.0
 20
57.931808472
 30
0.0
 11
103.499999991
 21
57.481808538
 31
0.0
  0
LINE
  5
111
330
1D
100
AcDbEntity
  8
2
100
AcDbLine
 10
103.499999991
 20
57.481808538
 30
0.0
 11
103.500000009
 21
58.381808538
 31
0.0
  0
LINE
  5
112
330
1D
100
AcDbEntity
  8
2
100
AcDbLine
 10
103.500000009
 20
58.381808538
 30
0.0
 11
107.0
 21
57.931808472
 31
0.0
  0
LINE
  5
113
330
1D
100
AcDbEntity
  8
2
100
AcDbLine
 10
3.5
 20
57.931810427
 30
0.0
 11
103.5
 21
57.931808538
 31
0.0
  0
TEXT
  5
114
330
1D
100
AcDbEntity
  8
2
100
AcDbText
 10
51.097030083
 20
59.431809528
 30
0.0
 40
3.5
  1
107
 50
359.999998917
  7
BMG_Text
100
AcDbText
  0
LINE
  5
115
330
1D
100
AcDbEntity
  8
2
100
AcDbLine
 10
0.0
 20
-61.280226822
 30
0.0
 11
0.0
 21
-49.494969482
 31
0.0
  0
LINE
  5
116
330
1D
100
AcDbEntity
  8
2
100
AcDbLine
 10
0.0
 20
-59.280226822
 30
0.0
 11
3.5
 21
-58.830226822
 31
0.0
  0
LINE
  5
117
330
1D
100
AcDbEntity
  8
2
100
AcDbLine
 10
3.5
 20
-58.830226822
 30
0.0
 11
3.5
 21
-59.730226822
 31
0.0
  0
LINE
  5
118
330
1D
100
AcDbEntity
  8
2
100
AcDbLine
 10
3.5
 20
-59.730226822
 30
0.0
 11
0.0
 21
-59.280226822
 31
0.0
  0
LINE
  5
11A
330
1D
100
AcDbEntity
  8
2
100
AcDbLine
 10
34.0
 20
-59.280226822
 30
0.0
 11
30.5
 21
-59.730226822
 31
0.0
  0
LINE
  5
11B
330
1D
100
AcDbEntity
  8
2
100
AcDbLine
 10
30.5
 20
-59.730226822
 30
0.0
 11
30.5
 21
-58.830226822
 31
0.0
  0
LINE
  5
11C
330
1D
100
AcDbEntity
  8
2
100
AcDbLine
 10
30.5
 20
-58.830226822
 30
0.0
 11
34.0
 21
-59.280226822
 31
0.0
  0
LINE
  5
11D
330
1D
100
AcDbEntity
  8
2
100
AcDbLine
 10
3.5
 20
-59.280226822
 30
0.0
 11
30.5
 21
-59.280226822
 31
0.0
  0
TEXT
  5
11E
330
1D
100
AcDbEntity
  8
2
100
AcDbText
 10
15.52671837
 20
-57.780226822
 30
0.0
 40
3.5
  1
34
  7
BMG_Text
100
AcDbText
  0
LINE
  5
11F
330
1D
100
AcDbEntity
  8
2
100
AcDbLine
 10
34.0
 20
-61.280226822
 30
0.0
 11
34.0
 21
-49.494969482
 31
0.0
  0
LINE
  5
120
330
1D
100
AcDbEntity
  8
2
100
AcDbLine
 10
34.0
 20
-59.280226822
 30
0.0
 11
37.500000002
 21
-58.830226837
 31
0.0
  0
LINE
  5
121
330
1D
100
AcDbEntity
  8
2
100
AcDbLine
 10
37.500000002
 20
-58.830226837
 30
0.0
 11
37.499999998
 21
-59.730226837
 31
0.0
  0
LINE
  5
122
330
1D
100
AcDbEntity
  8
2
100
AcDbLine
 10
37.499999998
 20
-59.730226837
 30
0.0
 11
34.0
 21
-59.280226822
 31
0.0
  0
LINE
  5
123
330
1D
100
AcDbEntity
  8
2
100
AcDbLine
 10
37.5
 20
-59.280226837
 30
0.0
 11
79.745504934
 21
-59.280227015
 31
0.0
  0
TEXT
  5
124
330
1D
100
AcDbEntity
  8
2
100
AcDbText
 10
43.395564462
 20
-57.780226862
 30
0.0
 40
3.5
  1
Ausdrehtiefe 130
 50
359.999999758
  7
BMG_Text
100
AcDbText
  0
LINE
  5
125
330
1D
100
AcDbEntity
  8
SK4
100
AcDbLine
 10
-10.119700748
 20
37.5
 30
0.0
 11
-10.119700748
 21
-37.5
 31
0.0
  0
LINE
  5
126
330
1D
100
AcDbEntity
  8
SK2
100
AcDbLine
 10
-61.515677768
 20
-37.5
 30
0.0
 11
-10.119700748
 21
-37.5
 31
0.0
  0
LINE
  5
127
330
1D
100
AcDbEntity
  8
SK2
100
AcDbLine
 10
-59.515677768
 20
-37.5
 30
0.0
 11
-59.965677768
 21
-34.0
 31
0.0
  0
LINE
  5
128
330
1D
100
AcDbEntity
  8
SK2
100
AcDbLine
 10
-59.965677768
 20
-34.0
 30
0.0
 11
-59.065677768
 21
-34.0
 31
0.0
  0
LINE
  5
129
330
1D
100
AcDbEntity
  8
SK2
100
AcDbLine
 10
-59.065677768
 20
-34.0
 30
0.0
 11
-59.515677768
 21
-37.5
 31
0.0
  0
LINE
  5
12A
330
1D
100
AcDbEntity
  8
SK2
100
AcDbLine
 10
-61.515677768
 20
37.5
 30
0.0
 11
-10.119700748
 21
37.5
 31
0.0
  0
LINE
  5
12B
330
1D
100
AcDbEntity
  8
SK2
100
AcDbLine
 10
-59.515677768
 20
37.5
 30
0.0
 11
-59.065677768
 21
34.0
 31
0.0
  0
LINE
  5
12C
330
1D
100
AcDbEntity
  8
SK2
100
AcDbLine
 10
-59.065677768
 20
34.0
 30
0.0
 11
-59.965677768
 21
34.0
 31
0.0
  0
LINE
  5
12D
330
1D
100
AcDbEntity
  8
SK2
100
AcDbLine
 10
-59.965677768
 20
34.0
 30
0.0
 11
-59.515677768
 21
37.5
 31
0.0
  0
LINE
  5
12E
330
1D
100
AcDbEntity
  8
SK2
100
AcDbLine
 10
-59.515677768
 20
-34.0
 30
0.0
 11
-59.515677768
 21
34.0
 31
0.0
  0
TEXT
  5
12F
330
1D
100
AcDbEntity
  8
SK2
100
AcDbText
 10
-61.015677768
 20
0.194686662
 30
0.0
 40
3.5
  1
75
 50
90.0
  7
BMG_Text
100
AcDbText
  0
CIRCLE
  5
130
330
1D
100
AcDbEntity
  8
SK2
100
AcDbCircle
 10
-62.265677768
 20
-2.055313338
 30
0.0
 40
1.25
  0
LINE
  5
131
330
1D
100
AcDbEntity
  8
SK2
100
AcDbLine
 10
-61.015677768
 20
-3.305313338
 30
0.0
 11
-63.515677768
 21
-0.805313338
 31
0.0
  0
LINE
  5
1DC
330
1D
100
AcDbEntity
  8
NOCUT
100
AcDbLine
 10
0.0
 20
0.0
 30
0.0
 11
107.0
 21
0.0
 31
0.0
  0
LINE
  5
1DD
330
1D
100
AcDbEntity
  8
NOCUT
100
AcDbLine
 10
107.0
 20
0.0
 30
0.0
 11
107.0
 21
24.0
 31
0.0
  0
LINE
  5
1DE
330
1D
100
AcDbEntity
  8
NOCUT
100
AcDbLine
 10
107.0
 20
24.0
 30
0.0
 11
106.6
 21
24.4
 31
0.0
  0
LINE
  5
1DF
330
1D
100
AcDbEntity
  8
NOCUT
100
AcDbLine
 10
106.6
 20
24.4
 30
0.0
 11
105.0
 21
24.4
 31
0.0
  0
LINE
  5
1E0
330
1D
100
AcDbEntity
  8
NOCUT
100
AcDbLine
 10
105.0
 20
24.4
 30
0.0
 11
104.653589838
 21
25.0
 31
0.0
  0
LINE
  5
1E1
330
1D
100
AcDbEntity
  8
NOCUT
100
AcDbLine
 10
104.653589838
 20
25.0
 30
0.0
 11
37.1
 21
25.0
 31
0.0
  0
LINE
  5
1E2
330
1D
100
AcDbEntity
  8
NOCUT
100
AcDbLine
 10
37.1
 20
25.0
 30
0.0
 11
36.95
 21
24.85
 31
0.0
  0
LINE
  5
1E3
330
1D
100
AcDbEntity
  8
NOCUT
100
AcDbLine
 10
36.95
 20
24.85
 30
0.0
 11
33.95
 21
24.85
 31
0.0
  0
LINE
  5
1E4
330
1D
100
AcDbEntity
  8
NOCUT
100
AcDbLine
 10
28.95
 20
29.85
 30
0.0
 11
28.95
 21
49.575030518
 31
0.0
  0
LINE
  5
1E6
330
1D
100
AcDbEntity
  8
NOCUT
100
AcDbLine
 10
28.95
 20
49.575030518
 30
0.0
 11
28.560030518
 21
49.965
 31
0.0
  0
LINE
  5
1E7
330
1D
100
AcDbEntity
  8
NOCUT
100
AcDbLine
 10
28.560030518
 20
49.965
 30
0.0
 11
23.241818662
 21
49.965
 31
0.0
  0
ARC
  5
1ED
330
1D
100
AcDbEntity
  8
NOCUT
100
AcDbCircle
 10
33.95
 20
29.85
 30
0.0
 40
5.0
100
AcDbArc
 50
180.0
 51
270.0
  0
LWPOLYLINE
  5
1F8
330
1D
100
AcDbEntity
  8
INFTOTAL
100
AcDbPolyline
 90
        4
 70
     1
 43
0.0
 10
-117.5539809705919
 20
93.97319023007668
 10
-117.5539809705919
 20
-85.8250150796529
 10
172.718173168621
 20
-85.8250150796529
 10
172.718173168621
 20
93.97319023007668
  0
LINE
  5
24A
330
1D
100
AcDbEntity
  8
NOCUT
100
AcDbLine
 10
0.000000077
 20
49.494969559
 30
0.0
 11
0.470030518
 21
49.965
 31
0.0
  0
LINE
  5
24B
330
1D
100
AcDbEntity
  8
NOCUT
100
AcDbLine
 10
0.470030518
 20
49.965
 30
0.0
 11
16.758172905
 21
49.965
 31
0.0
  0
LINE
  5
24C
330
1D
100
AcDbEntity
  8
NOCUT
100
AcDbLine
 10
16.758172905
 20
49.965
 30
0.0
 11
18.087505366
 21
47.662553051
 31
0.0
  0
LINE
  5
24D
330
1D
100
AcDbEntity
  8
NOCUT
100
AcDbLine
 10
18.087505366
 20
47.662553051
 30
0.0
 11
18.08772201530372
 21
46.70706404597139
 31
0.0
  0
LINE
  5
24E
330
1D
100
AcDbEntity
  8
NOCUT
100
AcDbLine
 10
23.241818662
 20
49.965
 30
0.0
 11
21.91272421
 21
47.662940881
 31
0.0
  0
LINE
  5
24F
330
1D
100
AcDbEntity
  8
NOCUT
100
AcDbLine
 10
21.91272421
 20
47.662940881
 30
0.0
 11
21.912507519
 21
46.725001722
 31
0.0
  0
ARC
  5
250
330
1D
100
AcDbEntity
  8
NOCUT
100
AcDbCircle
 10
21.162507519
 20
46.725
 30
0.0
 40
0.75
100
AcDbArc
 50
270.0
 51
0.000131536999866
  0
LINE
  5
251
330
1D
100
AcDbEntity
  8
NOCUT
100
AcDbLine
 10
21.162507519
 20
45.975
 30
0.0
 11
18.837507519
 21
45.975
 31
0.0
  0
ARC
  5
252
330
1D
100
AcDbEntity
  8
NOCUT
100
AcDbCircle
 10
18.837507519
 20
46.725
 30
0.0
 40
0.75
100
AcDbArc
 50
180.0001315369998
 51
270.0
  0
LINE
  5
26D
330
1D
100
AcDbEntity
  8
SK1
100
AcDbLine
 10
0.0000000000031267
 20
38.0055871722374
 30
0.0
 11
0.0000000000031268
 21
-38.0055871722374
 31
0.0
  0
LINE
  5
272
330
1D
100
AcDbEntity
  8
4
100
AcDbLine
 10
93.95
 20
5.953916973
 30
0.0
 11
93.95
 21
-5.841829018
 31
0.0
  0
LINE
  5
273
330
1D
100
AcDbEntity
  8
4
100
AcDbLine
 10
108.874355396
 20
0.0
 30
0.0
 11
0.0
 21
0.0
 31
0.0
  0
LINE
  5
27A
330
1D
100
AcDbEntity
  8
SK3
100
AcDbLine
 10
0.0
 20
26.875
 30
0.0
 11
-0.049946911
 21
26.875
 31
0.0
  0
LINE
  5
27B
330
1D
100
AcDbEntity
  8
SK3
100
AcDbLine
 10
-0.049946911
 20
-26.875
 30
0.0
 11
0.0
 21
-26.875
 31
0.0
  0
LINE
  5
29C
330
1D
100
AcDbEntity
  8
NOCUT
100
AcDbLine
 10
0.0
 20
49.494969482
 30
0.0
 11
0.0
 21
0.0
 31
0.0
  0
ENDSEC
  0
SECTION
  2
OBJECTS
  0
DICTIONARY
  5
C
330
0
100
AcDbDictionary
281
     1
  3
ACAD_COLOR
350
235
  3
ACAD_DETAILVIEWSTYLE
350
1D4
  3
ACAD_GROUP
350
D
  3
ACAD_LAYOUT
350
1A
  3
ACAD_MATERIAL
350
16F
  3
ACAD_MLEADERSTYLE
350
17C
  3
ACAD_MLINESTYLE
350
17
  3
ACAD_PLOTSETTINGS
350
19
  3
ACAD_PLOTSTYLENAME
350
E
  3
ACAD_SCALELIST
350
138
  3
ACAD_SECTIONVIEWSTYLE
350
1D5
  3
ACAD_TABLESTYLE
350
1C5
  3
ACAD_VISUALSTYLE
350
15E
  3
ACDB_RECOMPOSE_DATA
350
2A1
  3
AcDbVariableDictionary
350
17A
  3
APPDATA
350
1C8
  0
SUN
  5
227
330
132
100
AcDbSun
 90
        1
290
     0
 63
     7
421
 16777215
 40
1.0
291
     1
 91
  2455826
 92
 54000000
292
     0
 70
     2
 71
   256
280
     1
  0
DICTIONARY
  5
1C9
330
2
100
AcDbDictionary
280
     1
281
     1
  3
ACAD_LAYERSTATES
360
1CA
  0
DICTIONARY
  5
235
102
{ACAD_REACTORS
330
C
102
}
330
C
100
AcDbDictionary
281
     1
  0
DICTIONARY
  5
1D4
102
{ACAD_REACTORS
330
C
102
}
330
C
100
AcDbDictionary
281
     1
  0
DICTIONARY
  5
D
102
{ACAD_REACTORS
330
C
102
}
330
C
100
AcDbDictionary
281
     1
  0
DICTIONARY
  5
1A
102
{ACAD_REACTORS
330
C
102
}
330
C
100
AcDbDictionary
281
     1
  3
Layout1
350
1C
  3
Model
350
1E
  0
DICTIONARY
  5
16F
102
{ACAD_REACTORS
330
C
102
}
330
C
100
AcDbDictionary
281
     1
  3
ByBlock
350
171
  3
ByLayer
350
170
  3
Global
350
172
  0
DICTIONARY
  5
17C
102
{ACAD_REACTORS
330
C
102
}
330
C
100
AcDbDictionary
281
     1
  3
Standard
350
1C7
  0
DICTIONARY
  5
17
102
{ACAD_REACTORS
330
C
102
}
330
C
100
AcDbDictionary
281
     1
  3
Standard
350
18
  0
DICTIONARY
  5
19
102
{ACAD_REACTORS
330
C
102
}
330
C
100
AcDbDictionary
281
     1
  0
ACDBDICTIONARYWDFLT
  5
E
102
{ACAD_REACTORS
330
C
102
}
330
C
100
AcDbDictionary
281
     1
  3
Normal
350
F
100
AcDbDictionaryWithDefault
340
F
  0
DICTIONARY
  5
138
102
{ACAD_REACTORS
330
C
102
}
330
C
100
AcDbDictionary
281
     1
  3
A0
350
139
  3
A1
350
13A
  3
A2
350
13B
  3
A3
350
13C
  3
A4
350
13D
  3
A5
350
13E
  3
A6
350
13F
  3
A7
350
140
  3
A8
350
141
  3
A9
350
142
  3
B0
350
143
  3
B1
350
144
  3
B2
350
145
  3
B3
350
146
  3
B4
350
147
  3
B5
350
148
  3
B6
350
149
  3
B7
350
14A
  3
B8
350
14B
  3
B9
350
14C
  3
C0
350
14D
  3
C1
350
14E
  3
C2
350
14F
  3
C3
350
150
  3
C4
350
151
  3
C5
350
152
  3
C6
350
153
  3
C7
350
154
  3
C8
350
155
  3
C9
350
156
  3
D0
350
157
  3
D1
350
158
  3
D2
350
159
  0
DICTIONARY
  5
1D5
102
{ACAD_REACTORS
330
C
102
}
330
C
100
AcDbDictionary
281
     1
  0
DICTIONARY
  5
1C5
102
{ACAD_REACTORS
330
C
102
}
330
C
100
AcDbDictionary
281
     1
  3
Standard
350
1C6
  0
DICTIONARY
  5
15E
102
{ACAD_REACTORS
330
C
102
}
330
C
100
AcDbDictionary
281
     1
  3
2dWireframe
350
163
  3
3D Hidden
350
165
  3
3dWireframe
350
164
  3
Basic
350
166
  3
Brighten
350
16A
  3
ColorChange
350
16E
  3
Conceptual
350
168
  3
Dim
350
169
  3
EdgeColorOff
350
1BF
  3
Facepattern
350
16D
  3
Flat
350
15F
  3
FlatWithEdges
350
160
  3
Gouraud
350
161
  3
GouraudWithEdges
350
162
  3
Hidden
350
1BC
  3
JitterOff
350
1BD
  3
Linepattern
350
16C
  3
OverhangOff
350
1BE
  3
Realistic
350
167
  3
Shaded
350
1C4
  3
Shaded with edges
350
1C3
  3
Shades of Gray
350
1C0
  3
Sketchy
350
1C1
  3
Thicken
350
16B
  3
Wireframe
350
1BB
  3
X-Ray
350
1C2
  0
XRECORD
  5
2A1
102
{ACAD_REACTORS
330
C
102
}
330
C
100
AcDbXrecord
280
     1
 90
        1
330
1C6
  0
DICTIONARY
  5
17A
102
{ACAD_REACTORS
330
C
102
}
330
C
100
AcDbDictionary
281
     1
  3
CANNOSCALE
350
1D1
  3
CMLEADERSTYLE
350
1D3
  3
CTABLESTYLE
350
1D2
  3
DIMASSOC
350
17E
  3
HIDETEXT
350
17F
  3
MSLTSCALE
350
17D
  0
DICTIONARY
  5
1C8
102
{ACAD_REACTORS
330
C
102
}
330
C
100
AcDbDictionary
281
     1
  0
DICTIONARY
  5
1CA
102
{ACAD_REACTORS
330
1C9
102
}
330
1C9
100
AcDbDictionary
281
     1
  0
LAYOUT
  5
1C
102
{ACAD_REACTORS
330
1A
102
}
330
1A
100
AcDbPlotSettings
  1

  2
none_device
  4

  6

 40
0.0
 41
0.0
 42
0.0
 43
0.0
 44
0.0
 45
0.0
 46
0.0
 47
0.0
 48
0.0
 49
0.0
140
0.0
141
0.0
142
1.0
143
1.0
 70
   688
 72
     0
 73
     0
 74
     5
  7

 75
    16
 76
     0
 77
     2
 78
   300
147
1.0
148
0.0
149
0.0
100
AcDbLayout
  1
Layout1
 70
     1
 71
     1
 10
0.0
 20
0.0
 11
12.0
 21
9.0
 12
0.0
 22
0.0
 32
0.0
 14
1.000000000000000E+20
 24
1.000000000000000E+20
 34
1.000000000000000E+20
 15
-1.000000000000000E+20
 25
-1.000000000000000E+20
 35
-1.000000000000000E+20
146
0.0
 13
0.0
 23
0.0
 33
0.0
 16
1.0
 26
0.0
 36
0.0
 17
0.0
 27
1.0
 37
0.0
 76
     0
330
1B
  0
LAYOUT
  5
1E
102
{ACAD_REACTORS
330
1A
102
}
330
1A
100
AcDbPlotSettings
  1

  2
none_device
  4

  6

 40
0.0
 41
0.0
 42
0.0
 43
0.0
 44
0.0
 45
0.0
 46
0.0
 47
0.0
 48
0.0
 49
0.0
140
0.0
141
0.0
142
1.0
143
1.0
 70
  1712
 72
     0
 73
     0
 74
     0
  7

 75
     0
 76
     0
 77
     2
 78
   300
147
1.0
148
0.0
149
0.0
100
AcDbLayout
  1
Model
 70
     1
 71
     0
 10
0.0
 20
0.0
 11
12.0
 21
9.0
 12
0.0
 22
0.0
 32
0.0
 14
-117.5539809705919
 24
-85.8250150796529
 34
0.0
 15
172.718173168621
 25
93.97319023007668
 35
0.0
146
0.0
 13
0.0
 23
0.0
 33
0.0
 16
1.0
 26
0.0
 36
0.0
 17
0.0
 27
1.0
 37
0.0
 76
     0
330
1D
331
132
  0
MATERIAL
  5
171
102
{ACAD_REACTORS
330
16F
102
}
330
16F
100
AcDbMaterial
  1
ByBlock
 72
     1
 94
      127
  0
MATERIAL
  5
170
102
{ACAD_REACTORS
330
16F
102
}
330
16F
100
AcDbMaterial
  1
ByLayer
 72
     1
 94
      127
  0
MATERIAL
  5
172
102
{ACAD_REACTORS
330
16F
102
}
330
16F
100
AcDbMaterial
  1
Global
 72
     1
 94
      127
  0
MLEADERSTYLE
  5
1C7
102
{ACAD_REACTORS
330
17C
102
}
330
17C
100
AcDbMLeaderStyle
179
     2
170
     2
171
     1
172
     0
 90
        2
 40
0.0
 41
0.0
173
     1
 91
-1056964608
340
14
 92
       -2
290
     1
 42
0.09
291
     1
 43
0.36
  3
Standard
341
0
 44
0.18
300

342
11
174
     1
178
     1
175
     1
176
     0
 93
-1056964608
 45
0.18
292
     0
297
     0
 46
0.18
343
0
 94
-1056964608
 47
1.0
 49
1.0
140
1.0
293
     1
141
0.0
294
     1
177
     0
142
1.0
295
     0
296
     0
143
0.125
271
     0
272
     9
273
     9
298
     0
  0
MLINESTYLE
  5
18
102
{ACAD_REACTORS
330
17
102
}
330
17
100
AcDbMlineStyle
  2
Standard
 70
     0
  3

 62
   256
 51
90.0
 52
90.0
 71
     2
 49
0.5
 62
   256
  6
BYLAYER
 49
-0.5
 62
   256
  6
BYLAYER
  0
ACDBPLACEHOLDER
  5
F
102
{ACAD_REACTORS
330
E
102
}
330
E
  0
SCALE
  5
139
102
{ACAD_REACTORS
330
138
102
}
330
138
100
AcDbScale
 70
     0
300
1:1
140
1.0
141
1.0
290
     1
  0
SCALE
  5
13A
102
{ACAD_REACTORS
330
138
102
}
330
138
100
AcDbScale
 70
     0
300
1:2
140
1.0
141
2.0
290
     0
  0
SCALE
  5
13B
102
{ACAD_REACTORS
330
138
102
}
330
138
100
AcDbScale
 70
     0
300
1:4
140
1.0
141
4.0
290
     0
  0
SCALE
  5
13C
102
{ACAD_REACTORS
330
138
102
}
330
138
100
AcDbScale
 70
     0
300
1:5
140
1.0
141
5.0
290
     0
  0
SCALE
  5
13D
102
{ACAD_REACTORS
330
138
102
}
330
138
100
AcDbScale
 70
     0
300
1:8
140
1.0
141
8.0
290
     0
  0
SCALE
  5
13E
102
{ACAD_REACTORS
330
138
102
}
330
138
100
AcDbScale
 70
     0
300
1:10
140
1.0
141
10.0
290
     0
  0
SCALE
  5
13F
102
{ACAD_REACTORS
330
138
102
}
330
138
100
AcDbScale
 70
     0
300
1:16
140
1.0
141
16.0
290
     0
  0
SCALE
  5
140
102
{ACAD_REACTORS
330
138
102
}
330
138
100
AcDbScale
 70
     0
300
1:20
140
1.0
141
20.0
290
     0
  0
SCALE
  5
141
102
{ACAD_REACTORS
330
138
102
}
330
138
100
AcDbScale
 70
     0
300
1:30
140
1.0
141
30.0
290
     0
  0
SCALE
  5
142
102
{ACAD_REACTORS
330
138
102
}
330
138
100
AcDbScale
 70
     0
300
1:40
140
1.0
141
40.0
290
     0
  0
SCALE
  5
143
102
{ACAD_REACTORS
330
138
102
}
330
138
100
AcDbScale
 70
     0
300
1:50
140
1.0
141
50.0
290
     0
  0
SCALE
  5
144
102
{ACAD_REACTORS
330
138
102
}
330
138
100
AcDbScale
 70
     0
300
1:100
140
1.0
141
100.0
290
     0
  0
SCALE
  5
145
102
{ACAD_REACTORS
330
138
102
}
330
138
100
AcDbScale
 70
     0
300
2:1
140
2.0
141
1.0
290
     0
  0
SCALE
  5
146
102
{ACAD_REACTORS
330
138
102
}
330
138
100
AcDbScale
 70
     0
300
4:1
140
4.0
141
1.0
290
     0
  0
SCALE
  5
147
102
{ACAD_REACTORS
330
138
102
}
330
138
100
AcDbScale
 70
     0
300
8:1
140
8.0
141
1.0
290
     0
  0
SCALE
  5
148
102
{ACAD_REACTORS
330
138
102
}
330
138
100
AcDbScale
 70
     0
300
10:1
140
10.0
141
1.0
290
     0
  0
SCALE
  5
149
102
{ACAD_REACTORS
330
138
102
}
330
138
100
AcDbScale
 70
     0
300
100:1
140
100.0
141
1.0
290
     0
  0
SCALE
  5
14A
102
{ACAD_REACTORS
330
138
102
}
330
138
100
AcDbScale
 70
     0
300
1/128" = 1'-0"
140
0.0078125
141
12.0
290
     0
  0
SCALE
  5
14B
102
{ACAD_REACTORS
330
138
102
}
330
138
100
AcDbScale
 70
     0
300
1/64" = 1'-0"
140
0.015625
141
12.0
290
     0
  0
SCALE
  5
14C
102
{ACAD_REACTORS
330
138
102
}
330
138
100
AcDbScale
 70
     0
300
1/32" = 1'-0"
140
0.03125
141
12.0
290
     0
  0
SCALE
  5
14D
102
{ACAD_REACTORS
330
138
102
}
330
138
100
AcDbScale
 70
     0
300
1/16" = 1'-0"
140
0.0625
141
12.0
290
     0
  0
SCALE
  5
14E
102
{ACAD_REACTORS
330
138
102
}
330
138
100
AcDbScale
 70
     0
300
3/32" = 1'-0"
140
0.09375
141
12.0
290
     0
  0
SCALE
  5
14F
102
{ACAD_REACTORS
330
138
102
}
330
138
100
AcDbScale
 70
     0
300
1/8" = 1'-0"
140
0.125
141
12.0
290
     0
  0
SCALE
  5
150
102
{ACAD_REACTORS
330
138
102
}
330
138
100
AcDbScale
 70
     0
300
3/16" = 1'-0"
140
0.1875
141
12.0
290
     0
  0
SCALE
  5
151
102
{ACAD_REACTORS
330
138
102
}
330
138
100
AcDbScale
 70
     0
300
1/4" = 1'-0"
140
0.25
141
12.0
290
     0
  0
SCALE
  5
152
102
{ACAD_REACTORS
330
138
102
}
330
138
100
AcDbScale
 70
     0
300
3/8" = 1'-0"
140
0.375
141
12.0
290
     0
  0
SCALE
  5
153
102
{ACAD_REACTORS
330
138
102
}
330
138
100
AcDbScale
 70
     0
300
1/2" = 1'-0"
140
0.5
141
12.0
290
     0
  0
SCALE
  5
154
102
{ACAD_REACTORS
330
138
102
}
330
138
100
AcDbScale
 70
     0
300
3/4" = 1'-0"
140
0.75
141
12.0
290
     0
  0
SCALE
  5
155
102
{ACAD_REACTORS
330
138
102
}
330
138
100
AcDbScale
 70
     0
300
1" = 1'-0"
140
1.0
141
12.0
290
     0
  0
SCALE
  5
156
102
{ACAD_REACTORS
330
138
102
}
330
138
100
AcDbScale
 70
     0
300
1-1/2" = 1'-0"
140
1.5
141
12.0
290
     0
  0
SCALE
  5
157
102
{ACAD_REACTORS
330
138
102
}
330
138
100
AcDbScale
 70
     0
300
3" = 1'-0"
140
3.0
141
12.0
290
     0
  0
SCALE
  5
158
102
{ACAD_REACTORS
330
138
102
}
330
138
100
AcDbScale
 70
     0
300
6" = 1'-0"
140
6.0
141
12.0
290
     0
  0
SCALE
  5
159
102
{ACAD_REACTORS
330
138
102
}
330
138
100
AcDbScale
 70
     0
300
1'-0" = 1'-0"
140
12.0
141
12.0
290
     0
  0
TABLESTYLE
  5
1C6
102
{ACAD_REACTORS
330
1C5
102
}
102
{ACAD_XDICTIONARY
360
29F
102
}
330
1C5
100
AcDbTableStyle
  3
Standard
 70
     0
 71
     0
 40
0.06
 41
0.06
280
     0
281
     0
  7
Standard
140
0.18
170
     2
 62
     0
 63
   257
283
     0
 90
        4
 91
        0
  1

274
    -2
284
     1
 64
     0
275
    -2
285
     1
 65
     0
276
    -2
286
     1
 66
     0
277
    -2
287
     1
 67
     0
278
    -2
288
     1
 68
     0
279
    -2
289
     1
 69
     0
  7
Standard
140
0.25
170
     5
 62
     0
 63
   257
283
     0
 90
        4
 91
        0
  1

274
    -2
284
     1
 64
     0
275
    -2
285
     1
 65
     0
276
    -2
286
     1
 66
     0
277
    -2
287
     1
 67
     0
278
    -2
288
     1
 68
     0
279
    -2
289
     1
 69
     0
  7
Standard
140
0.18
170
     5
 62
     0
 63
   257
283
     0
 90
        4
 91
        0
  1

274
    -2
284
     1
 64
     0
275
    -2
285
     1
 65
     0
276
    -2
286
     1
 66
     0
277
    -2
287
     1
 67
     0
278
    -2
288
     1
 68
     0
279
    -2
289
     1
 69
     0
  0
VISUALSTYLE
  5
163
102
{ACAD_REACTORS
330
15E
102
}
330
15E
100
AcDbVisualStyle
  2
2dWireframe
 70
     4
177
     3
291
     0
 70
    58
 90
        0
176
     1
 90
        2
176
     1
 90
        0
176
     1
 90
        0
176
     1
 40
-0.6
176
     1
 40
-30.0
176
     1
 62
     7
176
     1
 90
        1
176
     1
 90
        4
176
     1
 62
     7
176
     1
 62
   257
176
     1
 90
        1
176
     1
 90
        1
176
     1
 40
1.0
176
     1
 90
        0
176
     1
 62
   257
176
     1
 40
1.0
176
     1
 90
        1
176
     1
 90
        6
176
     1
 90
        2
176
     1
 62
     7
176
     1
 90
        5
176
     1
 90
        0
176
     1
 90
        0
176
     1
290
     0
176
     1
 90
        1
176
     1
 40
0.0
176
     1
 90
        0
176
     1
290
     1
176
     1
290
     1
176
     1
290
     0
176
     1
290
     0
176
     1
290
     0
176
     1
290
     0
176
     1
290
     0
176
     1
290
     0
176
     1
290
     0
176
     1
 90
       50
176
     1
 40
0.0
176
     1
 40
1.0
176
     1
 90
        0
176
     1
 62
    18
420
        0
176
     1
 90
       50
176
     1
 90
        3
176
     1
 62
     5
420
      255
176
     1
290
     0
176
     1
 90
       50
176
     1
 90
       50
176
     1
 90
       50
176
     1
290
     0
176
     1
 90
       50
176
     1
 62
   256
176
     0
 40
1.0
176
     0
 90
        2
176
     1
  1
strokes_ogs.tif
176
     1
290
     0
176
     1
 40
1.0
176
     1
 40
1.0
176
     1
  0
VISUALSTYLE
  5
165
102
{ACAD_REACTORS
330
15E
102
}
330
15E
100
AcDbVisualStyle
  2
3D Hidden
 70
     6
177
     3
291
     0
 70
    58
 90
        1
176
     1
 90
        2
176
     1
 90
        2
176
     1
 90
        0
176
     1
 40
-0.6
176
     1
 40
-30.0
176
     1
 62
     7
176
     1
 90
        2
176
     1
 90
        2
176
     1
 62
     7
176
     1
 62
   257
176
     1
 90
        2
176
     1
 90
        1
176
     1
 40
40.0
176
     1
 90
        0
176
     1
 62
   257
176
     1
 40
1.0
176
     1
 90
        1
176
     1
 90
        6
176
     1
 90
        2
176
     1
 62
     7
176
     1
 90
        3
176
     1
 90
        0
176
     1
 90
        0
176
     1
290
     0
176
     1
 90
        1
176
     1
 40
0.0
176
     1
 90
        0
176
     1
290
     0
176
     1
290
     1
176
     1
290
     1
176
     1
290
     0
176
     1
290
     0
176
     1
290
     0
176
     1
290
     0
176
     1
290
     0
176
     1
290
     0
176
     1
 90
       50
176
     1
 40
0.0
176
     1
 40
1.0
176
     1
 90
        0
176
     1
 62
    18
420
        0
176
     1
 90
       50
176
     1
 90
        3
176
     1
 62
     5
420
      255
176
     1
290
     0
176
     1
 90
       50
176
     1
 90
       50
176
     1
 90
       50
176
     1
290
     0
176
     1
 90
       50
176
     1
 62
   256
176
     0
 40
1.0
176
     0
 90
        2
176
     1
  1
strokes_ogs.tif
176
     1
290
     0
176
     1
 40
1.0
176
     1
 40
1.0
176
     1
  0
VISUALSTYLE
  5
164
102
{ACAD_REACTORS
330
15E
102
}
330
15E
100
AcDbVisualStyle
  2
3dWireframe
 70
     5
177
     3
291
     0
 70
    58
 90
        0
176
     1
 90
        2
176
     1
 90
        0
176
     1
 90
        0
176
     1
 40
-0.6
176
     1
 40
-30.0
176
     1
 62
     7
176
     1
 90
        1
176
     1
 90
        4
176
     1
 62
     7
176
     1
 62
   257
176
     1
 90
        1
176
     1
 90
        1
176
     1
 40
1.0
176
     1
 90
        0
176
     1
 62
   257
176
     1
 40
1.0
176
     1
 90
        1
176
     1
 90
        6
176
     1
 90
        2
176
     1
 62
     7
176
     1
 90
        5
176
     1
 90
        0
176
     1
 90
        0
176
     1
290
     0
176
     1
 90
        1
176
     1
 40
0.0
176
     1
 90
        0
176
     1
290
     0
176
     1
290
     1
176
     1
290
     1
176
     1
290
     0
176
     1
290
     0
176
     1
290
     0
176
     1
290
     0
176
     1
290
     0
176
     1
290
     0
176
     1
 90
       50
176
     1
 40
0.0
176
     1
 40
1.0
176
     1
 90
        0
176
     1
 62
    18
420
        0
176
     1
 90
       50
176
     1
 90
        3
176
     1
 62
     5
420
      255
176
     1
290
     0
176
     1
 90
       50
176
     1
 90
       50
176
     1
 90
       50
176
     1
290
     0
176
     1
 90
       50
176
     1
 62
   256
176
     0
 40
1.0
176
     0
 90
        2
176
     1
  1
strokes_ogs.tif
176
     1
290
     0
176
     1
 40
1.0
176
     1
 40
1.0
176
     1
  0
VISUALSTYLE
  5
166
102
{ACAD_REACTORS
330
15E
102
}
330
15E
100
AcDbVisualStyle
  2
Basic
 70
     7
177
     3
291
     1
 70
    58
 90
        1
176
     1
 90
        0
176
     1
 90
        1
176
     1
 90
        0
176
     1
 40
-0.6
176
     1
 40
-30.0
176
     1
 62
     7
176
     1
 90
        0
176
     1
 90
        4
176
     1
 62
     7
176
     1
 62
   257
176
     1
 90
        1
176
     1
 90
        1
176
     1
 40
1.0
176
     1
 90
        8
176
     1
 62
     7
176
     1
 40
1.0
176
     1
 90
        1
176
     1
 90
        6
176
     1
 90
        2
176
     1
 62
     7
176
     1
 90
        5
176
     1
 90
        0
176
     1
 90
        0
176
     1
290
     0
176
     1
 90
        1
176
     1
 40
0.0
176
     1
 90
        0
176
     1
290
     0
176
     1
290
     1
176
     1
290
     1
176
     1
290
     0
176
     1
290
     0
176
     1
290
     0
176
     1
290
     0
176
     1
290
     0
176
     1
290
     0
176
     1
 90
       50
176
     1
 40
0.0
176
     1
 40
1.0
176
     1
 90
        0
176
     1
 62
    18
420
        0
176
     1
 90
       50
176
     1
 90
        3
176
     1
 62
     5
420
      255
176
     1
290
     0
176
     1
 90
       50
176
     1
 90
       50
176
     1
 90
       50
176
     1
290
     0
176
     1
 90
       50
176
     1
 62
   256
176
     0
 40
1.0
176
     0
 90
        2
176
     1
  1
strokes_ogs.tif
176
     1
290
     0
176
     1
 40
1.0
176
     1
 40
1.0
176
     1
  0
VISUALSTYLE
  5
16A
102
{ACAD_REACTORS
330
15E
102
}
330
15E
100
AcDbVisualStyle
  2
Brighten
 70
    12
177
     3
291
     1
 70
    58
 90
        2
176
     1
 90
        2
176
     1
 90
        0
176
     1
 90
        0
176
     1
 40
-0.6
176
     1
 40
-30.0
176
     1
 62
     7
176
     1
 90
        1
176
     1
 90
        4
176
     1
 62
     7
176
     1
 62
   257
176
     1
 90
        1
176
     1
 90
        1
176
     1
 40
1.0
176
     1
 90
        8
176
     1
 62
     7
176
     1
 40
1.0
176
     1
 90
        1
176
     1
 90
        6
176
     1
 90
        2
176
     1
 62
     7
176
     1
 90
        5
176
     1
 90
        0
176
     1
 90
        0
176
     1
290
     0
176
     1
 90
        1
176
     1
 40
50.0
176
     1
 90
        0
176
     1
290
     0
176
     1
290
     1
176
     1
290
     1
176
     1
290
     0
176
     1
290
     0
176
     1
290
     0
176
     1
290
     0
176
     1
290
     0
176
     1
290
     0
176
     1
 90
       50
176
     1
 40
0.0
176
     1
 40
1.0
176
     1
 90
        0
176
     1
 62
    18
420
        0
176
     1
 90
       50
176
     1
 90
        3
176
     1
 62
     5
420
      255
176
     1
290
     0
176
     1
 90
       50
176
     1
 90
       50
176
     1
 90
       50
176
     1
290
     0
176
     1
 90
       50
176
     1
 62
   256
176
     0
 40
1.0
176
     0
 90
        2
176
     1
  1
strokes_ogs.tif
176
     1
290
     0
176
     1
 40
1.0
176
     1
 40
1.0
176
     1
  0
VISUALSTYLE
  5
16E
102
{ACAD_REACTORS
330
15E
102
}
330
15E
100
AcDbVisualStyle
  2
ColorChange
 70
    16
177
     3
291
     1
 70
    58
 90
        2
176
     1
 90
        2
176
     1
 90
        3
176
     1
 90
        0
176
     1
 40
-0.6
176
     1
 40
-30.0
176
     1
 62
     8
176
     1
 90
        1
176
     1
 90
        4
176
     1
 62
     7
176
     1
 62
   257
176
     1
 90
        1
176
     1
 90
        1
176
     1
 40
1.0
176
     1
 90
        8
176
     1
 62
     8
176
     1
 40
1.0
176
     1
 90
        1
176
     1
 90
        6
176
     1
 90
        2
176
     1
 62
     7
176
     1
 90
        5
176
     1
 90
        0
176
     1
 90
        0
176
     1
290
     0
176
     1
 90
        1
176
     1
 40
0.0
176
     1
 90
        0
176
     1
290
     0
176
     1
290
     1
176
     1
290
     1
176
     1
290
     0
176
     1
290
     0
176
     1
290
     0
176
     1
290
     0
176
     1
290
     0
176
     1
290
     0
176
     1
 90
       50
176
     1
 40
0.0
176
     1
 40
1.0
176
     1
 90
        0
176
     1
 62
    18
420
        0
176
     1
 90
       50
176
     1
 90
        3
176
     1
 62
     5
420
      255
176
     1
290
     0
176
     1
 90
       50
176
     1
 90
       50
176
     1
 90
       50
176
     1
290
     0
176
     1
 90
       50
176
     1
 62
   256
176
     0
 40
1.0
176
     0
 90
        2
176
     1
  1
strokes_ogs.tif
176
     1
290
     0
176
     1
 40
1.0
176
     1
 40
1.0
176
     1
  0
VISUALSTYLE
  5
168
102
{ACAD_REACTORS
330
15E
102
}
330
15E
100
AcDbVisualStyle
  2
Conceptual
 70
     9
177
     3
291
     0
 70
    58
 90
        3
176
     1
 90
        2
176
     1
 90
        0
176
     1
 90
        0
176
     1
 40
-0.6
176
     1
 40
-30.0
176
     1
 62
     7
176
     1
 90
        2
176
     1
 90
        2
176
     1
 62
     7
176
     1
 62
   257
176
     1
 90
        1
176
     1
 90
        1
176
     1
 40
40.0
176
     1
 90
        8
176
     1
 62
     7
176
     1
 40
1.0
176
     1
 90
        1
176
     1
 90
        6
176
     1
 90
        2
176
     1
 62
     7
176
     1
 90
        3
176
     1
 90
        0
176
     1
 90
        0
176
     1
290
     0
176
     1
 90
        1
176
     1
 40
0.0
176
     1
 90
        0
176
     1
290
     0
176
     1
290
     1
176
     1
290
     1
176
     1
290
     0
176
     1
290
     0
176
     1
290
     0
176
     1
290
     0
176
     1
290
     0
176
     1
290
     0
176
     1
 90
       50
176
     1
 40
0.0
176
     1
 40
1.0
176
     1
 90
        0
176
     1
 62
    18
420
        0
176
     1
 90
       50
176
     1
 90
        3
176
     1
 62
     5
420
      255
176
     1
290
     0
176
     1
 90
       50
176
     1
 90
       50
176
     1
 90
       50
176
     1
290
     0
176
     1
 90
       50
176
     1
 62
   256
176
     0
 40
1.0
176
     0
 90
        2
176
     1
  1
strokes_ogs.tif
176
     1
290
     0
176
     1
 40
1.0
176
     1
 40
1.0
176
     1
  0
VISUALSTYLE
  5
169
102
{ACAD_REACTORS
330
15E
102
}
330
15E
100
AcDbVisualStyle
  2
Dim
 70
    11
177
     3
291
     1
 70
    58
 90
        2
176
     1
 90
        2
176
     1
 90
        0
176
     1
 90
        0
176
     1
 40
-0.6
176
     1
 40
-30.0
176
     1
 62
     7
176
     1
 90
        1
176
     1
 90
        4
176
     1
 62
     7
176
     1
 62
   257
176
     1
 90
        1
176
     1
 90
        1
176
     1
 40
1.0
176
     1
 90
        8
176
     1
 62
     7
176
     1
 40
1.0
176
     1
 90
        1
176
     1
 90
        6
176
     1
 90
        2
176
     1
 62
     7
176
     1
 90
        5
176
     1
 90
        0
176
     1
 90
        0
176
     1
290
     0
176
     1
 90
        1
176
     1
 40
-50.0
176
     1
 90
        0
176
     1
290
     0
176
     1
290
     1
176
     1
290
     1
176
     1
290
     0
176
     1
290
     0
176
     1
290
     0
176
     1
290
     0
176
     1
290
     0
176
     1
290
     0
176
     1
 90
       50
176
     1
 40
0.0
176
     1
 40
1.0
176
     1
 90
        0
176
     1
 62
    18
420
        0
176
     1
 90
       50
176
     1
 90
        3
176
     1
 62
     5
420
      255
176
     1
290
     0
176
     1
 90
       50
176
     1
 90
       50
176
     1
 90
       50
176
     1
290
     0
176
     1
 90
       50
176
     1
 62
   256
176
     0
 40
1.0
176
     0
 90
        2
176
     1
  1
strokes_ogs.tif
176
     1
290
     0
176
     1
 40
1.0
176
     1
 40
1.0
176
     1
  0
VISUALSTYLE
  5
1BF
102
{ACAD_REACTORS
330
15E
102
}
330
15E
100
AcDbVisualStyle
  2
EdgeColorOff
 70
    22
177
     3
291
     1
 70
    58
 90
        2
176
     0
 90
        2
176
     0
 90
        0
176
     0
 90
        0
176
     0
 40
0.6
176
     0
 40
30.0
176
     0
 62
     7
420
 16777215
176
     0
 90
        1
176
     0
 90
        4
176
     0
 62
     7
176
     0
 62
   257
176
     0
 90
        1
176
     0
 90
        1
176
     0
 40
1.0
176
     0
 90
        8
176
     2
 62
     7
176
     0
 40
1.0
176
     0
 90
        1
176
     0
 90
        6
176
     0
 90
        2
176
     0
 62
     7
176
     0
 90
        5
176
     0
 90
        0
176
     0
 90
        0
176
     0
290
     0
176
     0
 90
        1
176
     0
 40
0.0
176
     0
 90
        0
176
     0
290
     0
176
     0
290
     1
176
     0
290
     1
176
     0
290
     0
176
     0
290
     0
176
     0
290
     0
176
     0
290
     0
176
     0
290
     0
176
     0
290
     0
176
     0
 90
       50
176
     0
 40
0.0
176
     0
 40
1.0
176
     0
 90
        0
176
     0
 62
    18
420
        0
176
     0
 90
       50
176
     0
 90
        3
176
     0
 62
     5
420
      255
176
     0
290
     0
176
     0
 90
       50
176
     0
 90
       50
176
     0
 90
       50
176
     0
290
     0
176
     0
 90
       50
176
     0
 62
   256
176
     0
 40
1.0
176
     0
 90
        2
176
     0
  1
strokes_ogs.tif
176
     0
290
     0
176
     0
 40
1.0
176
     0
 40
1.0
176
     0
  0
VISUALSTYLE
  5
16D
102
{ACAD_REACTORS
330
15E
102
}
330
15E
100
AcDbVisualStyle
  2
Facepattern
 70
    15
177
     3
291
     1
 70
    58
 90
        2
176
     1
 90
        2
176
     1
 90
        0
176
     1
 90
        0
176
     1
 40
-0.6
176
     1
 40
-30.0
176
     1
 62
     7
176
     1
 90
        1
176
     1
 90
        4
176
     1
 62
     7
176
     1
 62
   257
176
     1
 90
        1
176
     1
 90
        1
176
     1
 40
1.0
176
     1
 90
        8
176
     1
 62
     7
176
     1
 40
1.0
176
     1
 90
        1
176
     1
 90
        6
176
     1
 90
        2
176
     1
 62
     7
176
     1
 90
        5
176
     1
 90
        0
176
     1
 90
        0
176
     1
290
     0
176
     1
 90
        1
176
     1
 40
0.0
176
     1
 90
        0
176
     1
290
     0
176
     1
290
     1
176
     1
290
     1
176
     1
290
     0
176
     1
290
     0
176
     1
290
     0
176
     1
290
     0
176
     1
290
     0
176
     1
290
     0
176
     1
 90
       50
176
     1
 40
0.0
176
     1
 40
1.0
176
     1
 90
        0
176
     1
 62
    18
420
        0
176
     1
 90
       50
176
     1
 90
        3
176
     1
 62
     5
420
      255
176
     1
290
     0
176
     1
 90
       50
176
     1
 90
       50
176
     1
 90
       50
176
     1
290
     0
176
     1
 90
       50
176
     1
 62
   256
176
     0
 40
1.0
176
     0
 90
        2
176
     1
  1
strokes_ogs.tif
176
     1
290
     0
176
     1
 40
1.0
176
     1
 40
1.0
176
     1
  0
VISUALSTYLE
  5
15F
102
{ACAD_REACTORS
330
15E
102
}
330
15E
100
AcDbVisualStyle
  2
Flat
 70
     0
177
     3
291
     1
 70
    58
 90
        2
176
     1
 90
        1
176
     1
 90
        1
176
     1
 90
        2
176
     1
 40
-0.6
176
     1
 40
30.0
176
     1
 62
     7
176
     1
 90
        0
176
     1
 90
        4
176
     1
 62
     7
176
     1
 62
   257
176
     1
 90
        1
176
     1
 90
        1
176
     1
 40
1.0
176
     1
 90
        8
176
     1
 62
     7
176
     1
 40
1.0
176
     1
 90
        1
176
     1
 90
        6
176
     1
 90
        2
176
     1
 62
     7
176
     1
 90
        5
176
     1
 90
        0
176
     1
 90
        0
176
     1
290
     0
176
     1
 90
       13
176
     1
 40
0.0
176
     1
 90
        0
176
     1
290
     0
176
     1
290
     1
176
     1
290
     1
176
     1
290
     0
176
     1
290
     0
176
     1
290
     0
176
     1
290
     0
176
     1
290
     0
176
     1
290
     0
176
     1
 90
       50
176
     1
 40
0.0
176
     1
 40
1.0
176
     1
 90
        0
176
     1
 62
    18
420
        0
176
     1
 90
       50
176
     1
 90
        3
176
     1
 62
     5
420
      255
176
     1
290
     0
176
     1
 90
       50
176
     1
 90
       50
176
     1
 90
       50
176
     1
290
     0
176
     1
 90
       50
176
     1
 62
   256
176
     0
 40
1.0
176
     0
 90
        2
176
     1
  1
strokes_ogs.tif
176
     1
290
     0
176
     1
 40
1.0
176
     1
 40
1.0
176
     1
  0
VISUALSTYLE
  5
160
102
{ACAD_REACTORS
330
15E
102
}
330
15E
100
AcDbVisualStyle
  2
FlatWithEdges
 70
     1
177
     3
291
     1
 70
    58
 90
        2
176
     1
 90
        1
176
     1
 90
        1
176
     1
 90
        2
176
     1
 40
-0.6
176
     1
 40
30.0
176
     1
 62
     7
176
     1
 90
        1
176
     1
 90
        4
176
     1
 62
     7
176
     1
 62
   257
176
     1
 90
        1
176
     1
 90
        1
176
     1
 40
1.0
176
     1
 90
        0
176
     1
 62
   257
176
     1
 40
1.0
176
     1
 90
        1
176
     1
 90
        6
176
     1
 90
        2
176
     1
 62
     7
176
     1
 90
        5
176
     1
 90
        0
176
     1
 90
        0
176
     1
290
     0
176
     1
 90
       13
176
     1
 40
0.0
176
     1
 90
        0
176
     1
290
     0
176
     1
290
     1
176
     1
290
     1
176
     1
290
     0
176
     1
290
     0
176
     1
290
     0
176
     1
290
     0
176
     1
290
     0
176
     1
290
     0
176
     1
 90
       50
176
     1
 40
0.0
176
     1
 40
1.0
176
     1
 90
        0
176
     1
 62
    18
420
        0
176
     1
 90
       50
176
     1
 90
        3
176
     1
 62
     5
420
      255
176
     1
290
     0
176
     1
 90
       50
176
     1
 90
       50
176
     1
 90
       50
176
     1
290
     0
176
     1
 90
       50
176
     1
 62
   256
176
     0
 40
1.0
176
     0
 90
        2
176
     1
  1
strokes_ogs.tif
176
     1
290
     0
176
     1
 40
1.0
176
     1
 40
1.0
176
     1
  0
VISUALSTYLE
  5
161
102
{ACAD_REACTORS
330
15E
102
}
330
15E
100
AcDbVisualStyle
  2
Gouraud
 70
     2
177
     3
291
     1
 70
    58
 90
        2
176
     1
 90
        2
176
     1
 90
        1
176
     1
 90
        2
176
     1
 40
-0.6
176
     1
 40
30.0
176
     1
 62
     7
176
     1
 90
        0
176
     1
 90
        4
176
     1
 62
     7
176
     1
 62
   257
176
     1
 90
        1
176
     1
 90
        1
176
     1
 40
1.0
176
     1
 90
        0
176
     1
 62
     7
176
     1
 40
1.0
176
     1
 90
        1
176
     1
 90
        6
176
     1
 90
        2
176
     1
 62
     7
176
     1
 90
        5
176
     1
 90
        0
176
     1
 90
        0
176
     1
290
     0
176
     1
 90
       13
176
     1
 40
0.0
176
     1
 90
        0
176
     1
290
     0
176
     1
290
     1
176
     1
290
     1
176
     1
290
     0
176
     1
290
     0
176
     1
290
     0
176
     1
290
     0
176
     1
290
     0
176
     1
290
     0
176
     1
 90
       50
176
     1
 40
0.0
176
     1
 40
1.0
176
     1
 90
        0
176
     1
 62
    18
420
        0
176
     1
 90
       50
176
     1
 90
        3
176
     1
 62
     5
420
      255
176
     1
290
     0
176
     1
 90
       50
176
     1
 90
       50
176
     1
 90
       50
176
     1
290
     0
176
     1
 90
       50
176
     1
 62
   256
176
     0
 40
1.0
176
     0
 90
        2
176
     1
  1
strokes_ogs.tif
176
     1
290
     0
176
     1
 40
1.0
176
     1
 40
1.0
176
     1
  0
VISUALSTYLE
  5
162
102
{ACAD_REACTORS
330
15E
102
}
330
15E
100
AcDbVisualStyle
  2
GouraudWithEdges
 70
     3
177
     3
291
     1
 70
    58
 90
        2
176
     1
 90
        2
176
     1
 90
        1
176
     1
 90
        2
176
     1
 40
-0.6
176
     1
 40
30.0
176
     1
 62
     7
176
     1
 90
        1
176
     1
 90
        4
176
     1
 62
     7
176
     1
 62
   257
176
     1
 90
        1
176
     1
 90
        1
176
     1
 40
1.0
176
     1
 90
        0
176
     1
 62
   257
176
     1
 40
1.0
176
     1
 90
        1
176
     1
 90
        6
176
     1
 90
        2
176
     1
 62
     7
176
     1
 90
        5
176
     1
 90
        0
176
     1
 90
        0
176
     1
290
     0
176
     1
 90
       13
176
     1
 40
0.0
176
     1
 90
        0
176
     1
290
     0
176
     1
290
     1
176
     1
290
     1
176
     1
290
     0
176
     1
290
     0
176
     1
290
     0
176
     1
290
     0
176
     1
290
     0
176
     1
290
     0
176
     1
 90
       50
176
     1
 40
0.0
176
     1
 40
1.0
176
     1
 90
        0
176
     1
 62
    18
420
        0
176
     1
 90
       50
176
     1
 90
        3
176
     1
 62
     5
420
      255
176
     1
290
     0
176
     1
 90
       50
176
     1
 90
       50
176
     1
 90
       50
176
     1
290
     0
176
     1
 90
       50
176
     1
 62
   256
176
     0
 40
1.0
176
     0
 90
        2
176
     1
  1
strokes_ogs.tif
176
     1
290
     0
176
     1
 40
1.0
176
     1
 40
1.0
176
     1
  0
VISUALSTYLE
  5
1BC
102
{ACAD_REACTORS
330
15E
102
}
330
15E
100
AcDbVisualStyle
  2
Hidden
 70
     6
177
     3
291
     0
 70
    58
 90
        1
176
     1
 90
        2
176
     1
 90
        2
176
     1
 90
        0
176
     1
 40
0.6
176
     1
 40
30.0
176
     1
 62
     7
420
 16777215
176
     1
 90
        2
176
     1
 90
        2
176
     1
 62
     7
176
     1
 62
   257
176
     1
 90
        2
176
     1
 90
        1
176
     1
 40
40.0
176
     1
 90
        0
176
     1
 62
   257
176
     1
 40
1.0
176
     1
 90
        1
176
     1
 90
        6
176
     1
 90
        2
176
     1
 62
     7
176
     1
 90
        3
176
     1
 90
        0
176
     1
 90
        0
176
     1
290
     0
176
     1
 90
        1
176
     1
 40
0.0
176
     1
 90
        0
176
     1
290
     0
176
     1
290
     1
176
     1
290
     1
176
     1
290
     0
176
     1
290
     0
176
     1
290
     0
176
     1
290
     0
176
     1
290
     0
176
     1
290
     0
176
     1
 90
       50
176
     1
 40
0.0
176
     1
 40
1.0
176
     1
 90
        0
176
     1
 62
    18
420
        0
176
     1
 90
       50
176
     1
 90
        3
176
     1
 62
     5
420
      255
176
     1
290
     0
176
     1
 90
       50
176
     1
 90
       50
176
     1
 90
       50
176
     1
290
     0
176
     1
 90
       50
176
     1
 62
   256
176
     0
 40
1.0
176
     0
 90
        2
176
     1
  1
strokes_ogs.tif
176
     1
290
     0
176
     1
 40
1.0
176
     1
 40
1.0
176
     1
  0
VISUALSTYLE
  5
1BD
102
{ACAD_REACTORS
330
15E
102
}
330
15E
100
AcDbVisualStyle
  2
JitterOff
 70
    20
177
     3
291
     1
 70
    58
 90
        2
176
     0
 90
        2
176
     0
 90
        0
176
     0
 90
        0
176
     0
 40
0.6
176
     0
 40
30.0
176
     0
 62
     7
420
 16777215
176
     0
 90
        1
176
     0
 90
        4
176
     0
 62
     7
176
     0
 62
   257
176
     0
 90
        1
176
     0
 90
        1
176
     0
 40
1.0
176
     0
 90
       10
176
     2
 62
     7
176
     0
 40
1.0
176
     0
 90
        1
176
     0
 90
        6
176
     0
 90
        2
176
     0
 62
     7
176
     0
 90
        5
176
     0
 90
        0
176
     0
 90
        0
176
     0
290
     0
176
     0
 90
        1
176
     0
 40
0.0
176
     0
 90
        0
176
     0
290
     0
176
     0
290
     1
176
     0
290
     1
176
     0
290
     0
176
     0
290
     0
176
     0
290
     0
176
     0
290
     0
176
     0
290
     0
176
     0
290
     0
176
     0
 90
       50
176
     0
 40
0.0
176
     0
 40
1.0
176
     0
 90
        0
176
     0
 62
    18
420
        0
176
     0
 90
       50
176
     0
 90
        3
176
     0
 62
     5
420
      255
176
     0
290
     0
176
     0
 90
       50
176
     0
 90
       50
176
     0
 90
       50
176
     0
290
     0
176
     0
 90
       50
176
     0
 62
   256
176
     0
 40
1.0
176
     0
 90
        2
176
     0
  1
strokes_ogs.tif
176
     0
290
     0
176
     0
 40
1.0
176
     0
 40
1.0
176
     0
  0
VISUALSTYLE
  5
16C
102
{ACAD_REACTORS
330
15E
102
}
330
15E
100
AcDbVisualStyle
  2
Linepattern
 70
    14
177
     3
291
     1
 70
    58
 90
        2
176
     1
 90
        2
176
     1
 90
        0
176
     1
 90
        0
176
     1
 40
-0.6
176
     1
 40
-30.0
176
     1
 62
     7
176
     1
 90
        1
176
     1
 90
        4
176
     1
 62
     7
176
     1
 62
   257
176
     1
 90
        7
176
     1
 90
        7
176
     1
 40
1.0
176
     1
 90
        8
176
     1
 62
     7
176
     1
 40
1.0
176
     1
 90
        1
176
     1
 90
        6
176
     1
 90
        2
176
     1
 62
     7
176
     1
 90
        5
176
     1
 90
        0
176
     1
 90
        0
176
     1
290
     0
176
     1
 90
        1
176
     1
 40
0.0
176
     1
 90
        0
176
     1
290
     0
176
     1
290
     1
176
     1
290
     1
176
     1
290
     0
176
     1
290
     0
176
     1
290
     0
176
     1
290
     0
176
     1
290
     0
176
     1
290
     0
176
     1
 90
       50
176
     1
 40
0.0
176
     1
 40
1.0
176
     1
 90
        0
176
     1
 62
    18
420
        0
176
     1
 90
       50
176
     1
 90
        3
176
     1
 62
     5
420
      255
176
     1
290
     0
176
     1
 90
       50
176
     1
 90
       50
176
     1
 90
       50
176
     1
290
     0
176
     1
 90
       50
176
     1
 62
   256
176
     0
 40
1.0
176
     0
 90
        2
176
     1
  1
strokes_ogs.tif
176
     1
290
     0
176
     1
 40
1.0
176
     1
 40
1.0
176
     1
  0
VISUALSTYLE
  5
1BE
102
{ACAD_REACTORS
330
15E
102
}
330
15E
100
AcDbVisualStyle
  2
OverhangOff
 70
    21
177
     3
291
     1
 70
    58
 90
        2
176
     0
 90
        2
176
     0
 90
        0
176
     0
 90
        0
176
     0
 40
0.6
176
     0
 40
30.0
176
     0
 62
     7
420
 16777215
176
     0
 90
        1
176
     0
 90
        4
176
     0
 62
     7
176
     0
 62
   257
176
     0
 90
        1
176
     0
 90
        1
176
     0
 40
1.0
176
     0
 90
        9
176
     2
 62
     7
176
     0
 40
1.0
176
     0
 90
        1
176
     0
 90
        6
176
     0
 90
        2
176
     0
 62
     7
176
     0
 90
        5
176
     0
 90
        0
176
     0
 90
        0
176
     0
290
     0
176
     0
 90
        1
176
     0
 40
0.0
176
     0
 90
        0
176
     0
290
     0
176
     0
290
     1
176
     0
290
     1
176
     0
290
     0
176
     0
290
     0
176
     0
290
     0
176
     0
290
     0
176
     0
290
     0
176
     0
290
     0
176
     0
 90
       50
176
     0
 40
0.0
176
     0
 40
1.0
176
     0
 90
        0
176
     0
 62
    18
420
        0
176
     0
 90
       50
176
     0
 90
        3
176
     0
 62
     5
420
      255
176
     0
290
     0
176
     0
 90
       50
176
     0
 90
       50
176
     0
 90
       50
176
     0
290
     0
176
     0
 90
       50
176
     0
 62
   256
176
     0
 40
1.0
176
     0
 90
        2
176
     0
  1
strokes_ogs.tif
176
     0
290
     0
176
     0
 40
1.0
176
     0
 40
1.0
176
     0
  0
VISUALSTYLE
  5
167
102
{ACAD_REACTORS
330
15E
102
}
330
15E
100
AcDbVisualStyle
  2
Realistic
 70
     8
177
     3
291
     0
 70
    58
 90
        2
176
     1
 90
        2
176
     1
 90
        0
176
     1
 90
        0
176
     1
 40
-0.6
176
     1
 40
-30.0
176
     1
 62
     7
176
     1
 90
        1
176
     1
 90
        0
176
     1
 62
     7
176
     1
 62
   257
176
     1
 90
        1
176
     1
 90
        1
176
     1
 40
1.0
176
     1
 90
        8
176
     1
 62
     8
176
     1
 40
1.0
176
     1
 90
        1
176
     1
 90
        6
176
     1
 90
        2
176
     1
 62
     7
176
     1
 90
        5
176
     1
 90
        0
176
     1
 90
        0
176
     1
290
     0
176
     1
 90
       13
176
     1
 40
0.0
176
     1
 90
        0
176
     1
290
     0
176
     1
290
     1
176
     1
290
     1
176
     1
290
     0
176
     1
290
     0
176
     1
290
     0
176
     1
290
     0
176
     1
290
     0
176
     1
290
     0
176
     1
 90
       50
176
     1
 40
0.0
176
     1
 40
1.0
176
     1
 90
        0
176
     1
 62
    18
420
        0
176
     1
 90
       50
176
     1
 90
        3
176
     1
 62
     5
420
      255
176
     1
290
     0
176
     1
 90
       50
176
     1
 90
       50
176
     1
 90
       50
176
     1
290
     0
176
     1
 90
       50
176
     1
 62
   256
176
     0
 40
1.0
176
     0
 90
        2
176
     1
  1
strokes_ogs.tif
176
     1
290
     0
176
     1
 40
1.0
176
     1
 40
1.0
176
     1
  0
VISUALSTYLE
  5
1C4
102
{ACAD_REACTORS
330
15E
102
}
330
15E
100
AcDbVisualStyle
  2
Shaded
 70
    27
177
     3
291
     0
 70
    58
 90
        2
176
     1
 90
        2
176
     1
 90
        1
176
     1
 90
        2
176
     1
 40
0.6
176
     1
 40
30.0
176
     1
 62
     7
420
 16777215
176
     1
 90
        0
176
     1
 90
        4
176
     1
 62
     7
176
     1
 62
   257
176
     1
 90
        1
176
     1
 90
        1
176
     1
 40
1.0
176
     1
 90
        8
176
     1
 62
   257
176
     1
 40
1.0
176
     1
 90
        1
176
     1
 90
        6
176
     1
 90
        2
176
     1
 62
     8
420
  7895160
176
     1
 90
        3
176
     1
 90
        0
176
     1
 90
        0
176
     1
290
     0
176
     1
 90
        5
176
     1
 40
0.0
176
     1
 90
        0
176
     1
290
     0
176
     1
290
     1
176
     1
290
     1
176
     1
290
     0
176
     1
290
     0
176
     1
290
     0
176
     1
290
     0
176
     1
290
     0
176
     1
290
     0
176
     1
 90
       50
176
     1
 40
0.0
176
     1
 40
1.0
176
     1
 90
        0
176
     1
 62
    18
420
        0
176
     1
 90
       50
176
     1
 90
        3
176
     1
 62
     5
420
      255
176
     1
290
     0
176
     1
 90
       50
176
     1
 90
       50
176
     1
 90
       50
176
     1
290
     0
176
     1
 90
       50
176
     1
 62
   256
176
     0
 40
1.0
176
     0
 90
        2
176
     1
  1
strokes_ogs.tif
176
     1
290
     0
176
     1
 40
1.0
176
     1
 40
1.0
176
     1
  0
VISUALSTYLE
  5
1C3
102
{ACAD_REACTORS
330
15E
102
}
330
15E
100
AcDbVisualStyle
  2
Shaded with edges
 70
    26
177
     3
291
     0
 70
    58
 90
        2
176
     1
 90
        2
176
     1
 90
        1
176
     1
 90
        2
176
     1
 40
0.6
176
     1
 40
30.0
176
     1
 62
     7
420
 16777215
176
     1
 90
        1
176
     1
 90
       10
176
     1
 62
     7
176
     1
 62
   257
176
     1
 90
        2
176
     1
 90
        1
176
     1
 40
1.0
176
     1
 90
        8
176
     1
 62
   257
176
     1
 40
1.0
176
     1
 90
        1
176
     1
 90
        6
176
     1
 90
        2
176
     1
 62
     7
176
     1
 90
        3
176
     1
 90
        0
176
     1
 90
        0
176
     1
290
     0
176
     1
 90
        5
176
     1
 40
0.0
176
     1
 90
        0
176
     1
290
     0
176
     1
290
     1
176
     1
290
     1
176
     1
290
     0
176
     1
290
     0
176
     1
290
     0
176
     1
290
     0
176
     1
290
     0
176
     1
290
     0
176
     1
 90
       50
176
     1
 40
0.0
176
     1
 40
1.0
176
     1
 90
        0
176
     1
 62
    18
420
        0
176
     1
 90
       50
176
     1
 90
        3
176
     1
 62
     5
420
      255
176
     1
290
     0
176
     1
 90
       50
176
     1
 90
       50
176
     1
 90
       50
176
     1
290
     0
176
     1
 90
       50
176
     1
 62
   256
176
     0
 40
1.0
176
     0
 90
        2
176
     1
  1
strokes_ogs.tif
176
     1
290
     0
176
     1
 40
1.0
176
     1
 40
1.0
176
     1
  0
VISUALSTYLE
  5
1C0
102
{ACAD_REACTORS
330
15E
102
}
330
15E
100
AcDbVisualStyle
  2
Shades of Gray
 70
    23
177
     3
291
     0
 70
    58
 90
        2
176
     1
 90
        2
176
     1
 90
        3
176
     1
 90
        0
176
     1
 40
0.6
176
     1
 40
30.0
176
     1
 62
     7
420
 16777215
176
     1
 90
        2
176
     1
 90
        2
176
     1
 62
     7
176
     1
 62
     7
176
     1
 90
        1
176
     1
 90
        1
176
     1
 40
40.0
176
     1
 90
        8
176
     1
 62
     7
176
     1
 40
1.0
176
     1
 90
        1
176
     1
 90
        6
176
     1
 90
        2
176
     1
 62
     7
176
     1
 90
        3
176
     1
 90
        0
176
     1
 90
        0
176
     1
290
     0
176
     1
 90
        1
176
     1
 40
0.0
176
     1
 90
        0
176
     1
290
     0
176
     1
290
     1
176
     1
290
     1
176
     1
290
     0
176
     1
290
     0
176
     1
290
     0
176
     1
290
     0
176
     1
290
     0
176
     1
290
     0
176
     1
 90
       50
176
     1
 40
0.0
176
     1
 40
1.0
176
     1
 90
        0
176
     1
 62
    18
420
        0
176
     1
 90
       50
176
     1
 90
        3
176
     1
 62
     5
420
      255
176
     1
290
     0
176
     1
 90
       50
176
     1
 90
       50
176
     1
 90
       50
176
     1
290
     0
176
     1
 90
       50
176
     1
 62
   256
176
     0
 40
1.0
176
     0
 90
        2
176
     1
  1
strokes_ogs.tif
176
     1
290
     0
176
     1
 40
1.0
176
     1
 40
1.0
176
     1
  0
VISUALSTYLE
  5
1C1
102
{ACAD_REACTORS
330
15E
102
}
330
15E
100
AcDbVisualStyle
  2
Sketchy
 70
    24
177
     3
291
     0
 70
    58
 90
        1
176
     1
 90
        2
176
     1
 90
        2
176
     1
 90
        0
176
     1
 40
0.6
176
     1
 40
30.0
176
     1
 62
     7
420
 16777215
176
     1
 90
        2
176
     1
 90
        2
176
     1
 62
     7
176
     1
 62
     7
176
     1
 90
        1
176
     1
 90
        1
176
     1
 40
40.0
176
     1
 90
       11
176
     1
 62
     7
176
     1
 40
1.0
176
     1
 90
        1
176
     1
 90
        6
176
     1
 90
        2
176
     1
 62
     7
176
     1
 90
        6
176
     1
 90
        0
176
     1
 90
        0
176
     1
290
     0
176
     1
 90
        1
176
     1
 40
0.0
176
     1
 90
        0
176
     1
290
     0
176
     1
290
     1
176
     1
290
     1
176
     1
290
     0
176
     1
290
     0
176
     1
290
     0
176
     1
290
     0
176
     1
290
     0
176
     1
290
     0
176
     1
 90
       50
176
     1
 40
0.0
176
     1
 40
1.0
176
     1
 90
        0
176
     1
 62
    18
420
        0
176
     1
 90
       50
176
     1
 90
        3
176
     1
 62
     5
420
      255
176
     1
290
     0
176
     1
 90
       50
176
     1
 90
       50
176
     1
 90
       50
176
     1
290
     0
176
     1
 90
       50
176
     1
 62
   256
176
     0
 40
1.0
176
     0
 90
        2
176
     1
  1
strokes_ogs.tif
176
     1
290
     0
176
     1
 40
1.0
176
     1
 40
1.0
176
     1
  0
VISUALSTYLE
  5
16B
102
{ACAD_REACTORS
330
15E
102
}
330
15E
100
AcDbVisualStyle
  2
Thicken
 70
    13
177
     3
291
     1
 70
    58
 90
        2
176
     1
 90
        2
176
     1
 90
        0
176
     1
 90
        0
176
     1
 40
-0.6
176
     1
 40
-30.0
176
     1
 62
     7
176
     1
 90
        1
176
     1
 90
        4
176
     1
 62
     7
176
     1
 62
   257
176
     1
 90
        1
176
     1
 90
        1
176
     1
 40
1.0
176
     1
 90
       12
176
     1
 62
     7
176
     1
 40
1.0
176
     1
 90
        1
176
     1
 90
        6
176
     1
 90
        2
176
     1
 62
     7
176
     1
 90
        5
176
     1
 90
        0
176
     1
 90
        0
176
     1
290
     0
176
     1
 90
        1
176
     1
 40
0.0
176
     1
 90
        0
176
     1
290
     0
176
     1
290
     1
176
     1
290
     1
176
     1
290
     0
176
     1
290
     0
176
     1
290
     0
176
     1
290
     0
176
     1
290
     0
176
     1
290
     0
176
     1
 90
       50
176
     1
 40
0.0
176
     1
 40
1.0
176
     1
 90
        0
176
     1
 62
    18
420
        0
176
     1
 90
       50
176
     1
 90
        3
176
     1
 62
     5
420
      255
176
     1
290
     0
176
     1
 90
       50
176
     1
 90
       50
176
     1
 90
       50
176
     1
290
     0
176
     1
 90
       50
176
     1
 62
   256
176
     0
 40
1.0
176
     0
 90
        2
176
     1
  1
strokes_ogs.tif
176
     1
290
     0
176
     1
 40
1.0
176
     1
 40
1.0
176
     1
  0
VISUALSTYLE
  5
1BB
102
{ACAD_REACTORS
330
15E
102
}
330
15E
100
AcDbVisualStyle
  2
Wireframe
 70
     5
177
     3
291
     0
 70
    58
 90
        0
176
     1
 90
        2
176
     1
 90
        0
176
     1
 90
        0
176
     1
 40
0.6
176
     1
 40
30.0
176
     1
 62
     7
420
 16777215
176
     1
 90
        1
176
     1
 90
        4
176
     1
 62
     7
176
     1
 62
   257
176
     1
 90
        1
176
     1
 90
        1
176
     1
 40
1.0
176
     1
 90
        0
176
     1
 62
   257
176
     1
 40
1.0
176
     1
 90
        1
176
     1
 90
        6
176
     1
 90
        2
176
     1
 62
     7
176
     1
 90
        3
176
     1
 90
        0
176
     1
 90
        0
176
     1
290
     0
176
     1
 90
        1
176
     1
 40
0.0
176
     1
 90
        0
176
     1
290
     0
176
     1
290
     1
176
     1
290
     1
176
     1
290
     0
176
     1
290
     0
176
     1
290
     0
176
     1
290
     0
176
     1
290
     0
176
     1
290
     0
176
     1
 90
       50
176
     1
 40
0.0
176
     1
 40
1.0
176
     1
 90
        0
176
     1
 62
    18
420
        0
176
     1
 90
       50
176
     1
 90
        3
176
     1
 62
     5
420
      255
176
     1
290
     0
176
     1
 90
       50
176
     1
 90
       50
176
     1
 90
       50
176
     1
290
     0
176
     1
 90
       50
176
     1
 62
   256
176
     0
 40
1.0
176
     0
 90
        2
176
     1
  1
strokes_ogs.tif
176
     1
290
     0
176
     1
 40
1.0
176
     1
 40
1.0
176
     1
  0
VISUALSTYLE
  5
1C2
102
{ACAD_REACTORS
330
15E
102
}
330
15E
100
AcDbVisualStyle
  2
X-Ray
 70
    25
177
     3
291
     0
 70
    58
 90
        2
176
     1
 90
        2
176
     1
 90
        1
176
     1
 90
        1
176
     1
 40
0.5
176
     1
 40
30.0
176
     1
 62
     7
420
 16777215
176
     1
 90
        1
176
     1
 90
        0
176
     1
 62
     7
176
     1
 62
   257
176
     1
 90
        1
176
     1
 90
        1
176
     1
 40
1.0
176
     1
 90
        8
176
     1
 62
     7
176
     1
 40
1.0
176
     1
 90
        1
176
     1
 90
        6
176
     1
 90
        2
176
     1
 62
     7
176
     1
 90
        3
176
     1
 90
        0
176
     1
 90
        0
176
     1
290
     0
176
     1
 90
       13
176
     1
 40
0.0
176
     1
 90
        0
176
     1
290
     0
176
     1
290
     1
176
     1
290
     1
176
     1
290
     0
176
     1
290
     0
176
     1
290
     0
176
     1
290
     0
176
     1
290
     0
176
     1
290
     0
176
     1
 90
       50
176
     1
 40
0.0
176
     1
 40
1.0
176
     1
 90
        0
176
     1
 62
    18
420
        0
176
     1
 90
       50
176
     1
 90
        3
176
     1
 62
     5
420
      255
176
     1
290
     0
176
     1
 90
       50
176
     1
 90
       50
176
     1
 90
       50
176
     1
290
     0
176
     1
 90
       50
176
     1
 62
   256
176
     0
 40
1.0
176
     0
 90
        2
176
     1
  1
strokes_ogs.tif
176
     1
290
     0
176
     1
 40
1.0
176
     1
 40
1.0
176
     1
  0
DICTIONARYVAR
  5
1D1
102
{ACAD_REACTORS
330
17A
102
}
330
17A
100
DictionaryVariables
280
     0
  1
1:1
  0
DICTIONARYVAR
  5
1D3
102
{ACAD_REACTORS
330
17A
102
}
330
17A
100
DictionaryVariables
280
     0
  1
Standard
  0
DICTIONARYVAR
  5
1D2
102
{ACAD_REACTORS
330
17A
102
}
330
17A
100
DictionaryVariables
280
     0
  1
Standard
  0
DICTIONARYVAR
  5
17E
102
{ACAD_REACTORS
330
17A
102
}
330
17A
100
DictionaryVariables
280
     0
  1
2
  0
DICTIONARYVAR
  5
17F
102
{ACAD_REACTORS
330
17A
102
}
330
17A
100
DictionaryVariables
280
     0
  1
1
  0
DICTIONARYVAR
  5
17D
102
{ACAD_REACTORS
330
17A
102
}
330
17A
100
DictionaryVariables
280
     0
  1
0
  0
DICTIONARY
  5
29F
330
1C6
100
AcDbDictionary
280
     1
281
     1
  3
ACAD_ROUNDTRIP_2008_TABLESTYLE_CELLSTYLEMAP
360
2A0
  0
CELLSTYLEMAP
  5
2A0
102
{ACAD_REACTORS
330
29F
102
}
330
29F
100
AcDbCellStyleMap
 90
        3
300
CELLSTYLE
  1
TABLEFORMAT_BEGIN
 90
        5
170
     1
 91
        0
 92
    32768
 62
   257
 93
        1
300
CONTENTFORMAT
  1
CONTENTFORMAT_BEGIN
 90
        0
 91
        0
 92
        4
 93
        0
300

 40
0.0
140
1.0
 94
        5
 62
     0
340
11
144
0.25
309
CONTENTFORMAT_END
171
     1
301
MARGIN
  1
CELLMARGIN_BEGIN
 40
0.06
 40
0.06
 40
0.06
 40
0.06
 40
0.06
 40
0.06
309
CELLMARGIN_END
 94
        6
 95
        1
302
GRIDFORMAT
  1
GRIDFORMAT_BEGIN
 90
        0
 91
        1
 62
     0
 92
       -2
340
14
 93
        0
 40
0.045
309
GRIDFORMAT_END
 95
        2
302
GRIDFORMAT
  1
GRIDFORMAT_BEGIN
 90
        0
 91
        1
 62
     0
 92
       -2
340
14
 93
        0
 40
0.045
309
GRIDFORMAT_END
 95
        4
302
GRIDFORMAT
  1
GRIDFORMAT_BEGIN
 90
        0
 91
        1
 62
     0
 92
       -2
340
14
 93
        0
 40
0.045
309
GRIDFORMAT_END
 95
        8
302
GRIDFORMAT
  1
GRIDFORMAT_BEGIN
 90
        0
 91
        1
 62
     0
 92
       -2
340
14
 93
        0
 40
0.045
309
GRIDFORMAT_END
 95
       16
302
GRIDFORMAT
  1
GRIDFORMAT_BEGIN
 90
        0
 91
        1
 62
     0
 92
       -2
340
14
 93
        0
 40
0.045
309
GRIDFORMAT_END
 95
       32
302
GRIDFORMAT
  1
GRIDFORMAT_BEGIN
 90
        0
 91
        1
 62
     0
 92
       -2
340
14
 93
        0
 40
0.045
309
GRIDFORMAT_END
309
TABLEFORMAT_END
  1
CELLSTYLE_BEGIN
 90
        1
 91
        1
300
_TITLE
309
CELLSTYLE_END
300
CELLSTYLE
  1
TABLEFORMAT_BEGIN
 90
        5
170
     1
 91
        0
 92
        0
 62
   257
 93
        1
300
CONTENTFORMAT
  1
CONTENTFORMAT_BEGIN
 90
        0
 91
        0
 92
        4
 93
        0
300

 40
0.0
140
1.0
 94
        5
 62
     0
340
11
144
0.18
309
CONTENTFORMAT_END
171
     1
301
MARGIN
  1
CELLMARGIN_BEGIN
 40
0.06
 40
0.06
 40
0.06
 40
0.06
 40
0.06
 40
0.06
309
CELLMARGIN_END
 94
        6
 95
        1
302
GRIDFORMAT
  1
GRIDFORMAT_BEGIN
 90
        0
 91
        1
 62
     0
 92
       -2
340
14
 93
        0
 40
0.045
309
GRIDFORMAT_END
 95
        2
302
GRIDFORMAT
  1
GRIDFORMAT_BEGIN
 90
        0
 91
        1
 62
     0
 92
       -2
340
14
 93
        0
 40
0.045
309
GRIDFORMAT_END
 95
        4
302
GRIDFORMAT
  1
GRIDFORMAT_BEGIN
 90
        0
 91
        1
 62
     0
 92
       -2
340
14
 93
        0
 40
0.045
309
GRIDFORMAT_END
 95
        8
302
GRIDFORMAT
  1
GRIDFORMAT_BEGIN
 90
        0
 91
        1
 62
     0
 92
       -2
340
14
 93
        0
 40
0.045
309
GRIDFORMAT_END
 95
       16
302
GRIDFORMAT
  1
GRIDFORMAT_BEGIN
 90
        0
 91
        1
 62
     0
 92
       -2
340
14
 93
        0
 40
0.045
309
GRIDFORMAT_END
 95
       32
302
GRIDFORMAT
  1
GRIDFORMAT_BEGIN
 90
        0
 91
        1
 62
     0
 92
       -2
340
14
 93
        0
 40
0.045
309
GRIDFORMAT_END
309
TABLEFORMAT_END
  1
CELLSTYLE_BEGIN
 90
        2
 91
        1
300
_HEADER
309
CELLSTYLE_END
300
CELLSTYLE
  1
TABLEFORMAT_BEGIN
 90
        5
170
     1
 91
        0
 92
        0
 62
   257
 93
        1
300
CONTENTFORMAT
  1
CONTENTFORMAT_BEGIN
 90
        0
 91
        0
 92
        4
 93
        0
300

 40
0.0
140
1.0
 94
        2
 62
     0
340
11
144
0.18
309
CONTENTFORMAT_END
171
     1
301
MARGIN
  1
CELLMARGIN_BEGIN
 40
0.06
 40
0.06
 40
0.06
 40
0.06
 40
0.06
 40
0.06
309
CELLMARGIN_END
 94
        6
 95
        1
302
GRIDFORMAT
  1
GRIDFORMAT_BEGIN
 90
        0
 91
        1
 62
     0
 92
       -2
340
14
 93
        0
 40
0.045
309
GRIDFORMAT_END
 95
        2
302
GRIDFORMAT
  1
GRIDFORMAT_BEGIN
 90
        0
 91
        1
 62
     0
 92
       -2
340
14
 93
        0
 40
0.045
309
GRIDFORMAT_END
 95
        4
302
GRIDFORMAT
  1
GRIDFORMAT_BEGIN
 90
        0
 91
        1
 62
     0
 92
       -2
340
14
 93
        0
 40
0.045
309
GRIDFORMAT_END
 95
        8
302
GRIDFORMAT
  1
GRIDFORMAT_BEGIN
 90
        0
 91
        1
 62
     0
 92
       -2
340
14
 93
        0
 40
0.045
309
GRIDFORMAT_END
 95
       16
302
GRIDFORMAT
  1
GRIDFORMAT_BEGIN
 90
        0
 91
        1
 62
     0
 92
       -2
340
14
 93
        0
 40
0.045
309
GRIDFORMAT_END
 95
       32
302
GRIDFORMAT
  1
GRIDFORMAT_BEGIN
 90
        0
 91
        1
 62
     0
 92
       -2
340
14
 93
        0
 40
0.045
309
GRIDFORMAT_END
309
TABLEFORMAT_END
  1
CELLSTYLE_BEGIN
 90
        3
 91
        2
300
_DATA
309
CELLSTYLE_END
  0
ENDSEC
  0
EOF
