  0
SECTION
  2
HEADER
  9
$ACADVER
  1
AC1027
  9
$ACADMAINTVER
 70
   105
  9
$DWGCODEPAGE
  3
ANSI_1252
  9
$REQUIREDVERSIONS
160
                 0
  9
$LASTSAVEDBY
  1
matthias.ochs
  9
$INSBASE
 10
0.0
 20
0.0
 30
0.0
  9
$EXTMIN
 10
-94.65402989818837
 20
-72.43536443586248
 30
0.0
  9
$EXTMAX
 10
156.97077804816
 20
66.12046903735705
 30
0.0
  9
$LIMMIN
 10
-64.410314068
 20
-59.467371231
  9
$LIMMAX
 10
109.707033408
 20
49.388617944
  9
$ORTHOMODE
 70
     0
  9
$REGENMODE
 70
     1
  9
$FILLMODE
 70
     1
  9
$QTEXTMODE
 70
     0
  9
$MIRRTEXT
 70
     1
  9
$LTSCALE
 40
1.0
  9
$ATTMODE
 70
     1
  9
$TEXTSIZE
 40
0.2
  9
$TRACEWID
 40
0.05
  9
$TEXTSTYLE
  7
Standard
  9
$CLAYER
  8
SK1
  9
$CELTYPE
  6
ByLayer
  9
$CECOLOR
 62
   256
  9
$CELTSCALE
 40
1.0
  9
$DISPSILH
 70
     0
  9
$DIMSCALE
 40
1.0
  9
$DIMASZ
 40
0.18
  9
$DIMEXO
 40
0.0625
  9
$DIMDLI
 40
0.38
  9
$DIMRND
 40
0.0
  9
$DIMDLE
 40
0.0
  9
$DIMEXE
 40
0.18
  9
$DIMTP
 40
0.0
  9
$DIMTM
 40
0.0
  9
$DIMTXT
 40
0.18
  9
$DIMCEN
 40
0.09
  9
$DIMTSZ
 40
0.0
  9
$DIMTOL
 70
     0
  9
$DIMLIM
 70
     0
  9
$DIMTIH
 70
     1
  9
$DIMTOH
 70
     1
  9
$DIMSE1
 70
     0
  9
$DIMSE2
 70
     0
  9
$DIMTAD
 70
     0
  9
$DIMZIN
 70
     0
  9
$DIMBLK
  1

  9
$DIMASO
 70
     1
  9
$DIMSHO
 70
     1
  9
$DIMPOST
  1

  9
$DIMAPOST
  1

  9
$DIMALT
 70
     0
  9
$DIMALTD
 70
     2
  9
$DIMALTF
 40
25.4
  9
$DIMLFAC
 40
1.0
  9
$DIMTOFL
 70
     0
  9
$DIMTVP
 40
0.0
  9
$DIMTIX
 70
     0
  9
$DIMSOXD
 70
     0
  9
$DIMSAH
 70
     0
  9
$DIMBLK1
  1

  9
$DIMBLK2
  1

  9
$DIMSTYLE
  2
Standard
  9
$DIMCLRD
 70
     0
  9
$DIMCLRE
 70
     0
  9
$DIMCLRT
 70
     0
  9
$DIMTFAC
 40
1.0
  9
$DIMGAP
 40
0.09
  9
$DIMJUST
 70
     0
  9
$DIMSD1
 70
     0
  9
$DIMSD2
 70
     0
  9
$DIMTOLJ
 70
     1
  9
$DIMTZIN
 70
     0
  9
$DIMALTZ
 70
     0
  9
$DIMALTTZ
 70
     0
  9
$DIMUPT
 70
     0
  9
$DIMDEC
 70
     4
  9
$DIMTDEC
 70
     4
  9
$DIMALTU
 70
     2
  9
$DIMALTTD
 70
     2
  9
$DIMTXSTY
  7
Standard
  9
$DIMAUNIT
 70
     0
  9
$DIMADEC
 70
     0
  9
$DIMALTRND
 40
0.0
  9
$DIMAZIN
 70
     0
  9
$DIMDSEP
 70
    46
  9
$DIMATFIT
 70
     3
  9
$DIMFRAC
 70
     0
  9
$DIMLDRBLK
  1

  9
$DIMLUNIT
 70
     2
  9
$DIMLWD
 70
    -2
  9
$DIMLWE
 70
    -2
  9
$DIMTMOVE
 70
     2
  9
$DIMFXL
 40
1.0
  9
$DIMFXLON
 70
     0
  9
$DIMJOGANG
 40
0.7853981633974483
  9
$DIMTFILL
 70
     0
  9
$DIMTFILLCLR
 70
     0
  9
$DIMARCSYM
 70
     0
  9
$DIMLTYPE
  6

  9
$DIMLTEX1
  6

  9
$DIMLTEX2
  6

  9
$DIMTXTDIRECTION
 70
     0
  9
$LUNITS
 70
     2
  9
$LUPREC
 70
     4
  9
$SKETCHINC
 40
0.1
  9
$FILLETRAD
 40
0.5
  9
$AUNITS
 70
     2
  9
$AUPREC
 70
     0
  9
$MENU
  1
.
  9
$ELEVATION
 40
0.0
  9
$PELEVATION
 40
0.0
  9
$THICKNESS
 40
0.0
  9
$LIMCHECK
 70
     0
  9
$CHAMFERA
 40
0.5
  9
$CHAMFERB
 40
0.5
  9
$CHAMFERC
 40
1.0
  9
$CHAMFERD
 40
0.0
  9
$SKPOLY
 70
     0
  9
$TDCREATE
 40
2458327.549374699
  9
$TDUCREATE
 40
2458327.466041366
  9
$TDUPDATE
 40
2458681.477901296
  9
$TDUUPDATE
 40
2458681.394567963
  9
$TDINDWG
 40
0.0043439699
  9
$TDUSRTIMER
 40
0.0021564005
  9
$USRTIMER
 70
     1
  9
$ANGBASE
 50
0.0
  9
$ANGDIR
 70
     0
  9
$PDMODE
 70
     0
  9
$PDSIZE
 40
0.0
  9
$PLINEWID
 40
0.0
  9
$SPLFRAME
 70
     0
  9
$SPLINETYPE
 70
     6
  9
$SPLINESEGS
 70
     8
  9
$HANDSEED
  5
25D
  9
$SURFTAB1
 70
     6
  9
$SURFTAB2
 70
     6
  9
$SURFTYPE
 70
     6
  9
$SURFU
 70
     6
  9
$SURFV
 70
     6
  9
$UCSBASE
  2

  9
$UCSNAME
  2

  9
$UCSORG
 10
0.0
 20
0.0
 30
0.0
  9
$UCSXDIR
 10
1.0
 20
0.0
 30
0.0
  9
$UCSYDIR
 10
0.0
 20
1.0
 30
0.0
  9
$UCSORTHOREF
  2

  9
$UCSORTHOVIEW
 70
     0
  9
$UCSORGTOP
 10
0.0
 20
0.0
 30
0.0
  9
$UCSORGBOTTOM
 10
0.0
 20
0.0
 30
0.0
  9
$UCSORGLEFT
 10
0.0
 20
0.0
 30
0.0
  9
$UCSORGRIGHT
 10
0.0
 20
0.0
 30
0.0
  9
$UCSORGFRONT
 10
0.0
 20
0.0
 30
0.0
  9
$UCSORGBACK
 10
0.0
 20
0.0
 30
0.0
  9
$PUCSBASE
  2

  9
$PUCSNAME
  2

  9
$PUCSORG
 10
0.0
 20
0.0
 30
0.0
  9
$PUCSXDIR
 10
1.0
 20
0.0
 30
0.0
  9
$PUCSYDIR
 10
0.0
 20
1.0
 30
0.0
  9
$PUCSORTHOREF
  2

  9
$PUCSORTHOVIEW
 70
     0
  9
$PUCSORGTOP
 10
0.0
 20
0.0
 30
0.0
  9
$PUCSORGBOTTOM
 10
0.0
 20
0.0
 30
0.0
  9
$PUCSORGLEFT
 10
0.0
 20
0.0
 30
0.0
  9
$PUCSORGRIGHT
 10
0.0
 20
0.0
 30
0.0
  9
$PUCSORGFRONT
 10
0.0
 20
0.0
 30
0.0
  9
$PUCSORGBACK
 10
0.0
 20
0.0
 30
0.0
  9
$USERI1
 70
     0
  9
$USERI2
 70
     0
  9
$USERI3
 70
     0
  9
$USERI4
 70
     0
  9
$USERI5
 70
     0
  9
$USERR1
 40
0.0
  9
$USERR2
 40
0.0
  9
$USERR3
 40
0.0
  9
$USERR4
 40
0.0
  9
$USERR5
 40
0.0
  9
$WORLDVIEW
 70
     1
  9
$SHADEDGE
 70
     3
  9
$SHADEDIF
 70
    70
  9
$TILEMODE
 70
     1
  9
$MAXACTVP
 70
    64
  9
$PINSBASE
 10
0.0
 20
0.0
 30
0.0
  9
$PLIMCHECK
 70
     0
  9
$PEXTMIN
 10
1.000000000000000E+20
 20
1.000000000000000E+20
 30
1.000000000000000E+20
  9
$PEXTMAX
 10
-1.000000000000000E+20
 20
-1.000000000000000E+20
 30
-1.000000000000000E+20
  9
$PLIMMIN
 10
0.0
 20
0.0
  9
$PLIMMAX
 10
0.0
 20
0.0
  9
$UNITMODE
 70
     0
  9
$VISRETAIN
 70
     1
  9
$PLINEGEN
 70
     0
  9
$PSLTSCALE
 70
     1
  9
$TREEDEPTH
 70
  3020
  9
$CMLSTYLE
  2
Standard
  9
$CMLJUST
 70
     0
  9
$CMLSCALE
 40
1.0
  9
$PROXYGRAPHICS
 70
     1
  9
$MEASUREMENT
 70
     0
  9
$CELWEIGHT
370
    -1
  9
$ENDCAPS
280
     0
  9
$JOINSTYLE
280
     0
  9
$LWDISPLAY
290
     0
  9
$INSUNITS
 70
     0
  9
$HYPERLINKBASE
  1

  9
$STYLESHEET
  1

  9
$XEDIT
290
     1
  9
$CEPSNTYPE
380
     0
  9
$PSTYLEMODE
290
     1
  9
$FINGERPRINTGUID
  2
{5AFE3597-AE74-4BA3-B699-33F089D7DB12}
  9
$VERSIONGUID
  2
{FAEB1C32-E019-11D5-929B-00C0DF256EC4}
  9
$EXTNAMES
290
     1
  9
$PSVPSCALE
 40
0.0
  9
$OLESTARTUP
290
     0
  9
$SORTENTS
280
   127
  9
$INDEXCTL
280
     0
  9
$HIDETEXT
280
     1
  9
$XCLIPFRAME
280
     2
  9
$HALOGAP
280
     0
  9
$OBSCOLOR
 70
   257
  9
$OBSLTYPE
280
     0
  9
$INTERSECTIONDISPLAY
280
     0
  9
$INTERSECTIONCOLOR
 70
   257
  9
$DIMASSOC
280
     2
  9
$PROJECTNAME
  1

  9
$CAMERADISPLAY
290
     0
  9
$LENSLENGTH
 40
50.0
  9
$CAMERAHEIGHT
 40
0.0
  9
$STEPSPERSEC
 40
2.0
  9
$STEPSIZE
 40
6.0
  9
$3DDWFPREC
 40
2.0
  9
$PSOLWIDTH
 40
0.25
  9
$PSOLHEIGHT
 40
4.0
  9
$LOFTANG1
 40
1.570796326794897
  9
$LOFTANG2
 40
1.570796326794897
  9
$LOFTMAG1
 40
0.0
  9
$LOFTMAG2
 40
0.0
  9
$LOFTPARAM
 70
     7
  9
$LOFTNORMALS
280
     1
  9
$LATITUDE
 40
37.795
  9
$LONGITUDE
 40
-122.394
  9
$NORTHDIRECTION
 40
0.0
  9
$TIMEZONE
 70
 -8000
  9
$LIGHTGLYPHDISPLAY
280
     1
  9
$TILEMODELIGHTSYNCH
280
     1
  9
$SOLIDHIST
280
     0
  9
$SHOWHIST
280
     1
  9
$DWFFRAME
280
     2
  9
$DGNFRAME
280
     2
  9
$REALWORLDSCALE
290
     1
  9
$INTERFERECOLOR
 62
   256
  9
$CSHADOW
280
     0
  9
$SHADOWPLANELOCATION
 40
0.0
  0
ENDSEC
  0
SECTION
  2
CLASSES
  0
CLASS
  1
ACDBDICTIONARYWDFLT
  2
AcDbDictionaryWithDefault
  3
ObjectDBX Classes
 90
        0
 91
       10
280
     0
281
     0
  0
CLASS
  1
SCALE
  2
AcDbScale
  3
ObjectDBX Classes
 90
     1153
 91
       10
280
     0
281
     0
  0
CLASS
  1
VISUALSTYLE
  2
AcDbVisualStyle
  3
ObjectDBX Classes
 90
     4095
 91
       10
280
     0
281
     0
  0
CLASS
  1
MATERIAL
  2
AcDbMaterial
  3
ObjectDBX Classes
 90
     1153
 91
       10
280
     0
281
     0
  0
CLASS
  1
DICTIONARYVAR
  2
AcDbDictionaryVar
  3
ObjectDBX Classes
 90
        0
 91
       10
280
     0
281
     0
  0
CLASS
  1
ACDBPLACEHOLDER
  2
AcDbPlaceHolder
  3
ObjectDBX Classes
 90
        0
 91
        1
280
     0
281
     0
  0
CLASS
  1
LAYOUT
  2
AcDbLayout
  3
ObjectDBX Classes
 90
        0
 91
        1
280
     0
281
     0
  0
CLASS
  1
TABLESTYLE
  2
AcDbTableStyle
  3
ObjectDBX Classes
 90
     4095
 91
       10
280
     0
281
     0
  0
CLASS
  1
MLEADERSTYLE
  2
AcDbMLeaderStyle
  3
ACDB_MLEADERSTYLE_CLASS
 90
     4095
 91
       10
280
     0
281
     0
  0
CLASS
  1
SUN
  2
AcDbSun
  3
SCENEOE
 90
     1153
 91
       10
280
     0
281
     0
  0
CLASS
  1
SORTENTSTABLE
  2
AcDbSortentsTable
  3
ObjectDBX Classes
 90
        0
 91
        8
280
     0
281
     0
  0
CLASS
  1
CELLSTYLEMAP
  2
AcDbCellStyleMap
  3
ObjectDBX Classes
 90
     1152
 91
        6
280
     0
281
     0
  0
ENDSEC
  0
SECTION
  2
TABLES
  0
TABLE
  2
VPORT
  5
8
330
0
100
AcDbSymbolTable
 70
     1
  0
VPORT
  5
127
330
8
100
AcDbSymbolTableRecord
100
AcDbViewportTableRecord
  2
*Active
 70
     0
 10
0.0
 20
0.0
 11
1.0
 21
1.0
 12
40.68211543698514
 22
-4.151469950878978
 13
0.0
 23
0.0
 14
0.5
 24
0.5
 15
0.5
 25
0.5
 16
0.0
 26
0.0
 36
1.0
 17
0.0
 27
0.0
 37
0.0
 40
251.0593509854833
 41
1.831002331002331
 42
50.0
 43
0.0
 44
0.0
 50
0.0
 51
0.0
 71
    16
 72
   100
 73
     1
 74
     3
 75
     0
 76
     0
 77
     0
 78
     0
281
     0
 65
     1
110
0.0
120
0.0
130
0.0
111
1.0
121
0.0
131
0.0
112
0.0
122
1.0
132
0.0
 79
     0
146
0.0
348
158
 60
     3
 61
     5
292
     1
282
     1
141
0.0
142
0.0
 63
   256
361
20D
  0
ENDTAB
  0
TABLE
  2
LTYPE
  5
5
330
0
100
AcDbSymbolTable
 70
     8
  0
LTYPE
  5
14
330
5
100
AcDbSymbolTableRecord
100
AcDbLinetypeTableRecord
  2
ByBlock
 70
     0
  3

 72
    65
 73
     0
 40
0.0
  0
LTYPE
  5
15
330
5
100
AcDbSymbolTableRecord
100
AcDbLinetypeTableRecord
  2
ByLayer
 70
     0
  3

 72
    65
 73
     0
 40
0.0
  0
LTYPE
  5
16
330
5
100
AcDbSymbolTableRecord
100
AcDbLinetypeTableRecord
  2
Continuous
 70
     0
  3
Solid line
 72
    65
 73
     0
 40
0.0
  0
LTYPE
  5
20
330
5
100
AcDbSymbolTableRecord
100
AcDbLinetypeTableRecord
  2
PUNKT
 70
     0
  3
..............
 72
    65
 73
     2
 40
1.5
 49
0.7
 74
     0
 49
-0.8
 74
     0
  0
LTYPE
  5
21
330
5
100
AcDbSymbolTableRecord
100
AcDbLinetypeTableRecord
  2
GESTRICHELT
 70
     0
  3
-- -- -- -- --
 72
    65
 73
     7
 40
2.8
 49
0.9
 74
     0
 49
0.0
 74
     0
 49
0.9
 74
     0
 49
0.0
 74
     0
 49
0.2
 74
     0
 49
0.0
 74
     0
 49
-0.8
 74
     0
  0
LTYPE
  5
22
330
5
100
AcDbSymbolTableRecord
100
AcDbLinetypeTableRecord
  2
STRICHPUNKT
 70
     0
  3
--.--.--.--.--
 72
    65
 73
     4
 40
8.8
 49
5.5
 74
     0
 49
-1.3
 74
     0
 49
0.7
 74
     0
 49
-1.3
 74
     0
  0
LTYPE
  5
25
330
5
100
AcDbSymbolTableRecord
100
AcDbLinetypeTableRecord
  2
PHANTOM
 70
     0
  3
--..--..--..--
 72
    65
 73
     6
 40
14.2
 49
7.0
 74
     0
 49
-1.8
 74
     0
 49
0.9
 74
     0
 49
-1.8
 74
     0
 49
0.9
 74
     0
 49
-1.8
 74
     0
  0
LTYPE
  5
19F
330
5
100
AcDbSymbolTableRecord
100
AcDbLinetypeTableRecord
  2
DASH
 70
     0
  3
DASH _ _ _ _ _
 72
    65
 73
     2
 40
0.75
 49
0.4
 74
     0
 49
-0.35
 74
     0
  0
LTYPE
  5
1A0
330
5
100
AcDbSymbolTableRecord
100
AcDbLinetypeTableRecord
  2
LONGDASH_DASH
 70
     0
  3
LONGDASH_DASH __ . __ . __
 72
    65
 73
     4
 40
0.85
 49
0.4
 74
     0
 49
-0.2
 74
     0
 49
0.05
 74
     0
 49
-0.2
 74
     0
  0
LTYPE
  5
1A1
330
5
100
AcDbSymbolTableRecord
100
AcDbLinetypeTableRecord
  2
LONGDASH_DASH_DASH
 70
     0
  3
LONGDASH_DASH_DASH __ . . __ . . __
 72
    65
 73
     6
 40
1.1
 49
0.4
 74
     0
 49
-0.2
 74
     0
 49
0.05
 74
     0
 49
-0.2
 74
     0
 49
0.05
 74
     0
 49
-0.2
 74
     0
  0
ENDTAB
  0
TABLE
  2
LAYER
  5
2
102
{ACAD_XDICTIONARY
360
1BE
102
}
330
0
100
AcDbSymbolTable
 70
    16
  0
LAYER
  5
169
330
2
100
AcDbSymbolTableRecord
100
AcDbLayerTableRecord
  2
200
 70
     0
 62
     2
  6
Continuous
370
    50
390
F
347
167
348
0
  0
LAYER
  5
1A2
330
2
100
AcDbSymbolTableRecord
100
AcDbLayerTableRecord
  2
0
 70
     0
 62
     1
  6
Continuous
370
    -3
390
F
347
167
348
0
  0
LAYER
  5
1A3
330
2
100
AcDbSymbolTableRecord
100
AcDbLayerTableRecord
  2
1
 70
     0
 62
     4
  6
Continuous
370
    50
390
F
347
167
348
0
  0
LAYER
  5
1A4
330
2
100
AcDbSymbolTableRecord
100
AcDbLayerTableRecord
  2
2
 70
     0
 62
     7
  6
Continuous
370
    25
390
F
347
167
348
0
  0
LAYER
  5
1A5
330
2
100
AcDbSymbolTableRecord
100
AcDbLayerTableRecord
  2
3
 70
     0
 62
     1
  6
DASH
370
    35
390
F
347
167
348
0
  0
LAYER
  5
1A6
330
2
100
AcDbSymbolTableRecord
100
AcDbLayerTableRecord
  2
4
 70
     0
 62
     2
  6
LONGDASH_DASH
370
    25
390
F
347
167
348
0
  0
LAYER
  5
1A7
330
2
100
AcDbSymbolTableRecord
100
AcDbLayerTableRecord
  2
6
 70
     0
 62
     5
  6
Continuous
370
    -3
390
F
347
167
348
0
  0
LAYER
  5
1A8
330
2
100
AcDbSymbolTableRecord
100
AcDbLayerTableRecord
  2
CUT
 70
     0
 62
     1
  6
Continuous
370
    25
390
F
347
167
348
0
  0
LAYER
  5
1A9
330
2
100
AcDbSymbolTableRecord
100
AcDbLayerTableRecord
  2
NOCUT
 70
     0
 62
     7
  6
Continuous
370
    25
390
F
347
167
348
0
  0
LAYER
  5
1AA
330
2
100
AcDbSymbolTableRecord
100
AcDbLayerTableRecord
  2
SK1
 70
     0
 62
     4
  6
Continuous
370
    50
390
F
347
167
348
0
  0
LAYER
  5
1AB
330
2
100
AcDbSymbolTableRecord
100
AcDbLayerTableRecord
  2
SK2
 70
     0
 62
     7
  6
Continuous
370
    25
390
F
347
167
348
0
  0
LAYER
  5
1AC
330
2
100
AcDbSymbolTableRecord
100
AcDbLayerTableRecord
  2
SK3
 70
     0
 62
     1
  6
DASH
370
    35
390
F
347
167
348
0
  0
LAYER
  5
1AD
330
2
100
AcDbSymbolTableRecord
100
AcDbLayerTableRecord
  2
SK4
 70
     0
 62
     2
  6
LONGDASH_DASH
370
    25
390
F
347
167
348
0
  0
LAYER
  5
1AE
330
2
100
AcDbSymbolTableRecord
100
AcDbLayerTableRecord
  2
SK6
 70
     0
 62
     5
  6
Continuous
370
    -3
390
F
347
167
348
0
  0
LAYER
  5
1AF
330
2
100
AcDbSymbolTableRecord
100
AcDbLayerTableRecord
  2
INFTOTAL
 70
     0
 62
     9
  6
Continuous
370
    18
390
F
347
167
348
0
  0
LAYER
  5
211
330
2
100
AcDbSymbolTableRecord
100
AcDbLayerTableRecord
  2
11
 70
     0
 62
     4
  6
Continuous
370
    50
390
F
347
167
348
0
1001
AcAecLayerStandard
1000

1000

  0
ENDTAB
  0
TABLE
  2
STYLE
  5
3
330
0
100
AcDbSymbolTable
 70
     3
  0
STYLE
  5
11
330
3
100
AcDbSymbolTableRecord
100
AcDbTextStyleTableRecord
  2
Standard
 70
     0
 40
0.0
 41
1.0
 50
0.0
 71
     0
 42
0.2
  3
txt
  4

  0
STYLE
  5
168
330
3
100
AcDbSymbolTableRecord
100
AcDbTextStyleTableRecord
  2
BMG_Text
 70
     0
 40
3.5
 41
1.0
 50
0.0
 71
     0
 42
0.2
  3
monos.ttf
  4

1001
ACAD
1000
Monospac821 BT
1071
       49
  0
STYLE
  5
217
330
3
100
AcDbSymbolTableRecord
100
AcDbTextStyleTableRecord
  2
SLDTEXTSTYLE0
 70
     0
 40
0.0
 41
0.605
 50
0.0
 71
     0
 42
0.2
  3
TXT
  4

  0
ENDTAB
  0
TABLE
  2
VIEW
  5
6
330
0
100
AcDbSymbolTable
 70
     0
  0
ENDTAB
  0
TABLE
  2
UCS
  5
7
330
0
100
AcDbSymbolTable
 70
     0
  0
ENDTAB
  0
TABLE
  2
APPID
  5
9
330
0
100
AcDbSymbolTable
 70
     2
  0
APPID
  5
12
330
9
100
AcDbSymbolTableRecord
100
AcDbRegAppTableRecord
  2
ACAD
 70
     0
  0
APPID
  5
212
330
9
100
AcDbSymbolTableRecord
100
AcDbRegAppTableRecord
  2
AcAecLayerStandard
 70
     0
  0
ENDTAB
  0
TABLE
  2
DIMSTYLE
  5
A
330
0
100
AcDbSymbolTable
 70
     6
100
AcDbDimStyleTable
  0
DIMSTYLE
105
28
330
A
100
AcDbSymbolTableRecord
100
AcDbDimStyleTableRecord
  2
Standard
 70
     0
178
     0
340
11
  0
DIMSTYLE
105
213
330
A
100
AcDbSymbolTableRecord
100
AcDbDimStyleTableRecord
  2
Matthias
 70
     0
 41
3.0
 44
2.0
 73
     0
 77
     1
140
3.0
147
2.0
178
     0
340
11
  0
DIMSTYLE
105
215
102
{ACAD_REACTORS
102
}
330
A
100
AcDbSymbolTableRecord
100
AcDbDimStyleTableRecord
  2
ISO-25
 70
     0
 41
2.5
 42
0.625
 43
3.75
 44
1.25
 73
     0
 74
     0
 77
     1
 78
     8
140
2.5
141
2.5
143
0.0393700787
147
0.625
171
     3
172
     1
178
     0
271
     2
272
     2
274
     3
278
    44
283
     0
284
     8
340
11
  0
DIMSTYLE
105
216
330
A
100
AcDbSymbolTableRecord
100
AcDbDimStyleTableRecord
  2
SLDDIMSTYLE0
 70
     0
 41
3.5
 44
0.0
 45
0.000000001
 73
     0
 74
     0
 77
     1
 78
    12
 79
     3
140
3.5
144
0.5
147
0.875
173
     1
178
     0
271
     2
272
     1
276
     2
284
    12
340
217
  0
DIMSTYLE
105
218
330
A
100
AcDbSymbolTableRecord
100
AcDbDimStyleTableRecord
  2
SLDDIMSTYLE1
 70
     0
 41
3.5
 44
0.0
 45
0.000000001
 73
     0
 74
     0
 77
     1
 78
    12
 79
     3
140
3.5
144
0.5
147
0.875
173
     1
178
     0
271
     2
272
     3
276
     2
284
    12
340
217
  0
DIMSTYLE
105
219
330
A
100
AcDbSymbolTableRecord
100
AcDbDimStyleTableRecord
  2
SLDDIMSTYLE2
 70
     0
 41
3.5
 44
0.0
 45
0.000000001
 73
     0
 74
     0
 77
     1
 78
    12
 79
     3
140
3.5
147
0.875
173
     1
178
     0
271
     2
272
     0
276
     2
284
    12
340
217
  0
ENDTAB
  0
TABLE
  2
BLOCK_RECORD
  5
1
330
0
100
AcDbSymbolTable
 70
     1
  0
BLOCK_RECORD
  5
1D
330
1
100
AcDbSymbolTableRecord
100
AcDbBlockTableRecord
  2
*Model_Space
340
1E
 70
     0
280
     1
281
     0
  0
BLOCK_RECORD
  5
1B
330
1
100
AcDbSymbolTableRecord
100
AcDbBlockTableRecord
  2
*Paper_Space
340
1C
 70
     0
280
     1
281
     0
  0
ENDTAB
  0
ENDSEC
  0
SECTION
  2
BLOCKS
  0
BLOCK
  5
151
330
1D
100
AcDbEntity
  8
0
100
AcDbBlockBegin
  2
*Model_Space
 70
     0
 10
0.0
 20
0.0
 30
0.0
  3
*Model_Space
  1

  0
ENDBLK
  5
152
330
1D
100
AcDbEntity
  8
0
100
AcDbBlockEnd
  0
BLOCK
  5
14F
330
1B
100
AcDbEntity
 67
     1
  8
0
100
AcDbBlockBegin
  2
*Paper_Space
 70
     0
 10
0.0
 20
0.0
 30
0.0
  3
*Paper_Space
  1

  0
ENDBLK
  5
150
330
1B
100
AcDbEntity
 67
     1
  8
0
100
AcDbBlockEnd
  0
ENDSEC
  0
SECTION
  2
ENTITIES
  0
LINE
  5
29
330
1D
100
AcDbEntity
  8
SK1
100
AcDbLine
 10
-1.812353696
 20
24.229500509
 30
0.0
 11
-1.008819045
 21
24.014194048
 31
0.0
  0
ARC
  5
2A
330
1D
100
AcDbEntity
  8
SK1
100
AcDbCircle
 10
-0.75
 20
24.980119874
 30
0.0
 40
1.0
100
AcDbArc
 50
255.0
 51
318.590377891
  0
LINE
  5
2B
330
1D
100
AcDbEntity
  8
SK3
100
AcDbLine
 10
-25.900018308
 20
17.025007629
 30
0.0
 11
-25.900024757
 21
23.021839721
 31
0.0
  0
LINE
  5
2C
330
1D
100
AcDbEntity
  8
SK1
100
AcDbLine
 10
-31.9
 20
21.579680674
 30
0.0
 11
-31.9
 21
-21.579665415
 31
0.0
  0
ARC
  5
2D
330
1D
100
AcDbEntity
  8
SK1
100
AcDbCircle
 10
-30.7
 20
-21.579665415
 30
0.0
 40
1.2
100
AcDbArc
 50
180.0
 51
267.129818922
  0
LINE
  5
2E
330
1D
100
AcDbEntity
  8
SK1
100
AcDbLine
 10
-30.760087794
 20
-22.778160078
 30
0.0
 11
-1.812353696
 21
-24.22948525
 31
0.0
  0
LINE
  5
2F
330
1D
100
AcDbEntity
  8
SK1
100
AcDbLine
 10
-1.812353696
 20
-24.22948525
 30
0.0
 11
-1.008819045
 21
-24.014178789
 31
0.0
  0
ARC
  5
30
330
1D
100
AcDbEntity
  8
SK1
100
AcDbCircle
 10
-0.75
 20
-24.980104616
 30
0.0
 40
1.0
100
AcDbArc
 50
41.409622109
 51
105.0
  0
ARC
  5
31
330
1D
100
AcDbEntity
  8
1
100
AcDbCircle
 10
16.8375
 20
-28.224992371
 30
0.0
 40
0.75
100
AcDbArc
 50
90.0
 51
180.0
  0
LINE
  5
32
330
1D
100
AcDbEntity
  8
1
100
AcDbLine
 10
16.8375
 20
-27.474992371
 30
0.0
 11
19.1625
 21
-27.474992371
 31
0.0
  0
ARC
  5
33
330
1D
100
AcDbEntity
  8
1
100
AcDbCircle
 10
19.1625
 20
-28.224992371
 30
0.0
 40
0.75
100
AcDbArc
 50
0.0
 51
90.0
  0
LINE
  5
34
330
1D
100
AcDbEntity
  8
SK3
100
AcDbLine
 10
-21.899982261
 20
-17.025007629
 30
0.0
 11
-21.899975804
 21
-23.222371135
 31
0.0
  0
LINE
  5
35
330
1D
100
AcDbEntity
  8
1
100
AcDbLine
 10
16.0875
 20
24.336181644
 30
0.0
 11
12.061613074
 21
24.336180687
 31
0.0
  0
ARC
  5
36
330
1D
100
AcDbEntity
  8
1
100
AcDbCircle
 10
12.061613074
 20
16.336181641
 30
0.0
 40
7.999999046
100
AcDbArc
 50
90.0
 51
152.743332135
  0
LINE
  5
37
330
1D
100
AcDbEntity
  8
1
100
AcDbLine
 10
4.949903479
 20
20.0
 30
0.0
 11
14.625388525
 21
20.0
 31
0.0
  0
LINE
  5
38
330
1D
100
AcDbEntity
  8
1
100
AcDbLine
 10
14.625388525
 20
20.0
 30
0.0
 11
14.625388525
 21
-31.469992371
 31
0.0
  0
LINE
  5
39
330
1D
100
AcDbEntity
  8
1
100
AcDbLine
 10
25.949807571
 20
31.270200059
 30
0.0
 11
25.949999387
 21
-31.269992984
 31
0.0
  0
LINE
  5
3A
330
1D
100
AcDbEntity
  8
1
100
AcDbLine
 10
25.949999387
 20
-31.269992984
 30
0.0
 11
25.75
 21
-31.469992371
 31
0.0
  0
LINE
  5
3B
330
1D
100
AcDbEntity
  8
1
100
AcDbLine
 10
25.75
 20
-31.469992371
 30
0.0
 11
21.374611475
 21
-31.469992371
 31
0.0
  0
LINE
  5
3C
330
1D
100
AcDbEntity
  8
1
100
AcDbLine
 10
21.374611475
 20
-31.469992371
 30
0.0
 11
19.9125
 21
-28.937534757
 31
0.0
  0
LINE
  5
3D
330
1D
100
AcDbEntity
  8
1
100
AcDbLine
 10
19.9125
 20
-28.937534757
 30
0.0
 11
19.9125
 21
28.937550015
 31
0.0
  0
LINE
  5
3E
330
1D
100
AcDbEntity
  8
1
100
AcDbLine
 10
16.0875
 20
28.937550015
 30
0.0
 11
16.0875
 21
-28.937534757
 31
0.0
  0
LINE
  5
3F
330
1D
100
AcDbEntity
  8
1
100
AcDbLine
 10
16.0875
 20
-28.937534757
 30
0.0
 11
14.625388525
 21
-31.469992371
 31
0.0
  0
LINE
  5
40
330
1D
100
AcDbEntity
  8
1
100
AcDbLine
 10
14.625388525
 20
-31.469992371
 30
0.0
 11
0.2
 21
-31.469992371
 31
0.0
  0
LINE
  5
41
330
1D
100
AcDbEntity
  8
1
100
AcDbLine
 10
0.2
 20
-31.469992371
 30
0.0
 11
0.0
 21
-31.269992371
 31
0.0
  0
LINE
  5
42
330
1D
100
AcDbEntity
  8
1
100
AcDbLine
 10
0.0
 20
-31.269992371
 30
0.0
 11
0.0
 21
31.270007629
 31
0.0
  0
LINE
  5
43
330
1D
100
AcDbEntity
  8
1
100
AcDbLine
 10
31.949975586
 20
-24.85
 30
0.0
 11
26.949975586
 21
-24.85
 31
0.0
  0
ARC
  5
44
330
1D
100
AcDbEntity
  8
1
100
AcDbCircle
 10
26.949975586
 20
-25.85
 30
0.0
 40
1.0
100
AcDbArc
 50
90.0
 51
180.0
  0
LINE
  5
45
330
1D
100
AcDbEntity
  8
1
100
AcDbLine
 10
31.949975586
 20
24.85
 30
0.0
 11
31.949975586
 21
-24.85
 31
0.0
  0
LINE
  5
46
330
1D
100
AcDbEntity
  8
1
100
AcDbLine
 10
31.949975586
 20
-24.85
 30
0.0
 11
32.099975586
 21
-25.0
 31
0.0
  0
LINE
  5
47
330
1D
100
AcDbEntity
  8
1
100
AcDbLine
 10
32.099975586
 20
-25.0
 30
0.0
 11
86.653589838
 21
-25.0
 31
0.0
  0
LINE
  5
48
330
1D
100
AcDbEntity
  8
1
100
AcDbLine
 10
21.374611475
 20
24.336181641
 30
0.0
 11
21.374611475
 21
31.470007629
 31
0.0
  0
LINE
  5
49
330
1D
100
AcDbEntity
  8
1
100
AcDbLine
 10
21.374611475
 20
20.0
 30
0.0
 11
25.949903479
 21
20.0
 31
0.0
  0
LINE
  5
4A
330
1D
100
AcDbEntity
  8
SK4
100
AcDbLine
 10
-34.022340468
 20
0.0
 30
0.0
 11
91.801567436
 21
0.0
 31
0.0
  0
LINE
  5
4B
330
1D
100
AcDbEntity
  8
1
100
AcDbLine
 10
19.9125
 20
24.336181641
 30
0.0
 11
25.949903479
 21
24.336181641
 31
0.0
  0
LINE
  5
4C
330
1D
100
AcDbEntity
  8
1
100
AcDbLine
 10
21.374611475
 20
20.0
 30
0.0
 11
21.374611475
 21
-31.469992371
 31
0.0
  0
LINE
  5
4D
330
1D
100
AcDbEntity
  8
1
100
AcDbLine
 10
14.625388525
 20
31.470007629
 30
0.0
 11
14.625388525
 21
24.336181296
 31
0.0
  0
LINE
  5
4E
330
1D
100
AcDbEntity
  8
SK1
100
AcDbLine
 10
-1.812353696
 20
-24.22948525
 30
0.0
 11
-1.812353696
 21
24.229500509
 31
0.0
  0
LINE
  5
4F
330
1D
100
AcDbEntity
  8
1
100
AcDbLine
 10
19.9125
 20
22.532457614
 30
0.0
 11
21.374611475
 21
20.0
 31
0.0
  0
LINE
  5
50
330
1D
100
AcDbEntity
  8
1
100
AcDbLine
 10
14.625388525
 20
20.0
 30
0.0
 11
16.0875
 21
22.532457614
 31
0.0
  0
LINE
  5
51
330
1D
100
AcDbEntity
  8
SK3
100
AcDbLine
 10
-18.981584161
 20
17.025007629
 30
0.0
 11
-18.981565852
 21
-17.025007629
 31
0.0
  0
LINE
  5
52
330
1D
100
AcDbEntity
  8
SK3
100
AcDbLine
 10
-30.4
 20
17.025007629
 30
0.0
 11
-30.400031746
 21
-17.025007629
 31
0.0
  0
LINE
  5
53
330
1D
100
AcDbEntity
  8
SK3
100
AcDbLine
 10
-0.050000718
 20
17.225007629
 30
0.0
 11
-0.049982195
 21
-17.225007629
 31
0.0
  0
LINE
  5
54
330
1D
100
AcDbEntity
  8
1
100
AcDbLine
 10
87.0
 20
-24.4
 30
0.0
 11
86.653589838
 21
-25.0
 31
0.0
  0
LINE
  5
55
330
1D
100
AcDbEntity
  8
1
100
AcDbLine
 10
87.0
 20
-24.4
 30
0.0
 11
88.6
 21
-24.4
 31
0.0
  0
LINE
  5
56
330
1D
100
AcDbEntity
  8
1
100
AcDbLine
 10
88.6
 20
-24.4
 30
0.0
 11
89.0
 21
-24.0
 31
0.0
  0
LINE
  5
57
330
1D
100
AcDbEntity
  8
1
100
AcDbLine
 10
89.0
 20
24.0
 30
0.0
 11
89.0
 21
-24.000007629
 31
0.0
  0
LINE
  5
58
330
1D
100
AcDbEntity
  8
1
100
AcDbLine
 10
87.0
 20
-24.4
 30
0.0
 11
87.0
 21
24.4
 31
0.0
  0
LINE
  5
59
330
1D
100
AcDbEntity
  8
SK3
100
AcDbLine
 10
-30.4
 20
-17.025007629
 30
0.0
 11
-31.9
 21
-17.891033033
 31
0.0
  0
LINE
  5
5A
330
1D
100
AcDbEntity
  8
SK3
100
AcDbLine
 10
-18.981584161
 20
-17.025007629
 30
0.0
 11
-30.4
 21
-17.025007629
 31
0.0
  0
LINE
  5
5B
330
1D
100
AcDbEntity
  8
SK3
100
AcDbLine
 10
-6.142272462
 20
-20.040007629
 30
0.0
 11
-16.894470919
 21
-20.040007622
 31
0.0
  0
LINE
  5
5C
330
1D
100
AcDbEntity
  8
SK3
100
AcDbLine
 10
-17.414093722
 20
-19.740004578
 30
0.0
 11
-18.981584161
 21
-17.025007629
 31
0.0
  0
ARC
  5
5D
330
1D
100
AcDbEntity
  8
SK3
100
AcDbCircle
 10
-16.894470919
 20
-19.440001526
 30
0.0
 40
0.600006097
100
AcDbArc
 50
209.999891394
 51
270.0
  0
ARC
  5
5E
330
1D
100
AcDbEntity
  8
SK3
100
AcDbCircle
 10
-6.142272462
 20
-12.040007629
 30
0.0
 40
8.000000547
100
AcDbArc
 50
270.0
 51
319.599619704
  0
LINE
  5
5F
330
1D
100
AcDbEntity
  8
3
100
AcDbLine
 10
8.45
 20
-17.225007629
 30
0.0
 11
0.0000000000000018
 21
-17.225007629
 31
0.0
  0
ARC
  5
60
330
1D
100
AcDbEntity
  8
3
100
AcDbCircle
 10
8.45
 20
-15.725007629
 30
0.0
 40
1.5
100
AcDbArc
 50
270.0
 51
0.0
  0
LINE
  5
61
330
1D
100
AcDbEntity
  8
3
100
AcDbLine
 10
11.2
 20
-8.0
 30
0.0
 11
9.95
 21
-9.25
 31
0.0
  0
LINE
  5
62
330
1D
100
AcDbEntity
  8
3
100
AcDbLine
 10
20.5
 20
-8.0
 30
0.0
 11
11.2
 21
-8.0
 31
0.0
  0
LINE
  5
63
330
1D
100
AcDbEntity
  8
3
100
AcDbLine
 10
25.522443577
 20
-4.65
 30
0.0
 11
22.0
 21
-4.65
 31
0.0
  0
LINE
  5
64
330
1D
100
AcDbEntity
  8
3
100
AcDbLine
 10
22.0
 20
-9.25
 30
0.0
 11
20.5
 21
-9.25
 31
0.0
  0
LINE
  5
65
330
1D
100
AcDbEntity
  8
3
100
AcDbLine
 10
27.0
 20
-11.05
 30
0.0
 11
25.522443577
 21
-4.65
 31
0.0
  0
LINE
  5
66
330
1D
100
AcDbEntity
  8
3
100
AcDbLine
 10
54.0
 20
-11.05
 30
0.0
 11
27.0
 21
-11.05
 31
0.0
  0
ARC
  5
67
330
1D
100
AcDbEntity
  8
3
100
AcDbCircle
 10
54.399993896
 20
-13.850004293
 30
0.0
 40
0.400001523
100
AcDbArc
 50
180.0
 51
270.0
  0
LINE
  5
68
330
1D
100
AcDbEntity
  8
3
100
AcDbLine
 10
60.26698922
 20
-14.24999819
 30
0.0
 11
54.399993896
 21
-14.250005816
 31
0.0
  0
LINE
  5
69
330
1D
100
AcDbEntity
  8
3
100
AcDbLine
 10
60.695236847
 20
-14.00275
 30
0.0
 11
60.26698922
 21
-14.24999819
 31
0.0
  0
LINE
  5
6A
330
1D
100
AcDbEntity
  8
3
100
AcDbLine
 10
89.0
 20
-14.00275
 30
0.0
 11
60.695236847
 21
-14.00275
 31
0.0
  0
LINE
  5
6B
330
1D
100
AcDbEntity
  8
3
100
AcDbLine
 10
25.522443577
 20
4.65
 30
0.0
 11
22.0
 21
4.65
 31
0.0
  0
LINE
  5
6C
330
1D
100
AcDbEntity
  8
3
100
AcDbLine
 10
22.0
 20
-9.25
 30
0.0
 11
22.0
 21
9.25
 31
0.0
  0
LINE
  5
6D
330
1D
100
AcDbEntity
  8
3
100
AcDbLine
 10
22.0
 20
9.25
 30
0.0
 11
20.5
 21
9.25
 31
0.0
  0
LINE
  5
6E
330
1D
100
AcDbEntity
  8
3
100
AcDbLine
 10
20.5
 20
9.25
 30
0.0
 11
20.5
 21
-9.25
 31
0.0
  0
LINE
  5
6F
330
1D
100
AcDbEntity
  8
3
100
AcDbLine
 10
20.5
 20
8.0
 30
0.0
 11
11.2
 21
8.0
 31
0.0
  0
LINE
  5
70
330
1D
100
AcDbEntity
  8
3
100
AcDbLine
 10
11.2
 20
8.0
 30
0.0
 11
9.95
 21
9.25
 31
0.0
  0
LINE
  5
71
330
1D
100
AcDbEntity
  8
3
100
AcDbLine
 10
9.95
 20
-15.725007629
 30
0.0
 11
9.95
 21
15.725007629
 31
0.0
  0
ARC
  5
72
330
1D
100
AcDbEntity
  8
3
100
AcDbCircle
 10
8.45
 20
15.725007629
 30
0.0
 40
1.5
100
AcDbArc
 50
0.0
 51
90.0
  0
LINE
  5
73
330
1D
100
AcDbEntity
  8
3
100
AcDbLine
 10
8.45
 20
17.225007629
 30
0.0
 11
0.0
 21
17.225007629
 31
0.0
  0
ARC
  5
74
330
1D
100
AcDbEntity
  8
SK3
100
AcDbCircle
 10
-6.142272462
 20
12.040007629
 30
0.0
 40
8.000000547
100
AcDbArc
 50
40.400380296
 51
90.0
  0
LINE
  5
75
330
1D
100
AcDbEntity
  8
SK3
100
AcDbLine
 10
-6.142272462
 20
20.040007629
 30
0.0
 11
-16.894470919
 21
20.040007622
 31
0.0
  0
ARC
  5
76
330
1D
100
AcDbEntity
  8
SK3
100
AcDbCircle
 10
-16.894470919
 20
19.440001526
 30
0.0
 40
0.600006097
100
AcDbArc
 50
90.0
 51
150.000108606
  0
LINE
  5
77
330
1D
100
AcDbEntity
  8
SK3
100
AcDbLine
 10
-17.414093722
 20
19.740004578
 30
0.0
 11
-18.981584161
 21
17.025007629
 31
0.0
  0
LINE
  5
78
330
1D
100
AcDbEntity
  8
SK3
100
AcDbLine
 10
-18.981584161
 20
17.025007629
 30
0.0
 11
-30.4
 21
17.025007629
 31
0.0
  0
LINE
  5
79
330
1D
100
AcDbEntity
  8
SK3
100
AcDbLine
 10
-30.4
 20
17.025007629
 30
0.0
 11
-31.9
 21
17.891033033
 31
0.0
  0
ARC
  5
7A
330
1D
100
AcDbEntity
  8
SK1
100
AcDbCircle
 10
-30.7
 20
21.579680674
 30
0.0
 40
1.2
100
AcDbArc
 50
92.87018107800002
 51
180.0
  0
LINE
  5
7B
330
1D
100
AcDbEntity
  8
SK1
100
AcDbLine
 10
-30.760087794
 20
22.778175337
 30
0.0
 11
-1.812353696
 21
24.229500509
 31
0.0
  0
LINE
  5
7C
330
1D
100
AcDbEntity
  8
1
100
AcDbLine
 10
0.0
 20
31.270007629
 30
0.0
 11
0.2
 21
31.470007629
 31
0.0
  0
LINE
  5
7D
330
1D
100
AcDbEntity
  8
1
100
AcDbLine
 10
0.2
 20
31.470007629
 30
0.0
 11
14.625388525
 21
31.470007629
 31
0.0
  0
LINE
  5
7E
330
1D
100
AcDbEntity
  8
1
100
AcDbLine
 10
14.625388525
 20
31.470007629
 30
0.0
 11
16.0875
 21
28.937550015
 31
0.0
  0
ARC
  5
7F
330
1D
100
AcDbEntity
  8
1
100
AcDbCircle
 10
16.8375
 20
28.225007629
 30
0.0
 40
0.75
100
AcDbArc
 50
180.0
 51
270.0
  0
LINE
  5
80
330
1D
100
AcDbEntity
  8
1
100
AcDbLine
 10
16.8375
 20
27.475007629
 30
0.0
 11
19.1625
 21
27.475007629
 31
0.0
  0
ARC
  5
81
330
1D
100
AcDbEntity
  8
1
100
AcDbCircle
 10
19.1625
 20
28.225007629
 30
0.0
 40
0.75
100
AcDbArc
 50
270.0
 51
0.0
  0
LINE
  5
82
330
1D
100
AcDbEntity
  8
1
100
AcDbLine
 10
19.9125
 20
28.937550015
 30
0.0
 11
21.374611475
 21
31.470007629
 31
0.0
  0
LINE
  5
83
330
1D
100
AcDbEntity
  8
1
100
AcDbLine
 10
21.374611475
 20
31.470007629
 30
0.0
 11
25.75
 21
31.470007629
 31
0.0
  0
LINE
  5
84
330
1D
100
AcDbEntity
  8
1
100
AcDbLine
 10
25.75
 20
31.470007629
 30
0.0
 11
25.949999387
 21
31.270008243
 31
0.0
  0
ARC
  5
85
330
1D
100
AcDbEntity
  8
1
100
AcDbCircle
 10
26.949982763
 20
25.85
 30
0.0
 40
1.0
100
AcDbArc
 50
180.0
 51
270.0
  0
LINE
  5
86
330
1D
100
AcDbEntity
  8
1
100
AcDbLine
 10
26.949982763
 20
24.85
 30
0.0
 11
31.949982763
 21
24.85
 31
0.0
  0
LINE
  5
87
330
1D
100
AcDbEntity
  8
1
100
AcDbLine
 10
31.949982763
 20
24.85
 30
0.0
 11
32.099982763
 21
25.0
 31
0.0
  0
LINE
  5
88
330
1D
100
AcDbEntity
  8
1
100
AcDbLine
 10
32.099982763
 20
25.0
 30
0.0
 11
86.653589838
 21
25.0
 31
0.0
  0
LINE
  5
89
330
1D
100
AcDbEntity
  8
1
100
AcDbLine
 10
86.653589838
 20
25.0
 30
0.0
 11
87.0
 21
24.4
 31
0.0
  0
LINE
  5
8A
330
1D
100
AcDbEntity
  8
1
100
AcDbLine
 10
87.0
 20
24.4
 30
0.0
 11
88.6
 21
24.4
 31
0.0
  0
LINE
  5
8B
330
1D
100
AcDbEntity
  8
1
100
AcDbLine
 10
88.6
 20
24.4
 30
0.0
 11
89.0
 21
24.0
 31
0.0
  0
LINE
  5
8C
330
1D
100
AcDbEntity
  8
3
100
AcDbLine
 10
89.0
 20
14.00275
 30
0.0
 11
60.695236847
 21
14.00275
 31
0.0
  0
LINE
  5
8D
330
1D
100
AcDbEntity
  8
3
100
AcDbLine
 10
60.695236847
 20
14.00275
 30
0.0
 11
60.26698922
 21
14.24999819
 31
0.0
  0
LINE
  5
8E
330
1D
100
AcDbEntity
  8
3
100
AcDbLine
 10
60.26698922
 20
14.24999819
 30
0.0
 11
54.399993896
 21
14.250005816
 31
0.0
  0
ARC
  5
8F
330
1D
100
AcDbEntity
  8
3
100
AcDbCircle
 10
54.399993896
 20
13.850004293
 30
0.0
 40
0.400001523
100
AcDbArc
 50
90.0
 51
180.0
  0
LINE
  5
90
330
1D
100
AcDbEntity
  8
3
100
AcDbLine
 10
54.0
 20
13.850004293
 30
0.0
 11
54.0
 21
-13.850004293
 31
0.0
  0
LINE
  5
91
330
1D
100
AcDbEntity
  8
3
100
AcDbLine
 10
54.0
 20
11.05
 30
0.0
 11
27.0
 21
11.05
 31
0.0
  0
LINE
  5
92
330
1D
100
AcDbEntity
  8
3
100
AcDbLine
 10
27.0
 20
11.05
 30
0.0
 11
25.522443577
 21
4.65
 31
0.0
  0
LINE
  5
93
330
1D
100
AcDbEntity
  8
3
100
AcDbLine
 10
11.2
 20
8.0
 30
0.0
 11
11.2
 21
-8.0
 31
0.0
  0
LINE
  5
94
330
1D
100
AcDbEntity
  8
3
100
AcDbLine
 10
27.0
 20
11.05
 30
0.0
 11
27.0
 21
-11.05
 31
0.0
  0
LINE
  5
95
330
1D
100
AcDbEntity
  8
3
100
AcDbLine
 10
60.695236847
 20
14.00275
 30
0.0
 11
60.695236847
 21
-14.00275
 31
0.0
  0
LINE
  5
96
330
1D
100
AcDbEntity
  8
3
100
AcDbLine
 10
25.522443577
 20
-4.65
 30
0.0
 11
25.522443577
 21
4.65
 31
0.0
  0
LINE
  5
97
330
1D
100
AcDbEntity
  8
SK4
100
AcDbLine
 10
-6.38990794
 20
24.0
 30
0.0
 11
-6.38990794
 21
-24.0
 31
0.0
  0
LINE
  5
98
330
1D
100
AcDbEntity
  8
SK4
100
AcDbLine
 10
75.95
 20
6.635267192
 30
0.0
 11
75.95
 21
-6.57775544
 31
0.0
  0
CIRCLE
  5
99
330
1D
100
AcDbEntity
  8
1
100
AcDbCircle
 10
75.95
 20
0.0
 30
0.0
 40
5.0
  0
LINE
  5
9A
330
1D
100
AcDbEntity
  8
1
100
AcDbLine
 10
75.95
 20
2.886751346
 30
0.0
 11
73.45
 21
1.443375673
 31
0.0
  0
LINE
  5
9B
330
1D
100
AcDbEntity
  8
1
100
AcDbLine
 10
73.45
 20
1.443375673
 30
0.0
 11
73.45
 21
-1.443375673
 31
0.0
  0
LINE
  5
9C
330
1D
100
AcDbEntity
  8
1
100
AcDbLine
 10
73.45
 20
-1.443375673
 30
0.0
 11
75.95
 21
-2.886751346
 31
0.0
  0
LINE
  5
9D
330
1D
100
AcDbEntity
  8
1
100
AcDbLine
 10
75.95
 20
-2.886751346
 30
0.0
 11
78.45
 21
-1.443375673
 31
0.0
  0
LINE
  5
9E
330
1D
100
AcDbEntity
  8
1
100
AcDbLine
 10
78.45
 20
-1.443375673
 30
0.0
 11
78.45
 21
1.443375673
 31
0.0
  0
LINE
  5
9F
330
1D
100
AcDbEntity
  8
1
100
AcDbLine
 10
78.45
 20
1.443375673
 30
0.0
 11
75.95
 21
2.886751346
 31
0.0
  0
LINE
  5
A0
330
1D
100
AcDbEntity
  8
SK6
100
AcDbLine
 10
-17.88327392
 20
-39.328753066
 30
0.0
 11
-17.88327392
 21
-55.078753066
 31
0.0
  0
LINE
  5
A1
330
1D
100
AcDbEntity
  8
SK6
100
AcDbLine
 10
-17.88327392
 20
-55.078753066
 30
0.0
 11
-15.18328079
 21
-55.078753066
 31
0.0
  0
LINE
  5
A2
330
1D
100
AcDbEntity
  8
SK6
100
AcDbLine
 10
-15.18328079
 20
-55.078753066
 30
0.0
 11
-15.18326934
 21
-48.238741476
 31
0.0
  0
LINE
  5
A3
330
1D
100
AcDbEntity
  8
SK6
100
AcDbLine
 10
-15.18326934
 20
-48.238741476
 30
0.0
 11
-13.833267204
 21
-48.238743266
 31
0.0
  0
ARC
  5
A4
330
1D
100
AcDbEntity
  8
SK6
100
AcDbCircle
 10
-13.83326706
 20
-49.318743306
 30
0.0
 40
1.08000004
100
AcDbArc
 50
359.999190416
 51
90.00000763
  0
LINE
  5
A5
330
1D
100
AcDbEntity
  8
SK6
100
AcDbLine
 10
-12.75328811
 20
-49.318758566
 30
0.0
 11
-12.75329908
 21
-53.548746656
 31
0.0
  0
ARC
  5
A6
330
1D
100
AcDbEntity
  8
SK6
100
AcDbCircle
 10
-10.2332991
 20
-53.548746656
 30
0.0
 40
2.51999998
100
AcDbArc
 50
180.0
 51
217.383168056
  0
LINE
  5
A7
330
1D
100
AcDbEntity
  8
SK6
100
AcDbLine
 10
-12.23568328
 20
-55.078753066
 30
0.0
 11
-9.71568283
 21
-55.078753066
 31
0.0
  0
LINE
  5
A8
330
1D
100
AcDbEntity
  8
SK6
100
AcDbLine
 10
-9.71568283
 20
-55.078753066
 30
0.0
 11
-9.625664554
 21
-55.078746488
 31
0.0
  0
ARC
  5
A9
330
1D
100
AcDbEntity
  8
SK6
100
AcDbCircle
 10
-7.62329086
 20
-53.548746656
 30
0.0
 40
2.51999998
100
AcDbArc
 50
180.009193697
 51
217.38319397
  0
LINE
  5
AA
330
1D
100
AcDbEntity
  8
SK6
100
AcDbLine
 10
-10.14329132
 20
-53.549151016
 30
0.0
 11
-10.143908752
 21
-49.555534973
 31
0.0
  0
ARC
  5
AB
330
1D
100
AcDbEntity
  8
SK6
100
AcDbCircle
 10
-12.66326889
 20
-49.498751236
 30
0.0
 40
2.51999998
100
AcDbArc
 50
358.70883179
 51
93.066711104
  0
ARC
  5
AC
330
1D
100
AcDbEntity
  8
SK6
100
AcDbCircle
 10
-12.93328079
 20
-44.458750326
 30
0.0
 40
2.51999998
100
AcDbArc
 50
273.06652832
 51
359.999826522
  0
LINE
  5
AD
330
1D
100
AcDbEntity
  8
SK6
100
AcDbLine
 10
-10.41326889
 20
-44.458757956
 30
0.0
 11
-10.41328081
 21
-41.848757346
 31
0.0
  0
ARC
  5
AE
330
1D
100
AcDbEntity
  8
SK6
100
AcDbCircle
 10
-12.93328079
 20
-41.848757346
 30
0.0
 40
2.51999998
100
AcDbArc
 50
0.0
 51
90.0
  0
LINE
  5
AF
330
1D
100
AcDbEntity
  8
SK6
100
AcDbLine
 10
-12.93328079
 20
-39.328737806
 30
0.0
 11
-17.88328537
 21
-39.328737806
 31
0.0
  0
LINE
  5
B0
330
1D
100
AcDbEntity
  8
SK6
100
AcDbLine
 10
-15.18328079
 20
-46.078753066
 30
0.0
 11
-13.56327804
 21
-46.078743956
 31
0.0
  0
ARC
  5
B1
330
1D
100
AcDbEntity
  8
SK6
100
AcDbCircle
 10
-13.56327804
 20
-45.178743916
 30
0.0
 40
0.90000004
100
AcDbArc
 50
270.0
 51
359.9995142640001
  0
LINE
  5
B2
330
1D
100
AcDbEntity
  8
SK6
100
AcDbLine
 10
-12.66326889
 20
-45.178751546
 30
0.0
 11
-12.663278
 21
-42.298754286
 31
0.0
  0
ARC
  5
B3
330
1D
100
AcDbEntity
  8
SK6
100
AcDbCircle
 10
-13.56327804
 20
-42.298754286
 30
0.0
 40
0.90000004
100
AcDbArc
 50
0.0
 51
90.0
  0
LINE
  5
B4
330
1D
100
AcDbEntity
  8
SK6
100
AcDbLine
 10
-13.56327804
 20
-41.398760396
 30
0.0
 11
-15.18328079
 21
-41.398760396
 31
0.0
  0
LINE
  5
B5
330
1D
100
AcDbEntity
  8
SK6
100
AcDbLine
 10
-15.18328079
 20
-41.398760396
 30
0.0
 11
-15.18328079
 21
-46.078753066
 31
0.0
  0
LINE
  5
B6
330
1D
100
AcDbEntity
  8
SK6
100
AcDbLine
 10
-28.86328491
 20
-39.328737806
 30
0.0
 11
-28.86327346
 21
-41.398760396
 31
0.0
  0
LINE
  5
B7
330
1D
100
AcDbEntity
  8
SK6
100
AcDbLine
 10
-28.86327346
 20
-41.398760396
 30
0.0
 11
-31.743270864
 21
-41.398739296
 31
0.0
  0
ARC
  5
B8
330
1D
100
AcDbEntity
  8
SK6
100
AcDbCircle
 10
-31.74327072
 20
-42.478739336
 30
0.0
 40
1.08000004
100
AcDbArc
 50
90.00000763
 51
206.543420561
  0
LINE
  5
B9
330
1D
100
AcDbEntity
  8
SK6
100
AcDbLine
 10
-32.70943817
 20
-42.961367206
 30
0.0
 11
-28.607872612
 21
-51.172174301
 31
0.0
  0
ARC
  5
BA
330
1D
100
AcDbEntity
  8
SK6
100
AcDbCircle
 10
-31.02327713
 20
-52.378748496
 30
0.0
 40
2.70000005
100
AcDbArc
 50
269.999919149
 51
26.54364014
  0
LINE
  5
BB
330
1D
100
AcDbEntity
  8
SK6
100
AcDbLine
 10
-31.02328094
 20
-55.078753066
 30
0.0
 11
-35.61328491
 21
-55.078753066
 31
0.0
  0
LINE
  5
BC
330
1D
100
AcDbEntity
  8
SK6
100
AcDbLine
 10
-35.61328491
 20
-55.078753066
 30
0.0
 11
-35.61326202
 21
-53.008745746
 31
0.0
  0
LINE
  5
BD
330
1D
100
AcDbEntity
  8
SK6
100
AcDbLine
 10
-35.61326202
 20
-53.008745746
 30
0.0
 11
-32.19326385
 21
-53.008743956
 31
0.0
  0
ARC
  5
BE
330
1D
100
AcDbEntity
  8
SK6
100
AcDbCircle
 10
-32.19326385
 20
-51.928743916
 30
0.0
 40
1.08000004
100
AcDbArc
 50
270.0
 51
26.544596906
  0
LINE
  5
BF
330
1D
100
AcDbEntity
  8
SK6
100
AcDbLine
 10
-31.22711547
 20
-51.446100786
 30
0.0
 11
-35.328684526
 21
-43.235309594
 31
0.0
  0
ARC
  5
C0
330
1D
100
AcDbEntity
  8
SK6
100
AcDbCircle
 10
-32.91328033
 20
-42.028734756
 30
0.0
 40
2.70000005
100
AcDbArc
 50
90.0
 51
206.5436554
  0
LINE
  5
C1
330
1D
100
AcDbEntity
  8
SK6
100
AcDbLine
 10
-32.91328033
 20
-39.328737806
 30
0.0
 11
-28.86327728
 21
-39.328737806
 31
0.0
  0
LINE
  5
C2
330
1D
100
AcDbEntity
  8
SK6
100
AcDbLine
 10
-26.16329177
 20
-39.328753066
 30
0.0
 11
-20.31328949
 21
-39.328753066
 31
0.0
  0
LINE
  5
C3
330
1D
100
AcDbEntity
  8
SK6
100
AcDbLine
 10
-20.31328949
 20
-39.328753066
 30
0.0
 11
-20.31330093
 21
-41.398745136
 31
0.0
  0
LINE
  5
C4
330
1D
100
AcDbEntity
  8
SK6
100
AcDbLine
 10
-20.31330093
 20
-41.398745136
 30
0.0
 11
-23.28330596
 21
-41.398760396
 31
0.0
  0
LINE
  5
C5
330
1D
100
AcDbEntity
  8
SK6
100
AcDbLine
 10
-23.28330596
 20
-41.398760396
 30
0.0
 11
-23.28329452
 21
-46.078753066
 31
0.0
  0
LINE
  5
C6
330
1D
100
AcDbEntity
  8
SK6
100
AcDbLine
 10
-23.28329452
 20
-46.078753066
 30
0.0
 11
-20.31328949
 21
-46.078730186
 31
0.0
  0
LINE
  5
C7
330
1D
100
AcDbEntity
  8
SK6
100
AcDbLine
 10
-20.31328949
 20
-46.078730186
 30
0.0
 11
-20.31330093
 21
-48.238733846
 31
0.0
  0
LINE
  5
C8
330
1D
100
AcDbEntity
  8
SK6
100
AcDbLine
 10
-20.31330093
 20
-48.238733846
 30
0.0
 11
-23.28330596
 21
-48.238733846
 31
0.0
  0
LINE
  5
C9
330
1D
100
AcDbEntity
  8
SK6
100
AcDbLine
 10
-23.28330596
 20
-48.238733846
 30
0.0
 11
-23.28329452
 21
-53.008745746
 31
0.0
  0
LINE
  5
CA
330
1D
100
AcDbEntity
  8
SK6
100
AcDbLine
 10
-23.28329452
 20
-53.008745746
 30
0.0
 11
-20.31327804
 21
-53.008745746
 31
0.0
  0
LINE
  5
CB
330
1D
100
AcDbEntity
  8
SK6
100
AcDbLine
 10
-20.31327804
 20
-53.008745746
 30
0.0
 11
-20.31327804
 21
-55.078753066
 31
0.0
  0
LINE
  5
CC
330
1D
100
AcDbEntity
  8
SK6
100
AcDbLine
 10
-20.31327804
 20
-55.078753066
 30
0.0
 11
-26.16328033
 21
-55.078753066
 31
0.0
  0
LINE
  5
CD
330
1D
100
AcDbEntity
  8
SK6
100
AcDbLine
 10
-26.16328033
 20
-55.078753066
 30
0.0
 11
-26.16328033
 21
-39.328753066
 31
0.0
  0
LINE
  5
CE
330
1D
100
AcDbEntity
  8
SK6
100
AcDbLine
 10
-59.91328033
 20
-39.328753066
 30
0.0
 11
-59.91328033
 21
-46.438761306
 31
0.0
  0
LINE
  5
CF
330
1D
100
AcDbEntity
  8
SK6
100
AcDbLine
 10
-59.91328033
 20
-46.438761306
 30
0.0
 11
-56.94328674
 21
-39.328753066
 31
0.0
  0
LINE
  5
D0
330
1D
100
AcDbEntity
  8
SK6
100
AcDbLine
 10
-56.94328674
 20
-39.328753066
 30
0.0
 11
-54.15328582
 21
-39.328753066
 31
0.0
  0
LINE
  5
D1
330
1D
100
AcDbEntity
  8
SK6
100
AcDbLine
 10
-54.15328582
 20
-39.328753066
 30
0.0
 11
-57.21329101
 21
-46.078753066
 31
0.0
  0
LINE
  5
D2
330
1D
100
AcDbEntity
  8
SK6
100
AcDbLine
 10
-57.21329101
 20
-46.078753066
 30
0.0
 11
-53.61328491
 21
-55.078753066
 31
0.0
  0
LINE
  5
D3
330
1D
100
AcDbEntity
  8
SK6
100
AcDbLine
 10
-53.61328491
 20
-55.078753066
 30
0.0
 11
-56.40328582
 21
-55.078753066
 31
0.0
  0
LINE
  5
D4
330
1D
100
AcDbEntity
  8
SK6
100
AcDbLine
 10
-56.40328582
 20
-55.078753066
 30
0.0
 11
-58.8332785
 21
-49.588747576
 31
0.0
  0
LINE
  5
D5
330
1D
100
AcDbEntity
  8
SK6
100
AcDbLine
 10
-58.8332785
 20
-49.588747576
 30
0.0
 11
-59.91328033
 21
-51.658754896
 31
0.0
  0
LINE
  5
D6
330
1D
100
AcDbEntity
  8
SK6
100
AcDbLine
 10
-59.91328033
 20
-51.658754896
 30
0.0
 11
-59.91328033
 21
-55.078753066
 31
0.0
  0
LINE
  5
D7
330
1D
100
AcDbEntity
  8
SK6
100
AcDbLine
 10
-59.91328033
 20
-55.078753066
 30
0.0
 11
-62.70328125
 21
-55.078753066
 31
0.0
  0
LINE
  5
D8
330
1D
100
AcDbEntity
  8
SK6
100
AcDbLine
 10
-62.70328125
 20
-55.078753066
 30
0.0
 11
-62.70328125
 21
-39.328753066
 31
0.0
  0
LINE
  5
D9
330
1D
100
AcDbEntity
  8
SK6
100
AcDbLine
 10
-62.70328125
 20
-39.328753066
 30
0.0
 11
-59.91328033
 21
-39.328753066
 31
0.0
  0
LINE
  5
DA
330
1D
100
AcDbEntity
  8
SK6
100
AcDbLine
 10
-40.65327438
 20
-39.328753066
 30
0.0
 11
-40.65327438
 21
-55.078753066
 31
0.0
  0
LINE
  5
DB
330
1D
100
AcDbEntity
  8
SK6
100
AcDbLine
 10
-40.65327438
 20
-55.078753066
 30
0.0
 11
-37.77327713
 21
-55.078753066
 31
0.0
  0
LINE
  5
DC
330
1D
100
AcDbEntity
  8
SK6
100
AcDbLine
 10
-37.77327713
 20
-55.078753066
 30
0.0
 11
-37.77327713
 21
-39.328753066
 31
0.0
  0
LINE
  5
DD
330
1D
100
AcDbEntity
  8
SK6
100
AcDbLine
 10
-37.77327713
 20
-39.328753066
 30
0.0
 11
-40.65328582
 21
-39.328753066
 31
0.0
  0
LINE
  5
DE
330
1D
100
AcDbEntity
  8
SK6
100
AcDbLine
 10
-49.47328552
 20
-38.878748496
 30
0.0
 11
-46.41328033
 21
-38.878748496
 31
0.0
  0
LINE
  5
DF
330
1D
100
AcDbEntity
  8
SK6
100
AcDbLine
 10
-46.41328033
 20
-38.878748496
 30
0.0
 11
-42.00327667
 21
-55.078753066
 31
0.0
  0
LINE
  5
E0
330
1D
100
AcDbEntity
  8
SK6
100
AcDbLine
 10
-42.00327667
 20
-55.078753066
 30
0.0
 11
-44.97328552
 21
-55.078753066
 31
0.0
  0
LINE
  5
E1
330
1D
100
AcDbEntity
  8
SK6
100
AcDbLine
 10
-44.97328552
 20
-55.078753066
 30
0.0
 11
-48.03328308
 21
-43.198755816
 31
0.0
  0
LINE
  5
E2
330
1D
100
AcDbEntity
  8
SK6
100
AcDbLine
 10
-48.03328308
 20
-43.198755816
 30
0.0
 11
-49.56328949
 21
-52.558741166
 31
0.0
  0
LINE
  5
E3
330
1D
100
AcDbEntity
  8
SK6
100
AcDbLine
 10
-49.56328949
 20
-52.558741166
 30
0.0
 11
-46.68326934
 21
-52.558741166
 31
0.0
  0
LINE
  5
E4
330
1D
100
AcDbEntity
  8
SK6
100
AcDbLine
 10
-46.68326934
 20
-52.558741166
 30
0.0
 11
-46.23328003
 21
-55.078753066
 31
0.0
  0
LINE
  5
E5
330
1D
100
AcDbEntity
  8
SK6
100
AcDbLine
 10
-46.23328003
 20
-55.078753066
 30
0.0
 11
-52.53328308
 21
-55.078753066
 31
0.0
  0
LINE
  5
E6
330
1D
100
AcDbEntity
  8
SK6
100
AcDbLine
 10
-52.53328308
 20
-55.078753066
 30
0.0
 11
-49.47328552
 21
-38.878748496
 31
0.0
  0
LINE
  5
E7
330
1D
100
AcDbEntity
  8
SK2
100
AcDbLine
 10
-42.000000103
 20
-24.0
 30
0.0
 11
-6.38990794
 21
-24.0
 31
0.0
  0
LINE
  5
E8
330
1D
100
AcDbEntity
  8
SK2
100
AcDbLine
 10
-40.000000103
 20
-24.0
 30
0.0
 11
-40.450000103
 21
-20.5
 31
0.0
  0
LINE
  5
E9
330
1D
100
AcDbEntity
  8
SK2
100
AcDbLine
 10
-40.450000103
 20
-20.5
 30
0.0
 11
-39.550000103
 21
-20.5
 31
0.0
  0
LINE
  5
EA
330
1D
100
AcDbEntity
  8
SK2
100
AcDbLine
 10
-39.550000103
 20
-20.5
 30
0.0
 11
-40.000000103
 21
-24.0
 31
0.0
  0
LINE
  5
EB
330
1D
100
AcDbEntity
  8
SK2
100
AcDbLine
 10
-42.000000103
 20
24.0
 30
0.0
 11
-6.38990794
 21
24.0
 31
0.0
  0
LINE
  5
EC
330
1D
100
AcDbEntity
  8
SK2
100
AcDbLine
 10
-40.000000103
 20
24.0
 30
0.0
 11
-39.550000103
 21
20.5
 31
0.0
  0
LINE
  5
ED
330
1D
100
AcDbEntity
  8
SK2
100
AcDbLine
 10
-39.550000103
 20
20.5
 30
0.0
 11
-40.450000103
 21
20.5
 31
0.0
  0
LINE
  5
EE
330
1D
100
AcDbEntity
  8
SK2
100
AcDbLine
 10
-40.450000103
 20
20.5
 30
0.0
 11
-40.000000103
 21
24.0
 31
0.0
  0
LINE
  5
EF
330
1D
100
AcDbEntity
  8
SK2
100
AcDbLine
 10
-40.000000103
 20
-20.5
 30
0.0
 11
-40.000000103
 21
20.5
 31
0.0
  0
TEXT
  5
F0
330
1D
100
AcDbEntity
  8
SK2
100
AcDbText
 10
-41.500000103
 20
0.085311964
 30
0.0
 40
3.5
  1
48
 50
90.0
  7
BMG_Text
100
AcDbText
  0
CIRCLE
  5
F1
330
1D
100
AcDbEntity
  8
SK2
100
AcDbCircle
 10
-42.750000103
 20
-2.164688036
 30
0.0
 40
1.25
  0
LINE
  5
F2
330
1D
100
AcDbEntity
  8
SK2
100
AcDbLine
 10
-41.500000103
 20
-3.414688036
 30
0.0
 11
-44.000000103
 21
-0.914688036
 31
0.0
  0
LINE
  5
F3
330
1D
100
AcDbEntity
  8
2
100
AcDbLine
 10
0.0
 20
41.999999542
 30
0.0
 11
0.0
 21
31.270007629
 31
0.0
  0
LINE
  5
F4
330
1D
100
AcDbEntity
  8
2
100
AcDbLine
 10
0.0
 20
39.999999542
 30
0.0
 11
3.499999998
 21
40.44999956
 31
0.0
  0
LINE
  5
F5
330
1D
100
AcDbEntity
  8
2
100
AcDbLine
 10
3.499999998
 20
40.44999956
 30
0.0
 11
3.500000002
 21
39.54999956
 31
0.0
  0
LINE
  5
F6
330
1D
100
AcDbEntity
  8
2
100
AcDbLine
 10
3.500000002
 20
39.54999956
 30
0.0
 11
0.0
 21
39.999999542
 31
0.0
  0
LINE
  5
F7
330
1D
100
AcDbEntity
  8
2
100
AcDbLine
 10
89.0
 20
42.0
 30
0.0
 11
89.0
 21
24.0
 31
0.0
  0
LINE
  5
F8
330
1D
100
AcDbEntity
  8
2
100
AcDbLine
 10
89.0
 20
40.0
 30
0.0
 11
85.500000002
 21
39.549999982
 31
0.0
  0
LINE
  5
F9
330
1D
100
AcDbEntity
  8
2
100
AcDbLine
 10
85.500000002
 20
39.549999982
 30
0.0
 11
85.499999998
 21
40.449999982
 31
0.0
  0
LINE
  5
FA
330
1D
100
AcDbEntity
  8
2
100
AcDbLine
 10
85.499999998
 20
40.449999982
 30
0.0
 11
89.0
 21
40.0
 31
0.0
  0
LINE
  5
FB
330
1D
100
AcDbEntity
  8
2
100
AcDbLine
 10
3.5
 20
39.99999956
 30
0.0
 11
85.5
 21
39.999999982
 31
0.0
  0
TEXT
  5
FC
330
1D
100
AcDbEntity
  8
2
100
AcDbText
 10
42.889998998
 20
41.499999763
 30
0.0
 40
3.5
  1
89
 50
0.000000295
  7
BMG_Text
100
AcDbText
  0
LINE
  5
FD
330
1D
100
AcDbEntity
  8
SK2
100
AcDbLine
 10
110.000000589
 20
-25.0
 30
0.0
 11
86.653589838
 21
-25.0
 31
0.0
  0
LINE
  5
FE
330
1D
100
AcDbEntity
  8
SK2
100
AcDbLine
 10
108.000000589
 20
-25.0
 30
0.0
 11
107.550000589
 21
-21.5
 31
0.0
  0
LINE
  5
FF
330
1D
100
AcDbEntity
  8
SK2
100
AcDbLine
 10
107.550000589
 20
-21.5
 30
0.0
 11
108.450000589
 21
-21.5
 31
0.0
  0
LINE
  5
100
330
1D
100
AcDbEntity
  8
SK2
100
AcDbLine
 10
108.450000589
 20
-21.5
 30
0.0
 11
108.000000589
 21
-25.0
 31
0.0
  0
LINE
  5
101
330
1D
100
AcDbEntity
  8
SK2
100
AcDbLine
 10
110.000000589
 20
25.0
 30
0.0
 11
86.653589838
 21
25.0
 31
0.0
  0
LINE
  5
102
330
1D
100
AcDbEntity
  8
SK2
100
AcDbLine
 10
108.000000589
 20
25.0
 30
0.0
 11
108.450000589
 21
21.5
 31
0.0
  0
LINE
  5
103
330
1D
100
AcDbEntity
  8
SK2
100
AcDbLine
 10
108.450000589
 20
21.5
 30
0.0
 11
107.550000589
 21
21.5
 31
0.0
  0
LINE
  5
104
330
1D
100
AcDbEntity
  8
SK2
100
AcDbLine
 10
107.550000589
 20
21.5
 30
0.0
 11
108.000000589
 21
25.0
 31
0.0
  0
LINE
  5
105
330
1D
100
AcDbEntity
  8
SK2
100
AcDbLine
 10
108.000000589
 20
-21.5
 30
0.0
 11
108.000000589
 21
21.5
 31
0.0
  0
TEXT
  5
106
330
1D
100
AcDbEntity
  8
SK2
100
AcDbText
 10
106.500000589
 20
0.194686941
 30
0.0
 40
3.5
  1
50
 50
90.0
  7
BMG_Text
100
AcDbText
  0
CIRCLE
  5
107
330
1D
100
AcDbEntity
  8
SK2
100
AcDbCircle
 10
105.250000589
 20
-2.055313059
 30
0.0
 40
1.25
  0
LINE
  5
108
330
1D
100
AcDbEntity
  8
SK2
100
AcDbLine
 10
106.500000589
 20
-3.305313059
 30
0.0
 11
104.000000589
 21
-0.805313059
 31
0.0
  0
LINE
  5
109
330
1D
100
AcDbEntity
  8
SK2
100
AcDbLine
 10
102.0
 20
-14.00275
 30
0.0
 11
89.0
 21
-14.00275
 31
0.0
  0
LINE
  5
10A
330
1D
100
AcDbEntity
  8
SK2
100
AcDbLine
 10
100.0
 20
-14.00275
 30
0.0
 11
99.55
 21
-10.50275
 31
0.0
  0
LINE
  5
10B
330
1D
100
AcDbEntity
  8
SK2
100
AcDbLine
 10
99.55
 20
-10.50275
 30
0.0
 11
100.45
 21
-10.50275
 31
0.0
  0
LINE
  5
10C
330
1D
100
AcDbEntity
  8
SK2
100
AcDbLine
 10
100.45
 20
-10.50275
 30
0.0
 11
100.0
 21
-14.00275
 31
0.0
  0
LINE
  5
10D
330
1D
100
AcDbEntity
  8
SK2
100
AcDbLine
 10
102.0
 20
14.00275
 30
0.0
 11
89.0
 21
14.00275
 31
0.0
  0
LINE
  5
10E
330
1D
100
AcDbEntity
  8
SK2
100
AcDbLine
 10
100.0
 20
14.00275
 30
0.0
 11
100.45
 21
10.50275
 31
0.0
  0
LINE
  5
10F
330
1D
100
AcDbEntity
  8
SK2
100
AcDbLine
 10
100.45
 20
10.50275
 30
0.0
 11
99.55
 21
10.50275
 31
0.0
  0
LINE
  5
110
330
1D
100
AcDbEntity
  8
SK2
100
AcDbLine
 10
99.55
 20
10.50275
 30
0.0
 11
100.0
 21
14.00275
 31
0.0
  0
LINE
  5
111
330
1D
100
AcDbEntity
  8
SK2
100
AcDbLine
 10
100.0
 20
-10.50275
 30
0.0
 11
100.0
 21
10.50275
 31
0.0
  0
TEXT
  5
112
330
1D
100
AcDbEntity
  8
SK2
100
AcDbText
 10
98.5
 20
0.085312187
 30
0.0
 40
3.5
  1
28
 50
90.0
  7
BMG_Text
100
AcDbText
  0
CIRCLE
  5
113
330
1D
100
AcDbEntity
  8
SK2
100
AcDbCircle
 10
97.25
 20
-2.164687813
 30
0.0
 40
1.25
  0
LINE
  5
114
330
1D
100
AcDbEntity
  8
SK2
100
AcDbLine
 10
98.5
 20
-3.414687813
 30
0.0
 11
96.0
 21
-0.914687813
 31
0.0
  0
LINE
  5
115
330
1D
100
AcDbEntity
  8
2
100
AcDbLine
 10
0.0
 20
-45.999999543
 30
0.0
 11
0.0
 21
-31.269992371
 31
0.0
  0
LINE
  5
116
330
1D
100
AcDbEntity
  8
2
100
AcDbLine
 10
0.0
 20
-43.999999543
 30
0.0
 11
3.500000001
 21
-43.549999551
 31
0.0
  0
LINE
  5
117
330
1D
100
AcDbEntity
  8
2
100
AcDbLine
 10
3.500000001
 20
-43.549999551
 30
0.0
 11
3.499999999
 21
-44.449999551
 31
0.0
  0
LINE
  5
118
330
1D
100
AcDbEntity
  8
2
100
AcDbLine
 10
3.499999999
 20
-44.449999551
 30
0.0
 11
0.0
 21
-43.999999543
 31
0.0
  0
LINE
  5
11A
330
1D
100
AcDbEntity
  8
2
100
AcDbLine
 10
31.0
 20
-43.999999619
 30
0.0
 11
27.499999999
 21
-44.44999961
 31
0.0
  0
LINE
  5
11B
330
1D
100
AcDbEntity
  8
2
100
AcDbLine
 10
27.499999999
 20
-44.44999961
 30
0.0
 11
27.500000001
 21
-43.54999961
 31
0.0
  0
LINE
  5
11C
330
1D
100
AcDbEntity
  8
2
100
AcDbLine
 10
27.500000001
 20
-43.54999961
 30
0.0
 11
31.0
 21
-43.999999619
 31
0.0
  0
LINE
  5
11D
330
1D
100
AcDbEntity
  8
2
100
AcDbLine
 10
3.5
 20
-43.999999551
 30
0.0
 11
27.5
 21
-43.99999961
 31
0.0
  0
TEXT
  5
11E
330
1D
100
AcDbEntity
  8
2
100
AcDbText
 10
14.409530907
 20
-42.499999578
 30
0.0
 40
3.5
  1
31
 50
359.99999986
  7
BMG_Text
100
AcDbText
  0
LINE
  5
11F
330
1D
100
AcDbEntity
  8
2
100
AcDbLine
 10
31.0
 20
-45.999999619
 30
0.0
 11
31.0
 21
-24.85
 31
0.0
  0
LINE
  5
120
330
1D
100
AcDbEntity
  8
2
100
AcDbLine
 10
31.0
 20
-43.999999619
 30
0.0
 11
34.5
 21
-43.549999619
 31
0.0
  0
LINE
  5
121
330
1D
100
AcDbEntity
  8
2
100
AcDbLine
 10
34.5
 20
-43.549999619
 30
0.0
 11
34.5
 21
-44.449999619
 31
0.0
  0
LINE
  5
122
330
1D
100
AcDbEntity
  8
2
100
AcDbLine
 10
34.5
 20
-44.449999619
 30
0.0
 11
31.0
 21
-43.999999619
 31
0.0
  0
LINE
  5
123
330
1D
100
AcDbEntity
  8
2
100
AcDbLine
 10
34.5
 20
-43.999999619
 30
0.0
 11
94.8
 21
-43.999999619
 31
0.0
  0
TEXT
  5
124
330
1D
100
AcDbEntity
  8
2
100
AcDbText
 10
88.59727053810929
 20
-42.499999619
 30
0.0
 40
3.5
  1
115
  7
BMG_Text
100
AcDbText
  0
TEXT
  5
125
330
1D
100
AcDbEntity
  8
2
100
AcDbText
 10
48.129218037
 20
-42.499999619
 30
0.0
 40
3.5
  1
Ausdrehtiefe
  7
BMG_Text
100
AcDbText
  0
TEXT
  5
126
330
1D
100
AcDbEntity
  8
SK6
100
AcDbText
 10
57.95839019435086
 20
-22.998119376
 30
0.0
 40
3.5
  1
324.353
  7
BMG_Text
100
AcDbText
  0
LINE
  5
1D0
330
1D
100
AcDbEntity
  8
NOCUT
100
AcDbLine
 10
0.0
 20
31.270007629
 30
0.0
 11
0.2
 21
31.470007629
 31
0.0
  0
LINE
  5
1D1
330
1D
100
AcDbEntity
  8
NOCUT
100
AcDbLine
 10
0.2
 20
31.470007629
 30
0.0
 11
14.625388525
 21
31.470007629
 31
0.0
  0
LINE
  5
1D2
330
1D
100
AcDbEntity
  8
NOCUT
100
AcDbLine
 10
14.625388525
 20
31.470007629
 30
0.0
 11
16.0875
 21
28.937550015
 31
0.0
  0
LINE
  5
1D3
330
1D
100
AcDbEntity
  8
NOCUT
100
AcDbLine
 10
16.0875
 20
28.937550015
 30
0.0
 11
16.0875
 21
28.225007629
 31
0.0
  0
LINE
  5
1D4
330
1D
100
AcDbEntity
  8
NOCUT
100
AcDbLine
 10
16.8375
 20
27.475007629
 30
0.0
 11
19.1625
 21
27.475007629
 31
0.0
  0
LINE
  5
1D5
330
1D
100
AcDbEntity
  8
NOCUT
100
AcDbLine
 10
19.9125
 20
28.225007629
 30
0.0
 11
19.9125
 21
28.937550015
 31
0.0
  0
LINE
  5
1D6
330
1D
100
AcDbEntity
  8
NOCUT
100
AcDbLine
 10
19.9125
 20
28.937550015
 30
0.0
 11
21.374611475
 21
31.470007629
 31
0.0
  0
LINE
  5
1D7
330
1D
100
AcDbEntity
  8
NOCUT
100
AcDbLine
 10
21.374611475
 20
31.470007629
 30
0.0
 11
25.75
 21
31.470007629
 31
0.0
  0
LINE
  5
1D8
330
1D
100
AcDbEntity
  8
NOCUT
100
AcDbLine
 10
25.75
 20
31.470007629
 30
0.0
 11
25.949999387
 21
31.270008243
 31
0.0
  0
LINE
  5
1D9
330
1D
100
AcDbEntity
  8
NOCUT
100
AcDbLine
 10
25.949999387
 20
31.270008243
 30
0.0
 11
25.949999387
 21
25.84908682356708
 31
0.0
  0
LINE
  5
1DA
330
1D
100
AcDbEntity
  8
NOCUT
100
AcDbLine
 10
26.949982763
 20
24.85
 30
0.0
 11
31.949975586
 21
24.85
 31
0.0
  0
LINE
  5
1DB
330
1D
100
AcDbEntity
  8
NOCUT
100
AcDbLine
 10
31.949975586
 20
24.85
 30
0.0
 11
32.099982763
 21
25.0
 31
0.0
  0
LINE
  5
1DC
330
1D
100
AcDbEntity
  8
NOCUT
100
AcDbLine
 10
32.099982763
 20
25.0
 30
0.0
 11
86.653589838
 21
25.0
 31
0.0
  0
LINE
  5
1DD
330
1D
100
AcDbEntity
  8
NOCUT
100
AcDbLine
 10
86.653589838
 20
25.0
 30
0.0
 11
87.0
 21
24.4
 31
0.0
  0
LINE
  5
1DE
330
1D
100
AcDbEntity
  8
NOCUT
100
AcDbLine
 10
87.0
 20
24.4
 30
0.0
 11
88.6
 21
24.4
 31
0.0
  0
LINE
  5
1DF
330
1D
100
AcDbEntity
  8
NOCUT
100
AcDbLine
 10
88.6
 20
24.4
 30
0.0
 11
89.0
 21
24.0
 31
0.0
  0
LINE
  5
1E0
330
1D
100
AcDbEntity
  8
NOCUT
100
AcDbLine
 10
89.0
 20
24.0
 30
0.0
 11
89.0
 21
-0.0000038144999976
 31
0.0
  0
LINE
  5
1E1
330
1D
100
AcDbEntity
  8
NOCUT
100
AcDbLine
 10
89.0
 20
-0.0000038144999976
 30
0.0
 11
0.0
 21
0.0
 31
0.0
  0
ARC
  5
1E2
330
1D
100
AcDbEntity
  8
NOCUT
100
AcDbCircle
 10
16.8375
 20
28.225007629
 30
0.0
 40
0.7499999999999976
100
AcDbArc
 50
179.9999999999997
 51
270.0000000000002
  0
ARC
  5
1E3
330
1D
100
AcDbEntity
  8
NOCUT
100
AcDbCircle
 10
19.1625
 20
28.225007629
 30
0.0
 40
0.7499999999999976
100
AcDbArc
 50
269.9999999999997
 51
0.0000000000002714
  0
ARC
  5
1E4
330
1D
100
AcDbEntity
  8
NOCUT
100
AcDbCircle
 10
26.949982763
 20
25.85
 30
0.0
 40
1.000000000000005
100
AcDbArc
 50
180.0000000000002
 51
269.9999999999998
  0
LWPOLYLINE
  5
1E5
330
1D
100
AcDbEntity
  8
INFTOTAL
100
AcDbPolyline
 90
        4
 70
     1
 43
0.0
 10
-94.65402989818834
 20
66.12046903735705
 10
-94.65402989818834
 20
-72.43536443586248
 10
156.97077804816
 20
-72.43536443586248
 10
156.97077804816
 20
66.12046903735705
  0
LINE
  5
233
330
1D
100
AcDbEntity
  8
SK3
100
AcDbLine
 10
0.0000000000000018
 20
-17.225007629
 30
0.0
 11
-0.049982195
 21
-17.225007629
 31
0.0
  0
LINE
  5
234
330
1D
100
AcDbEntity
  8
SK3
100
AcDbLine
 10
0.0
 20
17.225007629
 30
0.0
 11
-0.05
 21
17.225007629
 31
0.0
  0
LINE
  5
240
330
1D
100
AcDbEntity
  8
4
100
AcDbLine
 10
75.95
 20
6.635267192
 30
0.0
 11
75.95
 21
-6.57775544
 31
0.0
  0
LINE
  5
241
330
1D
100
AcDbEntity
  8
4
100
AcDbLine
 10
91.801567436
 20
0.0
 30
0.0
 11
0.0
 21
0.0000076289999988
 31
0.0
  0
LINE
  5
245
330
1D
100
AcDbEntity
  8
SK1
100
AcDbLine
 10
0.0000000000031267
 20
24.3186820462374
 30
0.0
 11
0.0000000000031268
 21
-24.3186667882374
 31
0.0
  0
LINE
  5
258
330
1D
100
AcDbEntity
  8
NOCUT
100
AcDbLine
 10
0.0
 20
31.270007629
 30
0.0
 11
0.0
 21
0.0
 31
0.0
  0
ENDSEC
  0
SECTION
  2
OBJECTS
  0
DICTIONARY
  5
C
330
0
100
AcDbDictionary
281
     1
  3
ACAD_COLOR
350
21B
  3
ACAD_DETAILVIEWSTYLE
350
1C5
  3
ACAD_GROUP
350
D
  3
ACAD_LAYOUT
350
1A
  3
ACAD_MATERIAL
350
164
  3
ACAD_MLEADERSTYLE
350
171
  3
ACAD_MLINESTYLE
350
17
  3
ACAD_PLOTSETTINGS
350
19
  3
ACAD_PLOTSTYLENAME
350
E
  3
ACAD_SCALELIST
350
12D
  3
ACAD_SECTIONVIEWSTYLE
350
1C6
  3
ACAD_TABLESTYLE
350
1BA
  3
ACAD_VISUALSTYLE
350
153
  3
ACDB_RECOMPOSE_DATA
350
25C
  3
AcDbVariableDictionary
350
16F
  3
APPDATA
350
1BD
  0
SUN
  5
20D
330
127
100
AcDbSun
 90
        1
290
     0
 63
     7
421
 16777215
 40
1.0
291
     1
 91
  2455826
 92
 54000000
292
     0
 70
     2
 71
   256
280
     1
  0
DICTIONARY
  5
1BE
330
2
100
AcDbDictionary
280
     1
281
     1
  3
ACAD_LAYERSTATES
360
1BF
  0
DICTIONARY
  5
21B
102
{ACAD_REACTORS
330
C
102
}
330
C
100
AcDbDictionary
281
     1
  0
DICTIONARY
  5
1C5
102
{ACAD_REACTORS
330
C
102
}
330
C
100
AcDbDictionary
281
     1
  0
DICTIONARY
  5
D
102
{ACAD_REACTORS
330
C
102
}
330
C
100
AcDbDictionary
281
     1
  0
DICTIONARY
  5
1A
102
{ACAD_REACTORS
330
C
102
}
330
C
100
AcDbDictionary
281
     1
  3
Layout1
350
1C
  3
Model
350
1E
  0
DICTIONARY
  5
164
102
{ACAD_REACTORS
330
C
102
}
330
C
100
AcDbDictionary
281
     1
  3
ByBlock
350
166
  3
ByLayer
350
165
  3
Global
350
167
  0
DICTIONARY
  5
171
102
{ACAD_REACTORS
330
C
102
}
330
C
100
AcDbDictionary
281
     1
  3
Standard
350
1BC
  0
DICTIONARY
  5
17
102
{ACAD_REACTORS
330
C
102
}
330
C
100
AcDbDictionary
281
     1
  3
Standard
350
18
  0
DICTIONARY
  5
19
102
{ACAD_REACTORS
330
C
102
}
330
C
100
AcDbDictionary
281
     1
  0
ACDBDICTIONARYWDFLT
  5
E
102
{ACAD_REACTORS
330
C
102
}
330
C
100
AcDbDictionary
281
     1
  3
Normal
350
F
100
AcDbDictionaryWithDefault
340
F
  0
DICTIONARY
  5
12D
102
{ACAD_REACTORS
330
C
102
}
330
C
100
AcDbDictionary
281
     1
  3
A0
350
12E
  3
A1
350
12F
  3
A2
350
130
  3
A3
350
131
  3
A4
350
132
  3
A5
350
133
  3
A6
350
134
  3
A7
350
135
  3
A8
350
136
  3
A9
350
137
  3
B0
350
138
  3
B1
350
139
  3
B2
350
13A
  3
B3
350
13B
  3
B4
350
13C
  3
B5
350
13D
  3
B6
350
13E
  3
B7
350
13F
  3
B8
350
140
  3
B9
350
141
  3
C0
350
142
  3
C1
350
143
  3
C2
350
144
  3
C3
350
145
  3
C4
350
146
  3
C5
350
147
  3
C6
350
148
  3
C7
350
149
  3
C8
350
14A
  3
C9
350
14B
  3
D0
350
14C
  3
D1
350
14D
  3
D2
350
14E
  0
DICTIONARY
  5
1C6
102
{ACAD_REACTORS
330
C
102
}
330
C
100
AcDbDictionary
281
     1
  0
DICTIONARY
  5
1BA
102
{ACAD_REACTORS
330
C
102
}
330
C
100
AcDbDictionary
281
     1
  3
Standard
350
1BB
  0
DICTIONARY
  5
153
102
{ACAD_REACTORS
330
C
102
}
330
C
100
AcDbDictionary
281
     1
  3
2dWireframe
350
158
  3
3D Hidden
350
15A
  3
3dWireframe
350
159
  3
Basic
350
15B
  3
Brighten
350
15F
  3
ColorChange
350
163
  3
Conceptual
350
15D
  3
Dim
350
15E
  3
EdgeColorOff
350
1B4
  3
Facepattern
350
162
  3
Flat
350
154
  3
FlatWithEdges
350
155
  3
Gouraud
350
156
  3
GouraudWithEdges
350
157
  3
Hidden
350
1B1
  3
JitterOff
350
1B2
  3
Linepattern
350
161
  3
OverhangOff
350
1B3
  3
Realistic
350
15C
  3
Shaded
350
1B9
  3
Shaded with edges
350
1B8
  3
Shades of Gray
350
1B5
  3
Sketchy
350
1B6
  3
Thicken
350
160
  3
Wireframe
350
1B0
  3
X-Ray
350
1B7
  0
XRECORD
  5
25C
102
{ACAD_REACTORS
330
C
102
}
330
C
100
AcDbXrecord
280
     1
 90
        1
330
1BB
  0
DICTIONARY
  5
16F
102
{ACAD_REACTORS
330
C
102
}
330
C
100
AcDbDictionary
281
     1
  3
CANNOSCALE
350
1C2
  3
CMLEADERSTYLE
350
1C4
  3
CTABLESTYLE
350
1C3
  3
DIMASSOC
350
173
  3
HIDETEXT
350
174
  3
MSLTSCALE
350
172
  0
DICTIONARY
  5
1BD
102
{ACAD_REACTORS
330
C
102
}
330
C
100
AcDbDictionary
281
     1
  0
DICTIONARY
  5
1BF
102
{ACAD_REACTORS
330
1BE
102
}
330
1BE
100
AcDbDictionary
281
     1
  0
LAYOUT
  5
1C
102
{ACAD_REACTORS
330
1A
102
}
330
1A
100
AcDbPlotSettings
  1

  2
none_device
  4

  6

 40
0.0
 41
0.0
 42
0.0
 43
0.0
 44
0.0
 45
0.0
 46
0.0
 47
0.0
 48
0.0
 49
0.0
140
0.0
141
0.0
142
1.0
143
1.0
 70
   688
 72
     0
 73
     0
 74
     5
  7

 75
    16
 76
     0
 77
     2
 78
   300
147
1.0
148
0.0
149
0.0
100
AcDbLayout
  1
Layout1
 70
     1
 71
     1
 10
0.0
 20
0.0
 11
12.0
 21
9.0
 12
0.0
 22
0.0
 32
0.0
 14
1.000000000000000E+20
 24
1.000000000000000E+20
 34
1.000000000000000E+20
 15
-1.000000000000000E+20
 25
-1.000000000000000E+20
 35
-1.000000000000000E+20
146
0.0
 13
0.0
 23
0.0
 33
0.0
 16
1.0
 26
0.0
 36
0.0
 17
0.0
 27
1.0
 37
0.0
 76
     0
330
1B
  0
LAYOUT
  5
1E
102
{ACAD_REACTORS
330
1A
102
}
330
1A
100
AcDbPlotSettings
  1

  2
none_device
  4

  6

 40
0.0
 41
0.0
 42
0.0
 43
0.0
 44
0.0
 45
0.0
 46
0.0
 47
0.0
 48
0.0
 49
0.0
140
0.0
141
0.0
142
1.0
143
1.0
 70
  1712
 72
     0
 73
     0
 74
     0
  7

 75
     0
 76
     0
 77
     2
 78
   300
147
1.0
148
0.0
149
0.0
100
AcDbLayout
  1
Model
 70
     1
 71
     0
 10
0.0
 20
0.0
 11
12.0
 21
9.0
 12
0.0
 22
0.0
 32
0.0
 14
-94.65402989818837
 24
-72.43536443586248
 34
0.0
 15
156.97077804816
 25
66.12046903735705
 35
0.0
146
0.0
 13
0.0
 23
0.0
 33
0.0
 16
1.0
 26
0.0
 36
0.0
 17
0.0
 27
1.0
 37
0.0
 76
     0
330
1D
331
127
  0
MATERIAL
  5
166
102
{ACAD_REACTORS
330
164
102
}
330
164
100
AcDbMaterial
  1
ByBlock
 72
     1
 94
      127
  0
MATERIAL
  5
165
102
{ACAD_REACTORS
330
164
102
}
330
164
100
AcDbMaterial
  1
ByLayer
 72
     1
 94
      127
  0
MATERIAL
  5
167
102
{ACAD_REACTORS
330
164
102
}
330
164
100
AcDbMaterial
  1
Global
 72
     1
 94
      127
  0
MLEADERSTYLE
  5
1BC
102
{ACAD_REACTORS
330
171
102
}
330
171
100
AcDbMLeaderStyle
179
     2
170
     2
171
     1
172
     0
 90
        2
 40
0.0
 41
0.0
173
     1
 91
-1056964608
340
14
 92
       -2
290
     1
 42
0.09
291
     1
 43
0.36
  3
Standard
341
0
 44
0.18
300

342
11
174
     1
178
     1
175
     1
176
     0
 93
-1056964608
 45
0.18
292
     0
297
     0
 46
0.18
343
0
 94
-1056964608
 47
1.0
 49
1.0
140
1.0
293
     1
141
0.0
294
     1
177
     0
142
1.0
295
     0
296
     0
143
0.125
271
     0
272
     9
273
     9
298
     0
  0
MLINESTYLE
  5
18
102
{ACAD_REACTORS
330
17
102
}
330
17
100
AcDbMlineStyle
  2
Standard
 70
     0
  3

 62
   256
 51
90.0
 52
90.0
 71
     2
 49
0.5
 62
   256
  6
BYLAYER
 49
-0.5
 62
   256
  6
BYLAYER
  0
ACDBPLACEHOLDER
  5
F
102
{ACAD_REACTORS
330
E
102
}
330
E
  0
SCALE
  5
12E
102
{ACAD_REACTORS
330
12D
102
}
330
12D
100
AcDbScale
 70
     0
300
1:1
140
1.0
141
1.0
290
     1
  0
SCALE
  5
12F
102
{ACAD_REACTORS
330
12D
102
}
330
12D
100
AcDbScale
 70
     0
300
1:2
140
1.0
141
2.0
290
     0
  0
SCALE
  5
130
102
{ACAD_REACTORS
330
12D
102
}
330
12D
100
AcDbScale
 70
     0
300
1:4
140
1.0
141
4.0
290
     0
  0
SCALE
  5
131
102
{ACAD_REACTORS
330
12D
102
}
330
12D
100
AcDbScale
 70
     0
300
1:5
140
1.0
141
5.0
290
     0
  0
SCALE
  5
132
102
{ACAD_REACTORS
330
12D
102
}
330
12D
100
AcDbScale
 70
     0
300
1:8
140
1.0
141
8.0
290
     0
  0
SCALE
  5
133
102
{ACAD_REACTORS
330
12D
102
}
330
12D
100
AcDbScale
 70
     0
300
1:10
140
1.0
141
10.0
290
     0
  0
SCALE
  5
134
102
{ACAD_REACTORS
330
12D
102
}
330
12D
100
AcDbScale
 70
     0
300
1:16
140
1.0
141
16.0
290
     0
  0
SCALE
  5
135
102
{ACAD_REACTORS
330
12D
102
}
330
12D
100
AcDbScale
 70
     0
300
1:20
140
1.0
141
20.0
290
     0
  0
SCALE
  5
136
102
{ACAD_REACTORS
330
12D
102
}
330
12D
100
AcDbScale
 70
     0
300
1:30
140
1.0
141
30.0
290
     0
  0
SCALE
  5
137
102
{ACAD_REACTORS
330
12D
102
}
330
12D
100
AcDbScale
 70
     0
300
1:40
140
1.0
141
40.0
290
     0
  0
SCALE
  5
138
102
{ACAD_REACTORS
330
12D
102
}
330
12D
100
AcDbScale
 70
     0
300
1:50
140
1.0
141
50.0
290
     0
  0
SCALE
  5
139
102
{ACAD_REACTORS
330
12D
102
}
330
12D
100
AcDbScale
 70
     0
300
1:100
140
1.0
141
100.0
290
     0
  0
SCALE
  5
13A
102
{ACAD_REACTORS
330
12D
102
}
330
12D
100
AcDbScale
 70
     0
300
2:1
140
2.0
141
1.0
290
     0
  0
SCALE
  5
13B
102
{ACAD_REACTORS
330
12D
102
}
330
12D
100
AcDbScale
 70
     0
300
4:1
140
4.0
141
1.0
290
     0
  0
SCALE
  5
13C
102
{ACAD_REACTORS
330
12D
102
}
330
12D
100
AcDbScale
 70
     0
300
8:1
140
8.0
141
1.0
290
     0
  0
SCALE
  5
13D
102
{ACAD_REACTORS
330
12D
102
}
330
12D
100
AcDbScale
 70
     0
300
10:1
140
10.0
141
1.0
290
     0
  0
SCALE
  5
13E
102
{ACAD_REACTORS
330
12D
102
}
330
12D
100
AcDbScale
 70
     0
300
100:1
140
100.0
141
1.0
290
     0
  0
SCALE
  5
13F
102
{ACAD_REACTORS
330
12D
102
}
330
12D
100
AcDbScale
 70
     0
300
1/128" = 1'-0"
140
0.0078125
141
12.0
290
     0
  0
SCALE
  5
140
102
{ACAD_REACTORS
330
12D
102
}
330
12D
100
AcDbScale
 70
     0
300
1/64" = 1'-0"
140
0.015625
141
12.0
290
     0
  0
SCALE
  5
141
102
{ACAD_REACTORS
330
12D
102
}
330
12D
100
AcDbScale
 70
     0
300
1/32" = 1'-0"
140
0.03125
141
12.0
290
     0
  0
SCALE
  5
142
102
{ACAD_REACTORS
330
12D
102
}
330
12D
100
AcDbScale
 70
     0
300
1/16" = 1'-0"
140
0.0625
141
12.0
290
     0
  0
SCALE
  5
143
102
{ACAD_REACTORS
330
12D
102
}
330
12D
100
AcDbScale
 70
     0
300
3/32" = 1'-0"
140
0.09375
141
12.0
290
     0
  0
SCALE
  5
144
102
{ACAD_REACTORS
330
12D
102
}
330
12D
100
AcDbScale
 70
     0
300
1/8" = 1'-0"
140
0.125
141
12.0
290
     0
  0
SCALE
  5
145
102
{ACAD_REACTORS
330
12D
102
}
330
12D
100
AcDbScale
 70
     0
300
3/16" = 1'-0"
140
0.1875
141
12.0
290
     0
  0
SCALE
  5
146
102
{ACAD_REACTORS
330
12D
102
}
330
12D
100
AcDbScale
 70
     0
300
1/4" = 1'-0"
140
0.25
141
12.0
290
     0
  0
SCALE
  5
147
102
{ACAD_REACTORS
330
12D
102
}
330
12D
100
AcDbScale
 70
     0
300
3/8" = 1'-0"
140
0.375
141
12.0
290
     0
  0
SCALE
  5
148
102
{ACAD_REACTORS
330
12D
102
}
330
12D
100
AcDbScale
 70
     0
300
1/2" = 1'-0"
140
0.5
141
12.0
290
     0
  0
SCALE
  5
149
102
{ACAD_REACTORS
330
12D
102
}
330
12D
100
AcDbScale
 70
     0
300
3/4" = 1'-0"
140
0.75
141
12.0
290
     0
  0
SCALE
  5
14A
102
{ACAD_REACTORS
330
12D
102
}
330
12D
100
AcDbScale
 70
     0
300
1" = 1'-0"
140
1.0
141
12.0
290
     0
  0
SCALE
  5
14B
102
{ACAD_REACTORS
330
12D
102
}
330
12D
100
AcDbScale
 70
     0
300
1-1/2" = 1'-0"
140
1.5
141
12.0
290
     0
  0
SCALE
  5
14C
102
{ACAD_REACTORS
330
12D
102
}
330
12D
100
AcDbScale
 70
     0
300
3" = 1'-0"
140
3.0
141
12.0
290
     0
  0
SCALE
  5
14D
102
{ACAD_REACTORS
330
12D
102
}
330
12D
100
AcDbScale
 70
     0
300
6" = 1'-0"
140
6.0
141
12.0
290
     0
  0
SCALE
  5
14E
102
{ACAD_REACTORS
330
12D
102
}
330
12D
100
AcDbScale
 70
     0
300
1'-0" = 1'-0"
140
12.0
141
12.0
290
     0
  0
TABLESTYLE
  5
1BB
102
{ACAD_REACTORS
330
1BA
102
}
102
{ACAD_XDICTIONARY
360
25A
102
}
330
1BA
100
AcDbTableStyle
  3
Standard
 70
     0
 71
     0
 40
0.06
 41
0.06
280
     0
281
     0
  7
Standard
140
0.18
170
     2
 62
     0
 63
   257
283
     0
 90
        4
 91
        0
  1

274
    -2
284
     1
 64
     0
275
    -2
285
     1
 65
     0
276
    -2
286
     1
 66
     0
277
    -2
287
     1
 67
     0
278
    -2
288
     1
 68
     0
279
    -2
289
     1
 69
     0
  7
Standard
140
0.25
170
     5
 62
     0
 63
   257
283
     0
 90
        4
 91
        0
  1

274
    -2
284
     1
 64
     0
275
    -2
285
     1
 65
     0
276
    -2
286
     1
 66
     0
277
    -2
287
     1
 67
     0
278
    -2
288
     1
 68
     0
279
    -2
289
     1
 69
     0
  7
Standard
140
0.18
170
     5
 62
     0
 63
   257
283
     0
 90
        4
 91
        0
  1

274
    -2
284
     1
 64
     0
275
    -2
285
     1
 65
     0
276
    -2
286
     1
 66
     0
277
    -2
287
     1
 67
     0
278
    -2
288
     1
 68
     0
279
    -2
289
     1
 69
     0
  0
VISUALSTYLE
  5
158
102
{ACAD_REACTORS
330
153
102
}
330
153
100
AcDbVisualStyle
  2
2dWireframe
 70
     4
177
     3
291
     0
 70
    58
 90
        0
176
     1
 90
        2
176
     1
 90
        0
176
     1
 90
        0
176
     1
 40
-0.6
176
     1
 40
-30.0
176
     1
 62
     7
176
     1
 90
        1
176
     1
 90
        4
176
     1
 62
     7
176
     1
 62
   257
176
     1
 90
        1
176
     1
 90
        1
176
     1
 40
1.0
176
     1
 90
        0
176
     1
 62
   257
176
     1
 40
1.0
176
     1
 90
        1
176
     1
 90
        6
176
     1
 90
        2
176
     1
 62
     7
176
     1
 90
        5
176
     1
 90
        0
176
     1
 90
        0
176
     1
290
     0
176
     1
 90
        1
176
     1
 40
0.0
176
     1
 90
        0
176
     1
290
     1
176
     1
290
     1
176
     1
290
     0
176
     1
290
     0
176
     1
290
     0
176
     1
290
     0
176
     1
290
     0
176
     1
290
     0
176
     1
290
     0
176
     1
 90
       50
176
     1
 40
0.0
176
     1
 40
1.0
176
     1
 90
        0
176
     1
 62
    18
420
        0
176
     1
 90
       50
176
     1
 90
        3
176
     1
 62
     5
420
      255
176
     1
290
     0
176
     1
 90
       50
176
     1
 90
       50
176
     1
 90
       50
176
     1
290
     0
176
     1
 90
       50
176
     1
 62
   256
176
     0
 40
1.0
176
     0
 90
        2
176
     1
  1
strokes_ogs.tif
176
     1
290
     0
176
     1
 40
1.0
176
     1
 40
1.0
176
     1
  0
VISUALSTYLE
  5
15A
102
{ACAD_REACTORS
330
153
102
}
330
153
100
AcDbVisualStyle
  2
3D Hidden
 70
     6
177
     3
291
     0
 70
    58
 90
        1
176
     1
 90
        2
176
     1
 90
        2
176
     1
 90
        0
176
     1
 40
-0.6
176
     1
 40
-30.0
176
     1
 62
     7
176
     1
 90
        2
176
     1
 90
        2
176
     1
 62
     7
176
     1
 62
   257
176
     1
 90
        2
176
     1
 90
        1
176
     1
 40
40.0
176
     1
 90
        0
176
     1
 62
   257
176
     1
 40
1.0
176
     1
 90
        1
176
     1
 90
        6
176
     1
 90
        2
176
     1
 62
     7
176
     1
 90
        3
176
     1
 90
        0
176
     1
 90
        0
176
     1
290
     0
176
     1
 90
        1
176
     1
 40
0.0
176
     1
 90
        0
176
     1
290
     0
176
     1
290
     1
176
     1
290
     1
176
     1
290
     0
176
     1
290
     0
176
     1
290
     0
176
     1
290
     0
176
     1
290
     0
176
     1
290
     0
176
     1
 90
       50
176
     1
 40
0.0
176
     1
 40
1.0
176
     1
 90
        0
176
     1
 62
    18
420
        0
176
     1
 90
       50
176
     1
 90
        3
176
     1
 62
     5
420
      255
176
     1
290
     0
176
     1
 90
       50
176
     1
 90
       50
176
     1
 90
       50
176
     1
290
     0
176
     1
 90
       50
176
     1
 62
   256
176
     0
 40
1.0
176
     0
 90
        2
176
     1
  1
strokes_ogs.tif
176
     1
290
     0
176
     1
 40
1.0
176
     1
 40
1.0
176
     1
  0
VISUALSTYLE
  5
159
102
{ACAD_REACTORS
330
153
102
}
330
153
100
AcDbVisualStyle
  2
3dWireframe
 70
     5
177
     3
291
     0
 70
    58
 90
        0
176
     1
 90
        2
176
     1
 90
        0
176
     1
 90
        0
176
     1
 40
-0.6
176
     1
 40
-30.0
176
     1
 62
     7
176
     1
 90
        1
176
     1
 90
        4
176
     1
 62
     7
176
     1
 62
   257
176
     1
 90
        1
176
     1
 90
        1
176
     1
 40
1.0
176
     1
 90
        0
176
     1
 62
   257
176
     1
 40
1.0
176
     1
 90
        1
176
     1
 90
        6
176
     1
 90
        2
176
     1
 62
     7
176
     1
 90
        5
176
     1
 90
        0
176
     1
 90
        0
176
     1
290
     0
176
     1
 90
        1
176
     1
 40
0.0
176
     1
 90
        0
176
     1
290
     0
176
     1
290
     1
176
     1
290
     1
176
     1
290
     0
176
     1
290
     0
176
     1
290
     0
176
     1
290
     0
176
     1
290
     0
176
     1
290
     0
176
     1
 90
       50
176
     1
 40
0.0
176
     1
 40
1.0
176
     1
 90
        0
176
     1
 62
    18
420
        0
176
     1
 90
       50
176
     1
 90
        3
176
     1
 62
     5
420
      255
176
     1
290
     0
176
     1
 90
       50
176
     1
 90
       50
176
     1
 90
       50
176
     1
290
     0
176
     1
 90
       50
176
     1
 62
   256
176
     0
 40
1.0
176
     0
 90
        2
176
     1
  1
strokes_ogs.tif
176
     1
290
     0
176
     1
 40
1.0
176
     1
 40
1.0
176
     1
  0
VISUALSTYLE
  5
15B
102
{ACAD_REACTORS
330
153
102
}
330
153
100
AcDbVisualStyle
  2
Basic
 70
     7
177
     3
291
     1
 70
    58
 90
        1
176
     1
 90
        0
176
     1
 90
        1
176
     1
 90
        0
176
     1
 40
-0.6
176
     1
 40
-30.0
176
     1
 62
     7
176
     1
 90
        0
176
     1
 90
        4
176
     1
 62
     7
176
     1
 62
   257
176
     1
 90
        1
176
     1
 90
        1
176
     1
 40
1.0
176
     1
 90
        8
176
     1
 62
     7
176
     1
 40
1.0
176
     1
 90
        1
176
     1
 90
        6
176
     1
 90
        2
176
     1
 62
     7
176
     1
 90
        5
176
     1
 90
        0
176
     1
 90
        0
176
     1
290
     0
176
     1
 90
        1
176
     1
 40
0.0
176
     1
 90
        0
176
     1
290
     0
176
     1
290
     1
176
     1
290
     1
176
     1
290
     0
176
     1
290
     0
176
     1
290
     0
176
     1
290
     0
176
     1
290
     0
176
     1
290
     0
176
     1
 90
       50
176
     1
 40
0.0
176
     1
 40
1.0
176
     1
 90
        0
176
     1
 62
    18
420
        0
176
     1
 90
       50
176
     1
 90
        3
176
     1
 62
     5
420
      255
176
     1
290
     0
176
     1
 90
       50
176
     1
 90
       50
176
     1
 90
       50
176
     1
290
     0
176
     1
 90
       50
176
     1
 62
   256
176
     0
 40
1.0
176
     0
 90
        2
176
     1
  1
strokes_ogs.tif
176
     1
290
     0
176
     1
 40
1.0
176
     1
 40
1.0
176
     1
  0
VISUALSTYLE
  5
15F
102
{ACAD_REACTORS
330
153
102
}
330
153
100
AcDbVisualStyle
  2
Brighten
 70
    12
177
     3
291
     1
 70
    58
 90
        2
176
     1
 90
        2
176
     1
 90
        0
176
     1
 90
        0
176
     1
 40
-0.6
176
     1
 40
-30.0
176
     1
 62
     7
176
     1
 90
        1
176
     1
 90
        4
176
     1
 62
     7
176
     1
 62
   257
176
     1
 90
        1
176
     1
 90
        1
176
     1
 40
1.0
176
     1
 90
        8
176
     1
 62
     7
176
     1
 40
1.0
176
     1
 90
        1
176
     1
 90
        6
176
     1
 90
        2
176
     1
 62
     7
176
     1
 90
        5
176
     1
 90
        0
176
     1
 90
        0
176
     1
290
     0
176
     1
 90
        1
176
     1
 40
50.0
176
     1
 90
        0
176
     1
290
     0
176
     1
290
     1
176
     1
290
     1
176
     1
290
     0
176
     1
290
     0
176
     1
290
     0
176
     1
290
     0
176
     1
290
     0
176
     1
290
     0
176
     1
 90
       50
176
     1
 40
0.0
176
     1
 40
1.0
176
     1
 90
        0
176
     1
 62
    18
420
        0
176
     1
 90
       50
176
     1
 90
        3
176
     1
 62
     5
420
      255
176
     1
290
     0
176
     1
 90
       50
176
     1
 90
       50
176
     1
 90
       50
176
     1
290
     0
176
     1
 90
       50
176
     1
 62
   256
176
     0
 40
1.0
176
     0
 90
        2
176
     1
  1
strokes_ogs.tif
176
     1
290
     0
176
     1
 40
1.0
176
     1
 40
1.0
176
     1
  0
VISUALSTYLE
  5
163
102
{ACAD_REACTORS
330
153
102
}
330
153
100
AcDbVisualStyle
  2
ColorChange
 70
    16
177
     3
291
     1
 70
    58
 90
        2
176
     1
 90
        2
176
     1
 90
        3
176
     1
 90
        0
176
     1
 40
-0.6
176
     1
 40
-30.0
176
     1
 62
     8
176
     1
 90
        1
176
     1
 90
        4
176
     1
 62
     7
176
     1
 62
   257
176
     1
 90
        1
176
     1
 90
        1
176
     1
 40
1.0
176
     1
 90
        8
176
     1
 62
     8
176
     1
 40
1.0
176
     1
 90
        1
176
     1
 90
        6
176
     1
 90
        2
176
     1
 62
     7
176
     1
 90
        5
176
     1
 90
        0
176
     1
 90
        0
176
     1
290
     0
176
     1
 90
        1
176
     1
 40
0.0
176
     1
 90
        0
176
     1
290
     0
176
     1
290
     1
176
     1
290
     1
176
     1
290
     0
176
     1
290
     0
176
     1
290
     0
176
     1
290
     0
176
     1
290
     0
176
     1
290
     0
176
     1
 90
       50
176
     1
 40
0.0
176
     1
 40
1.0
176
     1
 90
        0
176
     1
 62
    18
420
        0
176
     1
 90
       50
176
     1
 90
        3
176
     1
 62
     5
420
      255
176
     1
290
     0
176
     1
 90
       50
176
     1
 90
       50
176
     1
 90
       50
176
     1
290
     0
176
     1
 90
       50
176
     1
 62
   256
176
     0
 40
1.0
176
     0
 90
        2
176
     1
  1
strokes_ogs.tif
176
     1
290
     0
176
     1
 40
1.0
176
     1
 40
1.0
176
     1
  0
VISUALSTYLE
  5
15D
102
{ACAD_REACTORS
330
153
102
}
330
153
100
AcDbVisualStyle
  2
Conceptual
 70
     9
177
     3
291
     0
 70
    58
 90
        3
176
     1
 90
        2
176
     1
 90
        0
176
     1
 90
        0
176
     1
 40
-0.6
176
     1
 40
-30.0
176
     1
 62
     7
176
     1
 90
        2
176
     1
 90
        2
176
     1
 62
     7
176
     1
 62
   257
176
     1
 90
        1
176
     1
 90
        1
176
     1
 40
40.0
176
     1
 90
        8
176
     1
 62
     7
176
     1
 40
1.0
176
     1
 90
        1
176
     1
 90
        6
176
     1
 90
        2
176
     1
 62
     7
176
     1
 90
        3
176
     1
 90
        0
176
     1
 90
        0
176
     1
290
     0
176
     1
 90
        1
176
     1
 40
0.0
176
     1
 90
        0
176
     1
290
     0
176
     1
290
     1
176
     1
290
     1
176
     1
290
     0
176
     1
290
     0
176
     1
290
     0
176
     1
290
     0
176
     1
290
     0
176
     1
290
     0
176
     1
 90
       50
176
     1
 40
0.0
176
     1
 40
1.0
176
     1
 90
        0
176
     1
 62
    18
420
        0
176
     1
 90
       50
176
     1
 90
        3
176
     1
 62
     5
420
      255
176
     1
290
     0
176
     1
 90
       50
176
     1
 90
       50
176
     1
 90
       50
176
     1
290
     0
176
     1
 90
       50
176
     1
 62
   256
176
     0
 40
1.0
176
     0
 90
        2
176
     1
  1
strokes_ogs.tif
176
     1
290
     0
176
     1
 40
1.0
176
     1
 40
1.0
176
     1
  0
VISUALSTYLE
  5
15E
102
{ACAD_REACTORS
330
153
102
}
330
153
100
AcDbVisualStyle
  2
Dim
 70
    11
177
     3
291
     1
 70
    58
 90
        2
176
     1
 90
        2
176
     1
 90
        0
176
     1
 90
        0
176
     1
 40
-0.6
176
     1
 40
-30.0
176
     1
 62
     7
176
     1
 90
        1
176
     1
 90
        4
176
     1
 62
     7
176
     1
 62
   257
176
     1
 90
        1
176
     1
 90
        1
176
     1
 40
1.0
176
     1
 90
        8
176
     1
 62
     7
176
     1
 40
1.0
176
     1
 90
        1
176
     1
 90
        6
176
     1
 90
        2
176
     1
 62
     7
176
     1
 90
        5
176
     1
 90
        0
176
     1
 90
        0
176
     1
290
     0
176
     1
 90
        1
176
     1
 40
-50.0
176
     1
 90
        0
176
     1
290
     0
176
     1
290
     1
176
     1
290
     1
176
     1
290
     0
176
     1
290
     0
176
     1
290
     0
176
     1
290
     0
176
     1
290
     0
176
     1
290
     0
176
     1
 90
       50
176
     1
 40
0.0
176
     1
 40
1.0
176
     1
 90
        0
176
     1
 62
    18
420
        0
176
     1
 90
       50
176
     1
 90
        3
176
     1
 62
     5
420
      255
176
     1
290
     0
176
     1
 90
       50
176
     1
 90
       50
176
     1
 90
       50
176
     1
290
     0
176
     1
 90
       50
176
     1
 62
   256
176
     0
 40
1.0
176
     0
 90
        2
176
     1
  1
strokes_ogs.tif
176
     1
290
     0
176
     1
 40
1.0
176
     1
 40
1.0
176
     1
  0
VISUALSTYLE
  5
1B4
102
{ACAD_REACTORS
330
153
102
}
330
153
100
AcDbVisualStyle
  2
EdgeColorOff
 70
    22
177
     3
291
     1
 70
    58
 90
        2
176
     0
 90
        2
176
     0
 90
        0
176
     0
 90
        0
176
     0
 40
0.6
176
     0
 40
30.0
176
     0
 62
     7
420
 16777215
176
     0
 90
        1
176
     0
 90
        4
176
     0
 62
     7
176
     0
 62
   257
176
     0
 90
        1
176
     0
 90
        1
176
     0
 40
1.0
176
     0
 90
        8
176
     2
 62
     7
176
     0
 40
1.0
176
     0
 90
        1
176
     0
 90
        6
176
     0
 90
        2
176
     0
 62
     7
176
     0
 90
        5
176
     0
 90
        0
176
     0
 90
        0
176
     0
290
     0
176
     0
 90
        1
176
     0
 40
0.0
176
     0
 90
        0
176
     0
290
     0
176
     0
290
     1
176
     0
290
     1
176
     0
290
     0
176
     0
290
     0
176
     0
290
     0
176
     0
290
     0
176
     0
290
     0
176
     0
290
     0
176
     0
 90
       50
176
     0
 40
0.0
176
     0
 40
1.0
176
     0
 90
        0
176
     0
 62
    18
420
        0
176
     0
 90
       50
176
     0
 90
        3
176
     0
 62
     5
420
      255
176
     0
290
     0
176
     0
 90
       50
176
     0
 90
       50
176
     0
 90
       50
176
     0
290
     0
176
     0
 90
       50
176
     0
 62
   256
176
     0
 40
1.0
176
     0
 90
        2
176
     0
  1
strokes_ogs.tif
176
     0
290
     0
176
     0
 40
1.0
176
     0
 40
1.0
176
     0
  0
VISUALSTYLE
  5
162
102
{ACAD_REACTORS
330
153
102
}
330
153
100
AcDbVisualStyle
  2
Facepattern
 70
    15
177
     3
291
     1
 70
    58
 90
        2
176
     1
 90
        2
176
     1
 90
        0
176
     1
 90
        0
176
     1
 40
-0.6
176
     1
 40
-30.0
176
     1
 62
     7
176
     1
 90
        1
176
     1
 90
        4
176
     1
 62
     7
176
     1
 62
   257
176
     1
 90
        1
176
     1
 90
        1
176
     1
 40
1.0
176
     1
 90
        8
176
     1
 62
     7
176
     1
 40
1.0
176
     1
 90
        1
176
     1
 90
        6
176
     1
 90
        2
176
     1
 62
     7
176
     1
 90
        5
176
     1
 90
        0
176
     1
 90
        0
176
     1
290
     0
176
     1
 90
        1
176
     1
 40
0.0
176
     1
 90
        0
176
     1
290
     0
176
     1
290
     1
176
     1
290
     1
176
     1
290
     0
176
     1
290
     0
176
     1
290
     0
176
     1
290
     0
176
     1
290
     0
176
     1
290
     0
176
     1
 90
       50
176
     1
 40
0.0
176
     1
 40
1.0
176
     1
 90
        0
176
     1
 62
    18
420
        0
176
     1
 90
       50
176
     1
 90
        3
176
     1
 62
     5
420
      255
176
     1
290
     0
176
     1
 90
       50
176
     1
 90
       50
176
     1
 90
       50
176
     1
290
     0
176
     1
 90
       50
176
     1
 62
   256
176
     0
 40
1.0
176
     0
 90
        2
176
     1
  1
strokes_ogs.tif
176
     1
290
     0
176
     1
 40
1.0
176
     1
 40
1.0
176
     1
  0
VISUALSTYLE
  5
154
102
{ACAD_REACTORS
330
153
102
}
330
153
100
AcDbVisualStyle
  2
Flat
 70
     0
177
     3
291
     1
 70
    58
 90
        2
176
     1
 90
        1
176
     1
 90
        1
176
     1
 90
        2
176
     1
 40
-0.6
176
     1
 40
30.0
176
     1
 62
     7
176
     1
 90
        0
176
     1
 90
        4
176
     1
 62
     7
176
     1
 62
   257
176
     1
 90
        1
176
     1
 90
        1
176
     1
 40
1.0
176
     1
 90
        8
176
     1
 62
     7
176
     1
 40
1.0
176
     1
 90
        1
176
     1
 90
        6
176
     1
 90
        2
176
     1
 62
     7
176
     1
 90
        5
176
     1
 90
        0
176
     1
 90
        0
176
     1
290
     0
176
     1
 90
       13
176
     1
 40
0.0
176
     1
 90
        0
176
     1
290
     0
176
     1
290
     1
176
     1
290
     1
176
     1
290
     0
176
     1
290
     0
176
     1
290
     0
176
     1
290
     0
176
     1
290
     0
176
     1
290
     0
176
     1
 90
       50
176
     1
 40
0.0
176
     1
 40
1.0
176
     1
 90
        0
176
     1
 62
    18
420
        0
176
     1
 90
       50
176
     1
 90
        3
176
     1
 62
     5
420
      255
176
     1
290
     0
176
     1
 90
       50
176
     1
 90
       50
176
     1
 90
       50
176
     1
290
     0
176
     1
 90
       50
176
     1
 62
   256
176
     0
 40
1.0
176
     0
 90
        2
176
     1
  1
strokes_ogs.tif
176
     1
290
     0
176
     1
 40
1.0
176
     1
 40
1.0
176
     1
  0
VISUALSTYLE
  5
155
102
{ACAD_REACTORS
330
153
102
}
330
153
100
AcDbVisualStyle
  2
FlatWithEdges
 70
     1
177
     3
291
     1
 70
    58
 90
        2
176
     1
 90
        1
176
     1
 90
        1
176
     1
 90
        2
176
     1
 40
-0.6
176
     1
 40
30.0
176
     1
 62
     7
176
     1
 90
        1
176
     1
 90
        4
176
     1
 62
     7
176
     1
 62
   257
176
     1
 90
        1
176
     1
 90
        1
176
     1
 40
1.0
176
     1
 90
        0
176
     1
 62
   257
176
     1
 40
1.0
176
     1
 90
        1
176
     1
 90
        6
176
     1
 90
        2
176
     1
 62
     7
176
     1
 90
        5
176
     1
 90
        0
176
     1
 90
        0
176
     1
290
     0
176
     1
 90
       13
176
     1
 40
0.0
176
     1
 90
        0
176
     1
290
     0
176
     1
290
     1
176
     1
290
     1
176
     1
290
     0
176
     1
290
     0
176
     1
290
     0
176
     1
290
     0
176
     1
290
     0
176
     1
290
     0
176
     1
 90
       50
176
     1
 40
0.0
176
     1
 40
1.0
176
     1
 90
        0
176
     1
 62
    18
420
        0
176
     1
 90
       50
176
     1
 90
        3
176
     1
 62
     5
420
      255
176
     1
290
     0
176
     1
 90
       50
176
     1
 90
       50
176
     1
 90
       50
176
     1
290
     0
176
     1
 90
       50
176
     1
 62
   256
176
     0
 40
1.0
176
     0
 90
        2
176
     1
  1
strokes_ogs.tif
176
     1
290
     0
176
     1
 40
1.0
176
     1
 40
1.0
176
     1
  0
VISUALSTYLE
  5
156
102
{ACAD_REACTORS
330
153
102
}
330
153
100
AcDbVisualStyle
  2
Gouraud
 70
     2
177
     3
291
     1
 70
    58
 90
        2
176
     1
 90
        2
176
     1
 90
        1
176
     1
 90
        2
176
     1
 40
-0.6
176
     1
 40
30.0
176
     1
 62
     7
176
     1
 90
        0
176
     1
 90
        4
176
     1
 62
     7
176
     1
 62
   257
176
     1
 90
        1
176
     1
 90
        1
176
     1
 40
1.0
176
     1
 90
        0
176
     1
 62
     7
176
     1
 40
1.0
176
     1
 90
        1
176
     1
 90
        6
176
     1
 90
        2
176
     1
 62
     7
176
     1
 90
        5
176
     1
 90
        0
176
     1
 90
        0
176
     1
290
     0
176
     1
 90
       13
176
     1
 40
0.0
176
     1
 90
        0
176
     1
290
     0
176
     1
290
     1
176
     1
290
     1
176
     1
290
     0
176
     1
290
     0
176
     1
290
     0
176
     1
290
     0
176
     1
290
     0
176
     1
290
     0
176
     1
 90
       50
176
     1
 40
0.0
176
     1
 40
1.0
176
     1
 90
        0
176
     1
 62
    18
420
        0
176
     1
 90
       50
176
     1
 90
        3
176
     1
 62
     5
420
      255
176
     1
290
     0
176
     1
 90
       50
176
     1
 90
       50
176
     1
 90
       50
176
     1
290
     0
176
     1
 90
       50
176
     1
 62
   256
176
     0
 40
1.0
176
     0
 90
        2
176
     1
  1
strokes_ogs.tif
176
     1
290
     0
176
     1
 40
1.0
176
     1
 40
1.0
176
     1
  0
VISUALSTYLE
  5
157
102
{ACAD_REACTORS
330
153
102
}
330
153
100
AcDbVisualStyle
  2
GouraudWithEdges
 70
     3
177
     3
291
     1
 70
    58
 90
        2
176
     1
 90
        2
176
     1
 90
        1
176
     1
 90
        2
176
     1
 40
-0.6
176
     1
 40
30.0
176
     1
 62
     7
176
     1
 90
        1
176
     1
 90
        4
176
     1
 62
     7
176
     1
 62
   257
176
     1
 90
        1
176
     1
 90
        1
176
     1
 40
1.0
176
     1
 90
        0
176
     1
 62
   257
176
     1
 40
1.0
176
     1
 90
        1
176
     1
 90
        6
176
     1
 90
        2
176
     1
 62
     7
176
     1
 90
        5
176
     1
 90
        0
176
     1
 90
        0
176
     1
290
     0
176
     1
 90
       13
176
     1
 40
0.0
176
     1
 90
        0
176
     1
290
     0
176
     1
290
     1
176
     1
290
     1
176
     1
290
     0
176
     1
290
     0
176
     1
290
     0
176
     1
290
     0
176
     1
290
     0
176
     1
290
     0
176
     1
 90
       50
176
     1
 40
0.0
176
     1
 40
1.0
176
     1
 90
        0
176
     1
 62
    18
420
        0
176
     1
 90
       50
176
     1
 90
        3
176
     1
 62
     5
420
      255
176
     1
290
     0
176
     1
 90
       50
176
     1
 90
       50
176
     1
 90
       50
176
     1
290
     0
176
     1
 90
       50
176
     1
 62
   256
176
     0
 40
1.0
176
     0
 90
        2
176
     1
  1
strokes_ogs.tif
176
     1
290
     0
176
     1
 40
1.0
176
     1
 40
1.0
176
     1
  0
VISUALSTYLE
  5
1B1
102
{ACAD_REACTORS
330
153
102
}
330
153
100
AcDbVisualStyle
  2
Hidden
 70
     6
177
     3
291
     0
 70
    58
 90
        1
176
     1
 90
        2
176
     1
 90
        2
176
     1
 90
        0
176
     1
 40
0.6
176
     1
 40
30.0
176
     1
 62
     7
420
 16777215
176
     1
 90
        2
176
     1
 90
        2
176
     1
 62
     7
176
     1
 62
   257
176
     1
 90
        2
176
     1
 90
        1
176
     1
 40
40.0
176
     1
 90
        0
176
     1
 62
   257
176
     1
 40
1.0
176
     1
 90
        1
176
     1
 90
        6
176
     1
 90
        2
176
     1
 62
     7
176
     1
 90
        3
176
     1
 90
        0
176
     1
 90
        0
176
     1
290
     0
176
     1
 90
        1
176
     1
 40
0.0
176
     1
 90
        0
176
     1
290
     0
176
     1
290
     1
176
     1
290
     1
176
     1
290
     0
176
     1
290
     0
176
     1
290
     0
176
     1
290
     0
176
     1
290
     0
176
     1
290
     0
176
     1
 90
       50
176
     1
 40
0.0
176
     1
 40
1.0
176
     1
 90
        0
176
     1
 62
    18
420
        0
176
     1
 90
       50
176
     1
 90
        3
176
     1
 62
     5
420
      255
176
     1
290
     0
176
     1
 90
       50
176
     1
 90
       50
176
     1
 90
       50
176
     1
290
     0
176
     1
 90
       50
176
     1
 62
   256
176
     0
 40
1.0
176
     0
 90
        2
176
     1
  1
strokes_ogs.tif
176
     1
290
     0
176
     1
 40
1.0
176
     1
 40
1.0
176
     1
  0
VISUALSTYLE
  5
1B2
102
{ACAD_REACTORS
330
153
102
}
330
153
100
AcDbVisualStyle
  2
JitterOff
 70
    20
177
     3
291
     1
 70
    58
 90
        2
176
     0
 90
        2
176
     0
 90
        0
176
     0
 90
        0
176
     0
 40
0.6
176
     0
 40
30.0
176
     0
 62
     7
420
 16777215
176
     0
 90
        1
176
     0
 90
        4
176
     0
 62
     7
176
     0
 62
   257
176
     0
 90
        1
176
     0
 90
        1
176
     0
 40
1.0
176
     0
 90
       10
176
     2
 62
     7
176
     0
 40
1.0
176
     0
 90
        1
176
     0
 90
        6
176
     0
 90
        2
176
     0
 62
     7
176
     0
 90
        5
176
     0
 90
        0
176
     0
 90
        0
176
     0
290
     0
176
     0
 90
        1
176
     0
 40
0.0
176
     0
 90
        0
176
     0
290
     0
176
     0
290
     1
176
     0
290
     1
176
     0
290
     0
176
     0
290
     0
176
     0
290
     0
176
     0
290
     0
176
     0
290
     0
176
     0
290
     0
176
     0
 90
       50
176
     0
 40
0.0
176
     0
 40
1.0
176
     0
 90
        0
176
     0
 62
    18
420
        0
176
     0
 90
       50
176
     0
 90
        3
176
     0
 62
     5
420
      255
176
     0
290
     0
176
     0
 90
       50
176
     0
 90
       50
176
     0
 90
       50
176
     0
290
     0
176
     0
 90
       50
176
     0
 62
   256
176
     0
 40
1.0
176
     0
 90
        2
176
     0
  1
strokes_ogs.tif
176
     0
290
     0
176
     0
 40
1.0
176
     0
 40
1.0
176
     0
  0
VISUALSTYLE
  5
161
102
{ACAD_REACTORS
330
153
102
}
330
153
100
AcDbVisualStyle
  2
Linepattern
 70
    14
177
     3
291
     1
 70
    58
 90
        2
176
     1
 90
        2
176
     1
 90
        0
176
     1
 90
        0
176
     1
 40
-0.6
176
     1
 40
-30.0
176
     1
 62
     7
176
     1
 90
        1
176
     1
 90
        4
176
     1
 62
     7
176
     1
 62
   257
176
     1
 90
        7
176
     1
 90
        7
176
     1
 40
1.0
176
     1
 90
        8
176
     1
 62
     7
176
     1
 40
1.0
176
     1
 90
        1
176
     1
 90
        6
176
     1
 90
        2
176
     1
 62
     7
176
     1
 90
        5
176
     1
 90
        0
176
     1
 90
        0
176
     1
290
     0
176
     1
 90
        1
176
     1
 40
0.0
176
     1
 90
        0
176
     1
290
     0
176
     1
290
     1
176
     1
290
     1
176
     1
290
     0
176
     1
290
     0
176
     1
290
     0
176
     1
290
     0
176
     1
290
     0
176
     1
290
     0
176
     1
 90
       50
176
     1
 40
0.0
176
     1
 40
1.0
176
     1
 90
        0
176
     1
 62
    18
420
        0
176
     1
 90
       50
176
     1
 90
        3
176
     1
 62
     5
420
      255
176
     1
290
     0
176
     1
 90
       50
176
     1
 90
       50
176
     1
 90
       50
176
     1
290
     0
176
     1
 90
       50
176
     1
 62
   256
176
     0
 40
1.0
176
     0
 90
        2
176
     1
  1
strokes_ogs.tif
176
     1
290
     0
176
     1
 40
1.0
176
     1
 40
1.0
176
     1
  0
VISUALSTYLE
  5
1B3
102
{ACAD_REACTORS
330
153
102
}
330
153
100
AcDbVisualStyle
  2
OverhangOff
 70
    21
177
     3
291
     1
 70
    58
 90
        2
176
     0
 90
        2
176
     0
 90
        0
176
     0
 90
        0
176
     0
 40
0.6
176
     0
 40
30.0
176
     0
 62
     7
420
 16777215
176
     0
 90
        1
176
     0
 90
        4
176
     0
 62
     7
176
     0
 62
   257
176
     0
 90
        1
176
     0
 90
        1
176
     0
 40
1.0
176
     0
 90
        9
176
     2
 62
     7
176
     0
 40
1.0
176
     0
 90
        1
176
     0
 90
        6
176
     0
 90
        2
176
     0
 62
     7
176
     0
 90
        5
176
     0
 90
        0
176
     0
 90
        0
176
     0
290
     0
176
     0
 90
        1
176
     0
 40
0.0
176
     0
 90
        0
176
     0
290
     0
176
     0
290
     1
176
     0
290
     1
176
     0
290
     0
176
     0
290
     0
176
     0
290
     0
176
     0
290
     0
176
     0
290
     0
176
     0
290
     0
176
     0
 90
       50
176
     0
 40
0.0
176
     0
 40
1.0
176
     0
 90
        0
176
     0
 62
    18
420
        0
176
     0
 90
       50
176
     0
 90
        3
176
     0
 62
     5
420
      255
176
     0
290
     0
176
     0
 90
       50
176
     0
 90
       50
176
     0
 90
       50
176
     0
290
     0
176
     0
 90
       50
176
     0
 62
   256
176
     0
 40
1.0
176
     0
 90
        2
176
     0
  1
strokes_ogs.tif
176
     0
290
     0
176
     0
 40
1.0
176
     0
 40
1.0
176
     0
  0
VISUALSTYLE
  5
15C
102
{ACAD_REACTORS
330
153
102
}
330
153
100
AcDbVisualStyle
  2
Realistic
 70
     8
177
     3
291
     0
 70
    58
 90
        2
176
     1
 90
        2
176
     1
 90
        0
176
     1
 90
        0
176
     1
 40
-0.6
176
     1
 40
-30.0
176
     1
 62
     7
176
     1
 90
        1
176
     1
 90
        0
176
     1
 62
     7
176
     1
 62
   257
176
     1
 90
        1
176
     1
 90
        1
176
     1
 40
1.0
176
     1
 90
        8
176
     1
 62
     8
176
     1
 40
1.0
176
     1
 90
        1
176
     1
 90
        6
176
     1
 90
        2
176
     1
 62
     7
176
     1
 90
        5
176
     1
 90
        0
176
     1
 90
        0
176
     1
290
     0
176
     1
 90
       13
176
     1
 40
0.0
176
     1
 90
        0
176
     1
290
     0
176
     1
290
     1
176
     1
290
     1
176
     1
290
     0
176
     1
290
     0
176
     1
290
     0
176
     1
290
     0
176
     1
290
     0
176
     1
290
     0
176
     1
 90
       50
176
     1
 40
0.0
176
     1
 40
1.0
176
     1
 90
        0
176
     1
 62
    18
420
        0
176
     1
 90
       50
176
     1
 90
        3
176
     1
 62
     5
420
      255
176
     1
290
     0
176
     1
 90
       50
176
     1
 90
       50
176
     1
 90
       50
176
     1
290
     0
176
     1
 90
       50
176
     1
 62
   256
176
     0
 40
1.0
176
     0
 90
        2
176
     1
  1
strokes_ogs.tif
176
     1
290
     0
176
     1
 40
1.0
176
     1
 40
1.0
176
     1
  0
VISUALSTYLE
  5
1B9
102
{ACAD_REACTORS
330
153
102
}
330
153
100
AcDbVisualStyle
  2
Shaded
 70
    27
177
     3
291
     0
 70
    58
 90
        2
176
     1
 90
        2
176
     1
 90
        1
176
     1
 90
        2
176
     1
 40
0.6
176
     1
 40
30.0
176
     1
 62
     7
420
 16777215
176
     1
 90
        0
176
     1
 90
        4
176
     1
 62
     7
176
     1
 62
   257
176
     1
 90
        1
176
     1
 90
        1
176
     1
 40
1.0
176
     1
 90
        8
176
     1
 62
   257
176
     1
 40
1.0
176
     1
 90
        1
176
     1
 90
        6
176
     1
 90
        2
176
     1
 62
     8
420
  7895160
176
     1
 90
        3
176
     1
 90
        0
176
     1
 90
        0
176
     1
290
     0
176
     1
 90
        5
176
     1
 40
0.0
176
     1
 90
        0
176
     1
290
     0
176
     1
290
     1
176
     1
290
     1
176
     1
290
     0
176
     1
290
     0
176
     1
290
     0
176
     1
290
     0
176
     1
290
     0
176
     1
290
     0
176
     1
 90
       50
176
     1
 40
0.0
176
     1
 40
1.0
176
     1
 90
        0
176
     1
 62
    18
420
        0
176
     1
 90
       50
176
     1
 90
        3
176
     1
 62
     5
420
      255
176
     1
290
     0
176
     1
 90
       50
176
     1
 90
       50
176
     1
 90
       50
176
     1
290
     0
176
     1
 90
       50
176
     1
 62
   256
176
     0
 40
1.0
176
     0
 90
        2
176
     1
  1
strokes_ogs.tif
176
     1
290
     0
176
     1
 40
1.0
176
     1
 40
1.0
176
     1
  0
VISUALSTYLE
  5
1B8
102
{ACAD_REACTORS
330
153
102
}
330
153
100
AcDbVisualStyle
  2
Shaded with edges
 70
    26
177
     3
291
     0
 70
    58
 90
        2
176
     1
 90
        2
176
     1
 90
        1
176
     1
 90
        2
176
     1
 40
0.6
176
     1
 40
30.0
176
     1
 62
     7
420
 16777215
176
     1
 90
        1
176
     1
 90
       10
176
     1
 62
     7
176
     1
 62
   257
176
     1
 90
        2
176
     1
 90
        1
176
     1
 40
1.0
176
     1
 90
        8
176
     1
 62
   257
176
     1
 40
1.0
176
     1
 90
        1
176
     1
 90
        6
176
     1
 90
        2
176
     1
 62
     7
176
     1
 90
        3
176
     1
 90
        0
176
     1
 90
        0
176
     1
290
     0
176
     1
 90
        5
176
     1
 40
0.0
176
     1
 90
        0
176
     1
290
     0
176
     1
290
     1
176
     1
290
     1
176
     1
290
     0
176
     1
290
     0
176
     1
290
     0
176
     1
290
     0
176
     1
290
     0
176
     1
290
     0
176
     1
 90
       50
176
     1
 40
0.0
176
     1
 40
1.0
176
     1
 90
        0
176
     1
 62
    18
420
        0
176
     1
 90
       50
176
     1
 90
        3
176
     1
 62
     5
420
      255
176
     1
290
     0
176
     1
 90
       50
176
     1
 90
       50
176
     1
 90
       50
176
     1
290
     0
176
     1
 90
       50
176
     1
 62
   256
176
     0
 40
1.0
176
     0
 90
        2
176
     1
  1
strokes_ogs.tif
176
     1
290
     0
176
     1
 40
1.0
176
     1
 40
1.0
176
     1
  0
VISUALSTYLE
  5
1B5
102
{ACAD_REACTORS
330
153
102
}
330
153
100
AcDbVisualStyle
  2
Shades of Gray
 70
    23
177
     3
291
     0
 70
    58
 90
        2
176
     1
 90
        2
176
     1
 90
        3
176
     1
 90
        0
176
     1
 40
0.6
176
     1
 40
30.0
176
     1
 62
     7
420
 16777215
176
     1
 90
        2
176
     1
 90
        2
176
     1
 62
     7
176
     1
 62
     7
176
     1
 90
        1
176
     1
 90
        1
176
     1
 40
40.0
176
     1
 90
        8
176
     1
 62
     7
176
     1
 40
1.0
176
     1
 90
        1
176
     1
 90
        6
176
     1
 90
        2
176
     1
 62
     7
176
     1
 90
        3
176
     1
 90
        0
176
     1
 90
        0
176
     1
290
     0
176
     1
 90
        1
176
     1
 40
0.0
176
     1
 90
        0
176
     1
290
     0
176
     1
290
     1
176
     1
290
     1
176
     1
290
     0
176
     1
290
     0
176
     1
290
     0
176
     1
290
     0
176
     1
290
     0
176
     1
290
     0
176
     1
 90
       50
176
     1
 40
0.0
176
     1
 40
1.0
176
     1
 90
        0
176
     1
 62
    18
420
        0
176
     1
 90
       50
176
     1
 90
        3
176
     1
 62
     5
420
      255
176
     1
290
     0
176
     1
 90
       50
176
     1
 90
       50
176
     1
 90
       50
176
     1
290
     0
176
     1
 90
       50
176
     1
 62
   256
176
     0
 40
1.0
176
     0
 90
        2
176
     1
  1
strokes_ogs.tif
176
     1
290
     0
176
     1
 40
1.0
176
     1
 40
1.0
176
     1
  0
VISUALSTYLE
  5
1B6
102
{ACAD_REACTORS
330
153
102
}
330
153
100
AcDbVisualStyle
  2
Sketchy
 70
    24
177
     3
291
     0
 70
    58
 90
        1
176
     1
 90
        2
176
     1
 90
        2
176
     1
 90
        0
176
     1
 40
0.6
176
     1
 40
30.0
176
     1
 62
     7
420
 16777215
176
     1
 90
        2
176
     1
 90
        2
176
     1
 62
     7
176
     1
 62
     7
176
     1
 90
        1
176
     1
 90
        1
176
     1
 40
40.0
176
     1
 90
       11
176
     1
 62
     7
176
     1
 40
1.0
176
     1
 90
        1
176
     1
 90
        6
176
     1
 90
        2
176
     1
 62
     7
176
     1
 90
        6
176
     1
 90
        0
176
     1
 90
        0
176
     1
290
     0
176
     1
 90
        1
176
     1
 40
0.0
176
     1
 90
        0
176
     1
290
     0
176
     1
290
     1
176
     1
290
     1
176
     1
290
     0
176
     1
290
     0
176
     1
290
     0
176
     1
290
     0
176
     1
290
     0
176
     1
290
     0
176
     1
 90
       50
176
     1
 40
0.0
176
     1
 40
1.0
176
     1
 90
        0
176
     1
 62
    18
420
        0
176
     1
 90
       50
176
     1
 90
        3
176
     1
 62
     5
420
      255
176
     1
290
     0
176
     1
 90
       50
176
     1
 90
       50
176
     1
 90
       50
176
     1
290
     0
176
     1
 90
       50
176
     1
 62
   256
176
     0
 40
1.0
176
     0
 90
        2
176
     1
  1
strokes_ogs.tif
176
     1
290
     0
176
     1
 40
1.0
176
     1
 40
1.0
176
     1
  0
VISUALSTYLE
  5
160
102
{ACAD_REACTORS
330
153
102
}
330
153
100
AcDbVisualStyle
  2
Thicken
 70
    13
177
     3
291
     1
 70
    58
 90
        2
176
     1
 90
        2
176
     1
 90
        0
176
     1
 90
        0
176
     1
 40
-0.6
176
     1
 40
-30.0
176
     1
 62
     7
176
     1
 90
        1
176
     1
 90
        4
176
     1
 62
     7
176
     1
 62
   257
176
     1
 90
        1
176
     1
 90
        1
176
     1
 40
1.0
176
     1
 90
       12
176
     1
 62
     7
176
     1
 40
1.0
176
     1
 90
        1
176
     1
 90
        6
176
     1
 90
        2
176
     1
 62
     7
176
     1
 90
        5
176
     1
 90
        0
176
     1
 90
        0
176
     1
290
     0
176
     1
 90
        1
176
     1
 40
0.0
176
     1
 90
        0
176
     1
290
     0
176
     1
290
     1
176
     1
290
     1
176
     1
290
     0
176
     1
290
     0
176
     1
290
     0
176
     1
290
     0
176
     1
290
     0
176
     1
290
     0
176
     1
 90
       50
176
     1
 40
0.0
176
     1
 40
1.0
176
     1
 90
        0
176
     1
 62
    18
420
        0
176
     1
 90
       50
176
     1
 90
        3
176
     1
 62
     5
420
      255
176
     1
290
     0
176
     1
 90
       50
176
     1
 90
       50
176
     1
 90
       50
176
     1
290
     0
176
     1
 90
       50
176
     1
 62
   256
176
     0
 40
1.0
176
     0
 90
        2
176
     1
  1
strokes_ogs.tif
176
     1
290
     0
176
     1
 40
1.0
176
     1
 40
1.0
176
     1
  0
VISUALSTYLE
  5
1B0
102
{ACAD_REACTORS
330
153
102
}
330
153
100
AcDbVisualStyle
  2
Wireframe
 70
     5
177
     3
291
     0
 70
    58
 90
        0
176
     1
 90
        2
176
     1
 90
        0
176
     1
 90
        0
176
     1
 40
0.6
176
     1
 40
30.0
176
     1
 62
     7
420
 16777215
176
     1
 90
        1
176
     1
 90
        4
176
     1
 62
     7
176
     1
 62
   257
176
     1
 90
        1
176
     1
 90
        1
176
     1
 40
1.0
176
     1
 90
        0
176
     1
 62
   257
176
     1
 40
1.0
176
     1
 90
        1
176
     1
 90
        6
176
     1
 90
        2
176
     1
 62
     7
176
     1
 90
        3
176
     1
 90
        0
176
     1
 90
        0
176
     1
290
     0
176
     1
 90
        1
176
     1
 40
0.0
176
     1
 90
        0
176
     1
290
     0
176
     1
290
     1
176
     1
290
     1
176
     1
290
     0
176
     1
290
     0
176
     1
290
     0
176
     1
290
     0
176
     1
290
     0
176
     1
290
     0
176
     1
 90
       50
176
     1
 40
0.0
176
     1
 40
1.0
176
     1
 90
        0
176
     1
 62
    18
420
        0
176
     1
 90
       50
176
     1
 90
        3
176
     1
 62
     5
420
      255
176
     1
290
     0
176
     1
 90
       50
176
     1
 90
       50
176
     1
 90
       50
176
     1
290
     0
176
     1
 90
       50
176
     1
 62
   256
176
     0
 40
1.0
176
     0
 90
        2
176
     1
  1
strokes_ogs.tif
176
     1
290
     0
176
     1
 40
1.0
176
     1
 40
1.0
176
     1
  0
VISUALSTYLE
  5
1B7
102
{ACAD_REACTORS
330
153
102
}
330
153
100
AcDbVisualStyle
  2
X-Ray
 70
    25
177
     3
291
     0
 70
    58
 90
        2
176
     1
 90
        2
176
     1
 90
        1
176
     1
 90
        1
176
     1
 40
0.5
176
     1
 40
30.0
176
     1
 62
     7
420
 16777215
176
     1
 90
        1
176
     1
 90
        0
176
     1
 62
     7
176
     1
 62
   257
176
     1
 90
        1
176
     1
 90
        1
176
     1
 40
1.0
176
     1
 90
        8
176
     1
 62
     7
176
     1
 40
1.0
176
     1
 90
        1
176
     1
 90
        6
176
     1
 90
        2
176
     1
 62
     7
176
     1
 90
        3
176
     1
 90
        0
176
     1
 90
        0
176
     1
290
     0
176
     1
 90
       13
176
     1
 40
0.0
176
     1
 90
        0
176
     1
290
     0
176
     1
290
     1
176
     1
290
     1
176
     1
290
     0
176
     1
290
     0
176
     1
290
     0
176
     1
290
     0
176
     1
290
     0
176
     1
290
     0
176
     1
 90
       50
176
     1
 40
0.0
176
     1
 40
1.0
176
     1
 90
        0
176
     1
 62
    18
420
        0
176
     1
 90
       50
176
     1
 90
        3
176
     1
 62
     5
420
      255
176
     1
290
     0
176
     1
 90
       50
176
     1
 90
       50
176
     1
 90
       50
176
     1
290
     0
176
     1
 90
       50
176
     1
 62
   256
176
     0
 40
1.0
176
     0
 90
        2
176
     1
  1
strokes_ogs.tif
176
     1
290
     0
176
     1
 40
1.0
176
     1
 40
1.0
176
     1
  0
DICTIONARYVAR
  5
1C2
102
{ACAD_REACTORS
330
16F
102
}
330
16F
100
DictionaryVariables
280
     0
  1
1:1
  0
DICTIONARYVAR
  5
1C4
102
{ACAD_REACTORS
330
16F
102
}
330
16F
100
DictionaryVariables
280
     0
  1
Standard
  0
DICTIONARYVAR
  5
1C3
102
{ACAD_REACTORS
330
16F
102
}
330
16F
100
DictionaryVariables
280
     0
  1
Standard
  0
DICTIONARYVAR
  5
173
102
{ACAD_REACTORS
330
16F
102
}
330
16F
100
DictionaryVariables
280
     0
  1
2
  0
DICTIONARYVAR
  5
174
102
{ACAD_REACTORS
330
16F
102
}
330
16F
100
DictionaryVariables
280
     0
  1
1
  0
DICTIONARYVAR
  5
172
102
{ACAD_REACTORS
330
16F
102
}
330
16F
100
DictionaryVariables
280
     0
  1
0
  0
DICTIONARY
  5
25A
330
1BB
100
AcDbDictionary
280
     1
281
     1
  3
ACAD_ROUNDTRIP_2008_TABLESTYLE_CELLSTYLEMAP
360
25B
  0
CELLSTYLEMAP
  5
25B
102
{ACAD_REACTORS
330
25A
102
}
330
25A
100
AcDbCellStyleMap
 90
        3
300
CELLSTYLE
  1
TABLEFORMAT_BEGIN
 90
        5
170
     1
 91
        0
 92
    32768
 62
   257
 93
        1
300
CONTENTFORMAT
  1
CONTENTFORMAT_BEGIN
 90
        0
 91
        0
 92
        4
 93
        0
300

 40
0.0
140
1.0
 94
        5
 62
     0
340
11
144
0.25
309
CONTENTFORMAT_END
171
     1
301
MARGIN
  1
CELLMARGIN_BEGIN
 40
0.06
 40
0.06
 40
0.06
 40
0.06
 40
0.06
 40
0.06
309
CELLMARGIN_END
 94
        6
 95
        1
302
GRIDFORMAT
  1
GRIDFORMAT_BEGIN
 90
        0
 91
        1
 62
     0
 92
       -2
340
14
 93
        0
 40
0.045
309
GRIDFORMAT_END
 95
        2
302
GRIDFORMAT
  1
GRIDFORMAT_BEGIN
 90
        0
 91
        1
 62
     0
 92
       -2
340
14
 93
        0
 40
0.045
309
GRIDFORMAT_END
 95
        4
302
GRIDFORMAT
  1
GRIDFORMAT_BEGIN
 90
        0
 91
        1
 62
     0
 92
       -2
340
14
 93
        0
 40
0.045
309
GRIDFORMAT_END
 95
        8
302
GRIDFORMAT
  1
GRIDFORMAT_BEGIN
 90
        0
 91
        1
 62
     0
 92
       -2
340
14
 93
        0
 40
0.045
309
GRIDFORMAT_END
 95
       16
302
GRIDFORMAT
  1
GRIDFORMAT_BEGIN
 90
        0
 91
        1
 62
     0
 92
       -2
340
14
 93
        0
 40
0.045
309
GRIDFORMAT_END
 95
       32
302
GRIDFORMAT
  1
GRIDFORMAT_BEGIN
 90
        0
 91
        1
 62
     0
 92
       -2
340
14
 93
        0
 40
0.045
309
GRIDFORMAT_END
309
TABLEFORMAT_END
  1
CELLSTYLE_BEGIN
 90
        1
 91
        1
300
_TITLE
309
CELLSTYLE_END
300
CELLSTYLE
  1
TABLEFORMAT_BEGIN
 90
        5
170
     1
 91
        0
 92
        0
 62
   257
 93
        1
300
CONTENTFORMAT
  1
CONTENTFORMAT_BEGIN
 90
        0
 91
        0
 92
        4
 93
        0
300

 40
0.0
140
1.0
 94
        5
 62
     0
340
11
144
0.18
309
CONTENTFORMAT_END
171
     1
301
MARGIN
  1
CELLMARGIN_BEGIN
 40
0.06
 40
0.06
 40
0.06
 40
0.06
 40
0.06
 40
0.06
309
CELLMARGIN_END
 94
        6
 95
        1
302
GRIDFORMAT
  1
GRIDFORMAT_BEGIN
 90
        0
 91
        1
 62
     0
 92
       -2
340
14
 93
        0
 40
0.045
309
GRIDFORMAT_END
 95
        2
302
GRIDFORMAT
  1
GRIDFORMAT_BEGIN
 90
        0
 91
        1
 62
     0
 92
       -2
340
14
 93
        0
 40
0.045
309
GRIDFORMAT_END
 95
        4
302
GRIDFORMAT
  1
GRIDFORMAT_BEGIN
 90
        0
 91
        1
 62
     0
 92
       -2
340
14
 93
        0
 40
0.045
309
GRIDFORMAT_END
 95
        8
302
GRIDFORMAT
  1
GRIDFORMAT_BEGIN
 90
        0
 91
        1
 62
     0
 92
       -2
340
14
 93
        0
 40
0.045
309
GRIDFORMAT_END
 95
       16
302
GRIDFORMAT
  1
GRIDFORMAT_BEGIN
 90
        0
 91
        1
 62
     0
 92
       -2
340
14
 93
        0
 40
0.045
309
GRIDFORMAT_END
 95
       32
302
GRIDFORMAT
  1
GRIDFORMAT_BEGIN
 90
        0
 91
        1
 62
     0
 92
       -2
340
14
 93
        0
 40
0.045
309
GRIDFORMAT_END
309
TABLEFORMAT_END
  1
CELLSTYLE_BEGIN
 90
        2
 91
        1
300
_HEADER
309
CELLSTYLE_END
300
CELLSTYLE
  1
TABLEFORMAT_BEGIN
 90
        5
170
     1
 91
        0
 92
        0
 62
   257
 93
        1
300
CONTENTFORMAT
  1
CONTENTFORMAT_BEGIN
 90
        0
 91
        0
 92
        4
 93
        0
300

 40
0.0
140
1.0
 94
        2
 62
     0
340
11
144
0.18
309
CONTENTFORMAT_END
171
     1
301
MARGIN
  1
CELLMARGIN_BEGIN
 40
0.06
 40
0.06
 40
0.06
 40
0.06
 40
0.06
 40
0.06
309
CELLMARGIN_END
 94
        6
 95
        1
302
GRIDFORMAT
  1
GRIDFORMAT_BEGIN
 90
        0
 91
        1
 62
     0
 92
       -2
340
14
 93
        0
 40
0.045
309
GRIDFORMAT_END
 95
        2
302
GRIDFORMAT
  1
GRIDFORMAT_BEGIN
 90
        0
 91
        1
 62
     0
 92
       -2
340
14
 93
        0
 40
0.045
309
GRIDFORMAT_END
 95
        4
302
GRIDFORMAT
  1
GRIDFORMAT_BEGIN
 90
        0
 91
        1
 62
     0
 92
       -2
340
14
 93
        0
 40
0.045
309
GRIDFORMAT_END
 95
        8
302
GRIDFORMAT
  1
GRIDFORMAT_BEGIN
 90
        0
 91
        1
 62
     0
 92
       -2
340
14
 93
        0
 40
0.045
309
GRIDFORMAT_END
 95
       16
302
GRIDFORMAT
  1
GRIDFORMAT_BEGIN
 90
        0
 91
        1
 62
     0
 92
       -2
340
14
 93
        0
 40
0.045
309
GRIDFORMAT_END
 95
       32
302
GRIDFORMAT
  1
GRIDFORMAT_BEGIN
 90
        0
 91
        1
 62
     0
 92
       -2
340
14
 93
        0
 40
0.045
309
GRIDFORMAT_END
309
TABLEFORMAT_END
  1
CELLSTYLE_BEGIN
 90
        3
 91
        2
300
_DATA
309
CELLSTYLE_END
  0
ENDSEC
  0
EOF
