  0
SECTION
  2
HEADER
  9
$ACADVER
  1
AC1027
  9
$ACADMAINTVER
 70
   105
  9
$DWGCODEPAGE
  3
ANSI_1252
  9
$REQUIREDVERSIONS
160
                 0
  9
$LASTSAVEDBY
  1
matthias.ochs
  9
$INSBASE
 10
0.0
 20
0.0
 30
0.0
  9
$EXTMIN
 10
-78.62134103299921
 20
-66.0575779929821
 30
0.0
  9
$EXTMAX
 10
103.2940995883094
 20
41.23540637346328
 30
0.0
  9
$LIMMIN
 10
-85.513394582
 20
-46.747989224
  9
$LIMMAX
 10
89.549080856
 20
30.810158097
  9
$ORTHOMODE
 70
     0
  9
$REGENMODE
 70
     1
  9
$FILLMODE
 70
     1
  9
$QTEXTMODE
 70
     0
  9
$MIRRTEXT
 70
     1
  9
$LTSCALE
 40
1.0
  9
$ATTMODE
 70
     1
  9
$TEXTSIZE
 40
0.2
  9
$TRACEWID
 40
0.05
  9
$TEXTSTYLE
  7
Standard
  9
$CLAYER
  8
1
  9
$CELTYPE
  6
ByLayer
  9
$CECOLOR
 62
   256
  9
$CELTSCALE
 40
1.0
  9
$DISPSILH
 70
     0
  9
$DIMSCALE
 40
1.0
  9
$DIMASZ
 40
0.18
  9
$DIMEXO
 40
0.0625
  9
$DIMDLI
 40
0.38
  9
$DIMRND
 40
0.0
  9
$DIMDLE
 40
0.0
  9
$DIMEXE
 40
0.18
  9
$DIMTP
 40
0.0
  9
$DIMTM
 40
0.0
  9
$DIMTXT
 40
0.18
  9
$DIMCEN
 40
0.09
  9
$DIMTSZ
 40
0.0
  9
$DIMTOL
 70
     0
  9
$DIMLIM
 70
     0
  9
$DIMTIH
 70
     1
  9
$DIMTOH
 70
     1
  9
$DIMSE1
 70
     0
  9
$DIMSE2
 70
     0
  9
$DIMTAD
 70
     0
  9
$DIMZIN
 70
     0
  9
$DIMBLK
  1

  9
$DIMASO
 70
     1
  9
$DIMSHO
 70
     1
  9
$DIMPOST
  1

  9
$DIMAPOST
  1

  9
$DIMALT
 70
     0
  9
$DIMALTD
 70
     2
  9
$DIMALTF
 40
25.4
  9
$DIMLFAC
 40
1.0
  9
$DIMTOFL
 70
     0
  9
$DIMTVP
 40
0.0
  9
$DIMTIX
 70
     0
  9
$DIMSOXD
 70
     0
  9
$DIMSAH
 70
     0
  9
$DIMBLK1
  1

  9
$DIMBLK2
  1

  9
$DIMSTYLE
  2
Standard
  9
$DIMCLRD
 70
     0
  9
$DIMCLRE
 70
     0
  9
$DIMCLRT
 70
     0
  9
$DIMTFAC
 40
1.0
  9
$DIMGAP
 40
0.09
  9
$DIMJUST
 70
     0
  9
$DIMSD1
 70
     0
  9
$DIMSD2
 70
     0
  9
$DIMTOLJ
 70
     1
  9
$DIMTZIN
 70
     0
  9
$DIMALTZ
 70
     0
  9
$DIMALTTZ
 70
     0
  9
$DIMUPT
 70
     0
  9
$DIMDEC
 70
     4
  9
$DIMTDEC
 70
     4
  9
$DIMALTU
 70
     2
  9
$DIMALTTD
 70
     2
  9
$DIMTXSTY
  7
Standard
  9
$DIMAUNIT
 70
     0
  9
$DIMADEC
 70
     0
  9
$DIMALTRND
 40
0.0
  9
$DIMAZIN
 70
     0
  9
$DIMDSEP
 70
    46
  9
$DIMATFIT
 70
     3
  9
$DIMFRAC
 70
     0
  9
$DIMLDRBLK
  1

  9
$DIMLUNIT
 70
     2
  9
$DIMLWD
 70
    -2
  9
$DIMLWE
 70
    -2
  9
$DIMTMOVE
 70
     2
  9
$DIMFXL
 40
1.0
  9
$DIMFXLON
 70
     0
  9
$DIMJOGANG
 40
0.7853981633974483
  9
$DIMTFILL
 70
     0
  9
$DIMTFILLCLR
 70
     0
  9
$DIMARCSYM
 70
     0
  9
$DIMLTYPE
  6

  9
$DIMLTEX1
  6

  9
$DIMLTEX2
  6

  9
$DIMTXTDIRECTION
 70
     0
  9
$LUNITS
 70
     2
  9
$LUPREC
 70
     4
  9
$SKETCHINC
 40
0.1
  9
$FILLETRAD
 40
0.5
  9
$AUNITS
 70
     2
  9
$AUPREC
 70
     0
  9
$MENU
  1
.
  9
$ELEVATION
 40
0.0
  9
$PELEVATION
 40
0.0
  9
$THICKNESS
 40
0.0
  9
$LIMCHECK
 70
     0
  9
$CHAMFERA
 40
0.5
  9
$CHAMFERB
 40
0.5
  9
$CHAMFERC
 40
1.0
  9
$CHAMFERD
 40
0.0
  9
$SKPOLY
 70
     0
  9
$TDCREATE
 40
2458327.507699387
  9
$TDUCREATE
 40
2458327.46603272
  9
$TDUPDATE
 40
2458571.414404132
  9
$TDUUPDATE
 40
2458571.372737465
  9
$TDINDWG
 40
0.005884537
  9
$TDUSRTIMER
 40
0.0013946412
  9
$USRTIMER
 70
     1
  9
$ANGBASE
 50
0.0
  9
$ANGDIR
 70
     0
  9
$PDMODE
 70
     0
  9
$PDSIZE
 40
0.0
  9
$PLINEWID
 40
0.0
  9
$SPLFRAME
 70
     0
  9
$SPLINETYPE
 70
     6
  9
$SPLINESEGS
 70
     8
  9
$HANDSEED
  5
26F
  9
$SURFTAB1
 70
     6
  9
$SURFTAB2
 70
     6
  9
$SURFTYPE
 70
     6
  9
$SURFU
 70
     6
  9
$SURFV
 70
     6
  9
$UCSBASE
  2

  9
$UCSNAME
  2

  9
$UCSORG
 10
0.0
 20
0.0
 30
0.0
  9
$UCSXDIR
 10
1.0
 20
0.0
 30
0.0
  9
$UCSYDIR
 10
0.0
 20
1.0
 30
0.0
  9
$UCSORTHOREF
  2

  9
$UCSORTHOVIEW
 70
     0
  9
$UCSORGTOP
 10
0.0
 20
0.0
 30
0.0
  9
$UCSORGBOTTOM
 10
0.0
 20
0.0
 30
0.0
  9
$UCSORGLEFT
 10
0.0
 20
0.0
 30
0.0
  9
$UCSORGRIGHT
 10
0.0
 20
0.0
 30
0.0
  9
$UCSORGFRONT
 10
0.0
 20
0.0
 30
0.0
  9
$UCSORGBACK
 10
0.0
 20
0.0
 30
0.0
  9
$PUCSBASE
  2

  9
$PUCSNAME
  2

  9
$PUCSORG
 10
0.0
 20
0.0
 30
0.0
  9
$PUCSXDIR
 10
1.0
 20
0.0
 30
0.0
  9
$PUCSYDIR
 10
0.0
 20
1.0
 30
0.0
  9
$PUCSORTHOREF
  2

  9
$PUCSORTHOVIEW
 70
     0
  9
$PUCSORGTOP
 10
0.0
 20
0.0
 30
0.0
  9
$PUCSORGBOTTOM
 10
0.0
 20
0.0
 30
0.0
  9
$PUCSORGLEFT
 10
0.0
 20
0.0
 30
0.0
  9
$PUCSORGRIGHT
 10
0.0
 20
0.0
 30
0.0
  9
$PUCSORGFRONT
 10
0.0
 20
0.0
 30
0.0
  9
$PUCSORGBACK
 10
0.0
 20
0.0
 30
0.0
  9
$USERI1
 70
     0
  9
$USERI2
 70
     0
  9
$USERI3
 70
     0
  9
$USERI4
 70
     0
  9
$USERI5
 70
     0
  9
$USERR1
 40
0.0
  9
$USERR2
 40
0.0
  9
$USERR3
 40
0.0
  9
$USERR4
 40
0.0
  9
$USERR5
 40
0.0
  9
$WORLDVIEW
 70
     1
  9
$SHADEDGE
 70
     3
  9
$SHADEDIF
 70
    70
  9
$TILEMODE
 70
     1
  9
$MAXACTVP
 70
    64
  9
$PINSBASE
 10
0.0
 20
0.0
 30
0.0
  9
$PLIMCHECK
 70
     0
  9
$PEXTMIN
 10
1.000000000000000E+20
 20
1.000000000000000E+20
 30
1.000000000000000E+20
  9
$PEXTMAX
 10
-1.000000000000000E+20
 20
-1.000000000000000E+20
 30
-1.000000000000000E+20
  9
$PLIMMIN
 10
0.0
 20
0.0
  9
$PLIMMAX
 10
0.0
 20
0.0
  9
$UNITMODE
 70
     0
  9
$VISRETAIN
 70
     1
  9
$PLINEGEN
 70
     0
  9
$PSLTSCALE
 70
     1
  9
$TREEDEPTH
 70
  3020
  9
$CMLSTYLE
  2
Standard
  9
$CMLJUST
 70
     0
  9
$CMLSCALE
 40
1.0
  9
$PROXYGRAPHICS
 70
     1
  9
$MEASUREMENT
 70
     0
  9
$CELWEIGHT
370
    -1
  9
$ENDCAPS
280
     0
  9
$JOINSTYLE
280
     0
  9
$LWDISPLAY
290
     0
  9
$INSUNITS
 70
     0
  9
$HYPERLINKBASE
  1

  9
$STYLESHEET
  1

  9
$XEDIT
290
     1
  9
$CEPSNTYPE
380
     0
  9
$PSTYLEMODE
290
     1
  9
$FINGERPRINTGUID
  2
{7FCB1CD4-D6FA-4ADF-871D-6A9E1F8A8DB5}
  9
$VERSIONGUID
  2
{FAEB1C32-E019-11D5-929B-00C0DF256EC4}
  9
$EXTNAMES
290
     1
  9
$PSVPSCALE
 40
0.0
  9
$OLESTARTUP
290
     0
  9
$SORTENTS
280
   127
  9
$INDEXCTL
280
     0
  9
$HIDETEXT
280
     1
  9
$XCLIPFRAME
280
     2
  9
$HALOGAP
280
     0
  9
$OBSCOLOR
 70
   257
  9
$OBSLTYPE
280
     0
  9
$INTERSECTIONDISPLAY
280
     0
  9
$INTERSECTIONCOLOR
 70
   257
  9
$DIMASSOC
280
     2
  9
$PROJECTNAME
  1

  9
$CAMERADISPLAY
290
     0
  9
$LENSLENGTH
 40
50.0
  9
$CAMERAHEIGHT
 40
0.0
  9
$STEPSPERSEC
 40
2.0
  9
$STEPSIZE
 40
6.0
  9
$3DDWFPREC
 40
2.0
  9
$PSOLWIDTH
 40
0.25
  9
$PSOLHEIGHT
 40
4.0
  9
$LOFTANG1
 40
1.570796326794897
  9
$LOFTANG2
 40
1.570796326794897
  9
$LOFTMAG1
 40
0.0
  9
$LOFTMAG2
 40
0.0
  9
$LOFTPARAM
 70
     7
  9
$LOFTNORMALS
280
     1
  9
$LATITUDE
 40
37.795
  9
$LONGITUDE
 40
-122.394
  9
$NORTHDIRECTION
 40
0.0
  9
$TIMEZONE
 70
 -8000
  9
$LIGHTGLYPHDISPLAY
280
     1
  9
$TILEMODELIGHTSYNCH
280
     1
  9
$SOLIDHIST
280
     0
  9
$SHOWHIST
280
     1
  9
$DWFFRAME
280
     2
  9
$DGNFRAME
280
     2
  9
$REALWORLDSCALE
290
     1
  9
$INTERFERECOLOR
 62
   256
  9
$CSHADOW
280
     0
  9
$SHADOWPLANELOCATION
 40
0.0
  0
ENDSEC
  0
SECTION
  2
CLASSES
  0
CLASS
  1
ACDBDICTIONARYWDFLT
  2
AcDbDictionaryWithDefault
  3
ObjectDBX Classes
 90
        0
 91
       13
280
     0
281
     0
  0
CLASS
  1
SCALE
  2
AcDbScale
  3
ObjectDBX Classes
 90
     1153
 91
       13
280
     0
281
     0
  0
CLASS
  1
VISUALSTYLE
  2
AcDbVisualStyle
  3
ObjectDBX Classes
 90
     4095
 91
       13
280
     0
281
     0
  0
CLASS
  1
MATERIAL
  2
AcDbMaterial
  3
ObjectDBX Classes
 90
     1153
 91
       13
280
     0
281
     0
  0
CLASS
  1
DICTIONARYVAR
  2
AcDbDictionaryVar
  3
ObjectDBX Classes
 90
        0
 91
       13
280
     0
281
     0
  0
CLASS
  1
ACDBPLACEHOLDER
  2
AcDbPlaceHolder
  3
ObjectDBX Classes
 90
        0
 91
        1
280
     0
281
     0
  0
CLASS
  1
LAYOUT
  2
AcDbLayout
  3
ObjectDBX Classes
 90
        0
 91
        1
280
     0
281
     0
  0
CLASS
  1
TABLESTYLE
  2
AcDbTableStyle
  3
ObjectDBX Classes
 90
     4095
 91
       13
280
     0
281
     0
  0
CLASS
  1
MLEADERSTYLE
  2
AcDbMLeaderStyle
  3
ACDB_MLEADERSTYLE_CLASS
 90
     4095
 91
       13
280
     0
281
     0
  0
CLASS
  1
SUN
  2
AcDbSun
  3
SCENEOE
 90
     1153
 91
       13
280
     0
281
     0
  0
CLASS
  1
CELLSTYLEMAP
  2
AcDbCellStyleMap
  3
ObjectDBX Classes
 90
     1152
 91
        4
280
     0
281
     0
  0
ENDSEC
  0
SECTION
  2
TABLES
  0
TABLE
  2
VPORT
  5
8
330
0
100
AcDbSymbolTable
 70
     1
  0
VPORT
  5
193
330
8
100
AcDbSymbolTableRecord
100
AcDbViewportTableRecord
  2
*Active
 70
     0
 10
0.0
 20
0.0
 11
1.0
 21
1.0
 12
92.36117241711142
 22
-83.60578241301641
 13
0.0
 23
0.0
 14
0.5
 24
0.5
 15
0.5
 25
0.5
 16
0.0
 26
0.0
 36
1.0
 17
0.0
 27
0.0
 37
0.0
 40
423.0687818395889
 41
1.70021645021645
 42
50.0
 43
0.0
 44
0.0
 50
0.0
 51
0.0
 71
    16
 72
   100
 73
     1
 74
     3
 75
     0
 76
     0
 77
     0
 78
     0
281
     0
 65
     1
110
0.0
120
0.0
130
0.0
111
1.0
121
0.0
131
0.0
112
0.0
122
1.0
132
0.0
 79
     0
146
0.0
348
1C4
 60
     3
 61
     5
292
     1
282
     1
141
0.0
142
0.0
 63
   256
361
25C
  0
ENDTAB
  0
TABLE
  2
LTYPE
  5
5
330
0
100
AcDbSymbolTable
 70
     8
  0
LTYPE
  5
14
330
5
100
AcDbSymbolTableRecord
100
AcDbLinetypeTableRecord
  2
ByBlock
 70
     0
  3

 72
    65
 73
     0
 40
0.0
  0
LTYPE
  5
15
330
5
100
AcDbSymbolTableRecord
100
AcDbLinetypeTableRecord
  2
ByLayer
 70
     0
  3

 72
    65
 73
     0
 40
0.0
  0
LTYPE
  5
16
330
5
100
AcDbSymbolTableRecord
100
AcDbLinetypeTableRecord
  2
Continuous
 70
     0
  3
Solid line
 72
    65
 73
     0
 40
0.0
  0
LTYPE
  5
20
330
5
100
AcDbSymbolTableRecord
100
AcDbLinetypeTableRecord
  2
PUNKT
 70
     0
  3
..............
 72
    65
 73
     2
 40
1.5
 49
0.7
 74
     0
 49
-0.8
 74
     0
  0
LTYPE
  5
21
330
5
100
AcDbSymbolTableRecord
100
AcDbLinetypeTableRecord
  2
GESTRICHELT
 70
     0
  3
-- -- -- -- --
 72
    65
 73
     7
 40
2.8
 49
0.9
 74
     0
 49
0.0
 74
     0
 49
0.9
 74
     0
 49
0.0
 74
     0
 49
0.2
 74
     0
 49
0.0
 74
     0
 49
-0.8
 74
     0
  0
LTYPE
  5
22
330
5
100
AcDbSymbolTableRecord
100
AcDbLinetypeTableRecord
  2
STRICHPUNKT
 70
     0
  3
--.--.--.--.--
 72
    65
 73
     4
 40
8.8
 49
5.5
 74
     0
 49
-1.3
 74
     0
 49
0.7
 74
     0
 49
-1.3
 74
     0
  0
LTYPE
  5
25
330
5
100
AcDbSymbolTableRecord
100
AcDbLinetypeTableRecord
  2
PHANTOM
 70
     0
  3
--..--..--..--
 72
    65
 73
     6
 40
14.2
 49
7.0
 74
     0
 49
-1.8
 74
     0
 49
0.9
 74
     0
 49
-1.8
 74
     0
 49
0.9
 74
     0
 49
-1.8
 74
     0
  0
LTYPE
  5
20B
330
5
100
AcDbSymbolTableRecord
100
AcDbLinetypeTableRecord
  2
DASH
 70
     0
  3
DASH _ _ _ _ _
 72
    65
 73
     2
 40
0.75
 49
0.4
 74
     0
 49
-0.35
 74
     0
  0
LTYPE
  5
20C
330
5
100
AcDbSymbolTableRecord
100
AcDbLinetypeTableRecord
  2
LONGDASH_DASH
 70
     0
  3
LONGDASH_DASH __ . __ . __
 72
    65
 73
     4
 40
0.85
 49
0.4
 74
     0
 49
-0.2
 74
     0
 49
0.05
 74
     0
 49
-0.2
 74
     0
  0
LTYPE
  5
20D
330
5
100
AcDbSymbolTableRecord
100
AcDbLinetypeTableRecord
  2
LONGDASH_DASH_DASH
 70
     0
  3
LONGDASH_DASH_DASH __ . . __ . . __
 72
    65
 73
     6
 40
1.1
 49
0.4
 74
     0
 49
-0.2
 74
     0
 49
0.05
 74
     0
 49
-0.2
 74
     0
 49
0.05
 74
     0
 49
-0.2
 74
     0
  0
ENDTAB
  0
TABLE
  2
LAYER
  5
2
102
{ACAD_XDICTIONARY
360
22A
102
}
330
0
100
AcDbSymbolTable
 70
    15
  0
LAYER
  5
1D5
330
2
100
AcDbSymbolTableRecord
100
AcDbLayerTableRecord
  2
200
 70
     0
 62
     2
  6
Continuous
370
    50
390
F
347
1D3
348
0
  0
LAYER
  5
20E
330
2
100
AcDbSymbolTableRecord
100
AcDbLayerTableRecord
  2
0
 70
     0
 62
     1
  6
Continuous
370
    -3
390
F
347
1D3
348
0
  0
LAYER
  5
20F
330
2
100
AcDbSymbolTableRecord
100
AcDbLayerTableRecord
  2
1
 70
     0
 62
     4
  6
Continuous
370
    50
390
F
347
1D3
348
0
  0
LAYER
  5
210
330
2
100
AcDbSymbolTableRecord
100
AcDbLayerTableRecord
  2
2
 70
     0
 62
     7
  6
Continuous
370
    25
390
F
347
1D3
348
0
  0
LAYER
  5
211
330
2
100
AcDbSymbolTableRecord
100
AcDbLayerTableRecord
  2
3
 70
     0
 62
     1
  6
DASH
370
    35
390
F
347
1D3
348
0
  0
LAYER
  5
212
330
2
100
AcDbSymbolTableRecord
100
AcDbLayerTableRecord
  2
4
 70
     0
 62
     2
  6
LONGDASH_DASH
370
    25
390
F
347
1D3
348
0
  0
LAYER
  5
213
330
2
100
AcDbSymbolTableRecord
100
AcDbLayerTableRecord
  2
6
 70
     0
 62
     5
  6
Continuous
370
    -3
390
F
347
1D3
348
0
  0
LAYER
  5
214
330
2
100
AcDbSymbolTableRecord
100
AcDbLayerTableRecord
  2
CUT
 70
     0
 62
     1
  6
Continuous
370
    25
390
F
347
1D3
348
0
  0
LAYER
  5
215
330
2
100
AcDbSymbolTableRecord
100
AcDbLayerTableRecord
  2
NOCUT
 70
     0
 62
     7
  6
Continuous
370
    25
390
F
347
1D3
348
0
  0
LAYER
  5
216
330
2
100
AcDbSymbolTableRecord
100
AcDbLayerTableRecord
  2
SK1
 70
     0
 62
     4
  6
Continuous
370
    50
390
F
347
1D3
348
0
  0
LAYER
  5
217
330
2
100
AcDbSymbolTableRecord
100
AcDbLayerTableRecord
  2
SK2
 70
     0
 62
     7
  6
Continuous
370
    25
390
F
347
1D3
348
0
  0
LAYER
  5
218
330
2
100
AcDbSymbolTableRecord
100
AcDbLayerTableRecord
  2
SK3
 70
     0
 62
     1
  6
DASH
370
    35
390
F
347
1D3
348
0
  0
LAYER
  5
219
330
2
100
AcDbSymbolTableRecord
100
AcDbLayerTableRecord
  2
SK4
 70
     0
 62
     2
  6
LONGDASH_DASH
370
    25
390
F
347
1D3
348
0
  0
LAYER
  5
21A
330
2
100
AcDbSymbolTableRecord
100
AcDbLayerTableRecord
  2
SK6
 70
     0
 62
     5
  6
Continuous
370
    -3
390
F
347
1D3
348
0
  0
LAYER
  5
21B
330
2
100
AcDbSymbolTableRecord
100
AcDbLayerTableRecord
  2
INFTOTAL
 70
     0
 62
     9
  6
Continuous
370
    18
390
F
347
1D3
348
0
  0
ENDTAB
  0
TABLE
  2
STYLE
  5
3
330
0
100
AcDbSymbolTable
 70
     2
  0
STYLE
  5
11
330
3
100
AcDbSymbolTableRecord
100
AcDbTextStyleTableRecord
  2
Standard
 70
     0
 40
0.0
 41
1.0
 50
0.0
 71
     0
 42
0.2
  3
txt
  4

  0
STYLE
  5
1D4
330
3
100
AcDbSymbolTableRecord
100
AcDbTextStyleTableRecord
  2
BMG_Text
 70
     0
 40
3.5
 41
1.0
 50
0.0
 71
     0
 42
0.2
  3
monos.ttf
  4

1001
ACAD
1000
Monospac821 BT
1071
       49
  0
ENDTAB
  0
TABLE
  2
VIEW
  5
6
330
0
100
AcDbSymbolTable
 70
     0
  0
ENDTAB
  0
TABLE
  2
UCS
  5
7
330
0
100
AcDbSymbolTable
 70
     0
  0
ENDTAB
  0
TABLE
  2
APPID
  5
9
330
0
100
AcDbSymbolTable
 70
     1
  0
APPID
  5
12
330
9
100
AcDbSymbolTableRecord
100
AcDbRegAppTableRecord
  2
ACAD
 70
     0
  0
ENDTAB
  0
TABLE
  2
DIMSTYLE
  5
A
330
0
100
AcDbSymbolTable
 70
     1
100
AcDbDimStyleTable
  0
DIMSTYLE
105
28
330
A
100
AcDbSymbolTableRecord
100
AcDbDimStyleTableRecord
  2
Standard
 70
     0
178
     0
340
11
  0
ENDTAB
  0
TABLE
  2
BLOCK_RECORD
  5
1
330
0
100
AcDbSymbolTable
 70
     0
  0
BLOCK_RECORD
  5
1D
330
1
100
AcDbSymbolTableRecord
100
AcDbBlockTableRecord
  2
*Model_Space
340
1E
 70
     0
280
     1
281
     0
  0
BLOCK_RECORD
  5
1B
330
1
100
AcDbSymbolTableRecord
100
AcDbBlockTableRecord
  2
*Paper_Space
340
1C
 70
     0
280
     1
281
     0
  0
ENDTAB
  0
ENDSEC
  0
SECTION
  2
BLOCKS
  0
BLOCK
  5
1BD
330
1D
100
AcDbEntity
  8
0
100
AcDbBlockBegin
  2
*Model_Space
 70
     0
 10
0.0
 20
0.0
 30
0.0
  3
*Model_Space
  1

  0
ENDBLK
  5
1BE
330
1D
100
AcDbEntity
  8
0
100
AcDbBlockEnd
  0
BLOCK
  5
1BB
330
1B
100
AcDbEntity
 67
     1
  8
0
100
AcDbBlockBegin
  2
*Paper_Space
 70
     0
 10
0.0
 20
0.0
 30
0.0
  3
*Paper_Space
  1

  0
ENDBLK
  5
1BC
330
1B
100
AcDbEntity
 67
     1
  8
0
100
AcDbBlockEnd
  0
ENDSEC
  0
SECTION
  2
ENTITIES
  0
LINE
  5
29
330
1D
100
AcDbEntity
  8
1
100
AcDbLine
 10
0.5
 20
19.975
 30
0.0
 11
0.0
 21
19.475
 31
0.0
  0
LINE
  5
2A
330
1D
100
AcDbEntity
  8
1
100
AcDbLine
 10
0.0
 20
-19.475
 30
0.0
 11
0.5
 21
-19.975
 31
0.0
  0
LINE
  5
2B
330
1D
100
AcDbEntity
  8
1
100
AcDbLine
 10
19.57
 20
-19.975
 30
0.0
 11
19.97
 21
-19.575
 31
0.0
  0
LINE
  5
2C
330
1D
100
AcDbEntity
  8
1
100
AcDbLine
 10
19.97
 20
19.575
 30
0.0
 11
19.57
 21
19.975
 31
0.0
  0
LINE
  5
2D
330
1D
100
AcDbEntity
  8
1
100
AcDbLine
 10
18.104123402
 20
-19.975
 30
0.0
 11
19.57
 21
-19.975
 31
0.0
  0
LINE
  5
2E
330
1D
100
AcDbEntity
  8
1
100
AcDbLine
 10
19.57
 20
19.975
 30
0.0
 11
18.104123402
 21
19.975
 31
0.0
  0
LINE
  5
2F
330
1D
100
AcDbEntity
  8
1
100
AcDbLine
 10
0.5
 20
-19.975
 30
0.0
 11
13.935876598
 21
-19.975
 31
0.0
  0
LINE
  5
30
330
1D
100
AcDbEntity
  8
1
100
AcDbLine
 10
13.935876598
 20
19.975
 30
0.0
 11
0.5
 21
19.975
 31
0.0
  0
LINE
  5
31
330
1D
100
AcDbEntity
  8
1
100
AcDbLine
 10
18.104123402
 20
19.975
 30
0.0
 11
17.954123402
 21
19.825
 31
0.0
  0
LINE
  5
32
330
1D
100
AcDbEntity
  8
1
100
AcDbLine
 10
17.954123402
 20
-19.825
 30
0.0
 11
18.104123402
 21
-19.975
 31
0.0
  0
LINE
  5
33
330
1D
100
AcDbEntity
  8
1
100
AcDbLine
 10
13.935876598
 20
-19.975
 30
0.0
 11
14.085876598
 21
-19.825
 31
0.0
  0
LINE
  5
34
330
1D
100
AcDbEntity
  8
1
100
AcDbLine
 10
14.085876598
 20
19.825
 30
0.0
 11
13.935876598
 21
19.975
 31
0.0
  0
LINE
  5
35
330
1D
100
AcDbEntity
  8
1
100
AcDbLine
 10
17.954123402
 20
19.825
 30
0.0
 11
17.0575
 21
18.272002713
 31
0.0
  0
LINE
  5
36
330
1D
100
AcDbEntity
  8
1
100
AcDbLine
 10
17.0575
 20
-18.272002713
 30
0.0
 11
17.954123402
 21
-19.825
 31
0.0
  0
LINE
  5
37
330
1D
100
AcDbEntity
  8
1
100
AcDbLine
 10
14.085876598
 20
-19.825
 30
0.0
 11
14.9825
 21
-18.272002713
 31
0.0
  0
LINE
  5
38
330
1D
100
AcDbEntity
  8
1
100
AcDbLine
 10
14.9825
 20
18.272002713
 30
0.0
 11
14.085876598
 21
19.825
 31
0.0
  0
ARC
  5
39
330
1D
100
AcDbEntity
  8
1
100
AcDbCircle
 10
15.7325
 20
-18.125
 30
0.0
 40
0.75
100
AcDbArc
 50
90.0
 51
180.0
  0
ARC
  5
3A
330
1D
100
AcDbEntity
  8
1
100
AcDbCircle
 10
15.7325
 20
18.125
 30
0.0
 40
0.75
100
AcDbArc
 50
180.0
 51
270.0
  0
ARC
  5
3B
330
1D
100
AcDbEntity
  8
1
100
AcDbCircle
 10
16.3075
 20
-18.125
 30
0.0
 40
0.75
100
AcDbArc
 50
0.0
 51
90.0
  0
ARC
  5
3C
330
1D
100
AcDbEntity
  8
1
100
AcDbCircle
 10
16.3075
 20
18.125
 30
0.0
 40
0.75
100
AcDbArc
 50
270.0
 51
0.0
  0
LINE
  5
3D
330
1D
100
AcDbEntity
  8
1
100
AcDbLine
 10
15.7325
 20
-17.375
 30
0.0
 11
16.3075
 21
-17.375
 31
0.0
  0
LINE
  5
3E
330
1D
100
AcDbEntity
  8
1
100
AcDbLine
 10
16.3075
 20
17.375
 30
0.0
 11
15.7325
 21
17.375
 31
0.0
  0
ARC
  5
3F
330
1D
100
AcDbEntity
  8
1
100
AcDbCircle
 10
21.47
 20
-16.85
 30
0.0
 40
1.5
100
AcDbArc
 50
90.0
 51
180.0
  0
ARC
  5
40
330
1D
100
AcDbEntity
  8
1
100
AcDbCircle
 10
21.47
 20
16.85
 30
0.0
 40
1.5
100
AcDbArc
 50
180.0
 51
270.0
  0
ARC
  5
41
330
1D
100
AcDbEntity
  8
SK1
100
AcDbCircle
 10
-0.23
 20
-15.426943015
 30
0.0
 40
0.5
100
AcDbArc
 50
62.612892497
 51
105.0
  0
ARC
  5
42
330
1D
100
AcDbEntity
  8
SK1
100
AcDbCircle
 10
-0.23
 20
15.426943015
 30
0.0
 40
0.5
100
AcDbArc
 50
255.0
 51
297.387107503
  0
LINE
  5
43
330
1D
100
AcDbEntity
  8
1
100
AcDbLine
 10
37.817927406
 20
15.5
 30
0.0
 11
23.12
 21
15.5
 31
0.0
  0
LINE
  5
44
330
1D
100
AcDbEntity
  8
1
100
AcDbLine
 10
23.12
 20
-15.5
 30
0.0
 11
37.817927406
 21
-15.5
 31
0.0
  0
LINE
  5
45
330
1D
100
AcDbEntity
  8
1
100
AcDbLine
 10
37.817927406
 20
-15.5
 30
0.0
 11
38.02
 21
-15.15
 31
0.0
  0
LINE
  5
46
330
1D
100
AcDbEntity
  8
1
100
AcDbLine
 10
38.02
 20
15.15
 30
0.0
 11
37.817927406
 21
15.5
 31
0.0
  0
LINE
  5
47
330
1D
100
AcDbEntity
  8
1
100
AcDbLine
 10
23.12
 20
15.5
 30
0.0
 11
22.97
 21
15.35
 31
0.0
  0
LINE
  5
48
330
1D
100
AcDbEntity
  8
1
100
AcDbLine
 10
22.97
 20
-15.35
 30
0.0
 11
23.12
 21
-15.5
 31
0.0
  0
LINE
  5
49
330
1D
100
AcDbEntity
  8
1
100
AcDbLine
 10
21.47
 20
-15.35
 30
0.0
 11
22.97
 21
-15.35
 31
0.0
  0
LINE
  5
4A
330
1D
100
AcDbEntity
  8
1
100
AcDbLine
 10
22.97
 20
15.35
 30
0.0
 11
21.47
 21
15.35
 31
0.0
  0
LINE
  5
4B
330
1D
100
AcDbEntity
  8
SK1
100
AcDbLine
 10
-1.211523116
 20
15.172303251
 30
0.0
 11
-19.120029954
 21
14.275083469
 31
0.0
  0
LINE
  5
4C
330
1D
100
AcDbEntity
  8
SK1
100
AcDbLine
 10
-19.120029954
 20
-14.275083469
 30
0.0
 11
-1.211523116
 21
-15.172303251
 31
0.0
  0
LINE
  5
4D
330
1D
100
AcDbEntity
  8
SK1
100
AcDbLine
 10
-1.211523116
 20
-15.172303251
 30
0.0
 11
-0.359409523
 21
-14.943980102
 31
0.0
  0
LINE
  5
4E
330
1D
100
AcDbEntity
  8
SK1
100
AcDbLine
 10
-0.359409523
 20
14.943980102
 30
0.0
 11
-1.211523116
 21
15.172303251
 31
0.0
  0
LINE
  5
4F
330
1D
100
AcDbEntity
  8
1
100
AcDbLine
 10
39.62
 20
-15.15
 30
0.0
 11
40.0
 21
-14.7
 31
0.0
  0
LINE
  5
50
330
1D
100
AcDbEntity
  8
1
100
AcDbLine
 10
40.0
 20
14.7
 30
0.0
 11
39.62
 21
15.15
 31
0.0
  0
LINE
  5
51
330
1D
100
AcDbEntity
  8
1
100
AcDbLine
 10
39.62
 20
15.15
 30
0.0
 11
38.02
 21
15.15
 31
0.0
  0
LINE
  5
52
330
1D
100
AcDbEntity
  8
1
100
AcDbLine
 10
38.02
 20
-15.15
 30
0.0
 11
39.62
 21
-15.15
 31
0.0
  0
ARC
  5
53
330
1D
100
AcDbEntity
  8
SK1
100
AcDbCircle
 10
-19.08
 20
13.476085595
 30
0.0
 40
0.8
100
AcDbArc
 50
92.86813194100002
 51
167.856748693
  0
ARC
  5
54
330
1D
100
AcDbEntity
  8
SK1
100
AcDbCircle
 10
-19.08
 20
-13.476085595
 30
0.0
 40
0.8
100
AcDbArc
 50
192.143251307
 51
267.131868059
  0
ARC
  5
55
330
1D
100
AcDbEntity
  8
SK1
100
AcDbCircle
 10
-18.93
 20
-13.460822511
 30
0.0
 40
0.95
100
AcDbArc
 50
180.0
 51
191.140106377
  0
ARC
  5
56
330
1D
100
AcDbEntity
  8
SK1
100
AcDbCircle
 10
-18.93
 20
13.460822511
 30
0.0
 40
0.95
100
AcDbArc
 50
168.859893623
 51
180.0
  0
LINE
  5
57
330
1D
100
AcDbEntity
  8
1
100
AcDbLine
 10
0.5
 20
-19.975
 30
0.0
 11
0.5
 21
19.975
 31
0.0
  0
LINE
  5
58
330
1D
100
AcDbEntity
  8
1
100
AcDbLine
 10
0.0
 20
-19.475
 30
0.0
 11
0.0
 21
19.475
 31
0.0
  0
LINE
  5
59
330
1D
100
AcDbEntity
  8
1
100
AcDbLine
 10
19.57
 20
0.0
 30
0.0
 11
19.57
 21
-19.975
 31
0.0
  0
LINE
  5
5A
330
1D
100
AcDbEntity
  8
1
100
AcDbLine
 10
19.57
 20
19.975
 30
0.0
 11
19.57
 21
16.080364579
 31
0.0
  0
LINE
  5
5B
330
1D
100
AcDbEntity
  8
1
100
AcDbLine
 10
19.57
 20
11.85
 30
0.0
 11
19.57
 21
0.0
 31
0.0
  0
LINE
  5
5C
330
1D
100
AcDbEntity
  8
1
100
AcDbLine
 10
19.97
 20
0.0
 30
0.0
 11
19.97
 21
-19.575
 31
0.0
  0
LINE
  5
5D
330
1D
100
AcDbEntity
  8
1
100
AcDbLine
 10
19.97
 20
19.575
 30
0.0
 11
19.97
 21
0.0
 31
0.0
  0
LINE
  5
5E
330
1D
100
AcDbEntity
  8
1
100
AcDbLine
 10
18.104123402
 20
19.975
 30
0.0
 11
18.104123402
 21
16.080364579
 31
0.0
  0
LINE
  5
5F
330
1D
100
AcDbEntity
  8
1
100
AcDbLine
 10
18.104123402
 20
11.85
 30
0.0
 11
18.104123402
 21
-19.975
 31
0.0
  0
LINE
  5
60
330
1D
100
AcDbEntity
  8
1
100
AcDbLine
 10
13.935876598
 20
0.0
 30
0.0
 11
13.935876598
 21
11.85
 31
0.0
  0
LINE
  5
61
330
1D
100
AcDbEntity
  8
1
100
AcDbLine
 10
13.935876598
 20
16.080364579
 30
0.0
 11
13.935876598
 21
19.975
 31
0.0
  0
LINE
  5
62
330
1D
100
AcDbEntity
  8
1
100
AcDbLine
 10
13.935876598
 20
-19.975
 30
0.0
 11
13.935876598
 21
0.0
 31
0.0
  0
LINE
  5
63
330
1D
100
AcDbEntity
  8
1
100
AcDbLine
 10
17.0575
 20
-18.272002713
 30
0.0
 11
17.0575
 21
11.85
 31
0.0
  0
LINE
  5
64
330
1D
100
AcDbEntity
  8
1
100
AcDbLine
 10
17.0575
 20
13.908399733
 30
0.0
 11
17.0575
 21
18.272002713
 31
0.0
  0
LINE
  5
65
330
1D
100
AcDbEntity
  8
1
100
AcDbLine
 10
14.9825
 20
18.272002713
 30
0.0
 11
14.9825
 21
13.7147047
 31
0.0
  0
LINE
  5
66
330
1D
100
AcDbEntity
  8
1
100
AcDbLine
 10
14.9825
 20
11.85
 30
0.0
 11
14.9825
 21
-18.272002713
 31
0.0
  0
LINE
  5
67
330
1D
100
AcDbEntity
  8
1
100
AcDbLine
 10
23.12
 20
-15.5
 30
0.0
 11
23.12
 21
15.5
 31
0.0
  0
CIRCLE
  5
68
330
1D
100
AcDbEntity
  8
1
100
AcDbCircle
 10
31.970143883
 20
0.000833421
 30
0.0
 40
3.099856229
  0
LINE
  5
69
330
1D
100
AcDbEntity
  8
1
100
AcDbLine
 10
37.817927406
 20
0.0
 30
0.0
 11
37.817927406
 21
15.5
 31
0.0
  0
LINE
  5
6A
330
1D
100
AcDbEntity
  8
1
100
AcDbLine
 10
37.817927406
 20
-15.5
 30
0.0
 11
37.817927406
 21
0.0
 31
0.0
  0
LINE
  5
6B
330
1D
100
AcDbEntity
  8
1
100
AcDbLine
 10
38.02
 20
15.15
 30
0.0
 11
38.02
 21
-15.15
 31
0.0
  0
LINE
  5
6C
330
1D
100
AcDbEntity
  8
SK1
100
AcDbLine
 10
-1.211523116
 20
15.172303251
 30
0.0
 11
-1.211523116
 21
-15.172303251
 31
0.0
  0
LINE
  5
6D
330
1D
100
AcDbEntity
  8
1
100
AcDbLine
 10
40.0
 20
14.7
 30
0.0
 11
40.0
 21
-14.7
 31
0.0
  0
LINE
  5
6E
330
1D
100
AcDbEntity
  8
1
100
AcDbLine
 10
39.62
 20
15.15
 30
0.0
 11
39.62
 21
-15.15
 31
0.0
  0
LINE
  5
6F
330
1D
100
AcDbEntity
  8
SK1
100
AcDbLine
 10
-19.88
 20
0.0
 30
0.0
 11
-19.88
 21
13.460822511
 31
0.0
  0
LINE
  5
70
330
1D
100
AcDbEntity
  8
SK1
100
AcDbLine
 10
-19.88
 20
-13.460822511
 30
0.0
 11
-19.88
 21
0.0
 31
0.0
  0
LINE
  5
71
330
1D
100
AcDbEntity
  8
SK3
100
AcDbLine
 10
-10.555029069
 20
0.0
 30
0.0
 11
-10.555029069
 21
-12.656846446
 31
0.0
  0
LINE
  5
72
330
1D
100
AcDbEntity
  8
SK3
100
AcDbLine
 10
-10.555029069
 20
12.656846446
 30
0.0
 11
-10.555029069
 21
0.0
 31
0.0
  0
LINE
  5
73
330
1D
100
AcDbEntity
  8
SK3
100
AcDbLine
 10
-0.03
 20
0.0
 30
0.0
 11
-0.03
 21
10.521
 31
0.0
  0
LINE
  5
74
330
1D
100
AcDbEntity
  8
SK3
100
AcDbLine
 10
-0.03
 20
-10.521
 30
0.0
 11
-0.03
 21
0.0
 31
0.0
  0
LINE
  5
75
330
1D
100
AcDbEntity
  8
SK3
100
AcDbLine
 10
-11.959544599
 20
0.0
 30
0.0
 11
-11.959544599
 21
10.521
 31
0.0
  0
LINE
  5
76
330
1D
100
AcDbEntity
  8
SK3
100
AcDbLine
 10
-11.959544599
 20
-10.521
 30
0.0
 11
-11.959544599
 21
0.0
 31
0.0
  0
LINE
  5
77
330
1D
100
AcDbEntity
  8
SK1
100
AcDbLine
 10
-19.877762862
 20
-11.939107337
 30
0.0
 11
-19.877762862
 21
11.939107337
 31
0.0
  0
LINE
  5
78
330
1D
100
AcDbEntity
  8
3
100
AcDbLine
 10
7.97
 20
0.0
 30
0.0
 11
7.97
 21
9.875
 31
0.0
  0
LINE
  5
79
330
1D
100
AcDbEntity
  8
3
100
AcDbLine
 10
7.97
 20
-9.875
 30
0.0
 11
7.97
 21
0.0
 31
0.0
  0
LINE
  5
7A
330
1D
100
AcDbEntity
  8
3
100
AcDbLine
 10
5.989149887
 20
0.0
 30
0.0
 11
5.989149887
 21
10.521
 31
0.0
  0
LINE
  5
7B
330
1D
100
AcDbEntity
  8
3
100
AcDbLine
 10
5.989149887
 20
-10.521
 30
0.0
 11
5.989149887
 21
0.0
 31
0.0
  0
LINE
  5
7C
330
1D
100
AcDbEntity
  8
3
100
AcDbLine
 10
23.570704155
 20
0.0
 30
0.0
 11
23.570704155
 21
-9.0
 31
0.0
  0
LINE
  5
7D
330
1D
100
AcDbEntity
  8
3
100
AcDbLine
 10
23.570704155
 20
9.0
 30
0.0
 11
23.570704155
 21
0.0
 31
0.0
  0
LINE
  5
7E
330
1D
100
AcDbEntity
  8
3
100
AcDbLine
 10
23.051088913
 20
9.3
 30
0.0
 11
23.051088913
 21
-9.3
 31
0.0
  0
LINE
  5
7F
330
1D
100
AcDbEntity
  8
3
100
AcDbLine
 10
18.02
 20
-9.3
 30
0.0
 11
18.02
 21
9.3
 31
0.0
  0
LINE
  5
80
330
1D
100
AcDbEntity
  8
3
100
AcDbLine
 10
14.32
 20
6.25
 30
0.0
 11
14.32
 21
-6.25
 31
0.0
  0
LINE
  5
81
330
1D
100
AcDbEntity
  8
3
100
AcDbLine
 10
13.020961894
 20
5.5
 30
0.0
 11
13.020961894
 21
-5.5
 31
0.0
  0
LINE
  5
82
330
1D
100
AcDbEntity
  8
3
100
AcDbLine
 10
15.82
 20
6.25
 30
0.0
 11
15.82
 21
-6.25
 31
0.0
  0
LINE
  5
83
330
1D
100
AcDbEntity
  8
3
100
AcDbLine
 10
8.52
 20
5.5
 30
0.0
 11
8.52
 21
-5.5
 31
0.0
  0
ARC
  5
84
330
1D
100
AcDbEntity
  8
SK3
100
AcDbCircle
 10
-10.266314598
 20
12.38
 30
0.0
 40
0.4
100
AcDbArc
 50
90.0
 51
136.202148065
  0
ARC
  5
85
330
1D
100
AcDbEntity
  8
SK3
100
AcDbCircle
 10
-10.266314598
 20
-12.38
 30
0.0
 40
0.4
100
AcDbArc
 50
223.797851935
 51
270.0
  0
LINE
  5
86
330
1D
100
AcDbEntity
  8
SK3
100
AcDbLine
 10
-4.211736362
 20
12.78
 30
0.0
 11
-10.266314598
 21
12.78
 31
0.0
  0
LINE
  5
87
330
1D
100
AcDbEntity
  8
SK3
100
AcDbLine
 10
-10.266314598
 20
-12.78
 30
0.0
 11
-4.211736362
 21
-12.78
 31
0.0
  0
ARC
  5
88
330
1D
100
AcDbEntity
  8
SK3
100
AcDbCircle
 10
-4.211736362
 20
7.78
 30
0.0
 40
5.0
100
AcDbArc
 50
33.243612877
 51
90.0
  0
ARC
  5
89
330
1D
100
AcDbEntity
  8
SK3
100
AcDbCircle
 10
-4.211736362
 20
-7.78
 30
0.0
 40
5.0
100
AcDbArc
 50
270.0
 51
326.756387123
  0
ARC
  5
8A
330
1D
100
AcDbEntity
  8
SK3
100
AcDbCircle
 10
-10.504900249
 20
-12.26
 30
0.0
 40
0.4
100
AcDbArc
 50
209.75
 51
262.800645841
  0
ARC
  5
8B
330
1D
100
AcDbEntity
  8
SK3
100
AcDbCircle
 10
-10.504900249
 20
12.26
 30
0.0
 40
0.4
100
AcDbArc
 50
97.19935415899998
 51
150.25
  0
LINE
  5
8C
330
1D
100
AcDbEntity
  8
SK3
100
AcDbLine
 10
-10.852179775
 20
12.458486601
 30
0.0
 11
-11.959544599
 21
10.521
 31
0.0
  0
LINE
  5
8D
330
1D
100
AcDbEntity
  8
SK3
100
AcDbLine
 10
-11.959544599
 20
-10.521
 30
0.0
 11
-10.852179775
 21
-12.458486601
 31
0.0
  0
ARC
  5
8E
330
1D
100
AcDbEntity
  8
SK3
100
AcDbCircle
 10
-18.38
 20
-12.021
 30
0.0
 40
1.5
100
AcDbArc
 50
129.594068227
 51
176.870374669
  0
ARC
  5
8F
330
1D
100
AcDbEntity
  8
SK3
100
AcDbCircle
 10
-18.38
 20
12.021
 30
0.0
 40
1.5
100
AcDbArc
 50
183.129625331
 51
230.405931773
  0
ARC
  5
90
330
1D
100
AcDbEntity
  8
3
100
AcDbCircle
 10
6.97
 20
-9.875
 30
0.0
 40
1.0
100
AcDbArc
 50
245.0
 51
0.0
  0
ARC
  5
91
330
1D
100
AcDbEntity
  8
3
100
AcDbCircle
 10
6.97
 20
9.875
 30
0.0
 40
1.0
100
AcDbArc
 50
0.0
 51
115.0
  0
LINE
  5
92
330
1D
100
AcDbEntity
  8
SK3
100
AcDbLine
 10
-19.336016324
 20
-10.865131154
 30
0.0
 11
-18.903003622
 21
-10.615131154
 31
0.0
  0
LINE
  5
93
330
1D
100
AcDbEntity
  8
SK3
100
AcDbLine
 10
-18.903003622
 20
10.615131154
 30
0.0
 11
-19.336016324
 21
10.865131154
 31
0.0
  0
LINE
  5
94
330
1D
100
AcDbEntity
  8
3
100
AcDbLine
 10
6.547381738
 20
10.781307787
 30
0.0
 11
5.989149887
 21
10.521
 31
0.0
  0
LINE
  5
95
330
1D
100
AcDbEntity
  8
3
100
AcDbLine
 10
5.989149887
 20
-10.521
 30
0.0
 11
6.547381738
 21
-10.781307787
 31
0.0
  0
ARC
  5
96
330
1D
100
AcDbEntity
  8
SK3
100
AcDbCircle
 10
-18.38
 20
-12.021
 30
0.0
 40
1.5
100
AcDbArc
 50
90.0
 51
110.405931773
  0
ARC
  5
97
330
1D
100
AcDbEntity
  8
SK3
100
AcDbCircle
 10
-18.38
 20
12.021
 30
0.0
 40
1.5
100
AcDbArc
 50
249.594068227
 51
270.0
  0
LINE
  5
98
330
1D
100
AcDbEntity
  8
SK3
100
AcDbLine
 10
-18.38
 20
-10.521
 30
0.0
 11
-11.959544599
 21
-10.521
 31
0.0
  0
LINE
  5
99
330
1D
100
AcDbEntity
  8
SK3
100
AcDbLine
 10
-11.959544599
 20
10.521
 30
0.0
 11
-18.38
 21
10.521
 31
0.0
  0
LINE
  5
9A
330
1D
100
AcDbEntity
  8
3
100
AcDbLine
 10
0.0
 20
-10.521
 30
0.0
 11
5.989149887
 21
-10.521
 31
0.0
  0
LINE
  5
9B
330
1D
100
AcDbEntity
  8
3
100
AcDbLine
 10
5.989149887
 20
10.521
 30
0.0
 11
0.0
 21
10.521
 31
0.0
  0
LINE
  5
9C
330
1D
100
AcDbEntity
  8
3
100
AcDbLine
 10
23.051088913
 20
-9.3
 30
0.0
 11
23.570704155
 21
-9.0
 31
0.0
  0
LINE
  5
9D
330
1D
100
AcDbEntity
  8
3
100
AcDbLine
 10
23.570704155
 20
9.0
 30
0.0
 11
23.051088913
 21
9.3
 31
0.0
  0
LINE
  5
9E
330
1D
100
AcDbEntity
  8
3
100
AcDbLine
 10
23.051088913
 20
9.3
 30
0.0
 11
18.02
 21
9.3
 31
0.0
  0
LINE
  5
9F
330
1D
100
AcDbEntity
  8
3
100
AcDbLine
 10
18.02
 20
-9.3
 30
0.0
 11
23.051088913
 21
-9.3
 31
0.0
  0
LINE
  5
A0
330
1D
100
AcDbEntity
  8
3
100
AcDbLine
 10
40.0
 20
9.0
 30
0.0
 11
23.570704155
 21
9.0
 31
0.0
  0
LINE
  5
A1
330
1D
100
AcDbEntity
  8
3
100
AcDbLine
 10
23.570704155
 20
-9.0
 30
0.0
 11
40.0
 21
-9.0
 31
0.0
  0
LINE
  5
A2
330
1D
100
AcDbEntity
  8
3
100
AcDbLine
 10
14.32
 20
6.25
 30
0.0
 11
13.020961894
 21
5.5
 31
0.0
  0
LINE
  5
A3
330
1D
100
AcDbEntity
  8
3
100
AcDbLine
 10
13.020961894
 20
-5.5
 30
0.0
 11
14.32
 21
-6.25
 31
0.0
  0
LINE
  5
A4
330
1D
100
AcDbEntity
  8
3
100
AcDbLine
 10
15.82
 20
6.25
 30
0.0
 11
14.32
 21
6.25
 31
0.0
  0
LINE
  5
A5
330
1D
100
AcDbEntity
  8
3
100
AcDbLine
 10
14.32
 20
-6.25
 30
0.0
 11
15.82
 21
-6.25
 31
0.0
  0
LINE
  5
A6
330
1D
100
AcDbEntity
  8
3
100
AcDbLine
 10
7.97
 20
-6.05
 30
0.0
 11
8.52
 21
-5.5
 31
0.0
  0
LINE
  5
A7
330
1D
100
AcDbEntity
  8
3
100
AcDbLine
 10
8.52
 20
5.5
 30
0.0
 11
7.97
 21
6.05
 31
0.0
  0
LINE
  5
A8
330
1D
100
AcDbEntity
  8
3
100
AcDbLine
 10
13.020961894
 20
5.5
 30
0.0
 11
8.52
 21
5.5
 31
0.0
  0
LINE
  5
A9
330
1D
100
AcDbEntity
  8
3
100
AcDbLine
 10
8.52
 20
-5.5
 30
0.0
 11
13.020961894
 21
-5.5
 31
0.0
  0
LINE
  5
AA
330
1D
100
AcDbEntity
  8
3
100
AcDbLine
 10
18.02
 20
2.5
 30
0.0
 11
15.82
 21
2.5
 31
0.0
  0
LINE
  5
AB
330
1D
100
AcDbEntity
  8
3
100
AcDbLine
 10
15.82
 20
-2.5
 30
0.0
 11
18.02
 21
-2.5
 31
0.0
  0
LINE
  5
AC
330
1D
100
AcDbEntity
  8
1
100
AcDbLine
 10
33.702194691
 20
0.000833421
 30
0.0
 11
32.836169287
 21
1.500833421
 31
0.0
  0
LINE
  5
AD
330
1D
100
AcDbEntity
  8
1
100
AcDbLine
 10
32.836169287
 20
1.500833421
 30
0.0
 11
31.10411848
 21
1.500833421
 31
0.0
  0
LINE
  5
AE
330
1D
100
AcDbEntity
  8
1
100
AcDbLine
 10
31.10411848
 20
1.500833421
 30
0.0
 11
30.238093076
 21
0.000833421
 31
0.0
  0
LINE
  5
AF
330
1D
100
AcDbEntity
  8
1
100
AcDbLine
 10
30.238093076
 20
0.000833421
 30
0.0
 11
31.10411848
 21
-1.499166579
 31
0.0
  0
LINE
  5
B0
330
1D
100
AcDbEntity
  8
1
100
AcDbLine
 10
31.10411848
 20
-1.499166579
 30
0.0
 11
32.836169287
 21
-1.499166579
 31
0.0
  0
LINE
  5
B1
330
1D
100
AcDbEntity
  8
1
100
AcDbLine
 10
32.836169287
 20
-1.499166579
 30
0.0
 11
33.702194691
 21
0.000833421
 31
0.0
  0
LINE
  5
B2
330
1D
100
AcDbEntity
  8
SK4
100
AcDbLine
 10
-21.22859811
 20
0.0
 30
0.0
 11
40.895178959
 21
0.0
 31
0.0
  0
LINE
  5
B3
330
1D
100
AcDbEntity
  8
SK4
100
AcDbLine
 10
31.970143883
 20
-4.588757716
 30
0.0
 11
31.970143883
 21
4.44454704
 31
0.0
  0
LINE
  5
B4
330
1D
100
AcDbEntity
  8
SK3
100
AcDbLine
 10
-4.650696
 20
15.0
 30
0.0
 11
-4.650696
 21
-15.0
 31
0.0
  0
LINE
  5
B5
330
1D
100
AcDbEntity
  8
SK2
100
AcDbLine
 10
-26.919611176
 20
-15.0
 30
0.0
 11
-4.650696
 21
-15.0
 31
0.0
  0
LINE
  5
B6
330
1D
100
AcDbEntity
  8
SK2
100
AcDbLine
 10
-24.919611176
 20
-15.0
 30
0.0
 11
-25.369611176
 21
-11.5
 31
0.0
  0
LINE
  5
B7
330
1D
100
AcDbEntity
  8
SK2
100
AcDbLine
 10
-25.369611176
 20
-11.5
 30
0.0
 11
-24.469611176
 21
-11.5
 31
0.0
  0
LINE
  5
B8
330
1D
100
AcDbEntity
  8
SK2
100
AcDbLine
 10
-24.469611176
 20
-11.5
 30
0.0
 11
-24.919611176
 21
-15.0
 31
0.0
  0
LINE
  5
B9
330
1D
100
AcDbEntity
  8
SK2
100
AcDbLine
 10
-24.919611176
 20
-11.6
 30
0.0
 11
-24.919611176
 21
-14.9
 31
0.0
  0
LINE
  5
BA
330
1D
100
AcDbEntity
  8
SK2
100
AcDbLine
 10
-24.719611176
 20
-11.6
 30
0.0
 11
-24.719611176
 21
-13.344444444
 31
0.0
  0
LINE
  5
BB
330
1D
100
AcDbEntity
  8
SK2
100
AcDbLine
 10
-25.119611176
 20
-11.6
 30
0.0
 11
-25.119611176
 21
-13.344444444
 31
0.0
  0
LINE
  5
BC
330
1D
100
AcDbEntity
  8
SK2
100
AcDbLine
 10
-24.519611176
 20
-11.6
 30
0.0
 11
-24.519611176
 21
-11.788888889
 31
0.0
  0
LINE
  5
BD
330
1D
100
AcDbEntity
  8
SK2
100
AcDbLine
 10
-25.319611176
 20
-11.6
 30
0.0
 11
-25.319611176
 21
-11.788888889
 31
0.0
  0
LINE
  5
BE
330
1D
100
AcDbEntity
  8
SK2
100
AcDbLine
 10
-26.919611176
 20
15.0
 30
0.0
 11
-4.650696
 21
15.0
 31
0.0
  0
LINE
  5
BF
330
1D
100
AcDbEntity
  8
SK2
100
AcDbLine
 10
-24.919611176
 20
15.0
 30
0.0
 11
-24.469611176
 21
11.5
 31
0.0
  0
LINE
  5
C0
330
1D
100
AcDbEntity
  8
SK2
100
AcDbLine
 10
-24.469611176
 20
11.5
 30
0.0
 11
-25.369611176
 21
11.5
 31
0.0
  0
LINE
  5
C1
330
1D
100
AcDbEntity
  8
SK2
100
AcDbLine
 10
-25.369611176
 20
11.5
 30
0.0
 11
-24.919611176
 21
15.0
 31
0.0
  0
LINE
  5
C2
330
1D
100
AcDbEntity
  8
SK2
100
AcDbLine
 10
-24.919611176
 20
11.6
 30
0.0
 11
-24.919611176
 21
14.9
 31
0.0
  0
LINE
  5
C3
330
1D
100
AcDbEntity
  8
SK2
100
AcDbLine
 10
-25.119611176
 20
11.6
 30
0.0
 11
-25.119611176
 21
13.344444444
 31
0.0
  0
LINE
  5
C4
330
1D
100
AcDbEntity
  8
SK2
100
AcDbLine
 10
-24.719611176
 20
11.6
 30
0.0
 11
-24.719611176
 21
13.344444444
 31
0.0
  0
LINE
  5
C5
330
1D
100
AcDbEntity
  8
SK2
100
AcDbLine
 10
-25.319611176
 20
11.6
 30
0.0
 11
-25.319611176
 21
11.788888889
 31
0.0
  0
LINE
  5
C6
330
1D
100
AcDbEntity
  8
SK2
100
AcDbLine
 10
-24.519611176
 20
11.6
 30
0.0
 11
-24.519611176
 21
11.788888889
 31
0.0
  0
LINE
  5
C7
330
1D
100
AcDbEntity
  8
SK2
100
AcDbLine
 10
-24.919611176
 20
-11.5
 30
0.0
 11
-24.919611176
 21
11.5
 31
0.0
  0
TEXT
  5
C8
330
1D
100
AcDbEntity
  8
SK2
100
AcDbText
 10
-26.419611176
 20
0.276718415
 30
0.0
 40
3.5
  1
30
 50
90.0
  7
BMG_Text
100
AcDbText
  0
CIRCLE
  5
C9
330
1D
100
AcDbEntity
  8
SK2
100
AcDbCircle
 10
-27.669611176
 20
-1.973281585
 30
0.0
 40
1.25
  0
LINE
  5
CA
330
1D
100
AcDbEntity
  8
SK2
100
AcDbLine
 10
-26.419611176
 20
-3.223281585
 30
0.0
 11
-28.919611176
 21
-0.723281585
 31
0.0
  0
LINE
  5
CB
330
1D
100
AcDbEntity
  8
2
100
AcDbLine
 10
0.0
 20
27.049784279
 30
0.0
 11
0.0
 21
19.475
 31
0.0
  0
LINE
  5
CC
330
1D
100
AcDbEntity
  8
2
100
AcDbLine
 10
0.0
 20
25.049784279
 30
0.0
 11
3.500000004
 21
25.499784245
 31
0.0
  0
LINE
  5
CD
330
1D
100
AcDbEntity
  8
2
100
AcDbLine
 10
3.500000004
 20
25.499784245
 30
0.0
 11
3.499999996
 21
24.599784245
 31
0.0
  0
LINE
  5
CE
330
1D
100
AcDbEntity
  8
2
100
AcDbLine
 10
3.499999996
 20
24.599784245
 30
0.0
 11
0.0
 21
25.049784279
 31
0.0
  0
LINE
  5
CF
330
1D
100
AcDbEntity
  8
2
100
AcDbLine
 10
3.4
 20
25.049784246
 30
0.0
 11
0.1
 21
25.049784278
 31
0.0
  0
LINE
  5
D0
330
1D
100
AcDbEntity
  8
2
100
AcDbLine
 10
3.399999998
 20
24.849784246
 30
0.0
 11
1.655555554
 21
24.849784263
 31
0.0
  0
LINE
  5
D1
330
1D
100
AcDbEntity
  8
2
100
AcDbLine
 10
3.400000002
 20
25.249784246
 30
0.0
 11
1.655555557
 21
25.249784263
 31
0.0
  0
LINE
  5
D2
330
1D
100
AcDbEntity
  8
2
100
AcDbLine
 10
3.399999996
 20
24.649784246
 30
0.0
 11
3.211111107
 21
24.649784248
 31
0.0
  0
LINE
  5
D3
330
1D
100
AcDbEntity
  8
2
100
AcDbLine
 10
3.400000004
 20
25.449784246
 30
0.0
 11
3.211111115
 21
25.449784248
 31
0.0
  0
LINE
  5
D4
330
1D
100
AcDbEntity
  8
2
100
AcDbLine
 10
40.0
 20
27.049783897
 30
0.0
 11
40.0
 21
14.7
 31
0.0
  0
LINE
  5
D5
330
1D
100
AcDbEntity
  8
2
100
AcDbLine
 10
40.0
 20
25.049783897
 30
0.0
 11
36.499999996
 21
24.599783931
 31
0.0
  0
LINE
  5
D6
330
1D
100
AcDbEntity
  8
2
100
AcDbLine
 10
36.499999996
 20
24.599783931
 30
0.0
 11
36.500000004
 21
25.499783931
 31
0.0
  0
LINE
  5
D7
330
1D
100
AcDbEntity
  8
2
100
AcDbLine
 10
36.500000004
 20
25.499783931
 30
0.0
 11
40.0
 21
25.049783897
 31
0.0
  0
LINE
  5
D8
330
1D
100
AcDbEntity
  8
2
100
AcDbLine
 10
36.6
 20
25.04978393
 30
0.0
 11
39.9
 21
25.049783898
 31
0.0
  0
LINE
  5
D9
330
1D
100
AcDbEntity
  8
2
100
AcDbLine
 10
36.600000002
 20
25.24978393
 30
0.0
 11
38.344444446
 21
25.249783913
 31
0.0
  0
LINE
  5
DA
330
1D
100
AcDbEntity
  8
2
100
AcDbLine
 10
36.599999998
 20
24.84978393
 30
0.0
 11
38.344444443
 21
24.849783913
 31
0.0
  0
LINE
  5
DB
330
1D
100
AcDbEntity
  8
2
100
AcDbLine
 10
36.600000004
 20
25.44978393
 30
0.0
 11
36.788888893
 21
25.449783928
 31
0.0
  0
LINE
  5
DC
330
1D
100
AcDbEntity
  8
2
100
AcDbLine
 10
36.599999996
 20
24.64978393
 30
0.0
 11
36.788888885
 21
24.649783928
 31
0.0
  0
LINE
  5
DD
330
1D
100
AcDbEntity
  8
2
100
AcDbLine
 10
3.5
 20
25.049784245
 30
0.0
 11
36.5
 21
25.049783931
 31
0.0
  0
TEXT
  5
DE
330
1D
100
AcDbEntity
  8
2
100
AcDbText
 10
18.335312067
 20
26.549784104
 30
0.0
 40
3.5
  1
40
 50
359.999999454
  7
BMG_Text
100
AcDbText
  0
LINE
  5
DF
330
1D
100
AcDbEntity
  8
2
100
AcDbLine
 10
52.042391777
 20
-9.0
 30
0.0
 11
40.0
 21
-9.0
 31
0.0
  0
LINE
  5
E0
330
1D
100
AcDbEntity
  8
2
100
AcDbLine
 10
50.042391777
 20
-9.0
 30
0.0
 11
49.592391777
 21
-5.5
 31
0.0
  0
LINE
  5
E1
330
1D
100
AcDbEntity
  8
2
100
AcDbLine
 10
49.592391777
 20
-5.5
 30
0.0
 11
50.492391777
 21
-5.5
 31
0.0
  0
LINE
  5
E2
330
1D
100
AcDbEntity
  8
2
100
AcDbLine
 10
50.492391777
 20
-5.5
 30
0.0
 11
50.042391777
 21
-9.0
 31
0.0
  0
LINE
  5
E3
330
1D
100
AcDbEntity
  8
2
100
AcDbLine
 10
50.042391777
 20
-5.6
 30
0.0
 11
50.042391777
 21
-8.9
 31
0.0
  0
LINE
  5
E4
330
1D
100
AcDbEntity
  8
2
100
AcDbLine
 10
50.242391777
 20
-5.6
 30
0.0
 11
50.242391777
 21
-7.344444444
 31
0.0
  0
LINE
  5
E5
330
1D
100
AcDbEntity
  8
2
100
AcDbLine
 10
49.842391777
 20
-5.6
 30
0.0
 11
49.842391777
 21
-7.344444444
 31
0.0
  0
LINE
  5
E6
330
1D
100
AcDbEntity
  8
2
100
AcDbLine
 10
50.442391777
 20
-5.6
 30
0.0
 11
50.442391777
 21
-5.788888889
 31
0.0
  0
LINE
  5
E7
330
1D
100
AcDbEntity
  8
2
100
AcDbLine
 10
49.642391777
 20
-5.6
 30
0.0
 11
49.642391777
 21
-5.788888889
 31
0.0
  0
LINE
  5
E8
330
1D
100
AcDbEntity
  8
2
100
AcDbLine
 10
52.042391777
 20
9.0
 30
0.0
 11
40.0
 21
9.0
 31
0.0
  0
LINE
  5
E9
330
1D
100
AcDbEntity
  8
2
100
AcDbLine
 10
50.042391777
 20
9.0
 30
0.0
 11
50.492391777
 21
5.5
 31
0.0
  0
LINE
  5
EA
330
1D
100
AcDbEntity
  8
2
100
AcDbLine
 10
50.492391777
 20
5.5
 30
0.0
 11
49.592391777
 21
5.5
 31
0.0
  0
LINE
  5
EB
330
1D
100
AcDbEntity
  8
2
100
AcDbLine
 10
49.592391777
 20
5.5
 30
0.0
 11
50.042391777
 21
9.0
 31
0.0
  0
LINE
  5
EC
330
1D
100
AcDbEntity
  8
2
100
AcDbLine
 10
50.042391777
 20
5.6
 30
0.0
 11
50.042391777
 21
8.9
 31
0.0
  0
LINE
  5
ED
330
1D
100
AcDbEntity
  8
2
100
AcDbLine
 10
49.842391777
 20
5.6
 30
0.0
 11
49.842391777
 21
7.344444444
 31
0.0
  0
LINE
  5
EE
330
1D
100
AcDbEntity
  8
2
100
AcDbLine
 10
50.242391777
 20
5.6
 30
0.0
 11
50.242391777
 21
7.344444444
 31
0.0
  0
LINE
  5
EF
330
1D
100
AcDbEntity
  8
2
100
AcDbLine
 10
49.642391777
 20
5.6
 30
0.0
 11
49.642391777
 21
5.788888889
 31
0.0
  0
LINE
  5
F0
330
1D
100
AcDbEntity
  8
2
100
AcDbLine
 10
50.442391777
 20
5.6
 30
0.0
 11
50.442391777
 21
5.788888889
 31
0.0
  0
LINE
  5
F1
330
1D
100
AcDbEntity
  8
2
100
AcDbLine
 10
50.042391777
 20
-5.5
 30
0.0
 11
50.042391777
 21
5.5
 31
0.0
  0
TEXT
  5
F2
330
1D
100
AcDbEntity
  8
2
100
AcDbText
 10
48.542391777
 20
0.468124799
 30
0.0
 40
3.5
  1
18
 50
90.0
  7
BMG_Text
100
AcDbText
  0
CIRCLE
  5
F3
330
1D
100
AcDbEntity
  8
2
100
AcDbCircle
 10
47.292391777
 20
-1.781875201
 30
0.0
 40
1.25
  0
LINE
  5
F4
330
1D
100
AcDbEntity
  8
2
100
AcDbLine
 10
48.542391777
 20
-3.031875201
 30
0.0
 11
46.042391777
 21
-0.531875201
 31
0.0
  0
LINE
  5
F5
330
1D
100
AcDbEntity
  8
2
100
AcDbLine
 10
62.203080223
 20
-15.5
 30
0.0
 11
37.817927406
 21
-15.5
 31
0.0
  0
LINE
  5
F6
330
1D
100
AcDbEntity
  8
2
100
AcDbLine
 10
60.203080223
 20
-15.5
 30
0.0
 11
59.753080223
 21
-12.0
 31
0.0
  0
LINE
  5
F7
330
1D
100
AcDbEntity
  8
2
100
AcDbLine
 10
59.753080223
 20
-12.0
 30
0.0
 11
60.653080223
 21
-12.0
 31
0.0
  0
LINE
  5
F8
330
1D
100
AcDbEntity
  8
2
100
AcDbLine
 10
60.653080223
 20
-12.0
 30
0.0
 11
60.203080223
 21
-15.5
 31
0.0
  0
LINE
  5
F9
330
1D
100
AcDbEntity
  8
2
100
AcDbLine
 10
60.203080223
 20
-12.1
 30
0.0
 11
60.203080223
 21
-15.4
 31
0.0
  0
LINE
  5
FA
330
1D
100
AcDbEntity
  8
2
100
AcDbLine
 10
60.403080223
 20
-12.1
 30
0.0
 11
60.403080223
 21
-13.844444444
 31
0.0
  0
LINE
  5
FB
330
1D
100
AcDbEntity
  8
2
100
AcDbLine
 10
60.003080223
 20
-12.1
 30
0.0
 11
60.003080223
 21
-13.844444444
 31
0.0
  0
LINE
  5
FC
330
1D
100
AcDbEntity
  8
2
100
AcDbLine
 10
60.603080223
 20
-12.1
 30
0.0
 11
60.603080223
 21
-12.288888889
 31
0.0
  0
LINE
  5
FD
330
1D
100
AcDbEntity
  8
2
100
AcDbLine
 10
59.803080223
 20
-12.1
 30
0.0
 11
59.803080223
 21
-12.288888889
 31
0.0
  0
LINE
  5
FE
330
1D
100
AcDbEntity
  8
2
100
AcDbLine
 10
62.203080223
 20
15.5
 30
0.0
 11
37.817927406
 21
15.5
 31
0.0
  0
LINE
  5
FF
330
1D
100
AcDbEntity
  8
2
100
AcDbLine
 10
60.203080223
 20
15.5
 30
0.0
 11
60.653080223
 21
12.0
 31
0.0
  0
LINE
  5
100
330
1D
100
AcDbEntity
  8
2
100
AcDbLine
 10
60.653080223
 20
12.0
 30
0.0
 11
59.753080223
 21
12.0
 31
0.0
  0
LINE
  5
101
330
1D
100
AcDbEntity
  8
2
100
AcDbLine
 10
59.753080223
 20
12.0
 30
0.0
 11
60.203080223
 21
15.5
 31
0.0
  0
LINE
  5
102
330
1D
100
AcDbEntity
  8
2
100
AcDbLine
 10
60.203080223
 20
12.1
 30
0.0
 11
60.203080223
 21
15.4
 31
0.0
  0
LINE
  5
103
330
1D
100
AcDbEntity
  8
2
100
AcDbLine
 10
60.003080223
 20
12.1
 30
0.0
 11
60.003080223
 21
13.844444444
 31
0.0
  0
LINE
  5
104
330
1D
100
AcDbEntity
  8
2
100
AcDbLine
 10
60.403080223
 20
12.1
 30
0.0
 11
60.403080223
 21
13.844444444
 31
0.0
  0
LINE
  5
105
330
1D
100
AcDbEntity
  8
2
100
AcDbLine
 10
59.803080223
 20
12.1
 30
0.0
 11
59.803080223
 21
12.288888889
 31
0.0
  0
LINE
  5
106
330
1D
100
AcDbEntity
  8
2
100
AcDbLine
 10
60.603080223
 20
12.1
 30
0.0
 11
60.603080223
 21
12.288888889
 31
0.0
  0
LINE
  5
107
330
1D
100
AcDbEntity
  8
2
100
AcDbLine
 10
60.203080223
 20
-12.0
 30
0.0
 11
60.203080223
 21
12.0
 31
0.0
  0
TEXT
  5
108
330
1D
100
AcDbEntity
  8
2
100
AcDbText
 10
58.703080223
 20
0.659530904
 30
0.0
 40
3.5
  1
31
 50
90.0
  7
BMG_Text
100
AcDbText
  0
CIRCLE
  5
109
330
1D
100
AcDbEntity
  8
2
100
AcDbCircle
 10
57.453080223
 20
-1.590469096
 30
0.0
 40
1.25
  0
LINE
  5
10A
330
1D
100
AcDbEntity
  8
2
100
AcDbLine
 10
58.703080223
 20
-2.840469096
 30
0.0
 11
56.203080223
 21
-0.340469096
 31
0.0
  0
LINE
  5
10B
330
1D
100
AcDbEntity
  8
2
100
AcDbLine
 10
0.0
 20
-29.538983917
 30
0.0
 11
0.0
 21
-19.475
 31
0.0
  0
LINE
  5
10C
330
1D
100
AcDbEntity
  8
2
100
AcDbLine
 10
0.0
 20
-27.538983917
 30
0.0
 11
3.5
 21
-27.088983917
 31
0.0
  0
LINE
  5
10D
330
1D
100
AcDbEntity
  8
2
100
AcDbLine
 10
3.5
 20
-27.088983917
 30
0.0
 11
3.5
 21
-27.988983917
 31
0.0
  0
LINE
  5
10E
330
1D
100
AcDbEntity
  8
2
100
AcDbLine
 10
3.5
 20
-27.988983917
 30
0.0
 11
0.0
 21
-27.538983917
 31
0.0
  0
LINE
  5
10F
330
1D
100
AcDbEntity
  8
2
100
AcDbLine
 10
3.4
 20
-27.538983917
 30
0.0
 11
0.1
 21
-27.538983917
 31
0.0
  0
LINE
  5
110
330
1D
100
AcDbEntity
  8
2
100
AcDbLine
 10
3.4
 20
-27.738983917
 30
0.0
 11
1.655555556
 21
-27.738983917
 31
0.0
  0
LINE
  5
111
330
1D
100
AcDbEntity
  8
2
100
AcDbLine
 10
3.4
 20
-27.338983917
 30
0.0
 11
1.655555556
 21
-27.338983917
 31
0.0
  0
LINE
  5
112
330
1D
100
AcDbEntity
  8
2
100
AcDbLine
 10
3.4
 20
-27.938983917
 30
0.0
 11
3.211111111
 21
-27.938983917
 31
0.0
  0
LINE
  5
113
330
1D
100
AcDbEntity
  8
2
100
AcDbLine
 10
3.4
 20
-27.138983917
 30
0.0
 11
3.211111111
 21
-27.138983917
 31
0.0
  0
LINE
  5
114
330
1D
100
AcDbEntity
  8
2
100
AcDbLine
 10
25.0
 20
-29.538983917
 30
0.0
 11
25.0
 21
-19.475
 31
0.0
  0
LINE
  5
115
330
1D
100
AcDbEntity
  8
2
100
AcDbLine
 10
25.0
 20
-27.538983917
 30
0.0
 11
21.5
 21
-27.988983917
 31
0.0
  0
LINE
  5
116
330
1D
100
AcDbEntity
  8
2
100
AcDbLine
 10
21.5
 20
-27.988983917
 30
0.0
 11
21.5
 21
-27.088983917
 31
0.0
  0
LINE
  5
117
330
1D
100
AcDbEntity
  8
2
100
AcDbLine
 10
21.5
 20
-27.088983917
 30
0.0
 11
25.0
 21
-27.538983917
 31
0.0
  0
LINE
  5
118
330
1D
100
AcDbEntity
  8
2
100
AcDbLine
 10
21.6
 20
-27.538983917
 30
0.0
 11
24.9
 21
-27.538983917
 31
0.0
  0
LINE
  5
119
330
1D
100
AcDbEntity
  8
2
100
AcDbLine
 10
21.6
 20
-27.338983917
 30
0.0
 11
23.344444444
 21
-27.338983917
 31
0.0
  0
LINE
  5
11A
330
1D
100
AcDbEntity
  8
2
100
AcDbLine
 10
21.6
 20
-27.738983917
 30
0.0
 11
23.344444444
 21
-27.738983917
 31
0.0
  0
LINE
  5
11B
330
1D
100
AcDbEntity
  8
2
100
AcDbLine
 10
21.6
 20
-27.138983917
 30
0.0
 11
21.788888889
 21
-27.138983917
 31
0.0
  0
LINE
  5
11C
330
1D
100
AcDbEntity
  8
2
100
AcDbLine
 10
21.6
 20
-27.938983917
 30
0.0
 11
21.788888889
 21
-27.938983917
 31
0.0
  0
LINE
  5
11D
330
1D
100
AcDbEntity
  8
2
100
AcDbLine
 10
3.5
 20
-27.538983917
 30
0.0
 11
21.5
 21
-27.538983917
 31
0.0
  0
TEXT
  5
11E
330
1D
100
AcDbEntity
  8
2
100
AcDbText
 10
10.944687221
 20
-26.038983917
 30
0.0
 40
3.5
  1
25
  7
BMG_Text
100
AcDbText
  0
LINE
  5
11F
330
1D
100
AcDbEntity
  8
2
100
AcDbLine
 10
25.0
 20
-29.526071167
 30
0.0
 11
25.0
 21
-19.475
 31
0.0
  0
LINE
  5
120
330
1D
100
AcDbEntity
  8
2
100
AcDbLine
 10
25.0
 20
-27.526071167
 30
0.0
 11
28.5
 21
-27.076071167
 31
0.0
  0
LINE
  5
121
330
1D
100
AcDbEntity
  8
2
100
AcDbLine
 10
28.5
 20
-27.076071167
 30
0.0
 11
28.5
 21
-27.976071167
 31
0.0
  0
LINE
  5
122
330
1D
100
AcDbEntity
  8
2
100
AcDbLine
 10
28.5
 20
-27.976071167
 30
0.0
 11
25.0
 21
-27.526071167
 31
0.0
  0
LINE
  5
123
330
1D
100
AcDbEntity
  8
2
100
AcDbLine
 10
28.4
 20
-27.526071167
 30
0.0
 11
25.1
 21
-27.526071167
 31
0.0
  0
LINE
  5
124
330
1D
100
AcDbEntity
  8
2
100
AcDbLine
 10
28.4
 20
-27.726071167
 30
0.0
 11
26.655555556
 21
-27.726071167
 31
0.0
  0
LINE
  5
125
330
1D
100
AcDbEntity
  8
2
100
AcDbLine
 10
28.4
 20
-27.326071167
 30
0.0
 11
26.655555556
 21
-27.326071167
 31
0.0
  0
LINE
  5
126
330
1D
100
AcDbEntity
  8
2
100
AcDbLine
 10
28.4
 20
-27.926071167
 30
0.0
 11
28.211111111
 21
-27.926071167
 31
0.0
  0
LINE
  5
127
330
1D
100
AcDbEntity
  8
2
100
AcDbLine
 10
28.4
 20
-27.126071167
 30
0.0
 11
28.211111111
 21
-27.126071167
 31
0.0
  0
LINE
  5
128
330
1D
100
AcDbEntity
  8
2
100
AcDbLine
 10
28.5
 20
-27.526071167
 30
0.0
 11
63.5
 21
-27.526071167
 31
0.0
  0
TEXT
  5
129
330
1D
100
AcDbEntity
  8
2
100
AcDbText
 10
70.79088464051245
 20
-26.026071167
 30
0.0
 40
3.5
  1
55
  7
BMG_Text
100
AcDbText
  0
TEXT
  5
12A
330
1D
100
AcDbEntity
  8
2
100
AcDbText
 10
31.69406207
 20
-26.026071167
 30
0.0
 40
3.5
  1
Ausdrehtiefe
  7
BMG_Text
100
AcDbText
  0
TEXT
  5
12B
330
1D
100
AcDbEntity
  8
SK6
100
AcDbText
 10
27.858465012
 20
-19.780730906
 30
0.0
 40
3.5
  1
324.132F
  7
BMG_Text
100
AcDbText
  0
LINE
  5
12C
330
1D
100
AcDbEntity
  8
SK6
100
AcDbLine
 10
-25.624317386
 20
-30.237599971
 30
0.0
 11
-25.624317386
 21
-32.307592041
 31
0.0
  0
ARC
  5
12D
330
1D
100
AcDbEntity
  8
SK6
100
AcDbCircle
 10
-28.504303196
 20
-33.387601501
 30
0.0
 40
1.08000004
100
AcDbArc
 50
90.00000763
 51
206.54360962
  0
LINE
  5
12E
330
1D
100
AcDbEntity
  8
SK6
100
AcDbLine
 10
-28.504303196
 20
-32.307622551
 30
0.0
 11
-25.624305936
 21
-32.307622551
 31
0.0
  0
ARC
  5
12F
330
1D
100
AcDbEntity
  8
SK6
100
AcDbCircle
 10
-29.674312806
 20
-32.937596921
 30
0.0
 40
2.70000005
100
AcDbArc
 50
90.00000763
 51
206.5436554
  0
ARC
  5
130
330
1D
100
AcDbEntity
  8
SK6
100
AcDbCircle
 10
-28.954296326
 20
-42.837606071
 30
0.0
 40
1.08000004
100
AcDbArc
 50
270.0
 51
26.54360962
  0
LINE
  5
131
330
1D
100
AcDbEntity
  8
SK6
100
AcDbLine
 10
-28.954296326
 20
-43.917607911
 30
0.0
 11
-32.374294496
 21
-43.917607911
 31
0.0
  0
LINE
  5
132
330
1D
100
AcDbEntity
  8
SK6
100
AcDbLine
 10
-32.089714266
 20
-34.144170411
 30
0.0
 11
-27.988147946
 21
-42.354962951
 31
0.0
  0
ARC
  5
133
330
1D
100
AcDbEntity
  8
SK6
100
AcDbCircle
 10
-27.784309606
 20
-43.287610651
 30
0.0
 40
2.70000005
100
AcDbArc
 50
270.0
 51
26.54364014
  0
LINE
  5
134
330
1D
100
AcDbEntity
  8
SK6
100
AcDbLine
 10
-29.470470646
 20
-33.870229371
 30
0.0
 11
-25.368900516
 21
-42.081029541
 31
0.0
  0
LINE
  5
135
330
1D
100
AcDbEntity
  8
SK6
100
AcDbLine
 10
-32.374317386
 20
-43.917607911
 30
0.0
 11
-32.374317386
 21
-45.987615231
 31
0.0
  0
LINE
  5
136
330
1D
100
AcDbEntity
  8
SK6
100
AcDbLine
 10
-32.374317386
 20
-45.987615231
 30
0.0
 11
-27.784313416
 21
-45.987615231
 31
0.0
  0
LINE
  5
137
330
1D
100
AcDbEntity
  8
SK6
100
AcDbLine
 10
-22.924312806
 20
-45.987615231
 30
0.0
 11
-22.924312806
 21
-30.237615231
 31
0.0
  0
LINE
  5
138
330
1D
100
AcDbEntity
  8
SK6
100
AcDbLine
 10
-14.644306396
 20
-45.987615231
 30
0.0
 11
-14.644306396
 21
-30.237615231
 31
0.0
  0
LINE
  5
139
330
1D
100
AcDbEntity
  8
SK6
100
AcDbLine
 10
-14.644306396
 20
-45.987615231
 30
0.0
 11
-11.944313266
 21
-45.987615231
 31
0.0
  0
LINE
  5
13A
330
1D
100
AcDbEntity
  8
SK6
100
AcDbLine
 10
-11.944313266
 20
-45.987615231
 30
0.0
 11
-11.944313266
 21
-39.147618891
 31
0.0
  0
ARC
  5
13B
330
1D
100
AcDbEntity
  8
SK6
100
AcDbCircle
 10
-10.594299536
 20
-40.227605461
 30
0.0
 40
1.08000004
100
AcDbArc
 50
0.0
 51
90.00000763
  0
LINE
  5
13C
330
1D
100
AcDbEntity
  8
SK6
100
AcDbLine
 10
-10.594299536
 20
-39.147603631
 30
0.0
 11
-11.944301816
 21
-39.147603631
 31
0.0
  0
LINE
  5
13D
330
1D
100
AcDbEntity
  8
SK6
100
AcDbLine
 10
-9.514320586
 20
-43.467610961
 30
0.0
 11
-9.514320586
 21
-44.457601191
 31
0.0
  0
ARC
  5
13E
330
1D
100
AcDbEntity
  8
SK6
100
AcDbCircle
 10
-4.384323336
 20
-44.457608821
 30
0.0
 40
2.51999998
100
AcDbArc
 50
180.0
 51
217.38319397
  0
ARC
  5
13F
330
1D
100
AcDbEntity
  8
SK6
100
AcDbCircle
 10
-6.994331576
 20
-44.457608821
 30
0.0
 40
2.51999998
100
AcDbArc
 50
180.0
 51
217.38319397
  0
LINE
  5
140
330
1D
100
AcDbEntity
  8
SK6
100
AcDbLine
 10
-6.476715306
 20
-45.987615231
 30
0.0
 11
-8.996715756
 21
-45.987615231
 31
0.0
  0
LINE
  5
141
330
1D
100
AcDbEntity
  8
SK6
100
AcDbLine
 10
-9.514320586
 20
-40.227620721
 30
0.0
 11
-9.514320586
 21
-44.457608821
 31
0.0
  0
ARC
  5
142
330
1D
100
AcDbEntity
  8
SK6
100
AcDbCircle
 10
-9.424301366
 20
-40.407613401
 30
0.0
 40
2.51999998
100
AcDbArc
 50
358.70883179
 51
93.06652832
  0
ARC
  5
143
330
1D
100
AcDbEntity
  8
SK6
100
AcDbCircle
 10
-9.694313266
 20
-35.367612481
 30
0.0
 40
2.51999998
100
AcDbArc
 50
273.06652832
 51
0.0
  0
ARC
  5
144
330
1D
100
AcDbEntity
  8
SK6
100
AcDbCircle
 10
-9.694313266
 20
-32.757619501
 30
0.0
 40
2.51999998
100
AcDbArc
 50
0.0
 51
90.00000763
  0
LINE
  5
145
330
1D
100
AcDbEntity
  8
SK6
100
AcDbLine
 10
-7.174301366
 20
-32.757619501
 30
0.0
 11
-7.174301366
 21
-35.367620111
 31
0.0
  0
ARC
  5
146
330
1D
100
AcDbEntity
  8
SK6
100
AcDbCircle
 10
-10.324310516
 20
-33.207616451
 30
0.0
 40
0.90000004
100
AcDbArc
 50
0.0
 51
90.00000763
  0
LINE
  5
147
330
1D
100
AcDbEntity
  8
SK6
100
AcDbLine
 10
-10.324310516
 20
-32.307622551
 30
0.0
 11
-11.944313266
 21
-32.307622551
 31
0.0
  0
ARC
  5
148
330
1D
100
AcDbEntity
  8
SK6
100
AcDbCircle
 10
-10.324310516
 20
-36.087606071
 30
0.0
 40
0.90000004
100
AcDbArc
 50
270.0
 51
0.0
  0
LINE
  5
149
330
1D
100
AcDbEntity
  8
SK6
100
AcDbLine
 10
-9.424301366
 20
-33.207616451
 30
0.0
 11
-9.424301366
 21
-36.087613701
 31
0.0
  0
LINE
  5
14A
330
1D
100
AcDbEntity
  8
SK6
100
AcDbLine
 10
-11.944313266
 20
-32.307622551
 30
0.0
 11
-11.944313266
 21
-36.987615231
 31
0.0
  0
LINE
  5
14B
330
1D
100
AcDbEntity
  8
SK6
100
AcDbLine
 10
-10.324310516
 20
-36.987615231
 30
0.0
 11
-11.944313266
 21
-36.987615231
 31
0.0
  0
LINE
  5
14C
330
1D
100
AcDbEntity
  8
SK6
100
AcDbLine
 10
-6.904953216
 20
-40.464398981
 30
0.0
 11
-6.904323796
 21
-44.458013181
 31
0.0
  0
LINE
  5
14D
330
1D
100
AcDbEntity
  8
SK6
100
AcDbLine
 10
-6.476715306
 20
-45.987615231
 30
0.0
 11
-6.386718966
 21
-45.987615231
 31
0.0
  0
LINE
  5
14E
330
1D
100
AcDbEntity
  8
SK6
100
AcDbLine
 10
-29.674312806
 20
-30.237599971
 30
0.0
 11
-25.624309756
 21
-30.237599971
 31
0.0
  0
LINE
  5
14F
330
1D
100
AcDbEntity
  8
SK6
100
AcDbLine
 10
-9.694313266
 20
-30.237599971
 30
0.0
 11
-14.644317846
 21
-30.237599971
 31
0.0
  0
LINE
  5
150
330
1D
100
AcDbEntity
  8
SK6
100
AcDbLine
 10
-56.674312806
 20
-45.987615231
 30
0.0
 11
-59.464313726
 21
-45.987615231
 31
0.0
  0
LINE
  5
151
330
1D
100
AcDbEntity
  8
SK6
100
AcDbLine
 10
-56.674312806
 20
-42.567617061
 30
0.0
 11
-56.674312806
 21
-45.987615231
 31
0.0
  0
LINE
  5
152
330
1D
100
AcDbEntity
  8
SK6
100
AcDbLine
 10
-55.594310976
 20
-40.497609741
 30
0.0
 11
-56.674312806
 21
-42.567617061
 31
0.0
  0
LINE
  5
153
330
1D
100
AcDbEntity
  8
SK6
100
AcDbLine
 10
-53.164318296
 20
-45.987615231
 30
0.0
 11
-55.594310976
 21
-40.497609741
 31
0.0
  0
LINE
  5
154
330
1D
100
AcDbEntity
  8
SK6
100
AcDbLine
 10
-50.374317386
 20
-45.987615231
 30
0.0
 11
-53.164310666
 21
-45.987615231
 31
0.0
  0
LINE
  5
155
330
1D
100
AcDbEntity
  8
SK6
100
AcDbLine
 10
-53.974323486
 20
-36.987615231
 30
0.0
 11
-50.374317386
 21
-45.987615231
 31
0.0
  0
LINE
  5
156
330
1D
100
AcDbEntity
  8
SK6
100
AcDbLine
 10
-50.914318296
 20
-30.237615231
 30
0.0
 11
-53.974308226
 21
-36.987615231
 31
0.0
  0
LINE
  5
157
330
1D
100
AcDbEntity
  8
SK6
100
AcDbLine
 10
-56.674312806
 20
-37.347623471
 30
0.0
 11
-53.704319216
 21
-30.237630491
 31
0.0
  0
LINE
  5
158
330
1D
100
AcDbEntity
  8
SK6
100
AcDbLine
 10
-56.674312806
 20
-30.237615231
 30
0.0
 11
-56.674312806
 21
-37.347623471
 31
0.0
  0
LINE
  5
159
330
1D
100
AcDbEntity
  8
SK6
100
AcDbLine
 10
-59.464313726
 20
-45.987615231
 30
0.0
 11
-59.464313726
 21
-30.237615231
 31
0.0
  0
LINE
  5
15A
330
1D
100
AcDbEntity
  8
SK6
100
AcDbLine
 10
-53.704319216
 20
-30.237615231
 30
0.0
 11
-50.914318296
 21
-30.237615231
 31
0.0
  0
LINE
  5
15B
330
1D
100
AcDbEntity
  8
SK6
100
AcDbLine
 10
-59.464313726
 20
-30.237615231
 30
0.0
 11
-56.674312806
 21
-30.237615231
 31
0.0
  0
LINE
  5
15C
330
1D
100
AcDbEntity
  8
SK6
100
AcDbLine
 10
-37.414306856
 20
-30.237615231
 30
0.0
 11
-37.414306856
 21
-45.987615231
 31
0.0
  0
LINE
  5
15D
330
1D
100
AcDbEntity
  8
SK6
100
AcDbLine
 10
-34.534309606
 20
-45.987615231
 30
0.0
 11
-34.534309606
 21
-30.237615231
 31
0.0
  0
LINE
  5
15E
330
1D
100
AcDbEntity
  8
SK6
100
AcDbLine
 10
-37.414306856
 20
-45.987615231
 30
0.0
 11
-34.534309606
 21
-45.987615231
 31
0.0
  0
LINE
  5
15F
330
1D
100
AcDbEntity
  8
SK6
100
AcDbLine
 10
-34.534309606
 20
-30.237615231
 30
0.0
 11
-37.414318296
 21
-30.237615231
 31
0.0
  0
LINE
  5
160
330
1D
100
AcDbEntity
  8
SK6
100
AcDbLine
 10
-17.074310516
 20
-45.987615231
 30
0.0
 11
-17.074310516
 21
-43.917607911
 31
0.0
  0
LINE
  5
161
330
1D
100
AcDbEntity
  8
SK6
100
AcDbLine
 10
-22.924312806
 20
-45.987615231
 30
0.0
 11
-17.074310516
 21
-45.987615231
 31
0.0
  0
LINE
  5
162
330
1D
100
AcDbEntity
  8
SK6
100
AcDbLine
 10
-17.074321966
 20
-32.307607301
 30
0.0
 11
-17.074321966
 21
-30.237615231
 31
0.0
  0
LINE
  5
163
330
1D
100
AcDbEntity
  8
SK6
100
AcDbLine
 10
-20.044338446
 20
-32.307607301
 30
0.0
 11
-17.074333406
 21
-32.307607301
 31
0.0
  0
LINE
  5
164
330
1D
100
AcDbEntity
  8
SK6
100
AcDbLine
 10
-20.044338446
 20
-36.987615231
 30
0.0
 11
-20.044338446
 21
-32.307622551
 31
0.0
  0
LINE
  5
165
330
1D
100
AcDbEntity
  8
SK6
100
AcDbLine
 10
-17.074321966
 20
-36.987615231
 30
0.0
 11
-20.044326996
 21
-36.987615231
 31
0.0
  0
LINE
  5
166
330
1D
100
AcDbEntity
  8
SK6
100
AcDbLine
 10
-17.074321966
 20
-39.147596001
 30
0.0
 11
-17.074321966
 21
-36.987592341
 31
0.0
  0
LINE
  5
167
330
1D
100
AcDbEntity
  8
SK6
100
AcDbLine
 10
-20.044338446
 20
-39.147596001
 30
0.0
 11
-17.074333406
 21
-39.147596001
 31
0.0
  0
LINE
  5
168
330
1D
100
AcDbEntity
  8
SK6
100
AcDbLine
 10
-20.044338446
 20
-43.917607911
 30
0.0
 11
-20.044338446
 21
-39.147596001
 31
0.0
  0
LINE
  5
169
330
1D
100
AcDbEntity
  8
SK6
100
AcDbLine
 10
-17.074321966
 20
-43.917607911
 30
0.0
 11
-20.044326996
 21
-43.917607911
 31
0.0
  0
LINE
  5
16A
330
1D
100
AcDbEntity
  8
SK6
100
AcDbLine
 10
-17.074321966
 20
-30.237615231
 30
0.0
 11
-22.924324246
 21
-30.237615231
 31
0.0
  0
LINE
  5
16B
330
1D
100
AcDbEntity
  8
SK6
100
AcDbLine
 10
-42.994312506
 20
-45.987615231
 30
0.0
 11
-49.294315556
 21
-45.987615231
 31
0.0
  0
LINE
  5
16C
330
1D
100
AcDbEntity
  8
SK6
100
AcDbLine
 10
-43.444301816
 20
-43.467603331
 30
0.0
 11
-42.994312506
 21
-45.987599971
 31
0.0
  0
LINE
  5
16D
330
1D
100
AcDbEntity
  8
SK6
100
AcDbLine
 10
-46.324321966
 20
-43.467603331
 30
0.0
 11
-43.444324706
 21
-43.467603331
 31
0.0
  0
LINE
  5
16E
330
1D
100
AcDbEntity
  8
SK6
100
AcDbLine
 10
-44.794315556
 20
-34.107617981
 30
0.0
 11
-46.324314336
 21
-43.467626221
 31
0.0
  0
LINE
  5
16F
330
1D
100
AcDbEntity
  8
SK6
100
AcDbLine
 10
-41.734317996
 20
-45.987615231
 30
0.0
 11
-44.794315556
 21
-34.107617981
 31
0.0
  0
LINE
  5
170
330
1D
100
AcDbEntity
  8
SK6
100
AcDbLine
 10
-38.764309146
 20
-45.987615231
 30
0.0
 11
-41.734302736
 21
-45.987615231
 31
0.0
  0
LINE
  5
171
330
1D
100
AcDbEntity
  8
SK6
100
AcDbLine
 10
-43.174312806
 20
-29.787610651
 30
0.0
 11
-38.764320586
 21
-45.987615231
 31
0.0
  0
LINE
  5
172
330
1D
100
AcDbEntity
  8
SK6
100
AcDbLine
 10
-46.234317996
 20
-29.787610651
 30
0.0
 11
-43.174320436
 21
-29.787610651
 31
0.0
  0
LINE
  5
173
330
1D
100
AcDbEntity
  8
SK6
100
AcDbLine
 10
-49.294315556
 20
-45.987615231
 30
0.0
 11
-46.234317996
 21
-29.787610651
 31
0.0
  0
ARC
  5
174
330
1D
100
AcDbEntity
  8
1
100
AcDbCircle
 10
12.041387546
 20
12.026890424
 30
0.0
 40
4.075229427
100
AcDbArc
 50
84.07706105599999
 51
182.48777651
  0
LINE
  5
175
330
1D
100
AcDbEntity
  8
1
100
AcDbLine
 10
7.969999004
 20
11.85
 30
0.0
 11
13.935876598
 21
11.85
 31
0.0
  0
LINE
  5
176
330
1D
100
AcDbEntity
  8
1
100
AcDbLine
 10
13.935876598
 20
16.080364579
 30
0.0
 11
12.4619136
 21
16.080364579
 31
0.0
  0
LINE
  5
177
330
1D
100
AcDbEntity
  8
1
100
AcDbLine
 10
13.935876598
 20
11.85
 30
0.0
 11
14.085876598
 21
11.85
 31
0.0
  0
LINE
  5
178
330
1D
100
AcDbEntity
  8
1
100
AcDbLine
 10
19.57
 20
11.85
 30
0.0
 11
19.97
 21
11.85
 31
0.0
  0
LINE
  5
179
330
1D
100
AcDbEntity
  8
1
100
AcDbLine
 10
17.954123402
 20
11.85
 30
0.0
 11
18.104123402
 21
11.85
 31
0.0
  0
LINE
  5
17A
330
1D
100
AcDbEntity
  8
1
100
AcDbLine
 10
18.104123402
 20
11.85
 30
0.0
 11
19.57
 21
11.85
 31
0.0
  0
LINE
  5
17B
330
1D
100
AcDbEntity
  8
1
100
AcDbLine
 10
17.0575
 20
11.85
 30
0.0
 11
17.954123402
 21
11.85
 31
0.0
  0
LINE
  5
17C
330
1D
100
AcDbEntity
  8
1
100
AcDbLine
 10
14.085876598
 20
11.85
 30
0.0
 11
14.9825
 21
11.85
 31
0.0
  0
LINE
  5
17D
330
1D
100
AcDbEntity
  8
1
100
AcDbLine
 10
15.7325
 20
11.85
 30
0.0
 11
14.9825
 21
11.85
 31
0.0
  0
LINE
  5
17E
330
1D
100
AcDbEntity
  8
1
100
AcDbLine
 10
17.0575
 20
11.85
 30
0.0
 11
16.3075
 21
11.85
 31
0.0
  0
LINE
  5
17F
330
1D
100
AcDbEntity
  8
1
100
AcDbLine
 10
16.3075
 20
11.85
 30
0.0
 11
15.7325
 21
11.85
 31
0.0
  0
LINE
  5
180
330
1D
100
AcDbEntity
  8
1
100
AcDbLine
 10
19.972797587
 20
11.85
 30
0.0
 11
19.970804908
 21
11.909938029
 31
0.0
  0
LINE
  5
181
330
1D
100
AcDbEntity
  8
1
100
AcDbLine
 10
19.970804908
 20
11.909938029
 30
0.0
 11
19.97
 21
11.979148551
 31
0.0
  0
LINE
  5
182
330
1D
100
AcDbEntity
  8
1
100
AcDbLine
 10
19.97
 20
15.580697192
 30
0.0
 11
19.57
 21
16.080364579
 31
0.0
  0
LINE
  5
183
330
1D
100
AcDbEntity
  8
1
100
AcDbLine
 10
14.085876598
 20
15.893650462
 30
0.0
 11
13.935876598
 21
16.080364579
 31
0.0
  0
LINE
  5
184
330
1D
100
AcDbEntity
  8
1
100
AcDbLine
 10
14.9825
 20
13.908399733
 30
0.0
 11
14.085876598
 21
15.893650462
 31
0.0
  0
LINE
  5
185
330
1D
100
AcDbEntity
  8
1
100
AcDbLine
 10
14.9825
 20
13.908399733
 30
0.0
 11
14.9825
 21
13.7147047
 31
0.0
  0
LINE
  5
186
330
1D
100
AcDbEntity
  8
1
100
AcDbLine
 10
14.9825
 20
13.7147047
 30
0.0
 11
15.03071916
 21
13.363084595
 31
0.0
  0
LINE
  5
187
330
1D
100
AcDbEntity
  8
1
100
AcDbLine
 10
15.03071916
 20
13.363084595
 30
0.0
 11
15.182835622
 21
13.03289814
 31
0.0
  0
LINE
  5
188
330
1D
100
AcDbEntity
  8
1
100
AcDbLine
 10
15.182835622
 20
13.03289814
 30
0.0
 11
15.366223845
 21
12.837313981
 31
0.0
  0
LINE
  5
189
330
1D
100
AcDbEntity
  8
1
100
AcDbLine
 10
15.366223845
 20
12.837313981
 30
0.0
 11
15.587091573
 21
12.726462433
 31
0.0
  0
LINE
  5
18A
330
1D
100
AcDbEntity
  8
1
100
AcDbLine
 10
15.587091573
 20
12.726462433
 30
0.0
 11
15.7325
 21
12.70701086
 31
0.0
  0
LINE
  5
18B
330
1D
100
AcDbEntity
  8
1
100
AcDbLine
 10
15.7325
 20
12.70701086
 30
0.0
 11
16.3075
 21
12.70701086
 31
0.0
  0
ARC
  5
18C
330
1D
100
AcDbEntity
  8
1
100
AcDbCircle
 10
16.179842253
 20
13.58497271
 30
0.0
 40
0.887194178
100
AcDbArc
 50
278.272966164
 51
8.408354592
  0
LINE
  5
18D
330
1D
100
AcDbEntity
  8
1
100
AcDbLine
 10
17.0575
 20
13.7147047
 30
0.0
 11
17.0575
 21
13.908399733
 31
0.0
  0
LINE
  5
18E
330
1D
100
AcDbEntity
  8
1
100
AcDbLine
 10
17.954123402
 20
15.893650462
 30
0.0
 11
17.0575
 21
13.908399733
 31
0.0
  0
LINE
  5
18F
330
1D
100
AcDbEntity
  8
1
100
AcDbLine
 10
18.104123402
 20
16.080364579
 30
0.0
 11
17.954123402
 21
15.893650462
 31
0.0
  0
LINE
  5
190
330
1D
100
AcDbEntity
  8
1
100
AcDbLine
 10
19.57
 20
16.080364579
 30
0.0
 11
18.104123402
 21
16.080364579
 31
0.0
  0
LINE
  5
191
330
1D
100
AcDbEntity
  8
1
100
AcDbLine
 10
19.97
 20
15.580697192
 30
0.0
 11
19.97
 21
11.979148551
 31
0.0
  0
LINE
  5
192
330
1D
100
AcDbEntity
  8
1
100
AcDbLine
 10
19.97
 20
11.979148551
 30
0.0
 11
19.97
 21
11.85
 31
0.0
  0
LINE
  5
234
330
1D
100
AcDbEntity
  8
NOCUT
100
AcDbLine
 10
0.0
 20
0.0
 30
0.0
 11
0.0
 21
19.475
 31
0.0
  0
LINE
  5
235
330
1D
100
AcDbEntity
  8
NOCUT
100
AcDbLine
 10
0.0
 20
19.475
 30
0.0
 11
0.5
 21
19.975
 31
0.0
  0
LINE
  5
236
330
1D
100
AcDbEntity
  8
NOCUT
100
AcDbLine
 10
0.5
 20
19.975
 30
0.0
 11
13.935876598
 21
19.975
 31
0.0
  0
LINE
  5
237
330
1D
100
AcDbEntity
  8
NOCUT
100
AcDbLine
 10
13.935876598
 20
19.975
 30
0.0
 11
14.085876598
 21
19.825
 31
0.0
  0
LINE
  5
238
330
1D
100
AcDbEntity
  8
NOCUT
100
AcDbLine
 10
14.085876598
 20
19.825
 30
0.0
 11
14.9825
 21
18.272002713
 31
0.0
  0
LINE
  5
239
330
1D
100
AcDbEntity
  8
NOCUT
100
AcDbLine
 10
14.9825
 20
18.272002713
 30
0.0
 11
14.9825
 21
18.125
 31
0.0
  0
LINE
  5
23A
330
1D
100
AcDbEntity
  8
NOCUT
100
AcDbLine
 10
15.7325
 20
17.375
 30
0.0
 11
16.3075
 21
17.375
 31
0.0
  0
LINE
  5
23B
330
1D
100
AcDbEntity
  8
NOCUT
100
AcDbLine
 10
17.0575
 20
18.125
 30
0.0
 11
17.0575
 21
18.272002713
 31
0.0
  0
LINE
  5
23C
330
1D
100
AcDbEntity
  8
NOCUT
100
AcDbLine
 10
17.0575
 20
18.272002713
 30
0.0
 11
17.954123402
 21
19.825
 31
0.0
  0
LINE
  5
23D
330
1D
100
AcDbEntity
  8
NOCUT
100
AcDbLine
 10
17.954123402
 20
19.825
 30
0.0
 11
18.104123402
 21
19.975
 31
0.0
  0
LINE
  5
23E
330
1D
100
AcDbEntity
  8
NOCUT
100
AcDbLine
 10
18.104123402
 20
19.975
 30
0.0
 11
19.57
 21
19.975
 31
0.0
  0
LINE
  5
23F
330
1D
100
AcDbEntity
  8
NOCUT
100
AcDbLine
 10
19.57
 20
19.975
 30
0.0
 11
19.97
 21
19.575
 31
0.0
  0
LINE
  5
240
330
1D
100
AcDbEntity
  8
NOCUT
100
AcDbLine
 10
19.97
 20
19.575
 30
0.0
 11
19.97
 21
16.85
 31
0.0
  0
LINE
  5
241
330
1D
100
AcDbEntity
  8
NOCUT
100
AcDbLine
 10
21.47
 20
15.35
 30
0.0
 11
22.97
 21
15.35
 31
0.0
  0
LINE
  5
242
330
1D
100
AcDbEntity
  8
NOCUT
100
AcDbLine
 10
22.97
 20
15.35
 30
0.0
 11
23.12
 21
15.5
 31
0.0
  0
LINE
  5
243
330
1D
100
AcDbEntity
  8
NOCUT
100
AcDbLine
 10
23.12
 20
15.5
 30
0.0
 11
37.817927406
 21
15.5
 31
0.0
  0
LINE
  5
244
330
1D
100
AcDbEntity
  8
NOCUT
100
AcDbLine
 10
37.817927406
 20
15.5
 30
0.0
 11
38.02
 21
15.15
 31
0.0
  0
LINE
  5
245
330
1D
100
AcDbEntity
  8
NOCUT
100
AcDbLine
 10
38.02
 20
15.15
 30
0.0
 11
39.62
 21
15.15
 31
0.0
  0
LINE
  5
246
330
1D
100
AcDbEntity
  8
NOCUT
100
AcDbLine
 10
39.62
 20
15.15
 30
0.0
 11
40.0
 21
14.7
 31
0.0
  0
LINE
  5
247
330
1D
100
AcDbEntity
  8
NOCUT
100
AcDbLine
 10
40.0
 20
14.7
 30
0.0
 11
40.0
 21
0.0
 31
0.0
  0
LINE
  5
248
330
1D
100
AcDbEntity
  8
NOCUT
100
AcDbLine
 10
40.0
 20
0.0
 30
0.0
 11
0.0
 21
0.0
 31
0.0
  0
ARC
  5
249
330
1D
100
AcDbEntity
  8
NOCUT
100
AcDbCircle
 10
15.7325
 20
18.125
 30
0.0
 40
0.7499999999999976
100
AcDbArc
 50
179.9999999999997
 51
270.0000000000001
  0
ARC
  5
24A
330
1D
100
AcDbEntity
  8
NOCUT
100
AcDbCircle
 10
16.3075
 20
18.125
 30
0.0
 40
0.7499999999999976
100
AcDbArc
 50
269.9999999999997
 51
0.0000000000002714
  0
ARC
  5
24B
330
1D
100
AcDbEntity
  8
NOCUT
100
AcDbCircle
 10
21.4788609959317
 20
16.85367034469105
 30
0.0
 40
1.50886546003087
100
AcDbArc
 50
180.1393732397737
 51
274.7559212625974
  0
LWPOLYLINE
  5
256
330
1D
100
AcDbEntity
  8
INFTOTAL
100
AcDbPolyline
 90
        4
 70
     1
 43
0.0
 10
-78.62134103299921
 20
41.23540637346328
 10
-78.62134103299921
 20
-66.0575779929821
 10
103.2940995883094
 20
-66.0575779929821
 10
103.2940995883094
 20
41.23540637346328
  0
LINE
  5
25F
330
1D
100
AcDbEntity
  8
SK3
100
AcDbLine
 10
-0.03
 20
10.521
 30
0.0
 11
0.0
 21
10.521
 31
0.0
  0
LINE
  5
260
330
1D
100
AcDbEntity
  8
SK3
100
AcDbLine
 10
-0.0300000001688892
 20
-10.52100000002545
 30
0.0
 11
0.0
 21
-10.521
 31
0.0
  0
LINE
  5
266
330
1D
100
AcDbEntity
  8
4
100
AcDbLine
 10
40.895178959
 20
0.0
 30
0.0
 11
0.0
 21
0.0
 31
0.0
  0
LINE
  5
267
330
1D
100
AcDbEntity
  8
4
100
AcDbLine
 10
31.970143883
 20
4.44454704
 30
0.0
 11
31.970143883
 21
-4.588757716
 31
0.0
  0
ENDSEC
  0
SECTION
  2
OBJECTS
  0
DICTIONARY
  5
C
330
0
100
AcDbDictionary
281
     1
  3
ACAD_DETAILVIEWSTYLE
350
25A
  3
ACAD_GROUP
350
D
  3
ACAD_LAYOUT
350
1A
  3
ACAD_MATERIAL
350
1D0
  3
ACAD_MLEADERSTYLE
350
1DD
  3
ACAD_MLINESTYLE
350
17
  3
ACAD_PLOTSETTINGS
350
19
  3
ACAD_PLOTSTYLENAME
350
E
  3
ACAD_SCALELIST
350
199
  3
ACAD_SECTIONVIEWSTYLE
350
25B
  3
ACAD_TABLESTYLE
350
226
  3
ACAD_VISUALSTYLE
350
1BF
  3
ACDB_RECOMPOSE_DATA
350
26E
  3
AcDbVariableDictionary
350
1DB
  3
APPDATA
350
229
  0
SUN
  5
25C
330
193
100
AcDbSun
 90
        1
290
     0
 63
     7
421
 16777215
 40
1.0
291
     1
 91
  2455826
 92
 54000000
292
     0
 70
     2
 71
   256
280
     1
  0
DICTIONARY
  5
22A
330
2
100
AcDbDictionary
280
     1
281
     1
  3
ACAD_LAYERSTATES
360
22B
  0
DICTIONARY
  5
25A
102
{ACAD_REACTORS
330
C
102
}
330
C
100
AcDbDictionary
281
     1
  0
DICTIONARY
  5
D
102
{ACAD_REACTORS
330
C
102
}
330
C
100
AcDbDictionary
281
     1
  0
DICTIONARY
  5
1A
102
{ACAD_REACTORS
330
C
102
}
330
C
100
AcDbDictionary
281
     1
  3
Layout1
350
1C
  3
Model
350
1E
  0
DICTIONARY
  5
1D0
102
{ACAD_REACTORS
330
C
102
}
330
C
100
AcDbDictionary
281
     1
  3
ByBlock
350
1D2
  3
ByLayer
350
1D1
  3
Global
350
1D3
  0
DICTIONARY
  5
1DD
102
{ACAD_REACTORS
330
C
102
}
330
C
100
AcDbDictionary
281
     1
  3
Standard
350
228
  0
DICTIONARY
  5
17
102
{ACAD_REACTORS
330
C
102
}
330
C
100
AcDbDictionary
281
     1
  3
Standard
350
18
  0
DICTIONARY
  5
19
102
{ACAD_REACTORS
330
C
102
}
330
C
100
AcDbDictionary
281
     1
  0
ACDBDICTIONARYWDFLT
  5
E
102
{ACAD_REACTORS
330
C
102
}
330
C
100
AcDbDictionary
281
     1
  3
Normal
350
F
100
AcDbDictionaryWithDefault
340
F
  0
DICTIONARY
  5
199
102
{ACAD_REACTORS
330
C
102
}
330
C
100
AcDbDictionary
281
     1
  3
A0
350
19A
  3
A1
350
19B
  3
A2
350
19C
  3
A3
350
19D
  3
A4
350
19E
  3
A5
350
19F
  3
A6
350
1A0
  3
A7
350
1A1
  3
A8
350
1A2
  3
A9
350
1A3
  3
B0
350
1A4
  3
B1
350
1A5
  3
B2
350
1A6
  3
B3
350
1A7
  3
B4
350
1A8
  3
B5
350
1A9
  3
B6
350
1AA
  3
B7
350
1AB
  3
B8
350
1AC
  3
B9
350
1AD
  3
C0
350
1AE
  3
C1
350
1AF
  3
C2
350
1B0
  3
C3
350
1B1
  3
C4
350
1B2
  3
C5
350
1B3
  3
C6
350
1B4
  3
C7
350
1B5
  3
C8
350
1B6
  3
C9
350
1B7
  3
D0
350
1B8
  3
D1
350
1B9
  3
D2
350
1BA
  0
DICTIONARY
  5
25B
102
{ACAD_REACTORS
330
C
102
}
330
C
100
AcDbDictionary
281
     1
  0
DICTIONARY
  5
226
102
{ACAD_REACTORS
330
C
102
}
330
C
100
AcDbDictionary
281
     1
  3
Standard
350
227
  0
DICTIONARY
  5
1BF
102
{ACAD_REACTORS
330
C
102
}
330
C
100
AcDbDictionary
281
     1
  3
2dWireframe
350
1C4
  3
3D Hidden
350
1C6
  3
3dWireframe
350
1C5
  3
Basic
350
1C7
  3
Brighten
350
1CB
  3
ColorChange
350
1CF
  3
Conceptual
350
1C9
  3
Dim
350
1CA
  3
EdgeColorOff
350
220
  3
Facepattern
350
1CE
  3
Flat
350
1C0
  3
FlatWithEdges
350
1C1
  3
Gouraud
350
1C2
  3
GouraudWithEdges
350
1C3
  3
Hidden
350
21D
  3
JitterOff
350
21E
  3
Linepattern
350
1CD
  3
OverhangOff
350
21F
  3
Realistic
350
1C8
  3
Shaded
350
225
  3
Shaded with edges
350
224
  3
Shades of Gray
350
221
  3
Sketchy
350
222
  3
Thicken
350
1CC
  3
Wireframe
350
21C
  3
X-Ray
350
223
  0
XRECORD
  5
26E
102
{ACAD_REACTORS
330
C
102
}
330
C
100
AcDbXrecord
280
     1
 90
        1
330
227
  0
DICTIONARY
  5
1DB
102
{ACAD_REACTORS
330
C
102
}
330
C
100
AcDbDictionary
281
     1
  3
CANNOSCALE
350
257
  3
CMLEADERSTYLE
350
259
  3
CTABLESTYLE
350
258
  3
DIMASSOC
350
1DF
  3
HIDETEXT
350
1E0
  3
MSLTSCALE
350
1DE
  0
DICTIONARY
  5
229
102
{ACAD_REACTORS
330
C
102
}
330
C
100
AcDbDictionary
281
     1
  0
DICTIONARY
  5
22B
102
{ACAD_REACTORS
330
22A
102
}
330
22A
100
AcDbDictionary
281
     1
  0
LAYOUT
  5
1C
102
{ACAD_REACTORS
330
1A
102
}
330
1A
100
AcDbPlotSettings
  1

  2
none_device
  4

  6

 40
0.0
 41
0.0
 42
0.0
 43
0.0
 44
0.0
 45
0.0
 46
0.0
 47
0.0
 48
0.0
 49
0.0
140
0.0
141
0.0
142
1.0
143
1.0
 70
   688
 72
     0
 73
     0
 74
     5
  7

 75
    16
 76
     0
 77
     2
 78
   300
147
1.0
148
0.0
149
0.0
100
AcDbLayout
  1
Layout1
 70
     1
 71
     1
 10
0.0
 20
0.0
 11
12.0
 21
9.0
 12
0.0
 22
0.0
 32
0.0
 14
1.000000000000000E+20
 24
1.000000000000000E+20
 34
1.000000000000000E+20
 15
-1.000000000000000E+20
 25
-1.000000000000000E+20
 35
-1.000000000000000E+20
146
0.0
 13
0.0
 23
0.0
 33
0.0
 16
1.0
 26
0.0
 36
0.0
 17
0.0
 27
1.0
 37
0.0
 76
     0
330
1B
  0
LAYOUT
  5
1E
102
{ACAD_REACTORS
330
1A
102
}
330
1A
100
AcDbPlotSettings
  1

  2
none_device
  4

  6

 40
0.0
 41
0.0
 42
0.0
 43
0.0
 44
0.0
 45
0.0
 46
0.0
 47
0.0
 48
0.0
 49
0.0
140
0.0
141
0.0
142
1.0
143
1.0
 70
  1712
 72
     0
 73
     0
 74
     0
  7

 75
     0
 76
     0
 77
     2
 78
   300
147
1.0
148
0.0
149
0.0
100
AcDbLayout
  1
Model
 70
     1
 71
     0
 10
0.0
 20
0.0
 11
12.0
 21
9.0
 12
0.0
 22
0.0
 32
0.0
 14
-78.62134103299921
 24
-66.0575779929821
 34
0.0
 15
103.2940995883094
 25
41.23540637346328
 35
0.0
146
0.0
 13
0.0
 23
0.0
 33
0.0
 16
1.0
 26
0.0
 36
0.0
 17
0.0
 27
1.0
 37
0.0
 76
     0
330
1D
331
193
  0
MATERIAL
  5
1D2
102
{ACAD_REACTORS
330
1D0
102
}
330
1D0
100
AcDbMaterial
  1
ByBlock
 72
     1
 94
      127
  0
MATERIAL
  5
1D1
102
{ACAD_REACTORS
330
1D0
102
}
330
1D0
100
AcDbMaterial
  1
ByLayer
 72
     1
 94
      127
  0
MATERIAL
  5
1D3
102
{ACAD_REACTORS
330
1D0
102
}
330
1D0
100
AcDbMaterial
  1
Global
 72
     1
 94
      127
  0
MLEADERSTYLE
  5
228
102
{ACAD_REACTORS
330
1DD
102
}
330
1DD
100
AcDbMLeaderStyle
179
     2
170
     2
171
     1
172
     0
 90
        2
 40
0.0
 41
0.0
173
     1
 91
-1056964608
340
14
 92
       -2
290
     1
 42
0.09
291
     1
 43
0.36
  3
Standard
341
0
 44
0.18
300

342
11
174
     1
178
     1
175
     1
176
     0
 93
-1056964608
 45
0.18
292
     0
297
     0
 46
0.18
343
0
 94
-1056964608
 47
1.0
 49
1.0
140
1.0
293
     1
141
0.0
294
     1
177
     0
142
1.0
295
     0
296
     0
143
0.125
271
     0
272
     9
273
     9
298
     0
  0
MLINESTYLE
  5
18
102
{ACAD_REACTORS
330
17
102
}
330
17
100
AcDbMlineStyle
  2
Standard
 70
     0
  3

 62
   256
 51
90.0
 52
90.0
 71
     2
 49
0.5
 62
   256
  6
BYLAYER
 49
-0.5
 62
   256
  6
BYLAYER
  0
ACDBPLACEHOLDER
  5
F
102
{ACAD_REACTORS
330
E
102
}
330
E
  0
SCALE
  5
19A
102
{ACAD_REACTORS
330
199
102
}
330
199
100
AcDbScale
 70
     0
300
1:1
140
1.0
141
1.0
290
     1
  0
SCALE
  5
19B
102
{ACAD_REACTORS
330
199
102
}
330
199
100
AcDbScale
 70
     0
300
1:2
140
1.0
141
2.0
290
     0
  0
SCALE
  5
19C
102
{ACAD_REACTORS
330
199
102
}
330
199
100
AcDbScale
 70
     0
300
1:4
140
1.0
141
4.0
290
     0
  0
SCALE
  5
19D
102
{ACAD_REACTORS
330
199
102
}
330
199
100
AcDbScale
 70
     0
300
1:5
140
1.0
141
5.0
290
     0
  0
SCALE
  5
19E
102
{ACAD_REACTORS
330
199
102
}
330
199
100
AcDbScale
 70
     0
300
1:8
140
1.0
141
8.0
290
     0
  0
SCALE
  5
19F
102
{ACAD_REACTORS
330
199
102
}
330
199
100
AcDbScale
 70
     0
300
1:10
140
1.0
141
10.0
290
     0
  0
SCALE
  5
1A0
102
{ACAD_REACTORS
330
199
102
}
330
199
100
AcDbScale
 70
     0
300
1:16
140
1.0
141
16.0
290
     0
  0
SCALE
  5
1A1
102
{ACAD_REACTORS
330
199
102
}
330
199
100
AcDbScale
 70
     0
300
1:20
140
1.0
141
20.0
290
     0
  0
SCALE
  5
1A2
102
{ACAD_REACTORS
330
199
102
}
330
199
100
AcDbScale
 70
     0
300
1:30
140
1.0
141
30.0
290
     0
  0
SCALE
  5
1A3
102
{ACAD_REACTORS
330
199
102
}
330
199
100
AcDbScale
 70
     0
300
1:40
140
1.0
141
40.0
290
     0
  0
SCALE
  5
1A4
102
{ACAD_REACTORS
330
199
102
}
330
199
100
AcDbScale
 70
     0
300
1:50
140
1.0
141
50.0
290
     0
  0
SCALE
  5
1A5
102
{ACAD_REACTORS
330
199
102
}
330
199
100
AcDbScale
 70
     0
300
1:100
140
1.0
141
100.0
290
     0
  0
SCALE
  5
1A6
102
{ACAD_REACTORS
330
199
102
}
330
199
100
AcDbScale
 70
     0
300
2:1
140
2.0
141
1.0
290
     0
  0
SCALE
  5
1A7
102
{ACAD_REACTORS
330
199
102
}
330
199
100
AcDbScale
 70
     0
300
4:1
140
4.0
141
1.0
290
     0
  0
SCALE
  5
1A8
102
{ACAD_REACTORS
330
199
102
}
330
199
100
AcDbScale
 70
     0
300
8:1
140
8.0
141
1.0
290
     0
  0
SCALE
  5
1A9
102
{ACAD_REACTORS
330
199
102
}
330
199
100
AcDbScale
 70
     0
300
10:1
140
10.0
141
1.0
290
     0
  0
SCALE
  5
1AA
102
{ACAD_REACTORS
330
199
102
}
330
199
100
AcDbScale
 70
     0
300
100:1
140
100.0
141
1.0
290
     0
  0
SCALE
  5
1AB
102
{ACAD_REACTORS
330
199
102
}
330
199
100
AcDbScale
 70
     0
300
1/128" = 1'-0"
140
0.0078125
141
12.0
290
     0
  0
SCALE
  5
1AC
102
{ACAD_REACTORS
330
199
102
}
330
199
100
AcDbScale
 70
     0
300
1/64" = 1'-0"
140
0.015625
141
12.0
290
     0
  0
SCALE
  5
1AD
102
{ACAD_REACTORS
330
199
102
}
330
199
100
AcDbScale
 70
     0
300
1/32" = 1'-0"
140
0.03125
141
12.0
290
     0
  0
SCALE
  5
1AE
102
{ACAD_REACTORS
330
199
102
}
330
199
100
AcDbScale
 70
     0
300
1/16" = 1'-0"
140
0.0625
141
12.0
290
     0
  0
SCALE
  5
1AF
102
{ACAD_REACTORS
330
199
102
}
330
199
100
AcDbScale
 70
     0
300
3/32" = 1'-0"
140
0.09375
141
12.0
290
     0
  0
SCALE
  5
1B0
102
{ACAD_REACTORS
330
199
102
}
330
199
100
AcDbScale
 70
     0
300
1/8" = 1'-0"
140
0.125
141
12.0
290
     0
  0
SCALE
  5
1B1
102
{ACAD_REACTORS
330
199
102
}
330
199
100
AcDbScale
 70
     0
300
3/16" = 1'-0"
140
0.1875
141
12.0
290
     0
  0
SCALE
  5
1B2
102
{ACAD_REACTORS
330
199
102
}
330
199
100
AcDbScale
 70
     0
300
1/4" = 1'-0"
140
0.25
141
12.0
290
     0
  0
SCALE
  5
1B3
102
{ACAD_REACTORS
330
199
102
}
330
199
100
AcDbScale
 70
     0
300
3/8" = 1'-0"
140
0.375
141
12.0
290
     0
  0
SCALE
  5
1B4
102
{ACAD_REACTORS
330
199
102
}
330
199
100
AcDbScale
 70
     0
300
1/2" = 1'-0"
140
0.5
141
12.0
290
     0
  0
SCALE
  5
1B5
102
{ACAD_REACTORS
330
199
102
}
330
199
100
AcDbScale
 70
     0
300
3/4" = 1'-0"
140
0.75
141
12.0
290
     0
  0
SCALE
  5
1B6
102
{ACAD_REACTORS
330
199
102
}
330
199
100
AcDbScale
 70
     0
300
1" = 1'-0"
140
1.0
141
12.0
290
     0
  0
SCALE
  5
1B7
102
{ACAD_REACTORS
330
199
102
}
330
199
100
AcDbScale
 70
     0
300
1-1/2" = 1'-0"
140
1.5
141
12.0
290
     0
  0
SCALE
  5
1B8
102
{ACAD_REACTORS
330
199
102
}
330
199
100
AcDbScale
 70
     0
300
3" = 1'-0"
140
3.0
141
12.0
290
     0
  0
SCALE
  5
1B9
102
{ACAD_REACTORS
330
199
102
}
330
199
100
AcDbScale
 70
     0
300
6" = 1'-0"
140
6.0
141
12.0
290
     0
  0
SCALE
  5
1BA
102
{ACAD_REACTORS
330
199
102
}
330
199
100
AcDbScale
 70
     0
300
1'-0" = 1'-0"
140
12.0
141
12.0
290
     0
  0
TABLESTYLE
  5
227
102
{ACAD_REACTORS
330
226
102
}
102
{ACAD_XDICTIONARY
360
26C
102
}
330
226
100
AcDbTableStyle
  3
Standard
 70
     0
 71
     0
 40
0.06
 41
0.06
280
     0
281
     0
  7
Standard
140
0.18
170
     2
 62
     0
 63
   257
283
     0
 90
        4
 91
        0
  1

274
    -2
284
     1
 64
     0
275
    -2
285
     1
 65
     0
276
    -2
286
     1
 66
     0
277
    -2
287
     1
 67
     0
278
    -2
288
     1
 68
     0
279
    -2
289
     1
 69
     0
  7
Standard
140
0.25
170
     5
 62
     0
 63
   257
283
     0
 90
        4
 91
        0
  1

274
    -2
284
     1
 64
     0
275
    -2
285
     1
 65
     0
276
    -2
286
     1
 66
     0
277
    -2
287
     1
 67
     0
278
    -2
288
     1
 68
     0
279
    -2
289
     1
 69
     0
  7
Standard
140
0.18
170
     5
 62
     0
 63
   257
283
     0
 90
        4
 91
        0
  1

274
    -2
284
     1
 64
     0
275
    -2
285
     1
 65
     0
276
    -2
286
     1
 66
     0
277
    -2
287
     1
 67
     0
278
    -2
288
     1
 68
     0
279
    -2
289
     1
 69
     0
  0
VISUALSTYLE
  5
1C4
102
{ACAD_REACTORS
330
1BF
102
}
330
1BF
100
AcDbVisualStyle
  2
2dWireframe
 70
     4
177
     3
291
     0
 70
    58
 90
        0
176
     1
 90
        2
176
     1
 90
        0
176
     1
 90
        0
176
     1
 40
-0.6
176
     1
 40
-30.0
176
     1
 62
     7
176
     1
 90
        1
176
     1
 90
        4
176
     1
 62
     7
176
     1
 62
   257
176
     1
 90
        1
176
     1
 90
        1
176
     1
 40
1.0
176
     1
 90
        0
176
     1
 62
   257
176
     1
 40
1.0
176
     1
 90
        1
176
     1
 90
        6
176
     1
 90
        2
176
     1
 62
     7
176
     1
 90
        5
176
     1
 90
        0
176
     1
 90
        0
176
     1
290
     0
176
     1
 90
        1
176
     1
 40
0.0
176
     1
 90
        0
176
     1
290
     1
176
     1
290
     1
176
     1
290
     0
176
     1
290
     0
176
     1
290
     0
176
     1
290
     0
176
     1
290
     0
176
     1
290
     0
176
     1
290
     0
176
     1
 90
       50
176
     1
 40
0.0
176
     1
 40
1.0
176
     1
 90
        0
176
     1
 62
    18
420
        0
176
     1
 90
       50
176
     1
 90
        3
176
     1
 62
     5
420
      255
176
     1
290
     0
176
     1
 90
       50
176
     1
 90
       50
176
     1
 90
       50
176
     1
290
     0
176
     1
 90
       50
176
     1
 62
   256
176
     0
 40
1.0
176
     0
 90
        2
176
     1
  1
strokes_ogs.tif
176
     1
290
     0
176
     1
 40
1.0
176
     1
 40
1.0
176
     1
  0
VISUALSTYLE
  5
1C6
102
{ACAD_REACTORS
330
1BF
102
}
330
1BF
100
AcDbVisualStyle
  2
3D Hidden
 70
     6
177
     3
291
     0
 70
    58
 90
        1
176
     1
 90
        2
176
     1
 90
        2
176
     1
 90
        0
176
     1
 40
-0.6
176
     1
 40
-30.0
176
     1
 62
     7
176
     1
 90
        2
176
     1
 90
        2
176
     1
 62
     7
176
     1
 62
   257
176
     1
 90
        2
176
     1
 90
        1
176
     1
 40
40.0
176
     1
 90
        0
176
     1
 62
   257
176
     1
 40
1.0
176
     1
 90
        1
176
     1
 90
        6
176
     1
 90
        2
176
     1
 62
     7
176
     1
 90
        3
176
     1
 90
        0
176
     1
 90
        0
176
     1
290
     0
176
     1
 90
        1
176
     1
 40
0.0
176
     1
 90
        0
176
     1
290
     0
176
     1
290
     1
176
     1
290
     1
176
     1
290
     0
176
     1
290
     0
176
     1
290
     0
176
     1
290
     0
176
     1
290
     0
176
     1
290
     0
176
     1
 90
       50
176
     1
 40
0.0
176
     1
 40
1.0
176
     1
 90
        0
176
     1
 62
    18
420
        0
176
     1
 90
       50
176
     1
 90
        3
176
     1
 62
     5
420
      255
176
     1
290
     0
176
     1
 90
       50
176
     1
 90
       50
176
     1
 90
       50
176
     1
290
     0
176
     1
 90
       50
176
     1
 62
   256
176
     0
 40
1.0
176
     0
 90
        2
176
     1
  1
strokes_ogs.tif
176
     1
290
     0
176
     1
 40
1.0
176
     1
 40
1.0
176
     1
  0
VISUALSTYLE
  5
1C5
102
{ACAD_REACTORS
330
1BF
102
}
330
1BF
100
AcDbVisualStyle
  2
3dWireframe
 70
     5
177
     3
291
     0
 70
    58
 90
        0
176
     1
 90
        2
176
     1
 90
        0
176
     1
 90
        0
176
     1
 40
-0.6
176
     1
 40
-30.0
176
     1
 62
     7
176
     1
 90
        1
176
     1
 90
        4
176
     1
 62
     7
176
     1
 62
   257
176
     1
 90
        1
176
     1
 90
        1
176
     1
 40
1.0
176
     1
 90
        0
176
     1
 62
   257
176
     1
 40
1.0
176
     1
 90
        1
176
     1
 90
        6
176
     1
 90
        2
176
     1
 62
     7
176
     1
 90
        5
176
     1
 90
        0
176
     1
 90
        0
176
     1
290
     0
176
     1
 90
        1
176
     1
 40
0.0
176
     1
 90
        0
176
     1
290
     0
176
     1
290
     1
176
     1
290
     1
176
     1
290
     0
176
     1
290
     0
176
     1
290
     0
176
     1
290
     0
176
     1
290
     0
176
     1
290
     0
176
     1
 90
       50
176
     1
 40
0.0
176
     1
 40
1.0
176
     1
 90
        0
176
     1
 62
    18
420
        0
176
     1
 90
       50
176
     1
 90
        3
176
     1
 62
     5
420
      255
176
     1
290
     0
176
     1
 90
       50
176
     1
 90
       50
176
     1
 90
       50
176
     1
290
     0
176
     1
 90
       50
176
     1
 62
   256
176
     0
 40
1.0
176
     0
 90
        2
176
     1
  1
strokes_ogs.tif
176
     1
290
     0
176
     1
 40
1.0
176
     1
 40
1.0
176
     1
  0
VISUALSTYLE
  5
1C7
102
{ACAD_REACTORS
330
1BF
102
}
330
1BF
100
AcDbVisualStyle
  2
Basic
 70
     7
177
     3
291
     1
 70
    58
 90
        1
176
     1
 90
        0
176
     1
 90
        1
176
     1
 90
        0
176
     1
 40
-0.6
176
     1
 40
-30.0
176
     1
 62
     7
176
     1
 90
        0
176
     1
 90
        4
176
     1
 62
     7
176
     1
 62
   257
176
     1
 90
        1
176
     1
 90
        1
176
     1
 40
1.0
176
     1
 90
        8
176
     1
 62
     7
176
     1
 40
1.0
176
     1
 90
        1
176
     1
 90
        6
176
     1
 90
        2
176
     1
 62
     7
176
     1
 90
        5
176
     1
 90
        0
176
     1
 90
        0
176
     1
290
     0
176
     1
 90
        1
176
     1
 40
0.0
176
     1
 90
        0
176
     1
290
     0
176
     1
290
     1
176
     1
290
     1
176
     1
290
     0
176
     1
290
     0
176
     1
290
     0
176
     1
290
     0
176
     1
290
     0
176
     1
290
     0
176
     1
 90
       50
176
     1
 40
0.0
176
     1
 40
1.0
176
     1
 90
        0
176
     1
 62
    18
420
        0
176
     1
 90
       50
176
     1
 90
        3
176
     1
 62
     5
420
      255
176
     1
290
     0
176
     1
 90
       50
176
     1
 90
       50
176
     1
 90
       50
176
     1
290
     0
176
     1
 90
       50
176
     1
 62
   256
176
     0
 40
1.0
176
     0
 90
        2
176
     1
  1
strokes_ogs.tif
176
     1
290
     0
176
     1
 40
1.0
176
     1
 40
1.0
176
     1
  0
VISUALSTYLE
  5
1CB
102
{ACAD_REACTORS
330
1BF
102
}
330
1BF
100
AcDbVisualStyle
  2
Brighten
 70
    12
177
     3
291
     1
 70
    58
 90
        2
176
     1
 90
        2
176
     1
 90
        0
176
     1
 90
        0
176
     1
 40
-0.6
176
     1
 40
-30.0
176
     1
 62
     7
176
     1
 90
        1
176
     1
 90
        4
176
     1
 62
     7
176
     1
 62
   257
176
     1
 90
        1
176
     1
 90
        1
176
     1
 40
1.0
176
     1
 90
        8
176
     1
 62
     7
176
     1
 40
1.0
176
     1
 90
        1
176
     1
 90
        6
176
     1
 90
        2
176
     1
 62
     7
176
     1
 90
        5
176
     1
 90
        0
176
     1
 90
        0
176
     1
290
     0
176
     1
 90
        1
176
     1
 40
50.0
176
     1
 90
        0
176
     1
290
     0
176
     1
290
     1
176
     1
290
     1
176
     1
290
     0
176
     1
290
     0
176
     1
290
     0
176
     1
290
     0
176
     1
290
     0
176
     1
290
     0
176
     1
 90
       50
176
     1
 40
0.0
176
     1
 40
1.0
176
     1
 90
        0
176
     1
 62
    18
420
        0
176
     1
 90
       50
176
     1
 90
        3
176
     1
 62
     5
420
      255
176
     1
290
     0
176
     1
 90
       50
176
     1
 90
       50
176
     1
 90
       50
176
     1
290
     0
176
     1
 90
       50
176
     1
 62
   256
176
     0
 40
1.0
176
     0
 90
        2
176
     1
  1
strokes_ogs.tif
176
     1
290
     0
176
     1
 40
1.0
176
     1
 40
1.0
176
     1
  0
VISUALSTYLE
  5
1CF
102
{ACAD_REACTORS
330
1BF
102
}
330
1BF
100
AcDbVisualStyle
  2
ColorChange
 70
    16
177
     3
291
     1
 70
    58
 90
        2
176
     1
 90
        2
176
     1
 90
        3
176
     1
 90
        0
176
     1
 40
-0.6
176
     1
 40
-30.0
176
     1
 62
     8
176
     1
 90
        1
176
     1
 90
        4
176
     1
 62
     7
176
     1
 62
   257
176
     1
 90
        1
176
     1
 90
        1
176
     1
 40
1.0
176
     1
 90
        8
176
     1
 62
     8
176
     1
 40
1.0
176
     1
 90
        1
176
     1
 90
        6
176
     1
 90
        2
176
     1
 62
     7
176
     1
 90
        5
176
     1
 90
        0
176
     1
 90
        0
176
     1
290
     0
176
     1
 90
        1
176
     1
 40
0.0
176
     1
 90
        0
176
     1
290
     0
176
     1
290
     1
176
     1
290
     1
176
     1
290
     0
176
     1
290
     0
176
     1
290
     0
176
     1
290
     0
176
     1
290
     0
176
     1
290
     0
176
     1
 90
       50
176
     1
 40
0.0
176
     1
 40
1.0
176
     1
 90
        0
176
     1
 62
    18
420
        0
176
     1
 90
       50
176
     1
 90
        3
176
     1
 62
     5
420
      255
176
     1
290
     0
176
     1
 90
       50
176
     1
 90
       50
176
     1
 90
       50
176
     1
290
     0
176
     1
 90
       50
176
     1
 62
   256
176
     0
 40
1.0
176
     0
 90
        2
176
     1
  1
strokes_ogs.tif
176
     1
290
     0
176
     1
 40
1.0
176
     1
 40
1.0
176
     1
  0
VISUALSTYLE
  5
1C9
102
{ACAD_REACTORS
330
1BF
102
}
330
1BF
100
AcDbVisualStyle
  2
Conceptual
 70
     9
177
     3
291
     0
 70
    58
 90
        3
176
     1
 90
        2
176
     1
 90
        0
176
     1
 90
        0
176
     1
 40
-0.6
176
     1
 40
-30.0
176
     1
 62
     7
176
     1
 90
        2
176
     1
 90
        2
176
     1
 62
     7
176
     1
 62
   257
176
     1
 90
        1
176
     1
 90
        1
176
     1
 40
40.0
176
     1
 90
        8
176
     1
 62
     7
176
     1
 40
1.0
176
     1
 90
        1
176
     1
 90
        6
176
     1
 90
        2
176
     1
 62
     7
176
     1
 90
        3
176
     1
 90
        0
176
     1
 90
        0
176
     1
290
     0
176
     1
 90
        1
176
     1
 40
0.0
176
     1
 90
        0
176
     1
290
     0
176
     1
290
     1
176
     1
290
     1
176
     1
290
     0
176
     1
290
     0
176
     1
290
     0
176
     1
290
     0
176
     1
290
     0
176
     1
290
     0
176
     1
 90
       50
176
     1
 40
0.0
176
     1
 40
1.0
176
     1
 90
        0
176
     1
 62
    18
420
        0
176
     1
 90
       50
176
     1
 90
        3
176
     1
 62
     5
420
      255
176
     1
290
     0
176
     1
 90
       50
176
     1
 90
       50
176
     1
 90
       50
176
     1
290
     0
176
     1
 90
       50
176
     1
 62
   256
176
     0
 40
1.0
176
     0
 90
        2
176
     1
  1
strokes_ogs.tif
176
     1
290
     0
176
     1
 40
1.0
176
     1
 40
1.0
176
     1
  0
VISUALSTYLE
  5
1CA
102
{ACAD_REACTORS
330
1BF
102
}
330
1BF
100
AcDbVisualStyle
  2
Dim
 70
    11
177
     3
291
     1
 70
    58
 90
        2
176
     1
 90
        2
176
     1
 90
        0
176
     1
 90
        0
176
     1
 40
-0.6
176
     1
 40
-30.0
176
     1
 62
     7
176
     1
 90
        1
176
     1
 90
        4
176
     1
 62
     7
176
     1
 62
   257
176
     1
 90
        1
176
     1
 90
        1
176
     1
 40
1.0
176
     1
 90
        8
176
     1
 62
     7
176
     1
 40
1.0
176
     1
 90
        1
176
     1
 90
        6
176
     1
 90
        2
176
     1
 62
     7
176
     1
 90
        5
176
     1
 90
        0
176
     1
 90
        0
176
     1
290
     0
176
     1
 90
        1
176
     1
 40
-50.0
176
     1
 90
        0
176
     1
290
     0
176
     1
290
     1
176
     1
290
     1
176
     1
290
     0
176
     1
290
     0
176
     1
290
     0
176
     1
290
     0
176
     1
290
     0
176
     1
290
     0
176
     1
 90
       50
176
     1
 40
0.0
176
     1
 40
1.0
176
     1
 90
        0
176
     1
 62
    18
420
        0
176
     1
 90
       50
176
     1
 90
        3
176
     1
 62
     5
420
      255
176
     1
290
     0
176
     1
 90
       50
176
     1
 90
       50
176
     1
 90
       50
176
     1
290
     0
176
     1
 90
       50
176
     1
 62
   256
176
     0
 40
1.0
176
     0
 90
        2
176
     1
  1
strokes_ogs.tif
176
     1
290
     0
176
     1
 40
1.0
176
     1
 40
1.0
176
     1
  0
VISUALSTYLE
  5
220
102
{ACAD_REACTORS
330
1BF
102
}
330
1BF
100
AcDbVisualStyle
  2
EdgeColorOff
 70
    22
177
     3
291
     1
 70
    58
 90
        2
176
     0
 90
        2
176
     0
 90
        0
176
     0
 90
        0
176
     0
 40
0.6
176
     0
 40
30.0
176
     0
 62
     7
420
 16777215
176
     0
 90
        1
176
     0
 90
        4
176
     0
 62
     7
176
     0
 62
   257
176
     0
 90
        1
176
     0
 90
        1
176
     0
 40
1.0
176
     0
 90
        8
176
     2
 62
     7
176
     0
 40
1.0
176
     0
 90
        1
176
     0
 90
        6
176
     0
 90
        2
176
     0
 62
     7
176
     0
 90
        5
176
     0
 90
        0
176
     0
 90
        0
176
     0
290
     0
176
     0
 90
        1
176
     0
 40
0.0
176
     0
 90
        0
176
     0
290
     0
176
     0
290
     1
176
     0
290
     1
176
     0
290
     0
176
     0
290
     0
176
     0
290
     0
176
     0
290
     0
176
     0
290
     0
176
     0
290
     0
176
     0
 90
       50
176
     0
 40
0.0
176
     0
 40
1.0
176
     0
 90
        0
176
     0
 62
    18
420
        0
176
     0
 90
       50
176
     0
 90
        3
176
     0
 62
     5
420
      255
176
     0
290
     0
176
     0
 90
       50
176
     0
 90
       50
176
     0
 90
       50
176
     0
290
     0
176
     0
 90
       50
176
     0
 62
   256
176
     0
 40
1.0
176
     0
 90
        2
176
     0
  1
strokes_ogs.tif
176
     0
290
     0
176
     0
 40
1.0
176
     0
 40
1.0
176
     0
  0
VISUALSTYLE
  5
1CE
102
{ACAD_REACTORS
330
1BF
102
}
330
1BF
100
AcDbVisualStyle
  2
Facepattern
 70
    15
177
     3
291
     1
 70
    58
 90
        2
176
     1
 90
        2
176
     1
 90
        0
176
     1
 90
        0
176
     1
 40
-0.6
176
     1
 40
-30.0
176
     1
 62
     7
176
     1
 90
        1
176
     1
 90
        4
176
     1
 62
     7
176
     1
 62
   257
176
     1
 90
        1
176
     1
 90
        1
176
     1
 40
1.0
176
     1
 90
        8
176
     1
 62
     7
176
     1
 40
1.0
176
     1
 90
        1
176
     1
 90
        6
176
     1
 90
        2
176
     1
 62
     7
176
     1
 90
        5
176
     1
 90
        0
176
     1
 90
        0
176
     1
290
     0
176
     1
 90
        1
176
     1
 40
0.0
176
     1
 90
        0
176
     1
290
     0
176
     1
290
     1
176
     1
290
     1
176
     1
290
     0
176
     1
290
     0
176
     1
290
     0
176
     1
290
     0
176
     1
290
     0
176
     1
290
     0
176
     1
 90
       50
176
     1
 40
0.0
176
     1
 40
1.0
176
     1
 90
        0
176
     1
 62
    18
420
        0
176
     1
 90
       50
176
     1
 90
        3
176
     1
 62
     5
420
      255
176
     1
290
     0
176
     1
 90
       50
176
     1
 90
       50
176
     1
 90
       50
176
     1
290
     0
176
     1
 90
       50
176
     1
 62
   256
176
     0
 40
1.0
176
     0
 90
        2
176
     1
  1
strokes_ogs.tif
176
     1
290
     0
176
     1
 40
1.0
176
     1
 40
1.0
176
     1
  0
VISUALSTYLE
  5
1C0
102
{ACAD_REACTORS
330
1BF
102
}
330
1BF
100
AcDbVisualStyle
  2
Flat
 70
     0
177
     3
291
     1
 70
    58
 90
        2
176
     1
 90
        1
176
     1
 90
        1
176
     1
 90
        2
176
     1
 40
-0.6
176
     1
 40
30.0
176
     1
 62
     7
176
     1
 90
        0
176
     1
 90
        4
176
     1
 62
     7
176
     1
 62
   257
176
     1
 90
        1
176
     1
 90
        1
176
     1
 40
1.0
176
     1
 90
        8
176
     1
 62
     7
176
     1
 40
1.0
176
     1
 90
        1
176
     1
 90
        6
176
     1
 90
        2
176
     1
 62
     7
176
     1
 90
        5
176
     1
 90
        0
176
     1
 90
        0
176
     1
290
     0
176
     1
 90
       13
176
     1
 40
0.0
176
     1
 90
        0
176
     1
290
     0
176
     1
290
     1
176
     1
290
     1
176
     1
290
     0
176
     1
290
     0
176
     1
290
     0
176
     1
290
     0
176
     1
290
     0
176
     1
290
     0
176
     1
 90
       50
176
     1
 40
0.0
176
     1
 40
1.0
176
     1
 90
        0
176
     1
 62
    18
420
        0
176
     1
 90
       50
176
     1
 90
        3
176
     1
 62
     5
420
      255
176
     1
290
     0
176
     1
 90
       50
176
     1
 90
       50
176
     1
 90
       50
176
     1
290
     0
176
     1
 90
       50
176
     1
 62
   256
176
     0
 40
1.0
176
     0
 90
        2
176
     1
  1
strokes_ogs.tif
176
     1
290
     0
176
     1
 40
1.0
176
     1
 40
1.0
176
     1
  0
VISUALSTYLE
  5
1C1
102
{ACAD_REACTORS
330
1BF
102
}
330
1BF
100
AcDbVisualStyle
  2
FlatWithEdges
 70
     1
177
     3
291
     1
 70
    58
 90
        2
176
     1
 90
        1
176
     1
 90
        1
176
     1
 90
        2
176
     1
 40
-0.6
176
     1
 40
30.0
176
     1
 62
     7
176
     1
 90
        1
176
     1
 90
        4
176
     1
 62
     7
176
     1
 62
   257
176
     1
 90
        1
176
     1
 90
        1
176
     1
 40
1.0
176
     1
 90
        0
176
     1
 62
   257
176
     1
 40
1.0
176
     1
 90
        1
176
     1
 90
        6
176
     1
 90
        2
176
     1
 62
     7
176
     1
 90
        5
176
     1
 90
        0
176
     1
 90
        0
176
     1
290
     0
176
     1
 90
       13
176
     1
 40
0.0
176
     1
 90
        0
176
     1
290
     0
176
     1
290
     1
176
     1
290
     1
176
     1
290
     0
176
     1
290
     0
176
     1
290
     0
176
     1
290
     0
176
     1
290
     0
176
     1
290
     0
176
     1
 90
       50
176
     1
 40
0.0
176
     1
 40
1.0
176
     1
 90
        0
176
     1
 62
    18
420
        0
176
     1
 90
       50
176
     1
 90
        3
176
     1
 62
     5
420
      255
176
     1
290
     0
176
     1
 90
       50
176
     1
 90
       50
176
     1
 90
       50
176
     1
290
     0
176
     1
 90
       50
176
     1
 62
   256
176
     0
 40
1.0
176
     0
 90
        2
176
     1
  1
strokes_ogs.tif
176
     1
290
     0
176
     1
 40
1.0
176
     1
 40
1.0
176
     1
  0
VISUALSTYLE
  5
1C2
102
{ACAD_REACTORS
330
1BF
102
}
330
1BF
100
AcDbVisualStyle
  2
Gouraud
 70
     2
177
     3
291
     1
 70
    58
 90
        2
176
     1
 90
        2
176
     1
 90
        1
176
     1
 90
        2
176
     1
 40
-0.6
176
     1
 40
30.0
176
     1
 62
     7
176
     1
 90
        0
176
     1
 90
        4
176
     1
 62
     7
176
     1
 62
   257
176
     1
 90
        1
176
     1
 90
        1
176
     1
 40
1.0
176
     1
 90
        0
176
     1
 62
     7
176
     1
 40
1.0
176
     1
 90
        1
176
     1
 90
        6
176
     1
 90
        2
176
     1
 62
     7
176
     1
 90
        5
176
     1
 90
        0
176
     1
 90
        0
176
     1
290
     0
176
     1
 90
       13
176
     1
 40
0.0
176
     1
 90
        0
176
     1
290
     0
176
     1
290
     1
176
     1
290
     1
176
     1
290
     0
176
     1
290
     0
176
     1
290
     0
176
     1
290
     0
176
     1
290
     0
176
     1
290
     0
176
     1
 90
       50
176
     1
 40
0.0
176
     1
 40
1.0
176
     1
 90
        0
176
     1
 62
    18
420
        0
176
     1
 90
       50
176
     1
 90
        3
176
     1
 62
     5
420
      255
176
     1
290
     0
176
     1
 90
       50
176
     1
 90
       50
176
     1
 90
       50
176
     1
290
     0
176
     1
 90
       50
176
     1
 62
   256
176
     0
 40
1.0
176
     0
 90
        2
176
     1
  1
strokes_ogs.tif
176
     1
290
     0
176
     1
 40
1.0
176
     1
 40
1.0
176
     1
  0
VISUALSTYLE
  5
1C3
102
{ACAD_REACTORS
330
1BF
102
}
330
1BF
100
AcDbVisualStyle
  2
GouraudWithEdges
 70
     3
177
     3
291
     1
 70
    58
 90
        2
176
     1
 90
        2
176
     1
 90
        1
176
     1
 90
        2
176
     1
 40
-0.6
176
     1
 40
30.0
176
     1
 62
     7
176
     1
 90
        1
176
     1
 90
        4
176
     1
 62
     7
176
     1
 62
   257
176
     1
 90
        1
176
     1
 90
        1
176
     1
 40
1.0
176
     1
 90
        0
176
     1
 62
   257
176
     1
 40
1.0
176
     1
 90
        1
176
     1
 90
        6
176
     1
 90
        2
176
     1
 62
     7
176
     1
 90
        5
176
     1
 90
        0
176
     1
 90
        0
176
     1
290
     0
176
     1
 90
       13
176
     1
 40
0.0
176
     1
 90
        0
176
     1
290
     0
176
     1
290
     1
176
     1
290
     1
176
     1
290
     0
176
     1
290
     0
176
     1
290
     0
176
     1
290
     0
176
     1
290
     0
176
     1
290
     0
176
     1
 90
       50
176
     1
 40
0.0
176
     1
 40
1.0
176
     1
 90
        0
176
     1
 62
    18
420
        0
176
     1
 90
       50
176
     1
 90
        3
176
     1
 62
     5
420
      255
176
     1
290
     0
176
     1
 90
       50
176
     1
 90
       50
176
     1
 90
       50
176
     1
290
     0
176
     1
 90
       50
176
     1
 62
   256
176
     0
 40
1.0
176
     0
 90
        2
176
     1
  1
strokes_ogs.tif
176
     1
290
     0
176
     1
 40
1.0
176
     1
 40
1.0
176
     1
  0
VISUALSTYLE
  5
21D
102
{ACAD_REACTORS
330
1BF
102
}
330
1BF
100
AcDbVisualStyle
  2
Hidden
 70
     6
177
     3
291
     0
 70
    58
 90
        1
176
     1
 90
        2
176
     1
 90
        2
176
     1
 90
        0
176
     1
 40
0.6
176
     1
 40
30.0
176
     1
 62
     7
420
 16777215
176
     1
 90
        2
176
     1
 90
        2
176
     1
 62
     7
176
     1
 62
   257
176
     1
 90
        2
176
     1
 90
        1
176
     1
 40
40.0
176
     1
 90
        0
176
     1
 62
   257
176
     1
 40
1.0
176
     1
 90
        1
176
     1
 90
        6
176
     1
 90
        2
176
     1
 62
     7
176
     1
 90
        3
176
     1
 90
        0
176
     1
 90
        0
176
     1
290
     0
176
     1
 90
        1
176
     1
 40
0.0
176
     1
 90
        0
176
     1
290
     0
176
     1
290
     1
176
     1
290
     1
176
     1
290
     0
176
     1
290
     0
176
     1
290
     0
176
     1
290
     0
176
     1
290
     0
176
     1
290
     0
176
     1
 90
       50
176
     1
 40
0.0
176
     1
 40
1.0
176
     1
 90
        0
176
     1
 62
    18
420
        0
176
     1
 90
       50
176
     1
 90
        3
176
     1
 62
     5
420
      255
176
     1
290
     0
176
     1
 90
       50
176
     1
 90
       50
176
     1
 90
       50
176
     1
290
     0
176
     1
 90
       50
176
     1
 62
   256
176
     0
 40
1.0
176
     0
 90
        2
176
     1
  1
strokes_ogs.tif
176
     1
290
     0
176
     1
 40
1.0
176
     1
 40
1.0
176
     1
  0
VISUALSTYLE
  5
21E
102
{ACAD_REACTORS
330
1BF
102
}
330
1BF
100
AcDbVisualStyle
  2
JitterOff
 70
    20
177
     3
291
     1
 70
    58
 90
        2
176
     0
 90
        2
176
     0
 90
        0
176
     0
 90
        0
176
     0
 40
0.6
176
     0
 40
30.0
176
     0
 62
     7
420
 16777215
176
     0
 90
        1
176
     0
 90
        4
176
     0
 62
     7
176
     0
 62
   257
176
     0
 90
        1
176
     0
 90
        1
176
     0
 40
1.0
176
     0
 90
       10
176
     2
 62
     7
176
     0
 40
1.0
176
     0
 90
        1
176
     0
 90
        6
176
     0
 90
        2
176
     0
 62
     7
176
     0
 90
        5
176
     0
 90
        0
176
     0
 90
        0
176
     0
290
     0
176
     0
 90
        1
176
     0
 40
0.0
176
     0
 90
        0
176
     0
290
     0
176
     0
290
     1
176
     0
290
     1
176
     0
290
     0
176
     0
290
     0
176
     0
290
     0
176
     0
290
     0
176
     0
290
     0
176
     0
290
     0
176
     0
 90
       50
176
     0
 40
0.0
176
     0
 40
1.0
176
     0
 90
        0
176
     0
 62
    18
420
        0
176
     0
 90
       50
176
     0
 90
        3
176
     0
 62
     5
420
      255
176
     0
290
     0
176
     0
 90
       50
176
     0
 90
       50
176
     0
 90
       50
176
     0
290
     0
176
     0
 90
       50
176
     0
 62
   256
176
     0
 40
1.0
176
     0
 90
        2
176
     0
  1
strokes_ogs.tif
176
     0
290
     0
176
     0
 40
1.0
176
     0
 40
1.0
176
     0
  0
VISUALSTYLE
  5
1CD
102
{ACAD_REACTORS
330
1BF
102
}
330
1BF
100
AcDbVisualStyle
  2
Linepattern
 70
    14
177
     3
291
     1
 70
    58
 90
        2
176
     1
 90
        2
176
     1
 90
        0
176
     1
 90
        0
176
     1
 40
-0.6
176
     1
 40
-30.0
176
     1
 62
     7
176
     1
 90
        1
176
     1
 90
        4
176
     1
 62
     7
176
     1
 62
   257
176
     1
 90
        7
176
     1
 90
        7
176
     1
 40
1.0
176
     1
 90
        8
176
     1
 62
     7
176
     1
 40
1.0
176
     1
 90
        1
176
     1
 90
        6
176
     1
 90
        2
176
     1
 62
     7
176
     1
 90
        5
176
     1
 90
        0
176
     1
 90
        0
176
     1
290
     0
176
     1
 90
        1
176
     1
 40
0.0
176
     1
 90
        0
176
     1
290
     0
176
     1
290
     1
176
     1
290
     1
176
     1
290
     0
176
     1
290
     0
176
     1
290
     0
176
     1
290
     0
176
     1
290
     0
176
     1
290
     0
176
     1
 90
       50
176
     1
 40
0.0
176
     1
 40
1.0
176
     1
 90
        0
176
     1
 62
    18
420
        0
176
     1
 90
       50
176
     1
 90
        3
176
     1
 62
     5
420
      255
176
     1
290
     0
176
     1
 90
       50
176
     1
 90
       50
176
     1
 90
       50
176
     1
290
     0
176
     1
 90
       50
176
     1
 62
   256
176
     0
 40
1.0
176
     0
 90
        2
176
     1
  1
strokes_ogs.tif
176
     1
290
     0
176
     1
 40
1.0
176
     1
 40
1.0
176
     1
  0
VISUALSTYLE
  5
21F
102
{ACAD_REACTORS
330
1BF
102
}
330
1BF
100
AcDbVisualStyle
  2
OverhangOff
 70
    21
177
     3
291
     1
 70
    58
 90
        2
176
     0
 90
        2
176
     0
 90
        0
176
     0
 90
        0
176
     0
 40
0.6
176
     0
 40
30.0
176
     0
 62
     7
420
 16777215
176
     0
 90
        1
176
     0
 90
        4
176
     0
 62
     7
176
     0
 62
   257
176
     0
 90
        1
176
     0
 90
        1
176
     0
 40
1.0
176
     0
 90
        9
176
     2
 62
     7
176
     0
 40
1.0
176
     0
 90
        1
176
     0
 90
        6
176
     0
 90
        2
176
     0
 62
     7
176
     0
 90
        5
176
     0
 90
        0
176
     0
 90
        0
176
     0
290
     0
176
     0
 90
        1
176
     0
 40
0.0
176
     0
 90
        0
176
     0
290
     0
176
     0
290
     1
176
     0
290
     1
176
     0
290
     0
176
     0
290
     0
176
     0
290
     0
176
     0
290
     0
176
     0
290
     0
176
     0
290
     0
176
     0
 90
       50
176
     0
 40
0.0
176
     0
 40
1.0
176
     0
 90
        0
176
     0
 62
    18
420
        0
176
     0
 90
       50
176
     0
 90
        3
176
     0
 62
     5
420
      255
176
     0
290
     0
176
     0
 90
       50
176
     0
 90
       50
176
     0
 90
       50
176
     0
290
     0
176
     0
 90
       50
176
     0
 62
   256
176
     0
 40
1.0
176
     0
 90
        2
176
     0
  1
strokes_ogs.tif
176
     0
290
     0
176
     0
 40
1.0
176
     0
 40
1.0
176
     0
  0
VISUALSTYLE
  5
1C8
102
{ACAD_REACTORS
330
1BF
102
}
330
1BF
100
AcDbVisualStyle
  2
Realistic
 70
     8
177
     3
291
     0
 70
    58
 90
        2
176
     1
 90
        2
176
     1
 90
        0
176
     1
 90
        0
176
     1
 40
-0.6
176
     1
 40
-30.0
176
     1
 62
     7
176
     1
 90
        1
176
     1
 90
        0
176
     1
 62
     7
176
     1
 62
   257
176
     1
 90
        1
176
     1
 90
        1
176
     1
 40
1.0
176
     1
 90
        8
176
     1
 62
     8
176
     1
 40
1.0
176
     1
 90
        1
176
     1
 90
        6
176
     1
 90
        2
176
     1
 62
     7
176
     1
 90
        5
176
     1
 90
        0
176
     1
 90
        0
176
     1
290
     0
176
     1
 90
       13
176
     1
 40
0.0
176
     1
 90
        0
176
     1
290
     0
176
     1
290
     1
176
     1
290
     1
176
     1
290
     0
176
     1
290
     0
176
     1
290
     0
176
     1
290
     0
176
     1
290
     0
176
     1
290
     0
176
     1
 90
       50
176
     1
 40
0.0
176
     1
 40
1.0
176
     1
 90
        0
176
     1
 62
    18
420
        0
176
     1
 90
       50
176
     1
 90
        3
176
     1
 62
     5
420
      255
176
     1
290
     0
176
     1
 90
       50
176
     1
 90
       50
176
     1
 90
       50
176
     1
290
     0
176
     1
 90
       50
176
     1
 62
   256
176
     0
 40
1.0
176
     0
 90
        2
176
     1
  1
strokes_ogs.tif
176
     1
290
     0
176
     1
 40
1.0
176
     1
 40
1.0
176
     1
  0
VISUALSTYLE
  5
225
102
{ACAD_REACTORS
330
1BF
102
}
330
1BF
100
AcDbVisualStyle
  2
Shaded
 70
    27
177
     3
291
     0
 70
    58
 90
        2
176
     1
 90
        2
176
     1
 90
        1
176
     1
 90
        2
176
     1
 40
0.6
176
     1
 40
30.0
176
     1
 62
     7
420
 16777215
176
     1
 90
        0
176
     1
 90
        4
176
     1
 62
     7
176
     1
 62
   257
176
     1
 90
        1
176
     1
 90
        1
176
     1
 40
1.0
176
     1
 90
        8
176
     1
 62
   257
176
     1
 40
1.0
176
     1
 90
        1
176
     1
 90
        6
176
     1
 90
        2
176
     1
 62
     8
420
  7895160
176
     1
 90
        3
176
     1
 90
        0
176
     1
 90
        0
176
     1
290
     0
176
     1
 90
        5
176
     1
 40
0.0
176
     1
 90
        0
176
     1
290
     0
176
     1
290
     1
176
     1
290
     1
176
     1
290
     0
176
     1
290
     0
176
     1
290
     0
176
     1
290
     0
176
     1
290
     0
176
     1
290
     0
176
     1
 90
       50
176
     1
 40
0.0
176
     1
 40
1.0
176
     1
 90
        0
176
     1
 62
    18
420
        0
176
     1
 90
       50
176
     1
 90
        3
176
     1
 62
     5
420
      255
176
     1
290
     0
176
     1
 90
       50
176
     1
 90
       50
176
     1
 90
       50
176
     1
290
     0
176
     1
 90
       50
176
     1
 62
   256
176
     0
 40
1.0
176
     0
 90
        2
176
     1
  1
strokes_ogs.tif
176
     1
290
     0
176
     1
 40
1.0
176
     1
 40
1.0
176
     1
  0
VISUALSTYLE
  5
224
102
{ACAD_REACTORS
330
1BF
102
}
330
1BF
100
AcDbVisualStyle
  2
Shaded with edges
 70
    26
177
     3
291
     0
 70
    58
 90
        2
176
     1
 90
        2
176
     1
 90
        1
176
     1
 90
        2
176
     1
 40
0.6
176
     1
 40
30.0
176
     1
 62
     7
420
 16777215
176
     1
 90
        1
176
     1
 90
       10
176
     1
 62
     7
176
     1
 62
   257
176
     1
 90
        2
176
     1
 90
        1
176
     1
 40
1.0
176
     1
 90
        8
176
     1
 62
   257
176
     1
 40
1.0
176
     1
 90
        1
176
     1
 90
        6
176
     1
 90
        2
176
     1
 62
     7
176
     1
 90
        3
176
     1
 90
        0
176
     1
 90
        0
176
     1
290
     0
176
     1
 90
        5
176
     1
 40
0.0
176
     1
 90
        0
176
     1
290
     0
176
     1
290
     1
176
     1
290
     1
176
     1
290
     0
176
     1
290
     0
176
     1
290
     0
176
     1
290
     0
176
     1
290
     0
176
     1
290
     0
176
     1
 90
       50
176
     1
 40
0.0
176
     1
 40
1.0
176
     1
 90
        0
176
     1
 62
    18
420
        0
176
     1
 90
       50
176
     1
 90
        3
176
     1
 62
     5
420
      255
176
     1
290
     0
176
     1
 90
       50
176
     1
 90
       50
176
     1
 90
       50
176
     1
290
     0
176
     1
 90
       50
176
     1
 62
   256
176
     0
 40
1.0
176
     0
 90
        2
176
     1
  1
strokes_ogs.tif
176
     1
290
     0
176
     1
 40
1.0
176
     1
 40
1.0
176
     1
  0
VISUALSTYLE
  5
221
102
{ACAD_REACTORS
330
1BF
102
}
330
1BF
100
AcDbVisualStyle
  2
Shades of Gray
 70
    23
177
     3
291
     0
 70
    58
 90
        2
176
     1
 90
        2
176
     1
 90
        3
176
     1
 90
        0
176
     1
 40
0.6
176
     1
 40
30.0
176
     1
 62
     7
420
 16777215
176
     1
 90
        2
176
     1
 90
        2
176
     1
 62
     7
176
     1
 62
     7
176
     1
 90
        1
176
     1
 90
        1
176
     1
 40
40.0
176
     1
 90
        8
176
     1
 62
     7
176
     1
 40
1.0
176
     1
 90
        1
176
     1
 90
        6
176
     1
 90
        2
176
     1
 62
     7
176
     1
 90
        3
176
     1
 90
        0
176
     1
 90
        0
176
     1
290
     0
176
     1
 90
        1
176
     1
 40
0.0
176
     1
 90
        0
176
     1
290
     0
176
     1
290
     1
176
     1
290
     1
176
     1
290
     0
176
     1
290
     0
176
     1
290
     0
176
     1
290
     0
176
     1
290
     0
176
     1
290
     0
176
     1
 90
       50
176
     1
 40
0.0
176
     1
 40
1.0
176
     1
 90
        0
176
     1
 62
    18
420
        0
176
     1
 90
       50
176
     1
 90
        3
176
     1
 62
     5
420
      255
176
     1
290
     0
176
     1
 90
       50
176
     1
 90
       50
176
     1
 90
       50
176
     1
290
     0
176
     1
 90
       50
176
     1
 62
   256
176
     0
 40
1.0
176
     0
 90
        2
176
     1
  1
strokes_ogs.tif
176
     1
290
     0
176
     1
 40
1.0
176
     1
 40
1.0
176
     1
  0
VISUALSTYLE
  5
222
102
{ACAD_REACTORS
330
1BF
102
}
330
1BF
100
AcDbVisualStyle
  2
Sketchy
 70
    24
177
     3
291
     0
 70
    58
 90
        1
176
     1
 90
        2
176
     1
 90
        2
176
     1
 90
        0
176
     1
 40
0.6
176
     1
 40
30.0
176
     1
 62
     7
420
 16777215
176
     1
 90
        2
176
     1
 90
        2
176
     1
 62
     7
176
     1
 62
     7
176
     1
 90
        1
176
     1
 90
        1
176
     1
 40
40.0
176
     1
 90
       11
176
     1
 62
     7
176
     1
 40
1.0
176
     1
 90
        1
176
     1
 90
        6
176
     1
 90
        2
176
     1
 62
     7
176
     1
 90
        6
176
     1
 90
        0
176
     1
 90
        0
176
     1
290
     0
176
     1
 90
        1
176
     1
 40
0.0
176
     1
 90
        0
176
     1
290
     0
176
     1
290
     1
176
     1
290
     1
176
     1
290
     0
176
     1
290
     0
176
     1
290
     0
176
     1
290
     0
176
     1
290
     0
176
     1
290
     0
176
     1
 90
       50
176
     1
 40
0.0
176
     1
 40
1.0
176
     1
 90
        0
176
     1
 62
    18
420
        0
176
     1
 90
       50
176
     1
 90
        3
176
     1
 62
     5
420
      255
176
     1
290
     0
176
     1
 90
       50
176
     1
 90
       50
176
     1
 90
       50
176
     1
290
     0
176
     1
 90
       50
176
     1
 62
   256
176
     0
 40
1.0
176
     0
 90
        2
176
     1
  1
strokes_ogs.tif
176
     1
290
     0
176
     1
 40
1.0
176
     1
 40
1.0
176
     1
  0
VISUALSTYLE
  5
1CC
102
{ACAD_REACTORS
330
1BF
102
}
330
1BF
100
AcDbVisualStyle
  2
Thicken
 70
    13
177
     3
291
     1
 70
    58
 90
        2
176
     1
 90
        2
176
     1
 90
        0
176
     1
 90
        0
176
     1
 40
-0.6
176
     1
 40
-30.0
176
     1
 62
     7
176
     1
 90
        1
176
     1
 90
        4
176
     1
 62
     7
176
     1
 62
   257
176
     1
 90
        1
176
     1
 90
        1
176
     1
 40
1.0
176
     1
 90
       12
176
     1
 62
     7
176
     1
 40
1.0
176
     1
 90
        1
176
     1
 90
        6
176
     1
 90
        2
176
     1
 62
     7
176
     1
 90
        5
176
     1
 90
        0
176
     1
 90
        0
176
     1
290
     0
176
     1
 90
        1
176
     1
 40
0.0
176
     1
 90
        0
176
     1
290
     0
176
     1
290
     1
176
     1
290
     1
176
     1
290
     0
176
     1
290
     0
176
     1
290
     0
176
     1
290
     0
176
     1
290
     0
176
     1
290
     0
176
     1
 90
       50
176
     1
 40
0.0
176
     1
 40
1.0
176
     1
 90
        0
176
     1
 62
    18
420
        0
176
     1
 90
       50
176
     1
 90
        3
176
     1
 62
     5
420
      255
176
     1
290
     0
176
     1
 90
       50
176
     1
 90
       50
176
     1
 90
       50
176
     1
290
     0
176
     1
 90
       50
176
     1
 62
   256
176
     0
 40
1.0
176
     0
 90
        2
176
     1
  1
strokes_ogs.tif
176
     1
290
     0
176
     1
 40
1.0
176
     1
 40
1.0
176
     1
  0
VISUALSTYLE
  5
21C
102
{ACAD_REACTORS
330
1BF
102
}
330
1BF
100
AcDbVisualStyle
  2
Wireframe
 70
     5
177
     3
291
     0
 70
    58
 90
        0
176
     1
 90
        2
176
     1
 90
        0
176
     1
 90
        0
176
     1
 40
0.6
176
     1
 40
30.0
176
     1
 62
     7
420
 16777215
176
     1
 90
        1
176
     1
 90
        4
176
     1
 62
     7
176
     1
 62
   257
176
     1
 90
        1
176
     1
 90
        1
176
     1
 40
1.0
176
     1
 90
        0
176
     1
 62
   257
176
     1
 40
1.0
176
     1
 90
        1
176
     1
 90
        6
176
     1
 90
        2
176
     1
 62
     7
176
     1
 90
        3
176
     1
 90
        0
176
     1
 90
        0
176
     1
290
     0
176
     1
 90
        1
176
     1
 40
0.0
176
     1
 90
        0
176
     1
290
     0
176
     1
290
     1
176
     1
290
     1
176
     1
290
     0
176
     1
290
     0
176
     1
290
     0
176
     1
290
     0
176
     1
290
     0
176
     1
290
     0
176
     1
 90
       50
176
     1
 40
0.0
176
     1
 40
1.0
176
     1
 90
        0
176
     1
 62
    18
420
        0
176
     1
 90
       50
176
     1
 90
        3
176
     1
 62
     5
420
      255
176
     1
290
     0
176
     1
 90
       50
176
     1
 90
       50
176
     1
 90
       50
176
     1
290
     0
176
     1
 90
       50
176
     1
 62
   256
176
     0
 40
1.0
176
     0
 90
        2
176
     1
  1
strokes_ogs.tif
176
     1
290
     0
176
     1
 40
1.0
176
     1
 40
1.0
176
     1
  0
VISUALSTYLE
  5
223
102
{ACAD_REACTORS
330
1BF
102
}
330
1BF
100
AcDbVisualStyle
  2
X-Ray
 70
    25
177
     3
291
     0
 70
    58
 90
        2
176
     1
 90
        2
176
     1
 90
        1
176
     1
 90
        1
176
     1
 40
0.5
176
     1
 40
30.0
176
     1
 62
     7
420
 16777215
176
     1
 90
        1
176
     1
 90
        0
176
     1
 62
     7
176
     1
 62
   257
176
     1
 90
        1
176
     1
 90
        1
176
     1
 40
1.0
176
     1
 90
        8
176
     1
 62
     7
176
     1
 40
1.0
176
     1
 90
        1
176
     1
 90
        6
176
     1
 90
        2
176
     1
 62
     7
176
     1
 90
        3
176
     1
 90
        0
176
     1
 90
        0
176
     1
290
     0
176
     1
 90
       13
176
     1
 40
0.0
176
     1
 90
        0
176
     1
290
     0
176
     1
290
     1
176
     1
290
     1
176
     1
290
     0
176
     1
290
     0
176
     1
290
     0
176
     1
290
     0
176
     1
290
     0
176
     1
290
     0
176
     1
 90
       50
176
     1
 40
0.0
176
     1
 40
1.0
176
     1
 90
        0
176
     1
 62
    18
420
        0
176
     1
 90
       50
176
     1
 90
        3
176
     1
 62
     5
420
      255
176
     1
290
     0
176
     1
 90
       50
176
     1
 90
       50
176
     1
 90
       50
176
     1
290
     0
176
     1
 90
       50
176
     1
 62
   256
176
     0
 40
1.0
176
     0
 90
        2
176
     1
  1
strokes_ogs.tif
176
     1
290
     0
176
     1
 40
1.0
176
     1
 40
1.0
176
     1
  0
DICTIONARYVAR
  5
257
102
{ACAD_REACTORS
330
1DB
102
}
330
1DB
100
DictionaryVariables
280
     0
  1
1:1
  0
DICTIONARYVAR
  5
259
102
{ACAD_REACTORS
330
1DB
102
}
330
1DB
100
DictionaryVariables
280
     0
  1
Standard
  0
DICTIONARYVAR
  5
258
102
{ACAD_REACTORS
330
1DB
102
}
330
1DB
100
DictionaryVariables
280
     0
  1
Standard
  0
DICTIONARYVAR
  5
1DF
102
{ACAD_REACTORS
330
1DB
102
}
330
1DB
100
DictionaryVariables
280
     0
  1
2
  0
DICTIONARYVAR
  5
1E0
102
{ACAD_REACTORS
330
1DB
102
}
330
1DB
100
DictionaryVariables
280
     0
  1
1
  0
DICTIONARYVAR
  5
1DE
102
{ACAD_REACTORS
330
1DB
102
}
330
1DB
100
DictionaryVariables
280
     0
  1
0
  0
DICTIONARY
  5
26C
330
227
100
AcDbDictionary
280
     1
281
     1
  3
ACAD_ROUNDTRIP_2008_TABLESTYLE_CELLSTYLEMAP
360
26D
  0
CELLSTYLEMAP
  5
26D
102
{ACAD_REACTORS
330
26C
102
}
330
26C
100
AcDbCellStyleMap
 90
        3
300
CELLSTYLE
  1
TABLEFORMAT_BEGIN
 90
        5
170
     1
 91
        0
 92
    32768
 62
   257
 93
        1
300
CONTENTFORMAT
  1
CONTENTFORMAT_BEGIN
 90
        0
 91
        0
 92
        4
 93
        0
300

 40
0.0
140
1.0
 94
        5
 62
     0
340
11
144
0.25
309
CONTENTFORMAT_END
171
     1
301
MARGIN
  1
CELLMARGIN_BEGIN
 40
0.06
 40
0.06
 40
0.06
 40
0.06
 40
0.06
 40
0.06
309
CELLMARGIN_END
 94
        6
 95
        1
302
GRIDFORMAT
  1
GRIDFORMAT_BEGIN
 90
        0
 91
        1
 62
     0
 92
       -2
340
14
 93
        0
 40
0.045
309
GRIDFORMAT_END
 95
        2
302
GRIDFORMAT
  1
GRIDFORMAT_BEGIN
 90
        0
 91
        1
 62
     0
 92
       -2
340
14
 93
        0
 40
0.045
309
GRIDFORMAT_END
 95
        4
302
GRIDFORMAT
  1
GRIDFORMAT_BEGIN
 90
        0
 91
        1
 62
     0
 92
       -2
340
14
 93
        0
 40
0.045
309
GRIDFORMAT_END
 95
        8
302
GRIDFORMAT
  1
GRIDFORMAT_BEGIN
 90
        0
 91
        1
 62
     0
 92
       -2
340
14
 93
        0
 40
0.045
309
GRIDFORMAT_END
 95
       16
302
GRIDFORMAT
  1
GRIDFORMAT_BEGIN
 90
        0
 91
        1
 62
     0
 92
       -2
340
14
 93
        0
 40
0.045
309
GRIDFORMAT_END
 95
       32
302
GRIDFORMAT
  1
GRIDFORMAT_BEGIN
 90
        0
 91
        1
 62
     0
 92
       -2
340
14
 93
        0
 40
0.045
309
GRIDFORMAT_END
309
TABLEFORMAT_END
  1
CELLSTYLE_BEGIN
 90
        1
 91
        1
300
_TITLE
309
CELLSTYLE_END
300
CELLSTYLE
  1
TABLEFORMAT_BEGIN
 90
        5
170
     1
 91
        0
 92
        0
 62
   257
 93
        1
300
CONTENTFORMAT
  1
CONTENTFORMAT_BEGIN
 90
        0
 91
        0
 92
        4
 93
        0
300

 40
0.0
140
1.0
 94
        5
 62
     0
340
11
144
0.18
309
CONTENTFORMAT_END
171
     1
301
MARGIN
  1
CELLMARGIN_BEGIN
 40
0.06
 40
0.06
 40
0.06
 40
0.06
 40
0.06
 40
0.06
309
CELLMARGIN_END
 94
        6
 95
        1
302
GRIDFORMAT
  1
GRIDFORMAT_BEGIN
 90
        0
 91
        1
 62
     0
 92
       -2
340
14
 93
        0
 40
0.045
309
GRIDFORMAT_END
 95
        2
302
GRIDFORMAT
  1
GRIDFORMAT_BEGIN
 90
        0
 91
        1
 62
     0
 92
       -2
340
14
 93
        0
 40
0.045
309
GRIDFORMAT_END
 95
        4
302
GRIDFORMAT
  1
GRIDFORMAT_BEGIN
 90
        0
 91
        1
 62
     0
 92
       -2
340
14
 93
        0
 40
0.045
309
GRIDFORMAT_END
 95
        8
302
GRIDFORMAT
  1
GRIDFORMAT_BEGIN
 90
        0
 91
        1
 62
     0
 92
       -2
340
14
 93
        0
 40
0.045
309
GRIDFORMAT_END
 95
       16
302
GRIDFORMAT
  1
GRIDFORMAT_BEGIN
 90
        0
 91
        1
 62
     0
 92
       -2
340
14
 93
        0
 40
0.045
309
GRIDFORMAT_END
 95
       32
302
GRIDFORMAT
  1
GRIDFORMAT_BEGIN
 90
        0
 91
        1
 62
     0
 92
       -2
340
14
 93
        0
 40
0.045
309
GRIDFORMAT_END
309
TABLEFORMAT_END
  1
CELLSTYLE_BEGIN
 90
        2
 91
        1
300
_HEADER
309
CELLSTYLE_END
300
CELLSTYLE
  1
TABLEFORMAT_BEGIN
 90
        5
170
     1
 91
        0
 92
        0
 62
   257
 93
        1
300
CONTENTFORMAT
  1
CONTENTFORMAT_BEGIN
 90
        0
 91
        0
 92
        4
 93
        0
300

 40
0.0
140
1.0
 94
        2
 62
     0
340
11
144
0.18
309
CONTENTFORMAT_END
171
     1
301
MARGIN
  1
CELLMARGIN_BEGIN
 40
0.06
 40
0.06
 40
0.06
 40
0.06
 40
0.06
 40
0.06
309
CELLMARGIN_END
 94
        6
 95
        1
302
GRIDFORMAT
  1
GRIDFORMAT_BEGIN
 90
        0
 91
        1
 62
     0
 92
       -2
340
14
 93
        0
 40
0.045
309
GRIDFORMAT_END
 95
        2
302
GRIDFORMAT
  1
GRIDFORMAT_BEGIN
 90
        0
 91
        1
 62
     0
 92
       -2
340
14
 93
        0
 40
0.045
309
GRIDFORMAT_END
 95
        4
302
GRIDFORMAT
  1
GRIDFORMAT_BEGIN
 90
        0
 91
        1
 62
     0
 92
       -2
340
14
 93
        0
 40
0.045
309
GRIDFORMAT_END
 95
        8
302
GRIDFORMAT
  1
GRIDFORMAT_BEGIN
 90
        0
 91
        1
 62
     0
 92
       -2
340
14
 93
        0
 40
0.045
309
GRIDFORMAT_END
 95
       16
302
GRIDFORMAT
  1
GRIDFORMAT_BEGIN
 90
        0
 91
        1
 62
     0
 92
       -2
340
14
 93
        0
 40
0.045
309
GRIDFORMAT_END
 95
       32
302
GRIDFORMAT
  1
GRIDFORMAT_BEGIN
 90
        0
 91
        1
 62
     0
 92
       -2
340
14
 93
        0
 40
0.045
309
GRIDFORMAT_END
309
TABLEFORMAT_END
  1
CELLSTYLE_BEGIN
 90
        3
 91
        2
300
_DATA
309
CELLSTYLE_END
  0
ENDSEC
  0
EOF
