  0
SECTION
  2
HEADER
  9
$ACADVER
  1
AC1027
  9
$ACADMAINTVER
 70
   105
  9
$DWGCODEPAGE
  3
ANSI_1252
  9
$REQUIREDVERSIONS
160
                 0
  9
$LASTSAVEDBY
  1
matthias.ochs
  9
$INSBASE
 10
0.0
 20
0.0
 30
0.0
  9
$EXTMIN
 10
-84.22031895649921
 20
-54.87986042134769
 30
0.0
  9
$EXTMAX
 10
85.96343202474107
 20
41.05269030629736
 30
0.0
  9
$LIMMIN
 10
-92.96301562
 20
-46.76755016
  9
$LIMMAX
 10
86.603014394
 20
32.785812574
  9
$ORTHOMODE
 70
     0
  9
$REGENMODE
 70
     1
  9
$FILLMODE
 70
     1
  9
$QTEXTMODE
 70
     0
  9
$MIRRTEXT
 70
     1
  9
$LTSCALE
 40
1.0
  9
$ATTMODE
 70
     1
  9
$TEXTSIZE
 40
0.2
  9
$TRACEWID
 40
0.05
  9
$TEXTSTYLE
  7
Standard
  9
$CLAYER
  8
1
  9
$CELTYPE
  6
ByLayer
  9
$CECOLOR
 62
   256
  9
$CELTSCALE
 40
1.0
  9
$DISPSILH
 70
     0
  9
$DIMSCALE
 40
1.0
  9
$DIMASZ
 40
0.18
  9
$DIMEXO
 40
0.0625
  9
$DIMDLI
 40
0.38
  9
$DIMRND
 40
0.0
  9
$DIMDLE
 40
0.0
  9
$DIMEXE
 40
0.18
  9
$DIMTP
 40
0.0
  9
$DIMTM
 40
0.0
  9
$DIMTXT
 40
0.18
  9
$DIMCEN
 40
0.09
  9
$DIMTSZ
 40
0.0
  9
$DIMTOL
 70
     0
  9
$DIMLIM
 70
     0
  9
$DIMTIH
 70
     1
  9
$DIMTOH
 70
     1
  9
$DIMSE1
 70
     0
  9
$DIMSE2
 70
     0
  9
$DIMTAD
 70
     0
  9
$DIMZIN
 70
     0
  9
$DIMBLK
  1

  9
$DIMASO
 70
     1
  9
$DIMSHO
 70
     1
  9
$DIMPOST
  1

  9
$DIMAPOST
  1

  9
$DIMALT
 70
     0
  9
$DIMALTD
 70
     2
  9
$DIMALTF
 40
25.4
  9
$DIMLFAC
 40
1.0
  9
$DIMTOFL
 70
     0
  9
$DIMTVP
 40
0.0
  9
$DIMTIX
 70
     0
  9
$DIMSOXD
 70
     0
  9
$DIMSAH
 70
     0
  9
$DIMBLK1
  1

  9
$DIMBLK2
  1

  9
$DIMSTYLE
  2
Standard
  9
$DIMCLRD
 70
     0
  9
$DIMCLRE
 70
     0
  9
$DIMCLRT
 70
     0
  9
$DIMTFAC
 40
1.0
  9
$DIMGAP
 40
0.09
  9
$DIMJUST
 70
     0
  9
$DIMSD1
 70
     0
  9
$DIMSD2
 70
     0
  9
$DIMTOLJ
 70
     1
  9
$DIMTZIN
 70
     0
  9
$DIMALTZ
 70
     0
  9
$DIMALTTZ
 70
     0
  9
$DIMUPT
 70
     0
  9
$DIMDEC
 70
     4
  9
$DIMTDEC
 70
     4
  9
$DIMALTU
 70
     2
  9
$DIMALTTD
 70
     2
  9
$DIMTXSTY
  7
Standard
  9
$DIMAUNIT
 70
     0
  9
$DIMADEC
 70
     0
  9
$DIMALTRND
 40
0.0
  9
$DIMAZIN
 70
     0
  9
$DIMDSEP
 70
    46
  9
$DIMATFIT
 70
     3
  9
$DIMFRAC
 70
     0
  9
$DIMLDRBLK
  1

  9
$DIMLUNIT
 70
     2
  9
$DIMLWD
 70
    -2
  9
$DIMLWE
 70
    -2
  9
$DIMTMOVE
 70
     2
  9
$DIMFXL
 40
1.0
  9
$DIMFXLON
 70
     0
  9
$DIMJOGANG
 40
0.7853981633974483
  9
$DIMTFILL
 70
     0
  9
$DIMTFILLCLR
 70
     0
  9
$DIMARCSYM
 70
     0
  9
$DIMLTYPE
  6

  9
$DIMLTEX1
  6

  9
$DIMLTEX2
  6

  9
$DIMTXTDIRECTION
 70
     0
  9
$LUNITS
 70
     2
  9
$LUPREC
 70
     4
  9
$SKETCHINC
 40
0.1
  9
$FILLETRAD
 40
0.5
  9
$AUNITS
 70
     2
  9
$AUPREC
 70
     0
  9
$MENU
  1
.
  9
$ELEVATION
 40
0.0
  9
$PELEVATION
 40
0.0
  9
$THICKNESS
 40
0.0
  9
$LIMCHECK
 70
     0
  9
$CHAMFERA
 40
0.5
  9
$CHAMFERB
 40
0.5
  9
$CHAMFERC
 40
1.0
  9
$CHAMFERD
 40
0.0
  9
$SKPOLY
 70
     0
  9
$TDCREATE
 40
2458327.507697489
  9
$TDUCREATE
 40
2458327.466030822
  9
$TDUPDATE
 40
2458571.426263565
  9
$TDUUPDATE
 40
2458571.384596898
  9
$TDINDWG
 40
0.0053379977
  9
$TDUSRTIMER
 40
0.004398206
  9
$USRTIMER
 70
     1
  9
$ANGBASE
 50
0.0
  9
$ANGDIR
 70
     0
  9
$PDMODE
 70
     0
  9
$PDSIZE
 40
0.0
  9
$PLINEWID
 40
0.0
  9
$SPLFRAME
 70
     0
  9
$SPLINETYPE
 70
     6
  9
$SPLINESEGS
 70
     8
  9
$HANDSEED
  5
292
  9
$SURFTAB1
 70
     6
  9
$SURFTAB2
 70
     6
  9
$SURFTYPE
 70
     6
  9
$SURFU
 70
     6
  9
$SURFV
 70
     6
  9
$UCSBASE
  2

  9
$UCSNAME
  2

  9
$UCSORG
 10
0.0
 20
0.0
 30
0.0
  9
$UCSXDIR
 10
1.0
 20
0.0
 30
0.0
  9
$UCSYDIR
 10
0.0
 20
1.0
 30
0.0
  9
$UCSORTHOREF
  2

  9
$UCSORTHOVIEW
 70
     0
  9
$UCSORGTOP
 10
0.0
 20
0.0
 30
0.0
  9
$UCSORGBOTTOM
 10
0.0
 20
0.0
 30
0.0
  9
$UCSORGLEFT
 10
0.0
 20
0.0
 30
0.0
  9
$UCSORGRIGHT
 10
0.0
 20
0.0
 30
0.0
  9
$UCSORGFRONT
 10
0.0
 20
0.0
 30
0.0
  9
$UCSORGBACK
 10
0.0
 20
0.0
 30
0.0
  9
$PUCSBASE
  2

  9
$PUCSNAME
  2

  9
$PUCSORG
 10
0.0
 20
0.0
 30
0.0
  9
$PUCSXDIR
 10
1.0
 20
0.0
 30
0.0
  9
$PUCSYDIR
 10
0.0
 20
1.0
 30
0.0
  9
$PUCSORTHOREF
  2

  9
$PUCSORTHOVIEW
 70
     0
  9
$PUCSORGTOP
 10
0.0
 20
0.0
 30
0.0
  9
$PUCSORGBOTTOM
 10
0.0
 20
0.0
 30
0.0
  9
$PUCSORGLEFT
 10
0.0
 20
0.0
 30
0.0
  9
$PUCSORGRIGHT
 10
0.0
 20
0.0
 30
0.0
  9
$PUCSORGFRONT
 10
0.0
 20
0.0
 30
0.0
  9
$PUCSORGBACK
 10
0.0
 20
0.0
 30
0.0
  9
$USERI1
 70
     0
  9
$USERI2
 70
     0
  9
$USERI3
 70
     0
  9
$USERI4
 70
     0
  9
$USERI5
 70
     0
  9
$USERR1
 40
0.0
  9
$USERR2
 40
0.0
  9
$USERR3
 40
0.0
  9
$USERR4
 40
0.0
  9
$USERR5
 40
0.0
  9
$WORLDVIEW
 70
     1
  9
$SHADEDGE
 70
     3
  9
$SHADEDIF
 70
    70
  9
$TILEMODE
 70
     1
  9
$MAXACTVP
 70
    64
  9
$PINSBASE
 10
0.0
 20
0.0
 30
0.0
  9
$PLIMCHECK
 70
     0
  9
$PEXTMIN
 10
1.000000000000000E+20
 20
1.000000000000000E+20
 30
1.000000000000000E+20
  9
$PEXTMAX
 10
-1.000000000000000E+20
 20
-1.000000000000000E+20
 30
-1.000000000000000E+20
  9
$PLIMMIN
 10
0.0
 20
0.0
  9
$PLIMMAX
 10
0.0
 20
0.0
  9
$UNITMODE
 70
     0
  9
$VISRETAIN
 70
     1
  9
$PLINEGEN
 70
     0
  9
$PSLTSCALE
 70
     1
  9
$TREEDEPTH
 70
  3020
  9
$CMLSTYLE
  2
Standard
  9
$CMLJUST
 70
     0
  9
$CMLSCALE
 40
1.0
  9
$PROXYGRAPHICS
 70
     1
  9
$MEASUREMENT
 70
     0
  9
$CELWEIGHT
370
    -1
  9
$ENDCAPS
280
     0
  9
$JOINSTYLE
280
     0
  9
$LWDISPLAY
290
     0
  9
$INSUNITS
 70
     0
  9
$HYPERLINKBASE
  1

  9
$STYLESHEET
  1

  9
$XEDIT
290
     1
  9
$CEPSNTYPE
380
     0
  9
$PSTYLEMODE
290
     1
  9
$FINGERPRINTGUID
  2
{E25A6A2F-42F6-42FD-ACFE-A2673A8011F8}
  9
$VERSIONGUID
  2
{FAEB1C32-E019-11D5-929B-00C0DF256EC4}
  9
$EXTNAMES
290
     1
  9
$PSVPSCALE
 40
0.0
  9
$OLESTARTUP
290
     0
  9
$SORTENTS
280
   127
  9
$INDEXCTL
280
     0
  9
$HIDETEXT
280
     1
  9
$XCLIPFRAME
280
     2
  9
$HALOGAP
280
     0
  9
$OBSCOLOR
 70
   257
  9
$OBSLTYPE
280
     0
  9
$INTERSECTIONDISPLAY
280
     0
  9
$INTERSECTIONCOLOR
 70
   257
  9
$DIMASSOC
280
     2
  9
$PROJECTNAME
  1

  9
$CAMERADISPLAY
290
     0
  9
$LENSLENGTH
 40
50.0
  9
$CAMERAHEIGHT
 40
0.0
  9
$STEPSPERSEC
 40
2.0
  9
$STEPSIZE
 40
6.0
  9
$3DDWFPREC
 40
2.0
  9
$PSOLWIDTH
 40
0.25
  9
$PSOLHEIGHT
 40
4.0
  9
$LOFTANG1
 40
1.570796326794897
  9
$LOFTANG2
 40
1.570796326794897
  9
$LOFTMAG1
 40
0.0
  9
$LOFTMAG2
 40
0.0
  9
$LOFTPARAM
 70
     7
  9
$LOFTNORMALS
280
     1
  9
$LATITUDE
 40
37.795
  9
$LONGITUDE
 40
-122.394
  9
$NORTHDIRECTION
 40
0.0
  9
$TIMEZONE
 70
 -8000
  9
$LIGHTGLYPHDISPLAY
280
     1
  9
$TILEMODELIGHTSYNCH
280
     1
  9
$SOLIDHIST
280
     0
  9
$SHOWHIST
280
     1
  9
$DWFFRAME
280
     2
  9
$DGNFRAME
280
     2
  9
$REALWORLDSCALE
290
     1
  9
$INTERFERECOLOR
 62
   256
  9
$CSHADOW
280
     0
  9
$SHADOWPLANELOCATION
 40
0.0
  0
ENDSEC
  0
SECTION
  2
CLASSES
  0
CLASS
  1
ACDBDICTIONARYWDFLT
  2
AcDbDictionaryWithDefault
  3
ObjectDBX Classes
 90
        0
 91
       10
280
     0
281
     0
  0
CLASS
  1
SCALE
  2
AcDbScale
  3
ObjectDBX Classes
 90
     1153
 91
       10
280
     0
281
     0
  0
CLASS
  1
VISUALSTYLE
  2
AcDbVisualStyle
  3
ObjectDBX Classes
 90
     4095
 91
       10
280
     0
281
     0
  0
CLASS
  1
MATERIAL
  2
AcDbMaterial
  3
ObjectDBX Classes
 90
     1153
 91
       10
280
     0
281
     0
  0
CLASS
  1
DICTIONARYVAR
  2
AcDbDictionaryVar
  3
ObjectDBX Classes
 90
        0
 91
       10
280
     0
281
     0
  0
CLASS
  1
ACDBPLACEHOLDER
  2
AcDbPlaceHolder
  3
ObjectDBX Classes
 90
        0
 91
        1
280
     0
281
     0
  0
CLASS
  1
LAYOUT
  2
AcDbLayout
  3
ObjectDBX Classes
 90
        0
 91
        1
280
     0
281
     0
  0
CLASS
  1
TABLESTYLE
  2
AcDbTableStyle
  3
ObjectDBX Classes
 90
     4095
 91
       10
280
     0
281
     0
  0
CLASS
  1
MLEADERSTYLE
  2
AcDbMLeaderStyle
  3
ACDB_MLEADERSTYLE_CLASS
 90
     4095
 91
       10
280
     0
281
     0
  0
CLASS
  1
SUN
  2
AcDbSun
  3
SCENEOE
 90
     1153
 91
       10
280
     0
281
     0
  0
CLASS
  1
CELLSTYLEMAP
  2
AcDbCellStyleMap
  3
ObjectDBX Classes
 90
     1152
 91
        4
280
     0
281
     0
  0
ENDSEC
  0
SECTION
  2
TABLES
  0
TABLE
  2
VPORT
  5
8
330
0
100
AcDbSymbolTable
 70
     1
  0
VPORT
  5
16B
330
8
100
AcDbSymbolTableRecord
100
AcDbViewportTableRecord
  2
*Active
 70
     0
 10
0.0
 20
0.0
 11
1.0
 21
1.0
 12
-23.32506286524797
 22
-89.63741310531618
 13
0.0
 23
0.0
 14
0.5
 24
0.5
 15
0.5
 25
0.5
 16
0.0
 26
0.0
 36
1.0
 17
0.0
 27
0.0
 37
0.0
 40
423.0687818395889
 41
1.70021645021645
 42
50.0
 43
0.0
 44
0.0
 50
0.0
 51
0.0
 71
    16
 72
   100
 73
     1
 74
     3
 75
     0
 76
     0
 77
     0
 78
     0
281
     0
 65
     1
110
0.0
120
0.0
130
0.0
111
1.0
121
0.0
131
0.0
112
0.0
122
1.0
132
0.0
 79
     0
146
0.0
348
19C
 60
     3
 61
     5
292
     1
282
     1
141
0.0
142
0.0
 63
   256
361
265
  0
ENDTAB
  0
TABLE
  2
LTYPE
  5
5
330
0
100
AcDbSymbolTable
 70
     8
  0
LTYPE
  5
14
330
5
100
AcDbSymbolTableRecord
100
AcDbLinetypeTableRecord
  2
ByBlock
 70
     0
  3

 72
    65
 73
     0
 40
0.0
  0
LTYPE
  5
15
330
5
100
AcDbSymbolTableRecord
100
AcDbLinetypeTableRecord
  2
ByLayer
 70
     0
  3

 72
    65
 73
     0
 40
0.0
  0
LTYPE
  5
16
330
5
100
AcDbSymbolTableRecord
100
AcDbLinetypeTableRecord
  2
Continuous
 70
     0
  3
Solid line
 72
    65
 73
     0
 40
0.0
  0
LTYPE
  5
20
330
5
100
AcDbSymbolTableRecord
100
AcDbLinetypeTableRecord
  2
PUNKT
 70
     0
  3
..............
 72
    65
 73
     2
 40
1.5
 49
0.7
 74
     0
 49
-0.8
 74
     0
  0
LTYPE
  5
21
330
5
100
AcDbSymbolTableRecord
100
AcDbLinetypeTableRecord
  2
GESTRICHELT
 70
     0
  3
-- -- -- -- --
 72
    65
 73
     7
 40
2.8
 49
0.9
 74
     0
 49
0.0
 74
     0
 49
0.9
 74
     0
 49
0.0
 74
     0
 49
0.2
 74
     0
 49
0.0
 74
     0
 49
-0.8
 74
     0
  0
LTYPE
  5
22
330
5
100
AcDbSymbolTableRecord
100
AcDbLinetypeTableRecord
  2
STRICHPUNKT
 70
     0
  3
--.--.--.--.--
 72
    65
 73
     4
 40
8.8
 49
5.5
 74
     0
 49
-1.3
 74
     0
 49
0.7
 74
     0
 49
-1.3
 74
     0
  0
LTYPE
  5
25
330
5
100
AcDbSymbolTableRecord
100
AcDbLinetypeTableRecord
  2
PHANTOM
 70
     0
  3
--..--..--..--
 72
    65
 73
     6
 40
14.2
 49
7.0
 74
     0
 49
-1.8
 74
     0
 49
0.9
 74
     0
 49
-1.8
 74
     0
 49
0.9
 74
     0
 49
-1.8
 74
     0
  0
LTYPE
  5
1E3
330
5
100
AcDbSymbolTableRecord
100
AcDbLinetypeTableRecord
  2
DASH
 70
     0
  3
DASH _ _ _ _ _
 72
    65
 73
     2
 40
0.75
 49
0.4
 74
     0
 49
-0.35
 74
     0
  0
LTYPE
  5
1E4
330
5
100
AcDbSymbolTableRecord
100
AcDbLinetypeTableRecord
  2
LONGDASH_DASH
 70
     0
  3
LONGDASH_DASH __ . __ . __
 72
    65
 73
     4
 40
0.85
 49
0.4
 74
     0
 49
-0.2
 74
     0
 49
0.05
 74
     0
 49
-0.2
 74
     0
  0
LTYPE
  5
1E5
330
5
100
AcDbSymbolTableRecord
100
AcDbLinetypeTableRecord
  2
LONGDASH_DASH_DASH
 70
     0
  3
LONGDASH_DASH_DASH __ . . __ . . __
 72
    65
 73
     6
 40
1.1
 49
0.4
 74
     0
 49
-0.2
 74
     0
 49
0.05
 74
     0
 49
-0.2
 74
     0
 49
0.05
 74
     0
 49
-0.2
 74
     0
  0
ENDTAB
  0
TABLE
  2
LAYER
  5
2
102
{ACAD_XDICTIONARY
360
207
102
}
330
0
100
AcDbSymbolTable
 70
    15
  0
LAYER
  5
1AD
330
2
100
AcDbSymbolTableRecord
100
AcDbLayerTableRecord
  2
200
 70
     0
 62
     2
  6
Continuous
370
    50
390
F
347
1AB
348
0
  0
LAYER
  5
1E6
330
2
100
AcDbSymbolTableRecord
100
AcDbLayerTableRecord
  2
0
 70
     0
 62
     1
  6
Continuous
370
    -3
390
F
347
1AB
348
0
  0
LAYER
  5
1E7
330
2
100
AcDbSymbolTableRecord
100
AcDbLayerTableRecord
  2
1
 70
     0
 62
     4
  6
Continuous
370
    50
390
F
347
1AB
348
0
  0
LAYER
  5
1E8
330
2
100
AcDbSymbolTableRecord
100
AcDbLayerTableRecord
  2
2
 70
     0
 62
     7
  6
Continuous
370
    25
390
F
347
1AB
348
0
  0
LAYER
  5
1E9
330
2
100
AcDbSymbolTableRecord
100
AcDbLayerTableRecord
  2
3
 70
     0
 62
     1
  6
DASH
370
    35
390
F
347
1AB
348
0
  0
LAYER
  5
1EA
330
2
100
AcDbSymbolTableRecord
100
AcDbLayerTableRecord
  2
4
 70
     0
 62
     2
  6
LONGDASH_DASH
370
    25
390
F
347
1AB
348
0
  0
LAYER
  5
1EB
330
2
100
AcDbSymbolTableRecord
100
AcDbLayerTableRecord
  2
6
 70
     0
 62
     5
  6
Continuous
370
    -3
390
F
347
1AB
348
0
  0
LAYER
  5
1EC
330
2
100
AcDbSymbolTableRecord
100
AcDbLayerTableRecord
  2
CUT
 70
     0
 62
     1
  6
Continuous
370
    25
390
F
347
1AB
348
0
  0
LAYER
  5
1ED
330
2
100
AcDbSymbolTableRecord
100
AcDbLayerTableRecord
  2
NOCUT
 70
     0
 62
     7
  6
Continuous
370
    25
390
F
347
1AB
348
0
  0
LAYER
  5
1EE
330
2
100
AcDbSymbolTableRecord
100
AcDbLayerTableRecord
  2
SK1
 70
     0
 62
     4
  6
Continuous
370
    50
390
F
347
1AB
348
0
  0
LAYER
  5
1EF
330
2
100
AcDbSymbolTableRecord
100
AcDbLayerTableRecord
  2
SK2
 70
     0
 62
     7
  6
Continuous
370
    25
390
F
347
1AB
348
0
  0
LAYER
  5
1F0
330
2
100
AcDbSymbolTableRecord
100
AcDbLayerTableRecord
  2
SK3
 70
     0
 62
     1
  6
DASH
370
    35
390
F
347
1AB
348
0
  0
LAYER
  5
1F1
330
2
100
AcDbSymbolTableRecord
100
AcDbLayerTableRecord
  2
SK4
 70
     0
 62
     2
  6
LONGDASH_DASH
370
    25
390
F
347
1AB
348
0
  0
LAYER
  5
1F2
330
2
100
AcDbSymbolTableRecord
100
AcDbLayerTableRecord
  2
SK6
 70
     0
 62
     5
  6
Continuous
370
    -3
390
F
347
1AB
348
0
  0
LAYER
  5
1F3
330
2
100
AcDbSymbolTableRecord
100
AcDbLayerTableRecord
  2
INFTOTAL
 70
     0
 62
     9
  6
Continuous
370
    18
390
F
347
1AB
348
0
  0
ENDTAB
  0
TABLE
  2
STYLE
  5
3
330
0
100
AcDbSymbolTable
 70
     2
  0
STYLE
  5
11
330
3
100
AcDbSymbolTableRecord
100
AcDbTextStyleTableRecord
  2
Standard
 70
     0
 40
0.0
 41
1.0
 50
0.0
 71
     0
 42
0.2
  3
txt
  4

  0
STYLE
  5
1AC
330
3
100
AcDbSymbolTableRecord
100
AcDbTextStyleTableRecord
  2
BMG_Text
 70
     0
 40
3.5
 41
1.0
 50
0.0
 71
     0
 42
0.2
  3
monos.ttf
  4

1001
ACAD
1000
Monospac821 BT
1071
       49
  0
ENDTAB
  0
TABLE
  2
VIEW
  5
6
330
0
100
AcDbSymbolTable
 70
     0
  0
ENDTAB
  0
TABLE
  2
UCS
  5
7
330
0
100
AcDbSymbolTable
 70
     0
  0
ENDTAB
  0
TABLE
  2
APPID
  5
9
330
0
100
AcDbSymbolTable
 70
     1
  0
APPID
  5
12
330
9
100
AcDbSymbolTableRecord
100
AcDbRegAppTableRecord
  2
ACAD
 70
     0
  0
ENDTAB
  0
TABLE
  2
DIMSTYLE
  5
A
330
0
100
AcDbSymbolTable
 70
     1
100
AcDbDimStyleTable
  0
DIMSTYLE
105
28
330
A
100
AcDbSymbolTableRecord
100
AcDbDimStyleTableRecord
  2
Standard
 70
     0
178
     0
340
11
  0
ENDTAB
  0
TABLE
  2
BLOCK_RECORD
  5
1
330
0
100
AcDbSymbolTable
 70
     0
  0
BLOCK_RECORD
  5
1D
330
1
100
AcDbSymbolTableRecord
100
AcDbBlockTableRecord
  2
*Model_Space
340
1E
 70
     0
280
     1
281
     0
  0
BLOCK_RECORD
  5
1B
330
1
100
AcDbSymbolTableRecord
100
AcDbBlockTableRecord
  2
*Paper_Space
340
1C
 70
     0
280
     1
281
     0
  0
ENDTAB
  0
ENDSEC
  0
SECTION
  2
BLOCKS
  0
BLOCK
  5
195
330
1D
100
AcDbEntity
  8
0
100
AcDbBlockBegin
  2
*Model_Space
 70
     0
 10
0.0
 20
0.0
 30
0.0
  3
*Model_Space
  1

  0
ENDBLK
  5
196
330
1D
100
AcDbEntity
  8
0
100
AcDbBlockEnd
  0
BLOCK
  5
193
330
1B
100
AcDbEntity
 67
     1
  8
0
100
AcDbBlockBegin
  2
*Paper_Space
 70
     0
 10
0.0
 20
0.0
 30
0.0
  3
*Paper_Space
  1

  0
ENDBLK
  5
194
330
1B
100
AcDbEntity
 67
     1
  8
0
100
AcDbBlockEnd
  0
ENDSEC
  0
SECTION
  2
ENTITIES
  0
LINE
  5
29
330
1D
100
AcDbEntity
  8
1
100
AcDbLine
 10
0.5
 20
19.975
 30
0.0
 11
0.0
 21
19.475
 31
0.0
  0
LINE
  5
2A
330
1D
100
AcDbEntity
  8
1
100
AcDbLine
 10
0.0
 20
-19.475
 30
0.0
 11
0.5
 21
-19.975
 31
0.0
  0
LINE
  5
2B
330
1D
100
AcDbEntity
  8
1
100
AcDbLine
 10
19.57
 20
-19.975
 30
0.0
 11
19.97
 21
-19.575
 31
0.0
  0
LINE
  5
2C
330
1D
100
AcDbEntity
  8
1
100
AcDbLine
 10
19.97
 20
19.575
 30
0.0
 11
19.57
 21
19.975
 31
0.0
  0
LINE
  5
2D
330
1D
100
AcDbEntity
  8
1
100
AcDbLine
 10
18.104123402
 20
-19.975
 30
0.0
 11
19.57
 21
-19.975
 31
0.0
  0
LINE
  5
2E
330
1D
100
AcDbEntity
  8
1
100
AcDbLine
 10
19.57
 20
19.975
 30
0.0
 11
18.104123402
 21
19.975
 31
0.0
  0
LINE
  5
2F
330
1D
100
AcDbEntity
  8
1
100
AcDbLine
 10
0.5
 20
-19.975
 30
0.0
 11
13.935876598
 21
-19.975
 31
0.0
  0
LINE
  5
30
330
1D
100
AcDbEntity
  8
1
100
AcDbLine
 10
13.935876598
 20
19.975
 30
0.0
 11
0.5
 21
19.975
 31
0.0
  0
LINE
  5
31
330
1D
100
AcDbEntity
  8
1
100
AcDbLine
 10
18.104123402
 20
19.975
 30
0.0
 11
17.954123402
 21
19.825
 31
0.0
  0
LINE
  5
32
330
1D
100
AcDbEntity
  8
1
100
AcDbLine
 10
17.954123402
 20
-19.825
 30
0.0
 11
18.104123402
 21
-19.975
 31
0.0
  0
LINE
  5
33
330
1D
100
AcDbEntity
  8
1
100
AcDbLine
 10
13.935876598
 20
-19.975
 30
0.0
 11
14.085876598
 21
-19.825
 31
0.0
  0
LINE
  5
34
330
1D
100
AcDbEntity
  8
1
100
AcDbLine
 10
14.085876598
 20
19.825
 30
0.0
 11
13.935876598
 21
19.975
 31
0.0
  0
LINE
  5
35
330
1D
100
AcDbEntity
  8
1
100
AcDbLine
 10
17.954123402
 20
19.825
 30
0.0
 11
17.0575
 21
18.272002713
 31
0.0
  0
LINE
  5
36
330
1D
100
AcDbEntity
  8
1
100
AcDbLine
 10
17.0575
 20
-18.272002713
 30
0.0
 11
17.954123402
 21
-19.825
 31
0.0
  0
LINE
  5
37
330
1D
100
AcDbEntity
  8
1
100
AcDbLine
 10
14.085876598
 20
-19.825
 30
0.0
 11
14.9825
 21
-18.272002713
 31
0.0
  0
LINE
  5
38
330
1D
100
AcDbEntity
  8
1
100
AcDbLine
 10
14.9825
 20
18.272002713
 30
0.0
 11
14.085876598
 21
19.825
 31
0.0
  0
ARC
  5
39
330
1D
100
AcDbEntity
  8
1
100
AcDbCircle
 10
15.7325
 20
-18.125
 30
0.0
 40
0.75
100
AcDbArc
 50
90.0
 51
180.0
  0
ARC
  5
3A
330
1D
100
AcDbEntity
  8
1
100
AcDbCircle
 10
15.7325
 20
18.125
 30
0.0
 40
0.75
100
AcDbArc
 50
180.0
 51
270.0
  0
ARC
  5
3B
330
1D
100
AcDbEntity
  8
1
100
AcDbCircle
 10
16.3075
 20
-18.125
 30
0.0
 40
0.75
100
AcDbArc
 50
0.0
 51
90.0
  0
ARC
  5
3C
330
1D
100
AcDbEntity
  8
1
100
AcDbCircle
 10
16.3075
 20
18.125
 30
0.0
 40
0.75
100
AcDbArc
 50
270.0
 51
0.0
  0
LINE
  5
3D
330
1D
100
AcDbEntity
  8
1
100
AcDbLine
 10
15.7325
 20
-17.375
 30
0.0
 11
16.3075
 21
-17.375
 31
0.0
  0
LINE
  5
3E
330
1D
100
AcDbEntity
  8
1
100
AcDbLine
 10
16.3075
 20
17.375
 30
0.0
 11
15.7325
 21
17.375
 31
0.0
  0
ARC
  5
3F
330
1D
100
AcDbEntity
  8
SK1
100
AcDbCircle
 10
-0.23
 20
-15.426943015
 30
0.0
 40
0.5
100
AcDbArc
 50
62.612892497
 51
105.0
  0
ARC
  5
40
330
1D
100
AcDbEntity
  8
SK1
100
AcDbCircle
 10
-0.23
 20
15.426943015
 30
0.0
 40
0.5
100
AcDbArc
 50
255.0
 51
297.387107503
  0
LINE
  5
41
330
1D
100
AcDbEntity
  8
SK1
100
AcDbLine
 10
-1.211523116
 20
15.172303251
 30
0.0
 11
-19.120029954
 21
14.275083469
 31
0.0
  0
LINE
  5
42
330
1D
100
AcDbEntity
  8
SK1
100
AcDbLine
 10
-19.120029954
 20
-14.275083469
 30
0.0
 11
-1.211523116
 21
-15.172303251
 31
0.0
  0
LINE
  5
43
330
1D
100
AcDbEntity
  8
SK1
100
AcDbLine
 10
-1.211523116
 20
-15.172303251
 30
0.0
 11
-0.359409523
 21
-14.943980102
 31
0.0
  0
LINE
  5
44
330
1D
100
AcDbEntity
  8
SK1
100
AcDbLine
 10
-0.359409523
 20
14.943980102
 30
0.0
 11
-1.211523116
 21
15.172303251
 31
0.0
  0
ARC
  5
45
330
1D
100
AcDbEntity
  8
SK1
100
AcDbCircle
 10
-19.08
 20
13.476085595
 30
0.0
 40
0.8
100
AcDbArc
 50
92.86813194100002
 51
167.856748693
  0
ARC
  5
46
330
1D
100
AcDbEntity
  8
SK1
100
AcDbCircle
 10
-19.08
 20
-13.476085595
 30
0.0
 40
0.8
100
AcDbArc
 50
192.143251307
 51
267.131868059
  0
ARC
  5
47
330
1D
100
AcDbEntity
  8
SK1
100
AcDbCircle
 10
-18.93
 20
-13.460822511
 30
0.0
 40
0.95
100
AcDbArc
 50
180.0
 51
191.140106377
  0
ARC
  5
48
330
1D
100
AcDbEntity
  8
SK1
100
AcDbCircle
 10
-18.93
 20
13.460822511
 30
0.0
 40
0.95
100
AcDbArc
 50
168.859893623
 51
180.0
  0
LINE
  5
49
330
1D
100
AcDbEntity
  8
1
100
AcDbLine
 10
0.5
 20
-19.975
 30
0.0
 11
0.5
 21
19.975
 31
0.0
  0
LINE
  5
4A
330
1D
100
AcDbEntity
  8
1
100
AcDbLine
 10
0.0
 20
-19.475
 30
0.0
 11
0.0
 21
19.475
 31
0.0
  0
LINE
  5
4B
330
1D
100
AcDbEntity
  8
1
100
AcDbLine
 10
19.57
 20
0.0
 30
0.0
 11
19.57
 21
-19.975
 31
0.0
  0
LINE
  5
4C
330
1D
100
AcDbEntity
  8
1
100
AcDbLine
 10
19.57
 20
19.975
 30
0.0
 11
19.57
 21
0.0
 31
0.0
  0
LINE
  5
4D
330
1D
100
AcDbEntity
  8
1
100
AcDbLine
 10
19.97
 20
0.0
 30
0.0
 11
19.97
 21
-19.575
 31
0.0
  0
LINE
  5
4E
330
1D
100
AcDbEntity
  8
1
100
AcDbLine
 10
19.97
 20
19.575
 30
0.0
 11
19.97
 21
0.0
 31
0.0
  0
LINE
  5
4F
330
1D
100
AcDbEntity
  8
1
100
AcDbLine
 10
18.104123402
 20
19.975
 30
0.0
 11
18.104123402
 21
-19.975
 31
0.0
  0
LINE
  5
50
330
1D
100
AcDbEntity
  8
1
100
AcDbLine
 10
13.935876598
 20
0.0
 30
0.0
 11
13.935876598
 21
19.975
 31
0.0
  0
LINE
  5
51
330
1D
100
AcDbEntity
  8
1
100
AcDbLine
 10
13.935876598
 20
-19.975
 30
0.0
 11
13.935876598
 21
0.0
 31
0.0
  0
LINE
  5
52
330
1D
100
AcDbEntity
  8
1
100
AcDbLine
 10
17.0575
 20
-18.272002713
 30
0.0
 11
17.0575
 21
18.272002713
 31
0.0
  0
LINE
  5
53
330
1D
100
AcDbEntity
  8
1
100
AcDbLine
 10
14.9825
 20
18.272002713
 30
0.0
 11
14.9825
 21
-18.272002713
 31
0.0
  0
LINE
  5
54
330
1D
100
AcDbEntity
  8
SK1
100
AcDbLine
 10
-1.211523116
 20
15.172303251
 30
0.0
 11
-1.211523116
 21
-15.172303251
 31
0.0
  0
LINE
  5
55
330
1D
100
AcDbEntity
  8
SK3
100
AcDbLine
 10
-10.555029069
 20
0.0
 30
0.0
 11
-10.555029069
 21
-12.656846446
 31
0.0
  0
LINE
  5
56
330
1D
100
AcDbEntity
  8
SK3
100
AcDbLine
 10
-10.555029069
 20
12.656846446
 30
0.0
 11
-10.555029069
 21
0.0
 31
0.0
  0
LINE
  5
57
330
1D
100
AcDbEntity
  8
SK3
100
AcDbLine
 10
-0.03
 20
0.0
 30
0.0
 11
-0.03
 21
10.521
 31
0.0
  0
LINE
  5
58
330
1D
100
AcDbEntity
  8
SK3
100
AcDbLine
 10
-0.03
 20
-10.521
 30
0.0
 11
-0.03
 21
0.0
 31
0.0
  0
LINE
  5
59
330
1D
100
AcDbEntity
  8
SK3
100
AcDbLine
 10
-11.959544599
 20
0.0
 30
0.0
 11
-11.959544599
 21
10.521
 31
0.0
  0
LINE
  5
5A
330
1D
100
AcDbEntity
  8
SK3
100
AcDbLine
 10
-11.959544599
 20
-10.521
 30
0.0
 11
-11.959544599
 21
0.0
 31
0.0
  0
LINE
  5
5B
330
1D
100
AcDbEntity
  8
SK1
100
AcDbLine
 10
-19.877762862
 20
-11.939107337
 30
0.0
 11
-19.877762862
 21
11.939107337
 31
0.0
  0
LINE
  5
5C
330
1D
100
AcDbEntity
  8
3
100
AcDbLine
 10
7.97
 20
0.0
 30
0.0
 11
7.97
 21
9.875
 31
0.0
  0
LINE
  5
5D
330
1D
100
AcDbEntity
  8
3
100
AcDbLine
 10
7.97
 20
-9.875
 30
0.0
 11
7.97
 21
0.0
 31
0.0
  0
LINE
  5
5E
330
1D
100
AcDbEntity
  8
3
100
AcDbLine
 10
5.989149887
 20
0.0
 30
0.0
 11
5.989149887
 21
10.521
 31
0.0
  0
LINE
  5
5F
330
1D
100
AcDbEntity
  8
3
100
AcDbLine
 10
5.989149887
 20
-10.521
 30
0.0
 11
5.989149887
 21
0.0
 31
0.0
  0
LINE
  5
60
330
1D
100
AcDbEntity
  8
3
100
AcDbLine
 10
14.32
 20
6.25
 30
0.0
 11
14.32
 21
-6.25
 31
0.0
  0
LINE
  5
61
330
1D
100
AcDbEntity
  8
3
100
AcDbLine
 10
13.020961894
 20
5.5
 30
0.0
 11
13.020961894
 21
-5.5
 31
0.0
  0
LINE
  5
62
330
1D
100
AcDbEntity
  8
3
100
AcDbLine
 10
15.82
 20
6.25
 30
0.0
 11
15.82
 21
-6.25
 31
0.0
  0
LINE
  5
63
330
1D
100
AcDbEntity
  8
3
100
AcDbLine
 10
8.52
 20
5.5
 30
0.0
 11
8.52
 21
-5.5
 31
0.0
  0
ARC
  5
64
330
1D
100
AcDbEntity
  8
SK3
100
AcDbCircle
 10
-10.266314598
 20
12.38
 30
0.0
 40
0.4
100
AcDbArc
 50
90.0
 51
136.202148065
  0
ARC
  5
65
330
1D
100
AcDbEntity
  8
SK3
100
AcDbCircle
 10
-10.266314598
 20
-12.38
 30
0.0
 40
0.4
100
AcDbArc
 50
223.797851935
 51
270.0
  0
LINE
  5
66
330
1D
100
AcDbEntity
  8
SK3
100
AcDbLine
 10
-4.211736362
 20
12.78
 30
0.0
 11
-10.266314598
 21
12.78
 31
0.0
  0
LINE
  5
67
330
1D
100
AcDbEntity
  8
SK3
100
AcDbLine
 10
-10.266314598
 20
-12.78
 30
0.0
 11
-4.211736362
 21
-12.78
 31
0.0
  0
ARC
  5
68
330
1D
100
AcDbEntity
  8
SK3
100
AcDbCircle
 10
-4.211736362
 20
7.78
 30
0.0
 40
5.0
100
AcDbArc
 50
33.243612877
 51
90.0
  0
ARC
  5
69
330
1D
100
AcDbEntity
  8
SK3
100
AcDbCircle
 10
-4.211736362
 20
-7.78
 30
0.0
 40
5.0
100
AcDbArc
 50
270.0
 51
326.756387123
  0
ARC
  5
6A
330
1D
100
AcDbEntity
  8
SK3
100
AcDbCircle
 10
-10.504900249
 20
-12.26
 30
0.0
 40
0.4
100
AcDbArc
 50
209.75
 51
262.800645841
  0
ARC
  5
6B
330
1D
100
AcDbEntity
  8
SK3
100
AcDbCircle
 10
-10.504900249
 20
12.26
 30
0.0
 40
0.4
100
AcDbArc
 50
97.19935415899998
 51
150.25
  0
LINE
  5
6C
330
1D
100
AcDbEntity
  8
SK3
100
AcDbLine
 10
-10.852179775
 20
12.458486601
 30
0.0
 11
-11.959544599
 21
10.521
 31
0.0
  0
LINE
  5
6D
330
1D
100
AcDbEntity
  8
SK3
100
AcDbLine
 10
-11.959544599
 20
-10.521
 30
0.0
 11
-10.852179775
 21
-12.458486601
 31
0.0
  0
ARC
  5
6E
330
1D
100
AcDbEntity
  8
SK3
100
AcDbCircle
 10
-18.38
 20
-12.021
 30
0.0
 40
1.5
100
AcDbArc
 50
129.594068227
 51
176.870374669
  0
ARC
  5
6F
330
1D
100
AcDbEntity
  8
SK3
100
AcDbCircle
 10
-18.38
 20
12.021
 30
0.0
 40
1.5
100
AcDbArc
 50
183.129625331
 51
230.405931773
  0
ARC
  5
70
330
1D
100
AcDbEntity
  8
3
100
AcDbCircle
 10
6.97
 20
-9.875
 30
0.0
 40
1.0
100
AcDbArc
 50
245.0
 51
0.0
  0
ARC
  5
71
330
1D
100
AcDbEntity
  8
3
100
AcDbCircle
 10
6.97
 20
9.875
 30
0.0
 40
1.0
100
AcDbArc
 50
0.0
 51
115.0
  0
LINE
  5
72
330
1D
100
AcDbEntity
  8
SK3
100
AcDbLine
 10
-19.336016324
 20
-10.865131154
 30
0.0
 11
-18.903003622
 21
-10.615131154
 31
0.0
  0
LINE
  5
73
330
1D
100
AcDbEntity
  8
SK3
100
AcDbLine
 10
-18.903003622
 20
10.615131154
 30
0.0
 11
-19.336016324
 21
10.865131154
 31
0.0
  0
LINE
  5
74
330
1D
100
AcDbEntity
  8
3
100
AcDbLine
 10
6.547381738
 20
10.781307787
 30
0.0
 11
5.989149887
 21
10.521
 31
0.0
  0
LINE
  5
75
330
1D
100
AcDbEntity
  8
3
100
AcDbLine
 10
5.989149887
 20
-10.521
 30
0.0
 11
6.547381738
 21
-10.781307787
 31
0.0
  0
ARC
  5
76
330
1D
100
AcDbEntity
  8
SK3
100
AcDbCircle
 10
-18.38
 20
-12.021
 30
0.0
 40
1.5
100
AcDbArc
 50
90.0
 51
110.405931773
  0
ARC
  5
77
330
1D
100
AcDbEntity
  8
SK3
100
AcDbCircle
 10
-18.38
 20
12.021
 30
0.0
 40
1.5
100
AcDbArc
 50
249.594068227
 51
270.0
  0
LINE
  5
78
330
1D
100
AcDbEntity
  8
SK3
100
AcDbLine
 10
-18.38
 20
-10.521
 30
0.0
 11
-11.959544599
 21
-10.521
 31
0.0
  0
LINE
  5
79
330
1D
100
AcDbEntity
  8
SK3
100
AcDbLine
 10
-11.959544599
 20
10.521
 30
0.0
 11
-18.38
 21
10.521
 31
0.0
  0
LINE
  5
7A
330
1D
100
AcDbEntity
  8
3
100
AcDbLine
 10
0.0
 20
-10.521
 30
0.0
 11
5.989149887
 21
-10.521
 31
0.0
  0
LINE
  5
7B
330
1D
100
AcDbEntity
  8
3
100
AcDbLine
 10
5.989149887
 20
10.521
 30
0.0
 11
0.0
 21
10.521
 31
0.0
  0
LINE
  5
7C
330
1D
100
AcDbEntity
  8
3
100
AcDbLine
 10
14.32
 20
6.25
 30
0.0
 11
13.020961894
 21
5.5
 31
0.0
  0
LINE
  5
7D
330
1D
100
AcDbEntity
  8
3
100
AcDbLine
 10
13.020961894
 20
-5.5
 30
0.0
 11
14.32
 21
-6.25
 31
0.0
  0
LINE
  5
7E
330
1D
100
AcDbEntity
  8
3
100
AcDbLine
 10
15.82
 20
6.25
 30
0.0
 11
14.32
 21
6.25
 31
0.0
  0
LINE
  5
7F
330
1D
100
AcDbEntity
  8
3
100
AcDbLine
 10
14.32
 20
-6.25
 30
0.0
 11
15.82
 21
-6.25
 31
0.0
  0
LINE
  5
80
330
1D
100
AcDbEntity
  8
3
100
AcDbLine
 10
7.97
 20
-6.05
 30
0.0
 11
8.52
 21
-5.5
 31
0.0
  0
LINE
  5
81
330
1D
100
AcDbEntity
  8
3
100
AcDbLine
 10
8.52
 20
5.5
 30
0.0
 11
7.97
 21
6.05
 31
0.0
  0
LINE
  5
82
330
1D
100
AcDbEntity
  8
3
100
AcDbLine
 10
13.020961894
 20
5.5
 30
0.0
 11
8.52
 21
5.5
 31
0.0
  0
LINE
  5
83
330
1D
100
AcDbEntity
  8
3
100
AcDbLine
 10
8.52
 20
-5.5
 30
0.0
 11
13.020961894
 21
-5.5
 31
0.0
  0
LINE
  5
84
330
1D
100
AcDbEntity
  8
3
100
AcDbLine
 10
17.52
 20
2.5
 30
0.0
 11
15.82
 21
2.5
 31
0.0
  0
LINE
  5
85
330
1D
100
AcDbEntity
  8
3
100
AcDbLine
 10
15.82
 20
-2.5
 30
0.0
 11
17.52
 21
-2.5
 31
0.0
  0
LINE
  5
86
330
1D
100
AcDbEntity
  8
SK4
100
AcDbLine
 10
-21.22859811
 20
0.0
 30
0.0
 11
32.317783792
 21
0.0
 31
0.0
  0
LINE
  5
87
330
1D
100
AcDbEntity
  8
SK3
100
AcDbLine
 10
-4.650696
 20
15.0
 30
0.0
 11
-4.650696
 21
-15.0
 31
0.0
  0
LINE
  5
88
330
1D
100
AcDbEntity
  8
SK2
100
AcDbLine
 10
-29.927049836
 20
-15.0
 30
0.0
 11
-4.650696
 21
-15.0
 31
0.0
  0
LINE
  5
89
330
1D
100
AcDbEntity
  8
SK2
100
AcDbLine
 10
-27.927049836
 20
-15.0
 30
0.0
 11
-28.377049836
 21
-11.5
 31
0.0
  0
LINE
  5
8A
330
1D
100
AcDbEntity
  8
SK2
100
AcDbLine
 10
-28.377049836
 20
-11.5
 30
0.0
 11
-27.477049836
 21
-11.5
 31
0.0
  0
LINE
  5
8B
330
1D
100
AcDbEntity
  8
SK2
100
AcDbLine
 10
-27.477049836
 20
-11.5
 30
0.0
 11
-27.927049836
 21
-15.0
 31
0.0
  0
LINE
  5
8C
330
1D
100
AcDbEntity
  8
SK2
100
AcDbLine
 10
-27.927049836
 20
-11.6
 30
0.0
 11
-27.927049836
 21
-14.9
 31
0.0
  0
LINE
  5
8D
330
1D
100
AcDbEntity
  8
SK2
100
AcDbLine
 10
-27.727049836
 20
-11.6
 30
0.0
 11
-27.727049836
 21
-13.344444444
 31
0.0
  0
LINE
  5
8E
330
1D
100
AcDbEntity
  8
SK2
100
AcDbLine
 10
-28.127049836
 20
-11.6
 30
0.0
 11
-28.127049836
 21
-13.344444444
 31
0.0
  0
LINE
  5
8F
330
1D
100
AcDbEntity
  8
SK2
100
AcDbLine
 10
-27.527049836
 20
-11.6
 30
0.0
 11
-27.527049836
 21
-11.788888889
 31
0.0
  0
LINE
  5
90
330
1D
100
AcDbEntity
  8
SK2
100
AcDbLine
 10
-28.327049836
 20
-11.6
 30
0.0
 11
-28.327049836
 21
-11.788888889
 31
0.0
  0
LINE
  5
91
330
1D
100
AcDbEntity
  8
SK2
100
AcDbLine
 10
-29.927049836
 20
15.0
 30
0.0
 11
-4.650696
 21
15.0
 31
0.0
  0
LINE
  5
92
330
1D
100
AcDbEntity
  8
SK2
100
AcDbLine
 10
-27.927049836
 20
15.0
 30
0.0
 11
-27.477049836
 21
11.5
 31
0.0
  0
LINE
  5
93
330
1D
100
AcDbEntity
  8
SK2
100
AcDbLine
 10
-27.477049836
 20
11.5
 30
0.0
 11
-28.377049836
 21
11.5
 31
0.0
  0
LINE
  5
94
330
1D
100
AcDbEntity
  8
SK2
100
AcDbLine
 10
-28.377049836
 20
11.5
 30
0.0
 11
-27.927049836
 21
15.0
 31
0.0
  0
LINE
  5
95
330
1D
100
AcDbEntity
  8
SK2
100
AcDbLine
 10
-27.927049836
 20
11.6
 30
0.0
 11
-27.927049836
 21
14.9
 31
0.0
  0
LINE
  5
96
330
1D
100
AcDbEntity
  8
SK2
100
AcDbLine
 10
-28.127049836
 20
11.6
 30
0.0
 11
-28.127049836
 21
13.344444444
 31
0.0
  0
LINE
  5
97
330
1D
100
AcDbEntity
  8
SK2
100
AcDbLine
 10
-27.727049836
 20
11.6
 30
0.0
 11
-27.727049836
 21
13.344444444
 31
0.0
  0
LINE
  5
98
330
1D
100
AcDbEntity
  8
SK2
100
AcDbLine
 10
-28.327049836
 20
11.6
 30
0.0
 11
-28.327049836
 21
11.788888889
 31
0.0
  0
LINE
  5
99
330
1D
100
AcDbEntity
  8
SK2
100
AcDbLine
 10
-27.527049836
 20
11.6
 30
0.0
 11
-27.527049836
 21
11.788888889
 31
0.0
  0
LINE
  5
9A
330
1D
100
AcDbEntity
  8
SK2
100
AcDbLine
 10
-27.927049836
 20
-11.5
 30
0.0
 11
-27.927049836
 21
11.5
 31
0.0
  0
TEXT
  5
9B
330
1D
100
AcDbEntity
  8
SK2
100
AcDbText
 10
-29.427049836
 20
0.276718415
 30
0.0
 40
3.5
  1
30
 50
90.0
  7
BMG_Text
100
AcDbText
  0
CIRCLE
  5
9C
330
1D
100
AcDbEntity
  8
SK2
100
AcDbCircle
 10
-30.677049836
 20
-1.973281585
 30
0.0
 40
1.25
  0
LINE
  5
9D
330
1D
100
AcDbEntity
  8
SK2
100
AcDbLine
 10
-29.427049836
 20
-3.223281585
 30
0.0
 11
-31.927049836
 21
-0.723281585
 31
0.0
  0
LINE
  5
9E
330
1D
100
AcDbEntity
  8
2
100
AcDbLine
 10
0.0
 20
29.00587759
 30
0.0
 11
0.0
 21
19.475
 31
0.0
  0
LINE
  5
9F
330
1D
100
AcDbEntity
  8
2
100
AcDbLine
 10
0.0
 20
27.00587759
 30
0.0
 11
3.499999999
 21
27.455877601
 31
0.0
  0
LINE
  5
A0
330
1D
100
AcDbEntity
  8
2
100
AcDbLine
 10
3.499999999
 20
27.455877601
 30
0.0
 11
3.500000001
 21
26.555877601
 31
0.0
  0
LINE
  5
A1
330
1D
100
AcDbEntity
  8
2
100
AcDbLine
 10
3.500000001
 20
26.555877601
 30
0.0
 11
0.0
 21
27.00587759
 31
0.0
  0
LINE
  5
A2
330
1D
100
AcDbEntity
  8
2
100
AcDbLine
 10
3.4
 20
27.0058776
 30
0.0
 11
0.1
 21
27.00587759
 31
0.0
  0
LINE
  5
A3
330
1D
100
AcDbEntity
  8
2
100
AcDbLine
 10
3.400000001
 20
26.8058776
 30
0.0
 11
1.655555556
 21
26.805877595
 31
0.0
  0
LINE
  5
A4
330
1D
100
AcDbEntity
  8
2
100
AcDbLine
 10
3.399999999
 20
27.2058776
 30
0.0
 11
1.655555555
 21
27.205877595
 31
0.0
  0
LINE
  5
A5
330
1D
100
AcDbEntity
  8
2
100
AcDbLine
 10
3.400000001
 20
26.6058776
 30
0.0
 11
3.211111112
 21
26.6058776
 31
0.0
  0
LINE
  5
A6
330
1D
100
AcDbEntity
  8
2
100
AcDbLine
 10
3.399999999
 20
27.4058776
 30
0.0
 11
3.21111111
 21
27.4058776
 31
0.0
  0
LINE
  5
A7
330
1D
100
AcDbEntity
  8
2
100
AcDbLine
 10
31.5
 20
29.005877686
 30
0.0
 11
31.5
 21
4.7
 31
0.0
  0
LINE
  5
A8
330
1D
100
AcDbEntity
  8
2
100
AcDbLine
 10
31.5
 20
27.005877686
 30
0.0
 11
28.000000001
 21
26.555877675
 31
0.0
  0
LINE
  5
A9
330
1D
100
AcDbEntity
  8
2
100
AcDbLine
 10
28.000000001
 20
26.555877675
 30
0.0
 11
27.999999999
 21
27.455877675
 31
0.0
  0
LINE
  5
AA
330
1D
100
AcDbEntity
  8
2
100
AcDbLine
 10
27.999999999
 20
27.455877675
 30
0.0
 11
31.5
 21
27.005877686
 31
0.0
  0
LINE
  5
AB
330
1D
100
AcDbEntity
  8
2
100
AcDbLine
 10
28.1
 20
27.005877675
 30
0.0
 11
31.4
 21
27.005877685
 31
0.0
  0
LINE
  5
AC
330
1D
100
AcDbEntity
  8
2
100
AcDbLine
 10
28.099999999
 20
27.205877675
 30
0.0
 11
29.844444444
 21
27.205877681
 31
0.0
  0
LINE
  5
AD
330
1D
100
AcDbEntity
  8
2
100
AcDbLine
 10
28.100000001
 20
26.805877675
 30
0.0
 11
29.844444445
 21
26.805877681
 31
0.0
  0
LINE
  5
AE
330
1D
100
AcDbEntity
  8
2
100
AcDbLine
 10
28.099999999
 20
27.405877675
 30
0.0
 11
28.288888888
 21
27.405877676
 31
0.0
  0
LINE
  5
AF
330
1D
100
AcDbEntity
  8
2
100
AcDbLine
 10
28.100000001
 20
26.605877675
 30
0.0
 11
28.28888889
 21
26.605877676
 31
0.0
  0
LINE
  5
B0
330
1D
100
AcDbEntity
  8
2
100
AcDbLine
 10
3.5
 20
27.005877601
 30
0.0
 11
28.0
 21
27.005877675
 31
0.0
  0
TEXT
  5
B1
330
1D
100
AcDbEntity
  8
2
100
AcDbText
 10
13.155624643
 20
28.50587763
 30
0.0
 40
3.5
  1
31.5
 50
0.000000173
  7
BMG_Text
100
AcDbText
  0
LINE
  5
B2
330
1D
100
AcDbEntity
  8
2
100
AcDbLine
 10
0.0
 20
-29.538983917
 30
0.0
 11
0.0
 21
-19.475
 31
0.0
  0
LINE
  5
B3
330
1D
100
AcDbEntity
  8
2
100
AcDbLine
 10
0.0
 20
-27.538983917
 30
0.0
 11
3.5
 21
-27.088983917
 31
0.0
  0
LINE
  5
B4
330
1D
100
AcDbEntity
  8
2
100
AcDbLine
 10
3.5
 20
-27.088983917
 30
0.0
 11
3.5
 21
-27.988983917
 31
0.0
  0
LINE
  5
B5
330
1D
100
AcDbEntity
  8
2
100
AcDbLine
 10
3.5
 20
-27.988983917
 30
0.0
 11
0.0
 21
-27.538983917
 31
0.0
  0
LINE
  5
B6
330
1D
100
AcDbEntity
  8
2
100
AcDbLine
 10
3.4
 20
-27.538983917
 30
0.0
 11
0.1
 21
-27.538983917
 31
0.0
  0
LINE
  5
B7
330
1D
100
AcDbEntity
  8
2
100
AcDbLine
 10
3.4
 20
-27.738983917
 30
0.0
 11
1.655555556
 21
-27.738983917
 31
0.0
  0
LINE
  5
B8
330
1D
100
AcDbEntity
  8
2
100
AcDbLine
 10
3.4
 20
-27.338983917
 30
0.0
 11
1.655555556
 21
-27.338983917
 31
0.0
  0
LINE
  5
B9
330
1D
100
AcDbEntity
  8
2
100
AcDbLine
 10
3.4
 20
-27.938983917
 30
0.0
 11
3.211111111
 21
-27.938983917
 31
0.0
  0
LINE
  5
BA
330
1D
100
AcDbEntity
  8
2
100
AcDbLine
 10
3.4
 20
-27.138983917
 30
0.0
 11
3.211111111
 21
-27.138983917
 31
0.0
  0
LINE
  5
BB
330
1D
100
AcDbEntity
  8
2
100
AcDbLine
 10
25.0
 20
-29.538983917
 30
0.0
 11
25.0
 21
-19.475
 31
0.0
  0
LINE
  5
BC
330
1D
100
AcDbEntity
  8
2
100
AcDbLine
 10
25.0
 20
-27.538983917
 30
0.0
 11
21.5
 21
-27.988983917
 31
0.0
  0
LINE
  5
BD
330
1D
100
AcDbEntity
  8
2
100
AcDbLine
 10
21.5
 20
-27.988983917
 30
0.0
 11
21.5
 21
-27.088983917
 31
0.0
  0
LINE
  5
BE
330
1D
100
AcDbEntity
  8
2
100
AcDbLine
 10
21.5
 20
-27.088983917
 30
0.0
 11
25.0
 21
-27.538983917
 31
0.0
  0
LINE
  5
BF
330
1D
100
AcDbEntity
  8
2
100
AcDbLine
 10
21.6
 20
-27.538983917
 30
0.0
 11
24.9
 21
-27.538983917
 31
0.0
  0
LINE
  5
C0
330
1D
100
AcDbEntity
  8
2
100
AcDbLine
 10
21.6
 20
-27.338983917
 30
0.0
 11
23.344444444
 21
-27.338983917
 31
0.0
  0
LINE
  5
C1
330
1D
100
AcDbEntity
  8
2
100
AcDbLine
 10
21.6
 20
-27.738983917
 30
0.0
 11
23.344444444
 21
-27.738983917
 31
0.0
  0
LINE
  5
C2
330
1D
100
AcDbEntity
  8
2
100
AcDbLine
 10
21.6
 20
-27.138983917
 30
0.0
 11
21.788888889
 21
-27.138983917
 31
0.0
  0
LINE
  5
C3
330
1D
100
AcDbEntity
  8
2
100
AcDbLine
 10
21.6
 20
-27.938983917
 30
0.0
 11
21.788888889
 21
-27.938983917
 31
0.0
  0
LINE
  5
C4
330
1D
100
AcDbEntity
  8
2
100
AcDbLine
 10
3.5
 20
-27.538983917
 30
0.0
 11
21.5
 21
-27.538983917
 31
0.0
  0
TEXT
  5
C5
330
1D
100
AcDbEntity
  8
2
100
AcDbText
 10
10.944687221
 20
-26.038983917
 30
0.0
 40
3.5
  1
25
  7
BMG_Text
100
AcDbText
  0
LINE
  5
C6
330
1D
100
AcDbEntity
  8
2
100
AcDbLine
 10
25.0
 20
-29.526071167
 30
0.0
 11
25.0
 21
-19.475
 31
0.0
  0
LINE
  5
C7
330
1D
100
AcDbEntity
  8
2
100
AcDbLine
 10
25.0
 20
-27.526071167
 30
0.0
 11
28.5
 21
-27.076071167
 31
0.0
  0
LINE
  5
C8
330
1D
100
AcDbEntity
  8
2
100
AcDbLine
 10
28.5
 20
-27.076071167
 30
0.0
 11
28.5
 21
-27.976071167
 31
0.0
  0
LINE
  5
C9
330
1D
100
AcDbEntity
  8
2
100
AcDbLine
 10
28.5
 20
-27.976071167
 30
0.0
 11
25.0
 21
-27.526071167
 31
0.0
  0
LINE
  5
CA
330
1D
100
AcDbEntity
  8
2
100
AcDbLine
 10
28.4
 20
-27.526071167
 30
0.0
 11
25.1
 21
-27.526071167
 31
0.0
  0
LINE
  5
CB
330
1D
100
AcDbEntity
  8
2
100
AcDbLine
 10
28.4
 20
-27.726071167
 30
0.0
 11
26.655555556
 21
-27.726071167
 31
0.0
  0
LINE
  5
CC
330
1D
100
AcDbEntity
  8
2
100
AcDbLine
 10
28.4
 20
-27.326071167
 30
0.0
 11
26.655555556
 21
-27.326071167
 31
0.0
  0
LINE
  5
CD
330
1D
100
AcDbEntity
  8
2
100
AcDbLine
 10
28.4
 20
-27.926071167
 30
0.0
 11
28.211111111
 21
-27.926071167
 31
0.0
  0
LINE
  5
CE
330
1D
100
AcDbEntity
  8
2
100
AcDbLine
 10
28.4
 20
-27.126071167
 30
0.0
 11
28.211111111
 21
-27.126071167
 31
0.0
  0
LINE
  5
CF
330
1D
100
AcDbEntity
  8
2
100
AcDbLine
 10
28.5
 20
-27.526071167
 30
0.0
 11
53.1043125
 21
-27.526071167
 31
0.0
  0
TEXT
  5
D0
330
1D
100
AcDbEntity
  8
2
100
AcDbText
 10
68.0537435761239
 20
-26.026071167
 30
0.0
 40
3.5
  1
40
  7
BMG_Text
100
AcDbText
  0
TEXT
  5
D1
330
1D
100
AcDbEntity
  8
2
100
AcDbText
 10
26.277468436
 20
-26.026071167
 30
0.0
 40
3.5
  1
Ausdrehtiefe
  7
BMG_Text
100
AcDbText
  0
TEXT
  5
D2
330
1D
100
AcDbEntity
  8
SK6
100
AcDbText
 10
21.902931682
 20
-14.599871575
 30
0.0
 40
3.5
  1
324.111F
  7
BMG_Text
100
AcDbText
  0
LINE
  5
D3
330
1D
100
AcDbEntity
  8
SK6
100
AcDbLine
 10
-25.624317386
 20
-30.237599971
 30
0.0
 11
-25.624317386
 21
-32.307592041
 31
0.0
  0
ARC
  5
D4
330
1D
100
AcDbEntity
  8
SK6
100
AcDbCircle
 10
-28.504303196
 20
-33.387601501
 30
0.0
 40
1.08000004
100
AcDbArc
 50
90.00000763
 51
206.54360962
  0
LINE
  5
D5
330
1D
100
AcDbEntity
  8
SK6
100
AcDbLine
 10
-28.504303196
 20
-32.307622551
 30
0.0
 11
-25.624305936
 21
-32.307622551
 31
0.0
  0
ARC
  5
D6
330
1D
100
AcDbEntity
  8
SK6
100
AcDbCircle
 10
-29.674312806
 20
-32.937596921
 30
0.0
 40
2.70000005
100
AcDbArc
 50
90.00000763
 51
206.5436554
  0
ARC
  5
D7
330
1D
100
AcDbEntity
  8
SK6
100
AcDbCircle
 10
-28.954296326
 20
-42.837606071
 30
0.0
 40
1.08000004
100
AcDbArc
 50
270.0
 51
26.54360962
  0
LINE
  5
D8
330
1D
100
AcDbEntity
  8
SK6
100
AcDbLine
 10
-28.954296326
 20
-43.917607911
 30
0.0
 11
-32.374294496
 21
-43.917607911
 31
0.0
  0
LINE
  5
D9
330
1D
100
AcDbEntity
  8
SK6
100
AcDbLine
 10
-32.089714266
 20
-34.144170411
 30
0.0
 11
-27.988147946
 21
-42.354962951
 31
0.0
  0
ARC
  5
DA
330
1D
100
AcDbEntity
  8
SK6
100
AcDbCircle
 10
-27.784309606
 20
-43.287610651
 30
0.0
 40
2.70000005
100
AcDbArc
 50
270.0
 51
26.54364014
  0
LINE
  5
DB
330
1D
100
AcDbEntity
  8
SK6
100
AcDbLine
 10
-29.470470646
 20
-33.870229371
 30
0.0
 11
-25.368900516
 21
-42.081029541
 31
0.0
  0
LINE
  5
DC
330
1D
100
AcDbEntity
  8
SK6
100
AcDbLine
 10
-32.374317386
 20
-43.917607911
 30
0.0
 11
-32.374317386
 21
-45.987615231
 31
0.0
  0
LINE
  5
DD
330
1D
100
AcDbEntity
  8
SK6
100
AcDbLine
 10
-32.374317386
 20
-45.987615231
 30
0.0
 11
-27.784313416
 21
-45.987615231
 31
0.0
  0
LINE
  5
DE
330
1D
100
AcDbEntity
  8
SK6
100
AcDbLine
 10
-22.924312806
 20
-45.987615231
 30
0.0
 11
-22.924312806
 21
-30.237615231
 31
0.0
  0
LINE
  5
DF
330
1D
100
AcDbEntity
  8
SK6
100
AcDbLine
 10
-14.644306396
 20
-45.987615231
 30
0.0
 11
-14.644306396
 21
-30.237615231
 31
0.0
  0
LINE
  5
E0
330
1D
100
AcDbEntity
  8
SK6
100
AcDbLine
 10
-14.644306396
 20
-45.987615231
 30
0.0
 11
-11.944313266
 21
-45.987615231
 31
0.0
  0
LINE
  5
E1
330
1D
100
AcDbEntity
  8
SK6
100
AcDbLine
 10
-11.944313266
 20
-45.987615231
 30
0.0
 11
-11.944313266
 21
-39.147618891
 31
0.0
  0
ARC
  5
E2
330
1D
100
AcDbEntity
  8
SK6
100
AcDbCircle
 10
-10.594299536
 20
-40.227605461
 30
0.0
 40
1.08000004
100
AcDbArc
 50
0.0
 51
90.00000763
  0
LINE
  5
E3
330
1D
100
AcDbEntity
  8
SK6
100
AcDbLine
 10
-10.594299536
 20
-39.147603631
 30
0.0
 11
-11.944301816
 21
-39.147603631
 31
0.0
  0
ARC
  5
E4
330
1D
100
AcDbEntity
  8
SK6
100
AcDbCircle
 10
-4.384323336
 20
-44.457608821
 30
0.0
 40
2.51999998
100
AcDbArc
 50
180.0
 51
217.38319397
  0
ARC
  5
E5
330
1D
100
AcDbEntity
  8
SK6
100
AcDbCircle
 10
-6.994331576
 20
-44.457608821
 30
0.0
 40
2.51999998
100
AcDbArc
 50
180.0
 51
217.38319397
  0
LINE
  5
E6
330
1D
100
AcDbEntity
  8
SK6
100
AcDbLine
 10
-6.476715306
 20
-45.987615231
 30
0.0
 11
-8.996715756
 21
-45.987615231
 31
0.0
  0
LINE
  5
E7
330
1D
100
AcDbEntity
  8
SK6
100
AcDbLine
 10
-9.514320586
 20
-40.227620721
 30
0.0
 11
-9.514320586
 21
-44.457608821
 31
0.0
  0
ARC
  5
E8
330
1D
100
AcDbEntity
  8
SK6
100
AcDbCircle
 10
-9.424301366
 20
-40.407613401
 30
0.0
 40
2.51999998
100
AcDbArc
 50
358.70883179
 51
93.06652832
  0
ARC
  5
E9
330
1D
100
AcDbEntity
  8
SK6
100
AcDbCircle
 10
-9.694313266
 20
-35.367612481
 30
0.0
 40
2.51999998
100
AcDbArc
 50
273.06652832
 51
0.0
  0
ARC
  5
EA
330
1D
100
AcDbEntity
  8
SK6
100
AcDbCircle
 10
-9.694313266
 20
-32.757619501
 30
0.0
 40
2.51999998
100
AcDbArc
 50
0.0
 51
90.00000763
  0
LINE
  5
EB
330
1D
100
AcDbEntity
  8
SK6
100
AcDbLine
 10
-7.174301366
 20
-32.757619501
 30
0.0
 11
-7.174301366
 21
-35.367620111
 31
0.0
  0
ARC
  5
EC
330
1D
100
AcDbEntity
  8
SK6
100
AcDbCircle
 10
-10.324310516
 20
-33.207616451
 30
0.0
 40
0.90000004
100
AcDbArc
 50
0.0
 51
90.00000763
  0
LINE
  5
ED
330
1D
100
AcDbEntity
  8
SK6
100
AcDbLine
 10
-10.324310516
 20
-32.307622551
 30
0.0
 11
-11.944313266
 21
-32.307622551
 31
0.0
  0
ARC
  5
EE
330
1D
100
AcDbEntity
  8
SK6
100
AcDbCircle
 10
-10.324310516
 20
-36.087606071
 30
0.0
 40
0.90000004
100
AcDbArc
 50
270.0
 51
0.0
  0
LINE
  5
EF
330
1D
100
AcDbEntity
  8
SK6
100
AcDbLine
 10
-9.424301366
 20
-33.207616451
 30
0.0
 11
-9.424301366
 21
-36.087613701
 31
0.0
  0
LINE
  5
F0
330
1D
100
AcDbEntity
  8
SK6
100
AcDbLine
 10
-11.944313266
 20
-32.307622551
 30
0.0
 11
-11.944313266
 21
-36.987615231
 31
0.0
  0
LINE
  5
F1
330
1D
100
AcDbEntity
  8
SK6
100
AcDbLine
 10
-10.324310516
 20
-36.987615231
 30
0.0
 11
-11.944313266
 21
-36.987615231
 31
0.0
  0
LINE
  5
F2
330
1D
100
AcDbEntity
  8
SK6
100
AcDbLine
 10
-6.904953216
 20
-40.464398981
 30
0.0
 11
-6.904323796
 21
-44.458013181
 31
0.0
  0
LINE
  5
F3
330
1D
100
AcDbEntity
  8
SK6
100
AcDbLine
 10
-6.476715306
 20
-45.987615231
 30
0.0
 11
-6.386718966
 21
-45.987615231
 31
0.0
  0
LINE
  5
F4
330
1D
100
AcDbEntity
  8
SK6
100
AcDbLine
 10
-29.674312806
 20
-30.237599971
 30
0.0
 11
-25.624309756
 21
-30.237599971
 31
0.0
  0
LINE
  5
F5
330
1D
100
AcDbEntity
  8
SK6
100
AcDbLine
 10
-9.694313266
 20
-30.237599971
 30
0.0
 11
-14.644317846
 21
-30.237599971
 31
0.0
  0
LINE
  5
F6
330
1D
100
AcDbEntity
  8
SK6
100
AcDbLine
 10
-56.674312806
 20
-45.987615231
 30
0.0
 11
-59.464313726
 21
-45.987615231
 31
0.0
  0
LINE
  5
F7
330
1D
100
AcDbEntity
  8
SK6
100
AcDbLine
 10
-56.674312806
 20
-42.567617061
 30
0.0
 11
-56.674312806
 21
-45.987615231
 31
0.0
  0
LINE
  5
F8
330
1D
100
AcDbEntity
  8
SK6
100
AcDbLine
 10
-55.594310976
 20
-40.497609741
 30
0.0
 11
-56.674312806
 21
-42.567617061
 31
0.0
  0
LINE
  5
F9
330
1D
100
AcDbEntity
  8
SK6
100
AcDbLine
 10
-53.164318296
 20
-45.987615231
 30
0.0
 11
-55.594310976
 21
-40.497609741
 31
0.0
  0
LINE
  5
FA
330
1D
100
AcDbEntity
  8
SK6
100
AcDbLine
 10
-50.374317386
 20
-45.987615231
 30
0.0
 11
-53.164310666
 21
-45.987615231
 31
0.0
  0
LINE
  5
FB
330
1D
100
AcDbEntity
  8
SK6
100
AcDbLine
 10
-53.974323486
 20
-36.987615231
 30
0.0
 11
-50.374317386
 21
-45.987615231
 31
0.0
  0
LINE
  5
FC
330
1D
100
AcDbEntity
  8
SK6
100
AcDbLine
 10
-50.914318296
 20
-30.237615231
 30
0.0
 11
-53.974308226
 21
-36.987615231
 31
0.0
  0
LINE
  5
FD
330
1D
100
AcDbEntity
  8
SK6
100
AcDbLine
 10
-56.674312806
 20
-37.347623471
 30
0.0
 11
-53.704319216
 21
-30.237630491
 31
0.0
  0
LINE
  5
FE
330
1D
100
AcDbEntity
  8
SK6
100
AcDbLine
 10
-56.674312806
 20
-30.237615231
 30
0.0
 11
-56.674312806
 21
-37.347623471
 31
0.0
  0
LINE
  5
FF
330
1D
100
AcDbEntity
  8
SK6
100
AcDbLine
 10
-59.464313726
 20
-45.987615231
 30
0.0
 11
-59.464313726
 21
-30.237615231
 31
0.0
  0
LINE
  5
100
330
1D
100
AcDbEntity
  8
SK6
100
AcDbLine
 10
-53.704319216
 20
-30.237615231
 30
0.0
 11
-50.914318296
 21
-30.237615231
 31
0.0
  0
LINE
  5
101
330
1D
100
AcDbEntity
  8
SK6
100
AcDbLine
 10
-59.464313726
 20
-30.237615231
 30
0.0
 11
-56.674312806
 21
-30.237615231
 31
0.0
  0
LINE
  5
102
330
1D
100
AcDbEntity
  8
SK6
100
AcDbLine
 10
-37.414306856
 20
-30.237615231
 30
0.0
 11
-37.414306856
 21
-45.987615231
 31
0.0
  0
LINE
  5
103
330
1D
100
AcDbEntity
  8
SK6
100
AcDbLine
 10
-34.534309606
 20
-45.987615231
 30
0.0
 11
-34.534309606
 21
-30.237615231
 31
0.0
  0
LINE
  5
104
330
1D
100
AcDbEntity
  8
SK6
100
AcDbLine
 10
-37.414306856
 20
-45.987615231
 30
0.0
 11
-34.534309606
 21
-45.987615231
 31
0.0
  0
LINE
  5
105
330
1D
100
AcDbEntity
  8
SK6
100
AcDbLine
 10
-34.534309606
 20
-30.237615231
 30
0.0
 11
-37.414318296
 21
-30.237615231
 31
0.0
  0
LINE
  5
106
330
1D
100
AcDbEntity
  8
SK6
100
AcDbLine
 10
-17.074310516
 20
-45.987615231
 30
0.0
 11
-17.074310516
 21
-43.917607911
 31
0.0
  0
LINE
  5
107
330
1D
100
AcDbEntity
  8
SK6
100
AcDbLine
 10
-22.924312806
 20
-45.987615231
 30
0.0
 11
-17.074310516
 21
-45.987615231
 31
0.0
  0
LINE
  5
108
330
1D
100
AcDbEntity
  8
SK6
100
AcDbLine
 10
-17.074321966
 20
-32.307607301
 30
0.0
 11
-17.074321966
 21
-30.237615231
 31
0.0
  0
LINE
  5
109
330
1D
100
AcDbEntity
  8
SK6
100
AcDbLine
 10
-20.044338446
 20
-32.307607301
 30
0.0
 11
-17.074333406
 21
-32.307607301
 31
0.0
  0
LINE
  5
10A
330
1D
100
AcDbEntity
  8
SK6
100
AcDbLine
 10
-20.044338446
 20
-36.987615231
 30
0.0
 11
-20.044338446
 21
-32.307622551
 31
0.0
  0
LINE
  5
10B
330
1D
100
AcDbEntity
  8
SK6
100
AcDbLine
 10
-17.074321966
 20
-36.987615231
 30
0.0
 11
-20.044326996
 21
-36.987615231
 31
0.0
  0
LINE
  5
10C
330
1D
100
AcDbEntity
  8
SK6
100
AcDbLine
 10
-17.074321966
 20
-39.147596001
 30
0.0
 11
-17.074321966
 21
-36.987592341
 31
0.0
  0
LINE
  5
10D
330
1D
100
AcDbEntity
  8
SK6
100
AcDbLine
 10
-20.044338446
 20
-39.147596001
 30
0.0
 11
-17.074333406
 21
-39.147596001
 31
0.0
  0
LINE
  5
10E
330
1D
100
AcDbEntity
  8
SK6
100
AcDbLine
 10
-20.044338446
 20
-43.917607911
 30
0.0
 11
-20.044338446
 21
-39.147596001
 31
0.0
  0
LINE
  5
10F
330
1D
100
AcDbEntity
  8
SK6
100
AcDbLine
 10
-17.074321966
 20
-43.917607911
 30
0.0
 11
-20.044326996
 21
-43.917607911
 31
0.0
  0
LINE
  5
110
330
1D
100
AcDbEntity
  8
SK6
100
AcDbLine
 10
-17.074321966
 20
-30.237615231
 30
0.0
 11
-22.924324246
 21
-30.237615231
 31
0.0
  0
LINE
  5
111
330
1D
100
AcDbEntity
  8
SK6
100
AcDbLine
 10
-42.994312506
 20
-45.987615231
 30
0.0
 11
-49.294315556
 21
-45.987615231
 31
0.0
  0
LINE
  5
112
330
1D
100
AcDbEntity
  8
SK6
100
AcDbLine
 10
-43.444301816
 20
-43.467603331
 30
0.0
 11
-42.994312506
 21
-45.987599971
 31
0.0
  0
LINE
  5
113
330
1D
100
AcDbEntity
  8
SK6
100
AcDbLine
 10
-46.324321966
 20
-43.467603331
 30
0.0
 11
-43.444324706
 21
-43.467603331
 31
0.0
  0
LINE
  5
114
330
1D
100
AcDbEntity
  8
SK6
100
AcDbLine
 10
-44.794315556
 20
-34.107617981
 30
0.0
 11
-46.324314336
 21
-43.467626221
 31
0.0
  0
LINE
  5
115
330
1D
100
AcDbEntity
  8
SK6
100
AcDbLine
 10
-41.734317996
 20
-45.987615231
 30
0.0
 11
-44.794315556
 21
-34.107617981
 31
0.0
  0
LINE
  5
116
330
1D
100
AcDbEntity
  8
SK6
100
AcDbLine
 10
-38.764309146
 20
-45.987615231
 30
0.0
 11
-41.734302736
 21
-45.987615231
 31
0.0
  0
LINE
  5
117
330
1D
100
AcDbEntity
  8
SK6
100
AcDbLine
 10
-43.174312806
 20
-29.787610651
 30
0.0
 11
-38.764320586
 21
-45.987615231
 31
0.0
  0
LINE
  5
118
330
1D
100
AcDbEntity
  8
SK6
100
AcDbLine
 10
-46.234317996
 20
-29.787610651
 30
0.0
 11
-43.174320436
 21
-29.787610651
 31
0.0
  0
LINE
  5
119
330
1D
100
AcDbEntity
  8
SK6
100
AcDbLine
 10
-49.294315556
 20
-45.987615231
 30
0.0
 11
-46.234317996
 21
-29.787610651
 31
0.0
  0
LINE
  5
11A
330
1D
100
AcDbEntity
  8
SK1
100
AcDbLine
 10
-19.877762862
 20
11.939107337
 30
0.0
 11
-19.88
 21
13.460822511
 31
0.0
  0
LINE
  5
11B
330
1D
100
AcDbEntity
  8
SK1
100
AcDbLine
 10
-19.88
 20
-13.460822511
 30
0.0
 11
-19.877762862
 21
-11.939107337
 31
0.0
  0
ARC
  5
11C
330
1D
100
AcDbEntity
  8
1
100
AcDbCircle
 10
20.97
 20
10.35
 30
0.0
 40
1.0
100
AcDbArc
 50
180.0
 51
270.0
  0
LINE
  5
11D
330
1D
100
AcDbEntity
  8
1
100
AcDbLine
 10
20.97
 20
9.35
 30
0.0
 11
21.47
 21
9.35
 31
0.0
  0
LINE
  5
11E
330
1D
100
AcDbEntity
  8
1
100
AcDbLine
 10
21.47
 20
9.35
 30
0.0
 11
21.62
 21
9.5
 31
0.0
  0
LINE
  5
11F
330
1D
100
AcDbEntity
  8
1
100
AcDbLine
 10
21.62
 20
9.5
 30
0.0
 11
29.375662433
 21
9.5
 31
0.0
  0
LINE
  5
120
330
1D
100
AcDbEntity
  8
1
100
AcDbLine
 10
29.375662433
 20
9.5
 30
0.0
 11
29.52
 21
9.25
 31
0.0
  0
LINE
  5
121
330
1D
100
AcDbEntity
  8
1
100
AcDbLine
 10
29.52
 20
9.25
 30
0.0
 11
31.27
 21
9.25
 31
0.0
  0
LINE
  5
122
330
1D
100
AcDbEntity
  8
1
100
AcDbLine
 10
31.27
 20
9.25
 30
0.0
 11
31.52
 21
9.0
 31
0.0
  0
LINE
  5
123
330
1D
100
AcDbEntity
  8
1
100
AcDbLine
 10
31.52
 20
9.0
 30
0.0
 11
31.52
 21
-9.0
 31
0.0
  0
LINE
  5
124
330
1D
100
AcDbEntity
  8
1
100
AcDbLine
 10
31.52
 20
-9.0
 30
0.0
 11
31.27
 21
-9.25
 31
0.0
  0
LINE
  5
125
330
1D
100
AcDbEntity
  8
1
100
AcDbLine
 10
31.27
 20
-9.25
 30
0.0
 11
29.52
 21
-9.25
 31
0.0
  0
LINE
  5
126
330
1D
100
AcDbEntity
  8
1
100
AcDbLine
 10
29.52
 20
-9.25
 30
0.0
 11
29.375662433
 21
-9.5
 31
0.0
  0
LINE
  5
127
330
1D
100
AcDbEntity
  8
1
100
AcDbLine
 10
29.375662433
 20
-9.5
 30
0.0
 11
21.62
 21
-9.5
 31
0.0
  0
LINE
  5
128
330
1D
100
AcDbEntity
  8
1
100
AcDbLine
 10
21.62
 20
-9.5
 30
0.0
 11
21.47
 21
-9.35
 31
0.0
  0
LINE
  5
129
330
1D
100
AcDbEntity
  8
1
100
AcDbLine
 10
21.47
 20
-9.35
 30
0.0
 11
20.97
 21
-9.35
 31
0.0
  0
ARC
  5
12A
330
1D
100
AcDbEntity
  8
1
100
AcDbCircle
 10
20.97
 20
-10.35
 30
0.0
 40
1.0
100
AcDbArc
 50
90.0
 51
180.0
  0
LINE
  5
12B
330
1D
100
AcDbEntity
  8
3
100
AcDbLine
 10
31.52
 20
5.5
 30
0.0
 11
19.303493649
 21
5.5
 31
0.0
  0
LINE
  5
12C
330
1D
100
AcDbEntity
  8
3
100
AcDbLine
 10
19.303493649
 20
5.5
 30
0.0
 11
19.303493649
 21
-5.5
 31
0.0
  0
LINE
  5
12D
330
1D
100
AcDbEntity
  8
3
100
AcDbLine
 10
19.303493649
 20
-5.5
 30
0.0
 11
18.870480947
 21
-5.75
 31
0.0
  0
LINE
  5
12E
330
1D
100
AcDbEntity
  8
3
100
AcDbLine
 10
18.870480947
 20
-5.75
 30
0.0
 11
18.870480947
 21
5.75
 31
0.0
  0
LINE
  5
12F
330
1D
100
AcDbEntity
  8
3
100
AcDbLine
 10
18.870480947
 20
5.75
 30
0.0
 11
19.303493649
 21
5.5
 31
0.0
  0
LINE
  5
130
330
1D
100
AcDbEntity
  8
3
100
AcDbLine
 10
19.303493649
 20
-5.5
 30
0.0
 11
31.52
 21
-5.499739712
 31
0.0
  0
LINE
  5
131
330
1D
100
AcDbEntity
  8
1
100
AcDbLine
 10
29.375662433
 20
9.5
 30
0.0
 11
29.375662433
 21
-9.5
 31
0.0
  0
LINE
  5
132
330
1D
100
AcDbEntity
  8
1
100
AcDbLine
 10
29.52
 20
-9.25
 30
0.0
 11
29.52
 21
9.25
 31
0.0
  0
LINE
  5
133
330
1D
100
AcDbEntity
  8
1
100
AcDbLine
 10
21.62
 20
-9.5
 30
0.0
 11
21.62
 21
9.5
 31
0.0
  0
LINE
  5
134
330
1D
100
AcDbEntity
  8
1
100
AcDbLine
 10
31.27
 20
-9.25
 30
0.0
 11
31.27
 21
9.25
 31
0.0
  0
LINE
  5
135
330
1D
100
AcDbEntity
  8
3
100
AcDbLine
 10
18.870480947
 20
-5.75
 30
0.0
 11
17.52
 21
-5.75
 31
0.0
  0
LINE
  5
136
330
1D
100
AcDbEntity
  8
3
100
AcDbLine
 10
17.52
 20
-5.75
 30
0.0
 11
17.52
 21
5.75
 31
0.0
  0
LINE
  5
137
330
1D
100
AcDbEntity
  8
3
100
AcDbLine
 10
17.52
 20
5.75
 30
0.0
 11
18.870480947
 21
5.75
 31
0.0
  0
CIRCLE
  5
138
330
1D
100
AcDbEntity
  8
1
100
AcDbCircle
 10
26.47
 20
0.0
 30
0.0
 40
1.7293675
  0
LINE
  5
139
330
1D
100
AcDbEntity
  8
1
100
AcDbLine
 10
27.509230485
 20
0.0
 30
0.0
 11
26.989615242
 21
0.9
 31
0.0
  0
LINE
  5
13A
330
1D
100
AcDbEntity
  8
1
100
AcDbLine
 10
26.989615242
 20
0.9
 30
0.0
 11
25.950384758
 21
0.9
 31
0.0
  0
LINE
  5
13B
330
1D
100
AcDbEntity
  8
1
100
AcDbLine
 10
25.950384758
 20
0.9
 30
0.0
 11
25.430769515
 21
0.0
 31
0.0
  0
LINE
  5
13C
330
1D
100
AcDbEntity
  8
1
100
AcDbLine
 10
25.430769515
 20
0.0
 30
0.0
 11
25.950384758
 21
-0.9
 31
0.0
  0
LINE
  5
13D
330
1D
100
AcDbEntity
  8
1
100
AcDbLine
 10
25.950384758
 20
-0.9
 30
0.0
 11
26.989615242
 21
-0.9
 31
0.0
  0
LINE
  5
13E
330
1D
100
AcDbEntity
  8
1
100
AcDbLine
 10
26.989615242
 20
-0.9
 30
0.0
 11
27.509230485
 21
0.0
 31
0.0
  0
LINE
  5
13F
330
1D
100
AcDbEntity
  8
2
100
AcDbLine
 10
41.526684303
 20
-5.499739712
 30
0.0
 11
31.52
 21
-5.499739712
 31
0.0
  0
LINE
  5
140
330
1D
100
AcDbEntity
  8
2
100
AcDbLine
 10
39.526684303
 20
-5.499739712
 30
0.0
 11
39.076684303
 21
-1.999739712
 31
0.0
  0
LINE
  5
141
330
1D
100
AcDbEntity
  8
2
100
AcDbLine
 10
39.076684303
 20
-1.999739712
 30
0.0
 11
39.976684303
 21
-1.999739712
 31
0.0
  0
LINE
  5
142
330
1D
100
AcDbEntity
  8
2
100
AcDbLine
 10
39.976684303
 20
-1.999739712
 30
0.0
 11
39.526684303
 21
-5.499739712
 31
0.0
  0
LINE
  5
143
330
1D
100
AcDbEntity
  8
2
100
AcDbLine
 10
39.526684303
 20
-2.099739712
 30
0.0
 11
39.526684303
 21
-5.399739712
 31
0.0
  0
LINE
  5
144
330
1D
100
AcDbEntity
  8
2
100
AcDbLine
 10
39.726684303
 20
-2.099739712
 30
0.0
 11
39.726684303
 21
-3.844184156
 31
0.0
  0
LINE
  5
145
330
1D
100
AcDbEntity
  8
2
100
AcDbLine
 10
39.326684303
 20
-2.099739712
 30
0.0
 11
39.326684303
 21
-3.844184156
 31
0.0
  0
LINE
  5
146
330
1D
100
AcDbEntity
  8
2
100
AcDbLine
 10
39.926684303
 20
-2.099739712
 30
0.0
 11
39.926684303
 21
-2.288628601
 31
0.0
  0
LINE
  5
147
330
1D
100
AcDbEntity
  8
2
100
AcDbLine
 10
39.126684303
 20
-2.099739712
 30
0.0
 11
39.126684303
 21
-2.288628601
 31
0.0
  0
LINE
  5
148
330
1D
100
AcDbEntity
  8
2
100
AcDbLine
 10
41.526684303
 20
5.5
 30
0.0
 11
31.52
 21
5.5
 31
0.0
  0
LINE
  5
149
330
1D
100
AcDbEntity
  8
2
100
AcDbLine
 10
39.526684303
 20
5.5
 30
0.0
 11
39.976684303
 21
2.0
 31
0.0
  0
LINE
  5
14A
330
1D
100
AcDbEntity
  8
2
100
AcDbLine
 10
39.976684303
 20
2.0
 30
0.0
 11
39.076684303
 21
2.0
 31
0.0
  0
LINE
  5
14B
330
1D
100
AcDbEntity
  8
2
100
AcDbLine
 10
39.076684303
 20
2.0
 30
0.0
 11
39.526684303
 21
5.5
 31
0.0
  0
LINE
  5
14C
330
1D
100
AcDbEntity
  8
2
100
AcDbLine
 10
39.526684303
 20
2.1
 30
0.0
 11
39.526684303
 21
5.4
 31
0.0
  0
LINE
  5
14D
330
1D
100
AcDbEntity
  8
2
100
AcDbLine
 10
39.326684303
 20
2.1
 30
0.0
 11
39.326684303
 21
3.844444444
 31
0.0
  0
LINE
  5
14E
330
1D
100
AcDbEntity
  8
2
100
AcDbLine
 10
39.726684303
 20
2.1
 30
0.0
 11
39.726684303
 21
3.844444444
 31
0.0
  0
LINE
  5
14F
330
1D
100
AcDbEntity
  8
2
100
AcDbLine
 10
39.126684303
 20
2.1
 30
0.0
 11
39.126684303
 21
2.288888889
 31
0.0
  0
LINE
  5
150
330
1D
100
AcDbEntity
  8
2
100
AcDbLine
 10
39.926684303
 20
2.1
 30
0.0
 11
39.926684303
 21
2.288888889
 31
0.0
  0
LINE
  5
151
330
1D
100
AcDbEntity
  8
2
100
AcDbLine
 10
39.526684303
 20
-1.999739712
 30
0.0
 11
39.526684303
 21
2.0
 31
0.0
  0
TEXT
  5
152
330
1D
100
AcDbEntity
  8
2
100
AcDbText
 10
38.026684303
 20
-0.768468693919309
 30
0.0
 40
3.5
  1
11
 50
90.0
  7
BMG_Text
100
AcDbText
  0
CIRCLE
  5
153
330
1D
100
AcDbEntity
  8
2
100
AcDbCircle
 10
36.776684303
 20
-3.018468693919309
 30
0.0
 40
1.25
  0
LINE
  5
154
330
1D
100
AcDbEntity
  8
2
100
AcDbLine
 10
38.026684303
 20
-4.268468693919309
 30
0.0
 11
35.526684303
 21
-1.768468693919309
 31
0.0
  0
LINE
  5
155
330
1D
100
AcDbEntity
  8
2
100
AcDbLine
 10
51.920687305
 20
-9.5
 30
0.0
 11
29.375662433
 21
-9.5
 31
0.0
  0
LINE
  5
156
330
1D
100
AcDbEntity
  8
2
100
AcDbLine
 10
49.920687305
 20
-9.5
 30
0.0
 11
49.470687305
 21
-6.0
 31
0.0
  0
LINE
  5
157
330
1D
100
AcDbEntity
  8
2
100
AcDbLine
 10
49.470687305
 20
-6.0
 30
0.0
 11
50.370687305
 21
-6.0
 31
0.0
  0
LINE
  5
158
330
1D
100
AcDbEntity
  8
2
100
AcDbLine
 10
50.370687305
 20
-6.0
 30
0.0
 11
49.920687305
 21
-9.5
 31
0.0
  0
LINE
  5
159
330
1D
100
AcDbEntity
  8
2
100
AcDbLine
 10
49.920687305
 20
-6.1
 30
0.0
 11
49.920687305
 21
-9.4
 31
0.0
  0
LINE
  5
15A
330
1D
100
AcDbEntity
  8
2
100
AcDbLine
 10
50.120687305
 20
-6.1
 30
0.0
 11
50.120687305
 21
-7.844444444
 31
0.0
  0
LINE
  5
15B
330
1D
100
AcDbEntity
  8
2
100
AcDbLine
 10
49.720687305
 20
-6.1
 30
0.0
 11
49.720687305
 21
-7.844444444
 31
0.0
  0
LINE
  5
15C
330
1D
100
AcDbEntity
  8
2
100
AcDbLine
 10
50.320687305
 20
-6.1
 30
0.0
 11
50.320687305
 21
-6.288888889
 31
0.0
  0
LINE
  5
15D
330
1D
100
AcDbEntity
  8
2
100
AcDbLine
 10
49.520687305
 20
-6.1
 30
0.0
 11
49.520687305
 21
-6.288888889
 31
0.0
  0
LINE
  5
15E
330
1D
100
AcDbEntity
  8
2
100
AcDbLine
 10
51.920687305
 20
9.5
 30
0.0
 11
29.375662433
 21
9.5
 31
0.0
  0
LINE
  5
15F
330
1D
100
AcDbEntity
  8
2
100
AcDbLine
 10
49.920687305
 20
9.5
 30
0.0
 11
50.370687305
 21
6.0
 31
0.0
  0
LINE
  5
160
330
1D
100
AcDbEntity
  8
2
100
AcDbLine
 10
50.370687305
 20
6.0
 30
0.0
 11
49.470687305
 21
6.0
 31
0.0
  0
LINE
  5
161
330
1D
100
AcDbEntity
  8
2
100
AcDbLine
 10
49.470687305
 20
6.0
 30
0.0
 11
49.920687305
 21
9.5
 31
0.0
  0
LINE
  5
162
330
1D
100
AcDbEntity
  8
2
100
AcDbLine
 10
49.920687305
 20
6.1
 30
0.0
 11
49.920687305
 21
9.4
 31
0.0
  0
LINE
  5
163
330
1D
100
AcDbEntity
  8
2
100
AcDbLine
 10
49.720687305
 20
6.1
 30
0.0
 11
49.720687305
 21
7.844444444
 31
0.0
  0
LINE
  5
164
330
1D
100
AcDbEntity
  8
2
100
AcDbLine
 10
50.120687305
 20
6.1
 30
0.0
 11
50.120687305
 21
7.844444444
 31
0.0
  0
LINE
  5
165
330
1D
100
AcDbEntity
  8
2
100
AcDbLine
 10
49.520687305
 20
6.1
 30
0.0
 11
49.520687305
 21
6.288888889
 31
0.0
  0
LINE
  5
166
330
1D
100
AcDbEntity
  8
2
100
AcDbLine
 10
50.320687305
 20
6.1
 30
0.0
 11
50.320687305
 21
6.288888889
 31
0.0
  0
LINE
  5
167
330
1D
100
AcDbEntity
  8
2
100
AcDbLine
 10
49.920687305
 20
-6.0
 30
0.0
 11
49.920687305
 21
6.0
 31
0.0
  0
TEXT
  5
168
330
1D
100
AcDbEntity
  8
2
100
AcDbText
 10
48.420687305
 20
0.522812288
 30
0.0
 40
3.5
  1
19
 50
90.0
  7
BMG_Text
100
AcDbText
  0
CIRCLE
  5
169
330
1D
100
AcDbEntity
  8
2
100
AcDbCircle
 10
47.170687305
 20
-1.727187712
 30
0.0
 40
1.25
  0
LINE
  5
16A
330
1D
100
AcDbEntity
  8
2
100
AcDbLine
 10
48.420687305
 20
-2.977187712
 30
0.0
 11
45.920687305
 21
-0.477187712
 31
0.0
  0
ARC
  5
214
330
1D
100
AcDbEntity
  8
NOCUT
100
AcDbCircle
 10
15.7325
 20
18.125
 30
0.0
 40
0.7499999999999976
100
AcDbArc
 50
179.9999999999997
 51
270.0000000000001
  0
ARC
  5
215
330
1D
100
AcDbEntity
  8
NOCUT
100
AcDbCircle
 10
16.3075
 20
18.125
 30
0.0
 40
0.7499999999999976
100
AcDbArc
 50
269.9999999999997
 51
0.0000000000002714
  0
LINE
  5
216
330
1D
100
AcDbEntity
  8
NOCUT
100
AcDbLine
 10
0.0
 20
0.0
 30
0.0
 11
0.0
 21
19.475
 31
0.0
  0
LINE
  5
217
330
1D
100
AcDbEntity
  8
NOCUT
100
AcDbLine
 10
0.0
 20
19.475
 30
0.0
 11
0.5
 21
19.975
 31
0.0
  0
LINE
  5
218
330
1D
100
AcDbEntity
  8
NOCUT
100
AcDbLine
 10
0.5
 20
19.975
 30
0.0
 11
13.935876598
 21
19.975
 31
0.0
  0
LINE
  5
219
330
1D
100
AcDbEntity
  8
NOCUT
100
AcDbLine
 10
13.935876598
 20
19.975
 30
0.0
 11
14.085876598
 21
19.825
 31
0.0
  0
LINE
  5
21A
330
1D
100
AcDbEntity
  8
NOCUT
100
AcDbLine
 10
14.085876598
 20
19.825
 30
0.0
 11
14.9825
 21
18.272002713
 31
0.0
  0
LINE
  5
21B
330
1D
100
AcDbEntity
  8
NOCUT
100
AcDbLine
 10
14.9825
 20
18.272002713
 30
0.0
 11
14.9825
 21
18.125
 31
0.0
  0
LINE
  5
21C
330
1D
100
AcDbEntity
  8
NOCUT
100
AcDbLine
 10
15.7325
 20
17.375
 30
0.0
 11
16.3075
 21
17.375
 31
0.0
  0
LINE
  5
21D
330
1D
100
AcDbEntity
  8
NOCUT
100
AcDbLine
 10
17.0575
 20
18.125
 30
0.0
 11
17.0575
 21
18.272002713
 31
0.0
  0
LINE
  5
21E
330
1D
100
AcDbEntity
  8
NOCUT
100
AcDbLine
 10
17.0575
 20
18.272002713
 30
0.0
 11
17.954123402
 21
19.825
 31
0.0
  0
LINE
  5
21F
330
1D
100
AcDbEntity
  8
NOCUT
100
AcDbLine
 10
17.954123402
 20
19.825
 30
0.0
 11
18.104123402
 21
19.975
 31
0.0
  0
LINE
  5
220
330
1D
100
AcDbEntity
  8
NOCUT
100
AcDbLine
 10
18.104123402
 20
19.975
 30
0.0
 11
19.57
 21
19.975
 31
0.0
  0
LINE
  5
221
330
1D
100
AcDbEntity
  8
NOCUT
100
AcDbLine
 10
19.57
 20
19.975
 30
0.0
 11
19.97
 21
19.575
 31
0.0
  0
LINE
  5
222
330
1D
100
AcDbEntity
  8
NOCUT
100
AcDbLine
 10
19.97
 20
19.575
 30
0.0
 11
19.97
 21
10.35
 31
0.0
  0
ARC
  5
223
330
1D
100
AcDbEntity
  8
NOCUT
100
AcDbCircle
 10
20.97
 20
10.35
 30
0.0
 40
1.000000000000002
100
AcDbArc
 50
180.0000000000001
 51
270.0
  0
LINE
  5
224
330
1D
100
AcDbEntity
  8
NOCUT
100
AcDbLine
 10
20.97
 20
9.35
 30
0.0
 11
21.47
 21
9.35
 31
0.0
  0
LINE
  5
225
330
1D
100
AcDbEntity
  8
NOCUT
100
AcDbLine
 10
21.47
 20
9.35
 30
0.0
 11
21.62
 21
9.5
 31
0.0
  0
LINE
  5
226
330
1D
100
AcDbEntity
  8
NOCUT
100
AcDbLine
 10
21.62
 20
9.5
 30
0.0
 11
29.375662433
 21
9.5
 31
0.0
  0
LINE
  5
227
330
1D
100
AcDbEntity
  8
NOCUT
100
AcDbLine
 10
29.375662433
 20
9.5
 30
0.0
 11
29.52
 21
9.25
 31
0.0
  0
LINE
  5
228
330
1D
100
AcDbEntity
  8
NOCUT
100
AcDbLine
 10
29.52
 20
9.25
 30
0.0
 11
31.27
 21
9.25
 31
0.0
  0
LINE
  5
229
330
1D
100
AcDbEntity
  8
NOCUT
100
AcDbLine
 10
31.27
 20
9.25
 30
0.0
 11
31.52
 21
9.0
 31
0.0
  0
LINE
  5
22A
330
1D
100
AcDbEntity
  8
NOCUT
100
AcDbLine
 10
31.52
 20
9.0
 30
0.0
 11
31.52
 21
0.0
 31
0.0
  0
LINE
  5
22B
330
1D
100
AcDbEntity
  8
NOCUT
100
AcDbLine
 10
31.52
 20
0.0
 30
0.0
 11
0.0
 21
0.0
 31
0.0
  0
LWPOLYLINE
  5
264
330
1D
100
AcDbEntity
  8
INFTOTAL
100
AcDbPolyline
 90
        4
 70
     1
 43
0.0
 10
-84.22031895649921
 20
41.05269030629736
 10
-84.22031895649921
 20
-54.87986042134769
 10
85.96343202474107
 20
-54.87986042134769
 10
85.96343202474107
 20
41.05269030629736
  0
LINE
  5
26B
330
1D
100
AcDbEntity
  8
SK1
100
AcDbLine
 10
0.0000000000026817
 20
-14.98298355739293
 30
0.0
 11
0.0000000000026816
 21
14.98298355739293
 31
0.0
  0
LINE
  5
273
330
1D
100
AcDbEntity
  8
4
100
AcDbLine
 10
32.317783792
 20
0.0
 30
0.0
 11
0.0
 21
0.0
 31
0.0
  0
LINE
  5
276
330
1D
100
AcDbEntity
  8
SK3
100
AcDbLine
 10
-0.03
 20
10.521
 30
0.0
 11
0.0
 21
10.521
 31
0.0
  0
LINE
  5
277
330
1D
100
AcDbEntity
  8
SK3
100
AcDbLine
 10
-0.03
 20
-10.521
 30
0.0
 11
0.0
 21
-10.521
 31
0.0
  0
ENDSEC
  0
SECTION
  2
OBJECTS
  0
DICTIONARY
  5
C
330
0
100
AcDbDictionary
281
     1
  3
ACAD_DETAILVIEWSTYLE
350
205
  3
ACAD_GROUP
350
D
  3
ACAD_LAYOUT
350
1A
  3
ACAD_MATERIAL
350
1A8
  3
ACAD_MLEADERSTYLE
350
1B5
  3
ACAD_MLINESTYLE
350
17
  3
ACAD_PLOTSETTINGS
350
19
  3
ACAD_PLOTSTYLENAME
350
E
  3
ACAD_SCALELIST
350
171
  3
ACAD_SECTIONVIEWSTYLE
350
206
  3
ACAD_TABLESTYLE
350
1FE
  3
ACAD_VISUALSTYLE
350
197
  3
ACDB_RECOMPOSE_DATA
350
291
  3
AcDbVariableDictionary
350
1B3
  3
APPDATA
350
201
  0
SUN
  5
265
330
16B
100
AcDbSun
 90
        1
290
     0
 63
     7
421
 16777215
 40
1.0
291
     1
 91
  2455826
 92
 54000000
292
     0
 70
     2
 71
   256
280
     1
  0
DICTIONARY
  5
207
330
2
100
AcDbDictionary
280
     1
281
     1
  3
ACAD_LAYERSTATES
360
208
  0
DICTIONARY
  5
205
102
{ACAD_REACTORS
330
C
102
}
330
C
100
AcDbDictionary
281
     1
  0
DICTIONARY
  5
D
102
{ACAD_REACTORS
330
C
102
}
330
C
100
AcDbDictionary
281
     1
  0
DICTIONARY
  5
1A
102
{ACAD_REACTORS
330
C
102
}
330
C
100
AcDbDictionary
281
     1
  3
Layout1
350
1C
  3
Model
350
1E
  0
DICTIONARY
  5
1A8
102
{ACAD_REACTORS
330
C
102
}
330
C
100
AcDbDictionary
281
     1
  3
ByBlock
350
1AA
  3
ByLayer
350
1A9
  3
Global
350
1AB
  0
DICTIONARY
  5
1B5
102
{ACAD_REACTORS
330
C
102
}
330
C
100
AcDbDictionary
281
     1
  3
Standard
350
200
  0
DICTIONARY
  5
17
102
{ACAD_REACTORS
330
C
102
}
330
C
100
AcDbDictionary
281
     1
  3
Standard
350
18
  0
DICTIONARY
  5
19
102
{ACAD_REACTORS
330
C
102
}
330
C
100
AcDbDictionary
281
     1
  0
ACDBDICTIONARYWDFLT
  5
E
102
{ACAD_REACTORS
330
C
102
}
330
C
100
AcDbDictionary
281
     1
  3
Normal
350
F
100
AcDbDictionaryWithDefault
340
F
  0
DICTIONARY
  5
171
102
{ACAD_REACTORS
330
C
102
}
330
C
100
AcDbDictionary
281
     1
  3
A0
350
172
  3
A1
350
173
  3
A2
350
174
  3
A3
350
175
  3
A4
350
176
  3
A5
350
177
  3
A6
350
178
  3
A7
350
179
  3
A8
350
17A
  3
A9
350
17B
  3
B0
350
17C
  3
B1
350
17D
  3
B2
350
17E
  3
B3
350
17F
  3
B4
350
180
  3
B5
350
181
  3
B6
350
182
  3
B7
350
183
  3
B8
350
184
  3
B9
350
185
  3
C0
350
186
  3
C1
350
187
  3
C2
350
188
  3
C3
350
189
  3
C4
350
18A
  3
C5
350
18B
  3
C6
350
18C
  3
C7
350
18D
  3
C8
350
18E
  3
C9
350
18F
  3
D0
350
190
  3
D1
350
191
  3
D2
350
192
  0
DICTIONARY
  5
206
102
{ACAD_REACTORS
330
C
102
}
330
C
100
AcDbDictionary
281
     1
  0
DICTIONARY
  5
1FE
102
{ACAD_REACTORS
330
C
102
}
330
C
100
AcDbDictionary
281
     1
  3
Standard
350
1FF
  0
DICTIONARY
  5
197
102
{ACAD_REACTORS
330
C
102
}
330
C
100
AcDbDictionary
281
     1
  3
2dWireframe
350
19C
  3
3D Hidden
350
19E
  3
3dWireframe
350
19D
  3
Basic
350
19F
  3
Brighten
350
1A3
  3
ColorChange
350
1A7
  3
Conceptual
350
1A1
  3
Dim
350
1A2
  3
EdgeColorOff
350
1F8
  3
Facepattern
350
1A6
  3
Flat
350
198
  3
FlatWithEdges
350
199
  3
Gouraud
350
19A
  3
GouraudWithEdges
350
19B
  3
Hidden
350
1F5
  3
JitterOff
350
1F6
  3
Linepattern
350
1A5
  3
OverhangOff
350
1F7
  3
Realistic
350
1A0
  3
Shaded
350
1FD
  3
Shaded with edges
350
1FC
  3
Shades of Gray
350
1F9
  3
Sketchy
350
1FA
  3
Thicken
350
1A4
  3
Wireframe
350
1F4
  3
X-Ray
350
1FB
  0
XRECORD
  5
291
102
{ACAD_REACTORS
330
C
102
}
330
C
100
AcDbXrecord
280
     1
 90
        1
330
1FF
  0
DICTIONARY
  5
1B3
102
{ACAD_REACTORS
330
C
102
}
330
C
100
AcDbDictionary
281
     1
  3
CANNOSCALE
350
202
  3
CMLEADERSTYLE
350
204
  3
CTABLESTYLE
350
203
  3
DIMASSOC
350
1B7
  3
HIDETEXT
350
1B8
  3
MSLTSCALE
350
1B6
  0
DICTIONARY
  5
201
102
{ACAD_REACTORS
330
C
102
}
330
C
100
AcDbDictionary
281
     1
  0
DICTIONARY
  5
208
102
{ACAD_REACTORS
330
207
102
}
330
207
100
AcDbDictionary
281
     1
  0
LAYOUT
  5
1C
102
{ACAD_REACTORS
330
1A
102
}
330
1A
100
AcDbPlotSettings
  1

  2
none_device
  4

  6

 40
0.0
 41
0.0
 42
0.0
 43
0.0
 44
0.0
 45
0.0
 46
0.0
 47
0.0
 48
0.0
 49
0.0
140
0.0
141
0.0
142
1.0
143
1.0
 70
   688
 72
     0
 73
     0
 74
     5
  7

 75
    16
 76
     0
 77
     2
 78
   300
147
1.0
148
0.0
149
0.0
100
AcDbLayout
  1
Layout1
 70
     1
 71
     1
 10
0.0
 20
0.0
 11
12.0
 21
9.0
 12
0.0
 22
0.0
 32
0.0
 14
1.000000000000000E+20
 24
1.000000000000000E+20
 34
1.000000000000000E+20
 15
-1.000000000000000E+20
 25
-1.000000000000000E+20
 35
-1.000000000000000E+20
146
0.0
 13
0.0
 23
0.0
 33
0.0
 16
1.0
 26
0.0
 36
0.0
 17
0.0
 27
1.0
 37
0.0
 76
     0
330
1B
  0
LAYOUT
  5
1E
102
{ACAD_REACTORS
330
1A
102
}
330
1A
100
AcDbPlotSettings
  1

  2
none_device
  4

  6

 40
0.0
 41
0.0
 42
0.0
 43
0.0
 44
0.0
 45
0.0
 46
0.0
 47
0.0
 48
0.0
 49
0.0
140
0.0
141
0.0
142
1.0
143
1.0
 70
  1712
 72
     0
 73
     0
 74
     0
  7

 75
     0
 76
     0
 77
     2
 78
   300
147
1.0
148
0.0
149
0.0
100
AcDbLayout
  1
Model
 70
     1
 71
     0
 10
0.0
 20
0.0
 11
12.0
 21
9.0
 12
0.0
 22
0.0
 32
0.0
 14
-84.22031895649921
 24
-54.87986042134769
 34
0.0
 15
85.96343202474107
 25
41.05269030629736
 35
0.0
146
0.0
 13
0.0
 23
0.0
 33
0.0
 16
1.0
 26
0.0
 36
0.0
 17
0.0
 27
1.0
 37
0.0
 76
     0
330
1D
331
16B
  0
MATERIAL
  5
1AA
102
{ACAD_REACTORS
330
1A8
102
}
330
1A8
100
AcDbMaterial
  1
ByBlock
 72
     1
 94
      127
  0
MATERIAL
  5
1A9
102
{ACAD_REACTORS
330
1A8
102
}
330
1A8
100
AcDbMaterial
  1
ByLayer
 72
     1
 94
      127
  0
MATERIAL
  5
1AB
102
{ACAD_REACTORS
330
1A8
102
}
330
1A8
100
AcDbMaterial
  1
Global
 72
     1
 94
      127
  0
MLEADERSTYLE
  5
200
102
{ACAD_REACTORS
330
1B5
102
}
330
1B5
100
AcDbMLeaderStyle
179
     2
170
     2
171
     1
172
     0
 90
        2
 40
0.0
 41
0.0
173
     1
 91
-1056964608
340
14
 92
       -2
290
     1
 42
0.09
291
     1
 43
0.36
  3
Standard
341
0
 44
0.18
300

342
11
174
     1
178
     1
175
     1
176
     0
 93
-1056964608
 45
0.18
292
     0
297
     0
 46
0.18
343
0
 94
-1056964608
 47
1.0
 49
1.0
140
1.0
293
     1
141
0.0
294
     1
177
     0
142
1.0
295
     0
296
     0
143
0.125
271
     0
272
     9
273
     9
298
     0
  0
MLINESTYLE
  5
18
102
{ACAD_REACTORS
330
17
102
}
330
17
100
AcDbMlineStyle
  2
Standard
 70
     0
  3

 62
   256
 51
90.0
 52
90.0
 71
     2
 49
0.5
 62
   256
  6
BYLAYER
 49
-0.5
 62
   256
  6
BYLAYER
  0
ACDBPLACEHOLDER
  5
F
102
{ACAD_REACTORS
330
E
102
}
330
E
  0
SCALE
  5
172
102
{ACAD_REACTORS
330
171
102
}
330
171
100
AcDbScale
 70
     0
300
1:1
140
1.0
141
1.0
290
     1
  0
SCALE
  5
173
102
{ACAD_REACTORS
330
171
102
}
330
171
100
AcDbScale
 70
     0
300
1:2
140
1.0
141
2.0
290
     0
  0
SCALE
  5
174
102
{ACAD_REACTORS
330
171
102
}
330
171
100
AcDbScale
 70
     0
300
1:4
140
1.0
141
4.0
290
     0
  0
SCALE
  5
175
102
{ACAD_REACTORS
330
171
102
}
330
171
100
AcDbScale
 70
     0
300
1:5
140
1.0
141
5.0
290
     0
  0
SCALE
  5
176
102
{ACAD_REACTORS
330
171
102
}
330
171
100
AcDbScale
 70
     0
300
1:8
140
1.0
141
8.0
290
     0
  0
SCALE
  5
177
102
{ACAD_REACTORS
330
171
102
}
330
171
100
AcDbScale
 70
     0
300
1:10
140
1.0
141
10.0
290
     0
  0
SCALE
  5
178
102
{ACAD_REACTORS
330
171
102
}
330
171
100
AcDbScale
 70
     0
300
1:16
140
1.0
141
16.0
290
     0
  0
SCALE
  5
179
102
{ACAD_REACTORS
330
171
102
}
330
171
100
AcDbScale
 70
     0
300
1:20
140
1.0
141
20.0
290
     0
  0
SCALE
  5
17A
102
{ACAD_REACTORS
330
171
102
}
330
171
100
AcDbScale
 70
     0
300
1:30
140
1.0
141
30.0
290
     0
  0
SCALE
  5
17B
102
{ACAD_REACTORS
330
171
102
}
330
171
100
AcDbScale
 70
     0
300
1:40
140
1.0
141
40.0
290
     0
  0
SCALE
  5
17C
102
{ACAD_REACTORS
330
171
102
}
330
171
100
AcDbScale
 70
     0
300
1:50
140
1.0
141
50.0
290
     0
  0
SCALE
  5
17D
102
{ACAD_REACTORS
330
171
102
}
330
171
100
AcDbScale
 70
     0
300
1:100
140
1.0
141
100.0
290
     0
  0
SCALE
  5
17E
102
{ACAD_REACTORS
330
171
102
}
330
171
100
AcDbScale
 70
     0
300
2:1
140
2.0
141
1.0
290
     0
  0
SCALE
  5
17F
102
{ACAD_REACTORS
330
171
102
}
330
171
100
AcDbScale
 70
     0
300
4:1
140
4.0
141
1.0
290
     0
  0
SCALE
  5
180
102
{ACAD_REACTORS
330
171
102
}
330
171
100
AcDbScale
 70
     0
300
8:1
140
8.0
141
1.0
290
     0
  0
SCALE
  5
181
102
{ACAD_REACTORS
330
171
102
}
330
171
100
AcDbScale
 70
     0
300
10:1
140
10.0
141
1.0
290
     0
  0
SCALE
  5
182
102
{ACAD_REACTORS
330
171
102
}
330
171
100
AcDbScale
 70
     0
300
100:1
140
100.0
141
1.0
290
     0
  0
SCALE
  5
183
102
{ACAD_REACTORS
330
171
102
}
330
171
100
AcDbScale
 70
     0
300
1/128" = 1'-0"
140
0.0078125
141
12.0
290
     0
  0
SCALE
  5
184
102
{ACAD_REACTORS
330
171
102
}
330
171
100
AcDbScale
 70
     0
300
1/64" = 1'-0"
140
0.015625
141
12.0
290
     0
  0
SCALE
  5
185
102
{ACAD_REACTORS
330
171
102
}
330
171
100
AcDbScale
 70
     0
300
1/32" = 1'-0"
140
0.03125
141
12.0
290
     0
  0
SCALE
  5
186
102
{ACAD_REACTORS
330
171
102
}
330
171
100
AcDbScale
 70
     0
300
1/16" = 1'-0"
140
0.0625
141
12.0
290
     0
  0
SCALE
  5
187
102
{ACAD_REACTORS
330
171
102
}
330
171
100
AcDbScale
 70
     0
300
3/32" = 1'-0"
140
0.09375
141
12.0
290
     0
  0
SCALE
  5
188
102
{ACAD_REACTORS
330
171
102
}
330
171
100
AcDbScale
 70
     0
300
1/8" = 1'-0"
140
0.125
141
12.0
290
     0
  0
SCALE
  5
189
102
{ACAD_REACTORS
330
171
102
}
330
171
100
AcDbScale
 70
     0
300
3/16" = 1'-0"
140
0.1875
141
12.0
290
     0
  0
SCALE
  5
18A
102
{ACAD_REACTORS
330
171
102
}
330
171
100
AcDbScale
 70
     0
300
1/4" = 1'-0"
140
0.25
141
12.0
290
     0
  0
SCALE
  5
18B
102
{ACAD_REACTORS
330
171
102
}
330
171
100
AcDbScale
 70
     0
300
3/8" = 1'-0"
140
0.375
141
12.0
290
     0
  0
SCALE
  5
18C
102
{ACAD_REACTORS
330
171
102
}
330
171
100
AcDbScale
 70
     0
300
1/2" = 1'-0"
140
0.5
141
12.0
290
     0
  0
SCALE
  5
18D
102
{ACAD_REACTORS
330
171
102
}
330
171
100
AcDbScale
 70
     0
300
3/4" = 1'-0"
140
0.75
141
12.0
290
     0
  0
SCALE
  5
18E
102
{ACAD_REACTORS
330
171
102
}
330
171
100
AcDbScale
 70
     0
300
1" = 1'-0"
140
1.0
141
12.0
290
     0
  0
SCALE
  5
18F
102
{ACAD_REACTORS
330
171
102
}
330
171
100
AcDbScale
 70
     0
300
1-1/2" = 1'-0"
140
1.5
141
12.0
290
     0
  0
SCALE
  5
190
102
{ACAD_REACTORS
330
171
102
}
330
171
100
AcDbScale
 70
     0
300
3" = 1'-0"
140
3.0
141
12.0
290
     0
  0
SCALE
  5
191
102
{ACAD_REACTORS
330
171
102
}
330
171
100
AcDbScale
 70
     0
300
6" = 1'-0"
140
6.0
141
12.0
290
     0
  0
SCALE
  5
192
102
{ACAD_REACTORS
330
171
102
}
330
171
100
AcDbScale
 70
     0
300
1'-0" = 1'-0"
140
12.0
141
12.0
290
     0
  0
TABLESTYLE
  5
1FF
102
{ACAD_REACTORS
330
1FE
102
}
102
{ACAD_XDICTIONARY
360
28F
102
}
330
1FE
100
AcDbTableStyle
  3
Standard
 70
     0
 71
     0
 40
0.06
 41
0.06
280
     0
281
     0
  7
Standard
140
0.18
170
     2
 62
     0
 63
   257
283
     0
 90
        4
 91
        0
  1

274
    -2
284
     1
 64
     0
275
    -2
285
     1
 65
     0
276
    -2
286
     1
 66
     0
277
    -2
287
     1
 67
     0
278
    -2
288
     1
 68
     0
279
    -2
289
     1
 69
     0
  7
Standard
140
0.25
170
     5
 62
     0
 63
   257
283
     0
 90
        4
 91
        0
  1

274
    -2
284
     1
 64
     0
275
    -2
285
     1
 65
     0
276
    -2
286
     1
 66
     0
277
    -2
287
     1
 67
     0
278
    -2
288
     1
 68
     0
279
    -2
289
     1
 69
     0
  7
Standard
140
0.18
170
     5
 62
     0
 63
   257
283
     0
 90
        4
 91
        0
  1

274
    -2
284
     1
 64
     0
275
    -2
285
     1
 65
     0
276
    -2
286
     1
 66
     0
277
    -2
287
     1
 67
     0
278
    -2
288
     1
 68
     0
279
    -2
289
     1
 69
     0
  0
VISUALSTYLE
  5
19C
102
{ACAD_REACTORS
330
197
102
}
330
197
100
AcDbVisualStyle
  2
2dWireframe
 70
     4
177
     3
291
     0
 70
    58
 90
        0
176
     1
 90
        2
176
     1
 90
        0
176
     1
 90
        0
176
     1
 40
-0.6
176
     1
 40
-30.0
176
     1
 62
     7
176
     1
 90
        1
176
     1
 90
        4
176
     1
 62
     7
176
     1
 62
   257
176
     1
 90
        1
176
     1
 90
        1
176
     1
 40
1.0
176
     1
 90
        0
176
     1
 62
   257
176
     1
 40
1.0
176
     1
 90
        1
176
     1
 90
        6
176
     1
 90
        2
176
     1
 62
     7
176
     1
 90
        5
176
     1
 90
        0
176
     1
 90
        0
176
     1
290
     0
176
     1
 90
        1
176
     1
 40
0.0
176
     1
 90
        0
176
     1
290
     1
176
     1
290
     1
176
     1
290
     0
176
     1
290
     0
176
     1
290
     0
176
     1
290
     0
176
     1
290
     0
176
     1
290
     0
176
     1
290
     0
176
     1
 90
       50
176
     1
 40
0.0
176
     1
 40
1.0
176
     1
 90
        0
176
     1
 62
    18
420
        0
176
     1
 90
       50
176
     1
 90
        3
176
     1
 62
     5
420
      255
176
     1
290
     0
176
     1
 90
       50
176
     1
 90
       50
176
     1
 90
       50
176
     1
290
     0
176
     1
 90
       50
176
     1
 62
   256
176
     0
 40
1.0
176
     0
 90
        2
176
     1
  1
strokes_ogs.tif
176
     1
290
     0
176
     1
 40
1.0
176
     1
 40
1.0
176
     1
  0
VISUALSTYLE
  5
19E
102
{ACAD_REACTORS
330
197
102
}
330
197
100
AcDbVisualStyle
  2
3D Hidden
 70
     6
177
     3
291
     0
 70
    58
 90
        1
176
     1
 90
        2
176
     1
 90
        2
176
     1
 90
        0
176
     1
 40
-0.6
176
     1
 40
-30.0
176
     1
 62
     7
176
     1
 90
        2
176
     1
 90
        2
176
     1
 62
     7
176
     1
 62
   257
176
     1
 90
        2
176
     1
 90
        1
176
     1
 40
40.0
176
     1
 90
        0
176
     1
 62
   257
176
     1
 40
1.0
176
     1
 90
        1
176
     1
 90
        6
176
     1
 90
        2
176
     1
 62
     7
176
     1
 90
        3
176
     1
 90
        0
176
     1
 90
        0
176
     1
290
     0
176
     1
 90
        1
176
     1
 40
0.0
176
     1
 90
        0
176
     1
290
     0
176
     1
290
     1
176
     1
290
     1
176
     1
290
     0
176
     1
290
     0
176
     1
290
     0
176
     1
290
     0
176
     1
290
     0
176
     1
290
     0
176
     1
 90
       50
176
     1
 40
0.0
176
     1
 40
1.0
176
     1
 90
        0
176
     1
 62
    18
420
        0
176
     1
 90
       50
176
     1
 90
        3
176
     1
 62
     5
420
      255
176
     1
290
     0
176
     1
 90
       50
176
     1
 90
       50
176
     1
 90
       50
176
     1
290
     0
176
     1
 90
       50
176
     1
 62
   256
176
     0
 40
1.0
176
     0
 90
        2
176
     1
  1
strokes_ogs.tif
176
     1
290
     0
176
     1
 40
1.0
176
     1
 40
1.0
176
     1
  0
VISUALSTYLE
  5
19D
102
{ACAD_REACTORS
330
197
102
}
330
197
100
AcDbVisualStyle
  2
3dWireframe
 70
     5
177
     3
291
     0
 70
    58
 90
        0
176
     1
 90
        2
176
     1
 90
        0
176
     1
 90
        0
176
     1
 40
-0.6
176
     1
 40
-30.0
176
     1
 62
     7
176
     1
 90
        1
176
     1
 90
        4
176
     1
 62
     7
176
     1
 62
   257
176
     1
 90
        1
176
     1
 90
        1
176
     1
 40
1.0
176
     1
 90
        0
176
     1
 62
   257
176
     1
 40
1.0
176
     1
 90
        1
176
     1
 90
        6
176
     1
 90
        2
176
     1
 62
     7
176
     1
 90
        5
176
     1
 90
        0
176
     1
 90
        0
176
     1
290
     0
176
     1
 90
        1
176
     1
 40
0.0
176
     1
 90
        0
176
     1
290
     0
176
     1
290
     1
176
     1
290
     1
176
     1
290
     0
176
     1
290
     0
176
     1
290
     0
176
     1
290
     0
176
     1
290
     0
176
     1
290
     0
176
     1
 90
       50
176
     1
 40
0.0
176
     1
 40
1.0
176
     1
 90
        0
176
     1
 62
    18
420
        0
176
     1
 90
       50
176
     1
 90
        3
176
     1
 62
     5
420
      255
176
     1
290
     0
176
     1
 90
       50
176
     1
 90
       50
176
     1
 90
       50
176
     1
290
     0
176
     1
 90
       50
176
     1
 62
   256
176
     0
 40
1.0
176
     0
 90
        2
176
     1
  1
strokes_ogs.tif
176
     1
290
     0
176
     1
 40
1.0
176
     1
 40
1.0
176
     1
  0
VISUALSTYLE
  5
19F
102
{ACAD_REACTORS
330
197
102
}
330
197
100
AcDbVisualStyle
  2
Basic
 70
     7
177
     3
291
     1
 70
    58
 90
        1
176
     1
 90
        0
176
     1
 90
        1
176
     1
 90
        0
176
     1
 40
-0.6
176
     1
 40
-30.0
176
     1
 62
     7
176
     1
 90
        0
176
     1
 90
        4
176
     1
 62
     7
176
     1
 62
   257
176
     1
 90
        1
176
     1
 90
        1
176
     1
 40
1.0
176
     1
 90
        8
176
     1
 62
     7
176
     1
 40
1.0
176
     1
 90
        1
176
     1
 90
        6
176
     1
 90
        2
176
     1
 62
     7
176
     1
 90
        5
176
     1
 90
        0
176
     1
 90
        0
176
     1
290
     0
176
     1
 90
        1
176
     1
 40
0.0
176
     1
 90
        0
176
     1
290
     0
176
     1
290
     1
176
     1
290
     1
176
     1
290
     0
176
     1
290
     0
176
     1
290
     0
176
     1
290
     0
176
     1
290
     0
176
     1
290
     0
176
     1
 90
       50
176
     1
 40
0.0
176
     1
 40
1.0
176
     1
 90
        0
176
     1
 62
    18
420
        0
176
     1
 90
       50
176
     1
 90
        3
176
     1
 62
     5
420
      255
176
     1
290
     0
176
     1
 90
       50
176
     1
 90
       50
176
     1
 90
       50
176
     1
290
     0
176
     1
 90
       50
176
     1
 62
   256
176
     0
 40
1.0
176
     0
 90
        2
176
     1
  1
strokes_ogs.tif
176
     1
290
     0
176
     1
 40
1.0
176
     1
 40
1.0
176
     1
  0
VISUALSTYLE
  5
1A3
102
{ACAD_REACTORS
330
197
102
}
330
197
100
AcDbVisualStyle
  2
Brighten
 70
    12
177
     3
291
     1
 70
    58
 90
        2
176
     1
 90
        2
176
     1
 90
        0
176
     1
 90
        0
176
     1
 40
-0.6
176
     1
 40
-30.0
176
     1
 62
     7
176
     1
 90
        1
176
     1
 90
        4
176
     1
 62
     7
176
     1
 62
   257
176
     1
 90
        1
176
     1
 90
        1
176
     1
 40
1.0
176
     1
 90
        8
176
     1
 62
     7
176
     1
 40
1.0
176
     1
 90
        1
176
     1
 90
        6
176
     1
 90
        2
176
     1
 62
     7
176
     1
 90
        5
176
     1
 90
        0
176
     1
 90
        0
176
     1
290
     0
176
     1
 90
        1
176
     1
 40
50.0
176
     1
 90
        0
176
     1
290
     0
176
     1
290
     1
176
     1
290
     1
176
     1
290
     0
176
     1
290
     0
176
     1
290
     0
176
     1
290
     0
176
     1
290
     0
176
     1
290
     0
176
     1
 90
       50
176
     1
 40
0.0
176
     1
 40
1.0
176
     1
 90
        0
176
     1
 62
    18
420
        0
176
     1
 90
       50
176
     1
 90
        3
176
     1
 62
     5
420
      255
176
     1
290
     0
176
     1
 90
       50
176
     1
 90
       50
176
     1
 90
       50
176
     1
290
     0
176
     1
 90
       50
176
     1
 62
   256
176
     0
 40
1.0
176
     0
 90
        2
176
     1
  1
strokes_ogs.tif
176
     1
290
     0
176
     1
 40
1.0
176
     1
 40
1.0
176
     1
  0
VISUALSTYLE
  5
1A7
102
{ACAD_REACTORS
330
197
102
}
330
197
100
AcDbVisualStyle
  2
ColorChange
 70
    16
177
     3
291
     1
 70
    58
 90
        2
176
     1
 90
        2
176
     1
 90
        3
176
     1
 90
        0
176
     1
 40
-0.6
176
     1
 40
-30.0
176
     1
 62
     8
176
     1
 90
        1
176
     1
 90
        4
176
     1
 62
     7
176
     1
 62
   257
176
     1
 90
        1
176
     1
 90
        1
176
     1
 40
1.0
176
     1
 90
        8
176
     1
 62
     8
176
     1
 40
1.0
176
     1
 90
        1
176
     1
 90
        6
176
     1
 90
        2
176
     1
 62
     7
176
     1
 90
        5
176
     1
 90
        0
176
     1
 90
        0
176
     1
290
     0
176
     1
 90
        1
176
     1
 40
0.0
176
     1
 90
        0
176
     1
290
     0
176
     1
290
     1
176
     1
290
     1
176
     1
290
     0
176
     1
290
     0
176
     1
290
     0
176
     1
290
     0
176
     1
290
     0
176
     1
290
     0
176
     1
 90
       50
176
     1
 40
0.0
176
     1
 40
1.0
176
     1
 90
        0
176
     1
 62
    18
420
        0
176
     1
 90
       50
176
     1
 90
        3
176
     1
 62
     5
420
      255
176
     1
290
     0
176
     1
 90
       50
176
     1
 90
       50
176
     1
 90
       50
176
     1
290
     0
176
     1
 90
       50
176
     1
 62
   256
176
     0
 40
1.0
176
     0
 90
        2
176
     1
  1
strokes_ogs.tif
176
     1
290
     0
176
     1
 40
1.0
176
     1
 40
1.0
176
     1
  0
VISUALSTYLE
  5
1A1
102
{ACAD_REACTORS
330
197
102
}
330
197
100
AcDbVisualStyle
  2
Conceptual
 70
     9
177
     3
291
     0
 70
    58
 90
        3
176
     1
 90
        2
176
     1
 90
        0
176
     1
 90
        0
176
     1
 40
-0.6
176
     1
 40
-30.0
176
     1
 62
     7
176
     1
 90
        2
176
     1
 90
        2
176
     1
 62
     7
176
     1
 62
   257
176
     1
 90
        1
176
     1
 90
        1
176
     1
 40
40.0
176
     1
 90
        8
176
     1
 62
     7
176
     1
 40
1.0
176
     1
 90
        1
176
     1
 90
        6
176
     1
 90
        2
176
     1
 62
     7
176
     1
 90
        3
176
     1
 90
        0
176
     1
 90
        0
176
     1
290
     0
176
     1
 90
        1
176
     1
 40
0.0
176
     1
 90
        0
176
     1
290
     0
176
     1
290
     1
176
     1
290
     1
176
     1
290
     0
176
     1
290
     0
176
     1
290
     0
176
     1
290
     0
176
     1
290
     0
176
     1
290
     0
176
     1
 90
       50
176
     1
 40
0.0
176
     1
 40
1.0
176
     1
 90
        0
176
     1
 62
    18
420
        0
176
     1
 90
       50
176
     1
 90
        3
176
     1
 62
     5
420
      255
176
     1
290
     0
176
     1
 90
       50
176
     1
 90
       50
176
     1
 90
       50
176
     1
290
     0
176
     1
 90
       50
176
     1
 62
   256
176
     0
 40
1.0
176
     0
 90
        2
176
     1
  1
strokes_ogs.tif
176
     1
290
     0
176
     1
 40
1.0
176
     1
 40
1.0
176
     1
  0
VISUALSTYLE
  5
1A2
102
{ACAD_REACTORS
330
197
102
}
330
197
100
AcDbVisualStyle
  2
Dim
 70
    11
177
     3
291
     1
 70
    58
 90
        2
176
     1
 90
        2
176
     1
 90
        0
176
     1
 90
        0
176
     1
 40
-0.6
176
     1
 40
-30.0
176
     1
 62
     7
176
     1
 90
        1
176
     1
 90
        4
176
     1
 62
     7
176
     1
 62
   257
176
     1
 90
        1
176
     1
 90
        1
176
     1
 40
1.0
176
     1
 90
        8
176
     1
 62
     7
176
     1
 40
1.0
176
     1
 90
        1
176
     1
 90
        6
176
     1
 90
        2
176
     1
 62
     7
176
     1
 90
        5
176
     1
 90
        0
176
     1
 90
        0
176
     1
290
     0
176
     1
 90
        1
176
     1
 40
-50.0
176
     1
 90
        0
176
     1
290
     0
176
     1
290
     1
176
     1
290
     1
176
     1
290
     0
176
     1
290
     0
176
     1
290
     0
176
     1
290
     0
176
     1
290
     0
176
     1
290
     0
176
     1
 90
       50
176
     1
 40
0.0
176
     1
 40
1.0
176
     1
 90
        0
176
     1
 62
    18
420
        0
176
     1
 90
       50
176
     1
 90
        3
176
     1
 62
     5
420
      255
176
     1
290
     0
176
     1
 90
       50
176
     1
 90
       50
176
     1
 90
       50
176
     1
290
     0
176
     1
 90
       50
176
     1
 62
   256
176
     0
 40
1.0
176
     0
 90
        2
176
     1
  1
strokes_ogs.tif
176
     1
290
     0
176
     1
 40
1.0
176
     1
 40
1.0
176
     1
  0
VISUALSTYLE
  5
1F8
102
{ACAD_REACTORS
330
197
102
}
330
197
100
AcDbVisualStyle
  2
EdgeColorOff
 70
    22
177
     3
291
     1
 70
    58
 90
        2
176
     0
 90
        2
176
     0
 90
        0
176
     0
 90
        0
176
     0
 40
0.6
176
     0
 40
30.0
176
     0
 62
     7
420
 16777215
176
     0
 90
        1
176
     0
 90
        4
176
     0
 62
     7
176
     0
 62
   257
176
     0
 90
        1
176
     0
 90
        1
176
     0
 40
1.0
176
     0
 90
        8
176
     2
 62
     7
176
     0
 40
1.0
176
     0
 90
        1
176
     0
 90
        6
176
     0
 90
        2
176
     0
 62
     7
176
     0
 90
        5
176
     0
 90
        0
176
     0
 90
        0
176
     0
290
     0
176
     0
 90
        1
176
     0
 40
0.0
176
     0
 90
        0
176
     0
290
     0
176
     0
290
     1
176
     0
290
     1
176
     0
290
     0
176
     0
290
     0
176
     0
290
     0
176
     0
290
     0
176
     0
290
     0
176
     0
290
     0
176
     0
 90
       50
176
     0
 40
0.0
176
     0
 40
1.0
176
     0
 90
        0
176
     0
 62
    18
420
        0
176
     0
 90
       50
176
     0
 90
        3
176
     0
 62
     5
420
      255
176
     0
290
     0
176
     0
 90
       50
176
     0
 90
       50
176
     0
 90
       50
176
     0
290
     0
176
     0
 90
       50
176
     0
 62
   256
176
     0
 40
1.0
176
     0
 90
        2
176
     0
  1
strokes_ogs.tif
176
     0
290
     0
176
     0
 40
1.0
176
     0
 40
1.0
176
     0
  0
VISUALSTYLE
  5
1A6
102
{ACAD_REACTORS
330
197
102
}
330
197
100
AcDbVisualStyle
  2
Facepattern
 70
    15
177
     3
291
     1
 70
    58
 90
        2
176
     1
 90
        2
176
     1
 90
        0
176
     1
 90
        0
176
     1
 40
-0.6
176
     1
 40
-30.0
176
     1
 62
     7
176
     1
 90
        1
176
     1
 90
        4
176
     1
 62
     7
176
     1
 62
   257
176
     1
 90
        1
176
     1
 90
        1
176
     1
 40
1.0
176
     1
 90
        8
176
     1
 62
     7
176
     1
 40
1.0
176
     1
 90
        1
176
     1
 90
        6
176
     1
 90
        2
176
     1
 62
     7
176
     1
 90
        5
176
     1
 90
        0
176
     1
 90
        0
176
     1
290
     0
176
     1
 90
        1
176
     1
 40
0.0
176
     1
 90
        0
176
     1
290
     0
176
     1
290
     1
176
     1
290
     1
176
     1
290
     0
176
     1
290
     0
176
     1
290
     0
176
     1
290
     0
176
     1
290
     0
176
     1
290
     0
176
     1
 90
       50
176
     1
 40
0.0
176
     1
 40
1.0
176
     1
 90
        0
176
     1
 62
    18
420
        0
176
     1
 90
       50
176
     1
 90
        3
176
     1
 62
     5
420
      255
176
     1
290
     0
176
     1
 90
       50
176
     1
 90
       50
176
     1
 90
       50
176
     1
290
     0
176
     1
 90
       50
176
     1
 62
   256
176
     0
 40
1.0
176
     0
 90
        2
176
     1
  1
strokes_ogs.tif
176
     1
290
     0
176
     1
 40
1.0
176
     1
 40
1.0
176
     1
  0
VISUALSTYLE
  5
198
102
{ACAD_REACTORS
330
197
102
}
330
197
100
AcDbVisualStyle
  2
Flat
 70
     0
177
     3
291
     1
 70
    58
 90
        2
176
     1
 90
        1
176
     1
 90
        1
176
     1
 90
        2
176
     1
 40
-0.6
176
     1
 40
30.0
176
     1
 62
     7
176
     1
 90
        0
176
     1
 90
        4
176
     1
 62
     7
176
     1
 62
   257
176
     1
 90
        1
176
     1
 90
        1
176
     1
 40
1.0
176
     1
 90
        8
176
     1
 62
     7
176
     1
 40
1.0
176
     1
 90
        1
176
     1
 90
        6
176
     1
 90
        2
176
     1
 62
     7
176
     1
 90
        5
176
     1
 90
        0
176
     1
 90
        0
176
     1
290
     0
176
     1
 90
       13
176
     1
 40
0.0
176
     1
 90
        0
176
     1
290
     0
176
     1
290
     1
176
     1
290
     1
176
     1
290
     0
176
     1
290
     0
176
     1
290
     0
176
     1
290
     0
176
     1
290
     0
176
     1
290
     0
176
     1
 90
       50
176
     1
 40
0.0
176
     1
 40
1.0
176
     1
 90
        0
176
     1
 62
    18
420
        0
176
     1
 90
       50
176
     1
 90
        3
176
     1
 62
     5
420
      255
176
     1
290
     0
176
     1
 90
       50
176
     1
 90
       50
176
     1
 90
       50
176
     1
290
     0
176
     1
 90
       50
176
     1
 62
   256
176
     0
 40
1.0
176
     0
 90
        2
176
     1
  1
strokes_ogs.tif
176
     1
290
     0
176
     1
 40
1.0
176
     1
 40
1.0
176
     1
  0
VISUALSTYLE
  5
199
102
{ACAD_REACTORS
330
197
102
}
330
197
100
AcDbVisualStyle
  2
FlatWithEdges
 70
     1
177
     3
291
     1
 70
    58
 90
        2
176
     1
 90
        1
176
     1
 90
        1
176
     1
 90
        2
176
     1
 40
-0.6
176
     1
 40
30.0
176
     1
 62
     7
176
     1
 90
        1
176
     1
 90
        4
176
     1
 62
     7
176
     1
 62
   257
176
     1
 90
        1
176
     1
 90
        1
176
     1
 40
1.0
176
     1
 90
        0
176
     1
 62
   257
176
     1
 40
1.0
176
     1
 90
        1
176
     1
 90
        6
176
     1
 90
        2
176
     1
 62
     7
176
     1
 90
        5
176
     1
 90
        0
176
     1
 90
        0
176
     1
290
     0
176
     1
 90
       13
176
     1
 40
0.0
176
     1
 90
        0
176
     1
290
     0
176
     1
290
     1
176
     1
290
     1
176
     1
290
     0
176
     1
290
     0
176
     1
290
     0
176
     1
290
     0
176
     1
290
     0
176
     1
290
     0
176
     1
 90
       50
176
     1
 40
0.0
176
     1
 40
1.0
176
     1
 90
        0
176
     1
 62
    18
420
        0
176
     1
 90
       50
176
     1
 90
        3
176
     1
 62
     5
420
      255
176
     1
290
     0
176
     1
 90
       50
176
     1
 90
       50
176
     1
 90
       50
176
     1
290
     0
176
     1
 90
       50
176
     1
 62
   256
176
     0
 40
1.0
176
     0
 90
        2
176
     1
  1
strokes_ogs.tif
176
     1
290
     0
176
     1
 40
1.0
176
     1
 40
1.0
176
     1
  0
VISUALSTYLE
  5
19A
102
{ACAD_REACTORS
330
197
102
}
330
197
100
AcDbVisualStyle
  2
Gouraud
 70
     2
177
     3
291
     1
 70
    58
 90
        2
176
     1
 90
        2
176
     1
 90
        1
176
     1
 90
        2
176
     1
 40
-0.6
176
     1
 40
30.0
176
     1
 62
     7
176
     1
 90
        0
176
     1
 90
        4
176
     1
 62
     7
176
     1
 62
   257
176
     1
 90
        1
176
     1
 90
        1
176
     1
 40
1.0
176
     1
 90
        0
176
     1
 62
     7
176
     1
 40
1.0
176
     1
 90
        1
176
     1
 90
        6
176
     1
 90
        2
176
     1
 62
     7
176
     1
 90
        5
176
     1
 90
        0
176
     1
 90
        0
176
     1
290
     0
176
     1
 90
       13
176
     1
 40
0.0
176
     1
 90
        0
176
     1
290
     0
176
     1
290
     1
176
     1
290
     1
176
     1
290
     0
176
     1
290
     0
176
     1
290
     0
176
     1
290
     0
176
     1
290
     0
176
     1
290
     0
176
     1
 90
       50
176
     1
 40
0.0
176
     1
 40
1.0
176
     1
 90
        0
176
     1
 62
    18
420
        0
176
     1
 90
       50
176
     1
 90
        3
176
     1
 62
     5
420
      255
176
     1
290
     0
176
     1
 90
       50
176
     1
 90
       50
176
     1
 90
       50
176
     1
290
     0
176
     1
 90
       50
176
     1
 62
   256
176
     0
 40
1.0
176
     0
 90
        2
176
     1
  1
strokes_ogs.tif
176
     1
290
     0
176
     1
 40
1.0
176
     1
 40
1.0
176
     1
  0
VISUALSTYLE
  5
19B
102
{ACAD_REACTORS
330
197
102
}
330
197
100
AcDbVisualStyle
  2
GouraudWithEdges
 70
     3
177
     3
291
     1
 70
    58
 90
        2
176
     1
 90
        2
176
     1
 90
        1
176
     1
 90
        2
176
     1
 40
-0.6
176
     1
 40
30.0
176
     1
 62
     7
176
     1
 90
        1
176
     1
 90
        4
176
     1
 62
     7
176
     1
 62
   257
176
     1
 90
        1
176
     1
 90
        1
176
     1
 40
1.0
176
     1
 90
        0
176
     1
 62
   257
176
     1
 40
1.0
176
     1
 90
        1
176
     1
 90
        6
176
     1
 90
        2
176
     1
 62
     7
176
     1
 90
        5
176
     1
 90
        0
176
     1
 90
        0
176
     1
290
     0
176
     1
 90
       13
176
     1
 40
0.0
176
     1
 90
        0
176
     1
290
     0
176
     1
290
     1
176
     1
290
     1
176
     1
290
     0
176
     1
290
     0
176
     1
290
     0
176
     1
290
     0
176
     1
290
     0
176
     1
290
     0
176
     1
 90
       50
176
     1
 40
0.0
176
     1
 40
1.0
176
     1
 90
        0
176
     1
 62
    18
420
        0
176
     1
 90
       50
176
     1
 90
        3
176
     1
 62
     5
420
      255
176
     1
290
     0
176
     1
 90
       50
176
     1
 90
       50
176
     1
 90
       50
176
     1
290
     0
176
     1
 90
       50
176
     1
 62
   256
176
     0
 40
1.0
176
     0
 90
        2
176
     1
  1
strokes_ogs.tif
176
     1
290
     0
176
     1
 40
1.0
176
     1
 40
1.0
176
     1
  0
VISUALSTYLE
  5
1F5
102
{ACAD_REACTORS
330
197
102
}
330
197
100
AcDbVisualStyle
  2
Hidden
 70
     6
177
     3
291
     0
 70
    58
 90
        1
176
     1
 90
        2
176
     1
 90
        2
176
     1
 90
        0
176
     1
 40
0.6
176
     1
 40
30.0
176
     1
 62
     7
420
 16777215
176
     1
 90
        2
176
     1
 90
        2
176
     1
 62
     7
176
     1
 62
   257
176
     1
 90
        2
176
     1
 90
        1
176
     1
 40
40.0
176
     1
 90
        0
176
     1
 62
   257
176
     1
 40
1.0
176
     1
 90
        1
176
     1
 90
        6
176
     1
 90
        2
176
     1
 62
     7
176
     1
 90
        3
176
     1
 90
        0
176
     1
 90
        0
176
     1
290
     0
176
     1
 90
        1
176
     1
 40
0.0
176
     1
 90
        0
176
     1
290
     0
176
     1
290
     1
176
     1
290
     1
176
     1
290
     0
176
     1
290
     0
176
     1
290
     0
176
     1
290
     0
176
     1
290
     0
176
     1
290
     0
176
     1
 90
       50
176
     1
 40
0.0
176
     1
 40
1.0
176
     1
 90
        0
176
     1
 62
    18
420
        0
176
     1
 90
       50
176
     1
 90
        3
176
     1
 62
     5
420
      255
176
     1
290
     0
176
     1
 90
       50
176
     1
 90
       50
176
     1
 90
       50
176
     1
290
     0
176
     1
 90
       50
176
     1
 62
   256
176
     0
 40
1.0
176
     0
 90
        2
176
     1
  1
strokes_ogs.tif
176
     1
290
     0
176
     1
 40
1.0
176
     1
 40
1.0
176
     1
  0
VISUALSTYLE
  5
1F6
102
{ACAD_REACTORS
330
197
102
}
330
197
100
AcDbVisualStyle
  2
JitterOff
 70
    20
177
     3
291
     1
 70
    58
 90
        2
176
     0
 90
        2
176
     0
 90
        0
176
     0
 90
        0
176
     0
 40
0.6
176
     0
 40
30.0
176
     0
 62
     7
420
 16777215
176
     0
 90
        1
176
     0
 90
        4
176
     0
 62
     7
176
     0
 62
   257
176
     0
 90
        1
176
     0
 90
        1
176
     0
 40
1.0
176
     0
 90
       10
176
     2
 62
     7
176
     0
 40
1.0
176
     0
 90
        1
176
     0
 90
        6
176
     0
 90
        2
176
     0
 62
     7
176
     0
 90
        5
176
     0
 90
        0
176
     0
 90
        0
176
     0
290
     0
176
     0
 90
        1
176
     0
 40
0.0
176
     0
 90
        0
176
     0
290
     0
176
     0
290
     1
176
     0
290
     1
176
     0
290
     0
176
     0
290
     0
176
     0
290
     0
176
     0
290
     0
176
     0
290
     0
176
     0
290
     0
176
     0
 90
       50
176
     0
 40
0.0
176
     0
 40
1.0
176
     0
 90
        0
176
     0
 62
    18
420
        0
176
     0
 90
       50
176
     0
 90
        3
176
     0
 62
     5
420
      255
176
     0
290
     0
176
     0
 90
       50
176
     0
 90
       50
176
     0
 90
       50
176
     0
290
     0
176
     0
 90
       50
176
     0
 62
   256
176
     0
 40
1.0
176
     0
 90
        2
176
     0
  1
strokes_ogs.tif
176
     0
290
     0
176
     0
 40
1.0
176
     0
 40
1.0
176
     0
  0
VISUALSTYLE
  5
1A5
102
{ACAD_REACTORS
330
197
102
}
330
197
100
AcDbVisualStyle
  2
Linepattern
 70
    14
177
     3
291
     1
 70
    58
 90
        2
176
     1
 90
        2
176
     1
 90
        0
176
     1
 90
        0
176
     1
 40
-0.6
176
     1
 40
-30.0
176
     1
 62
     7
176
     1
 90
        1
176
     1
 90
        4
176
     1
 62
     7
176
     1
 62
   257
176
     1
 90
        7
176
     1
 90
        7
176
     1
 40
1.0
176
     1
 90
        8
176
     1
 62
     7
176
     1
 40
1.0
176
     1
 90
        1
176
     1
 90
        6
176
     1
 90
        2
176
     1
 62
     7
176
     1
 90
        5
176
     1
 90
        0
176
     1
 90
        0
176
     1
290
     0
176
     1
 90
        1
176
     1
 40
0.0
176
     1
 90
        0
176
     1
290
     0
176
     1
290
     1
176
     1
290
     1
176
     1
290
     0
176
     1
290
     0
176
     1
290
     0
176
     1
290
     0
176
     1
290
     0
176
     1
290
     0
176
     1
 90
       50
176
     1
 40
0.0
176
     1
 40
1.0
176
     1
 90
        0
176
     1
 62
    18
420
        0
176
     1
 90
       50
176
     1
 90
        3
176
     1
 62
     5
420
      255
176
     1
290
     0
176
     1
 90
       50
176
     1
 90
       50
176
     1
 90
       50
176
     1
290
     0
176
     1
 90
       50
176
     1
 62
   256
176
     0
 40
1.0
176
     0
 90
        2
176
     1
  1
strokes_ogs.tif
176
     1
290
     0
176
     1
 40
1.0
176
     1
 40
1.0
176
     1
  0
VISUALSTYLE
  5
1F7
102
{ACAD_REACTORS
330
197
102
}
330
197
100
AcDbVisualStyle
  2
OverhangOff
 70
    21
177
     3
291
     1
 70
    58
 90
        2
176
     0
 90
        2
176
     0
 90
        0
176
     0
 90
        0
176
     0
 40
0.6
176
     0
 40
30.0
176
     0
 62
     7
420
 16777215
176
     0
 90
        1
176
     0
 90
        4
176
     0
 62
     7
176
     0
 62
   257
176
     0
 90
        1
176
     0
 90
        1
176
     0
 40
1.0
176
     0
 90
        9
176
     2
 62
     7
176
     0
 40
1.0
176
     0
 90
        1
176
     0
 90
        6
176
     0
 90
        2
176
     0
 62
     7
176
     0
 90
        5
176
     0
 90
        0
176
     0
 90
        0
176
     0
290
     0
176
     0
 90
        1
176
     0
 40
0.0
176
     0
 90
        0
176
     0
290
     0
176
     0
290
     1
176
     0
290
     1
176
     0
290
     0
176
     0
290
     0
176
     0
290
     0
176
     0
290
     0
176
     0
290
     0
176
     0
290
     0
176
     0
 90
       50
176
     0
 40
0.0
176
     0
 40
1.0
176
     0
 90
        0
176
     0
 62
    18
420
        0
176
     0
 90
       50
176
     0
 90
        3
176
     0
 62
     5
420
      255
176
     0
290
     0
176
     0
 90
       50
176
     0
 90
       50
176
     0
 90
       50
176
     0
290
     0
176
     0
 90
       50
176
     0
 62
   256
176
     0
 40
1.0
176
     0
 90
        2
176
     0
  1
strokes_ogs.tif
176
     0
290
     0
176
     0
 40
1.0
176
     0
 40
1.0
176
     0
  0
VISUALSTYLE
  5
1A0
102
{ACAD_REACTORS
330
197
102
}
330
197
100
AcDbVisualStyle
  2
Realistic
 70
     8
177
     3
291
     0
 70
    58
 90
        2
176
     1
 90
        2
176
     1
 90
        0
176
     1
 90
        0
176
     1
 40
-0.6
176
     1
 40
-30.0
176
     1
 62
     7
176
     1
 90
        1
176
     1
 90
        0
176
     1
 62
     7
176
     1
 62
   257
176
     1
 90
        1
176
     1
 90
        1
176
     1
 40
1.0
176
     1
 90
        8
176
     1
 62
     8
176
     1
 40
1.0
176
     1
 90
        1
176
     1
 90
        6
176
     1
 90
        2
176
     1
 62
     7
176
     1
 90
        5
176
     1
 90
        0
176
     1
 90
        0
176
     1
290
     0
176
     1
 90
       13
176
     1
 40
0.0
176
     1
 90
        0
176
     1
290
     0
176
     1
290
     1
176
     1
290
     1
176
     1
290
     0
176
     1
290
     0
176
     1
290
     0
176
     1
290
     0
176
     1
290
     0
176
     1
290
     0
176
     1
 90
       50
176
     1
 40
0.0
176
     1
 40
1.0
176
     1
 90
        0
176
     1
 62
    18
420
        0
176
     1
 90
       50
176
     1
 90
        3
176
     1
 62
     5
420
      255
176
     1
290
     0
176
     1
 90
       50
176
     1
 90
       50
176
     1
 90
       50
176
     1
290
     0
176
     1
 90
       50
176
     1
 62
   256
176
     0
 40
1.0
176
     0
 90
        2
176
     1
  1
strokes_ogs.tif
176
     1
290
     0
176
     1
 40
1.0
176
     1
 40
1.0
176
     1
  0
VISUALSTYLE
  5
1FD
102
{ACAD_REACTORS
330
197
102
}
330
197
100
AcDbVisualStyle
  2
Shaded
 70
    27
177
     3
291
     0
 70
    58
 90
        2
176
     1
 90
        2
176
     1
 90
        1
176
     1
 90
        2
176
     1
 40
0.6
176
     1
 40
30.0
176
     1
 62
     7
420
 16777215
176
     1
 90
        0
176
     1
 90
        4
176
     1
 62
     7
176
     1
 62
   257
176
     1
 90
        1
176
     1
 90
        1
176
     1
 40
1.0
176
     1
 90
        8
176
     1
 62
   257
176
     1
 40
1.0
176
     1
 90
        1
176
     1
 90
        6
176
     1
 90
        2
176
     1
 62
     8
420
  7895160
176
     1
 90
        3
176
     1
 90
        0
176
     1
 90
        0
176
     1
290
     0
176
     1
 90
        5
176
     1
 40
0.0
176
     1
 90
        0
176
     1
290
     0
176
     1
290
     1
176
     1
290
     1
176
     1
290
     0
176
     1
290
     0
176
     1
290
     0
176
     1
290
     0
176
     1
290
     0
176
     1
290
     0
176
     1
 90
       50
176
     1
 40
0.0
176
     1
 40
1.0
176
     1
 90
        0
176
     1
 62
    18
420
        0
176
     1
 90
       50
176
     1
 90
        3
176
     1
 62
     5
420
      255
176
     1
290
     0
176
     1
 90
       50
176
     1
 90
       50
176
     1
 90
       50
176
     1
290
     0
176
     1
 90
       50
176
     1
 62
   256
176
     0
 40
1.0
176
     0
 90
        2
176
     1
  1
strokes_ogs.tif
176
     1
290
     0
176
     1
 40
1.0
176
     1
 40
1.0
176
     1
  0
VISUALSTYLE
  5
1FC
102
{ACAD_REACTORS
330
197
102
}
330
197
100
AcDbVisualStyle
  2
Shaded with edges
 70
    26
177
     3
291
     0
 70
    58
 90
        2
176
     1
 90
        2
176
     1
 90
        1
176
     1
 90
        2
176
     1
 40
0.6
176
     1
 40
30.0
176
     1
 62
     7
420
 16777215
176
     1
 90
        1
176
     1
 90
       10
176
     1
 62
     7
176
     1
 62
   257
176
     1
 90
        2
176
     1
 90
        1
176
     1
 40
1.0
176
     1
 90
        8
176
     1
 62
   257
176
     1
 40
1.0
176
     1
 90
        1
176
     1
 90
        6
176
     1
 90
        2
176
     1
 62
     7
176
     1
 90
        3
176
     1
 90
        0
176
     1
 90
        0
176
     1
290
     0
176
     1
 90
        5
176
     1
 40
0.0
176
     1
 90
        0
176
     1
290
     0
176
     1
290
     1
176
     1
290
     1
176
     1
290
     0
176
     1
290
     0
176
     1
290
     0
176
     1
290
     0
176
     1
290
     0
176
     1
290
     0
176
     1
 90
       50
176
     1
 40
0.0
176
     1
 40
1.0
176
     1
 90
        0
176
     1
 62
    18
420
        0
176
     1
 90
       50
176
     1
 90
        3
176
     1
 62
     5
420
      255
176
     1
290
     0
176
     1
 90
       50
176
     1
 90
       50
176
     1
 90
       50
176
     1
290
     0
176
     1
 90
       50
176
     1
 62
   256
176
     0
 40
1.0
176
     0
 90
        2
176
     1
  1
strokes_ogs.tif
176
     1
290
     0
176
     1
 40
1.0
176
     1
 40
1.0
176
     1
  0
VISUALSTYLE
  5
1F9
102
{ACAD_REACTORS
330
197
102
}
330
197
100
AcDbVisualStyle
  2
Shades of Gray
 70
    23
177
     3
291
     0
 70
    58
 90
        2
176
     1
 90
        2
176
     1
 90
        3
176
     1
 90
        0
176
     1
 40
0.6
176
     1
 40
30.0
176
     1
 62
     7
420
 16777215
176
     1
 90
        2
176
     1
 90
        2
176
     1
 62
     7
176
     1
 62
     7
176
     1
 90
        1
176
     1
 90
        1
176
     1
 40
40.0
176
     1
 90
        8
176
     1
 62
     7
176
     1
 40
1.0
176
     1
 90
        1
176
     1
 90
        6
176
     1
 90
        2
176
     1
 62
     7
176
     1
 90
        3
176
     1
 90
        0
176
     1
 90
        0
176
     1
290
     0
176
     1
 90
        1
176
     1
 40
0.0
176
     1
 90
        0
176
     1
290
     0
176
     1
290
     1
176
     1
290
     1
176
     1
290
     0
176
     1
290
     0
176
     1
290
     0
176
     1
290
     0
176
     1
290
     0
176
     1
290
     0
176
     1
 90
       50
176
     1
 40
0.0
176
     1
 40
1.0
176
     1
 90
        0
176
     1
 62
    18
420
        0
176
     1
 90
       50
176
     1
 90
        3
176
     1
 62
     5
420
      255
176
     1
290
     0
176
     1
 90
       50
176
     1
 90
       50
176
     1
 90
       50
176
     1
290
     0
176
     1
 90
       50
176
     1
 62
   256
176
     0
 40
1.0
176
     0
 90
        2
176
     1
  1
strokes_ogs.tif
176
     1
290
     0
176
     1
 40
1.0
176
     1
 40
1.0
176
     1
  0
VISUALSTYLE
  5
1FA
102
{ACAD_REACTORS
330
197
102
}
330
197
100
AcDbVisualStyle
  2
Sketchy
 70
    24
177
     3
291
     0
 70
    58
 90
        1
176
     1
 90
        2
176
     1
 90
        2
176
     1
 90
        0
176
     1
 40
0.6
176
     1
 40
30.0
176
     1
 62
     7
420
 16777215
176
     1
 90
        2
176
     1
 90
        2
176
     1
 62
     7
176
     1
 62
     7
176
     1
 90
        1
176
     1
 90
        1
176
     1
 40
40.0
176
     1
 90
       11
176
     1
 62
     7
176
     1
 40
1.0
176
     1
 90
        1
176
     1
 90
        6
176
     1
 90
        2
176
     1
 62
     7
176
     1
 90
        6
176
     1
 90
        0
176
     1
 90
        0
176
     1
290
     0
176
     1
 90
        1
176
     1
 40
0.0
176
     1
 90
        0
176
     1
290
     0
176
     1
290
     1
176
     1
290
     1
176
     1
290
     0
176
     1
290
     0
176
     1
290
     0
176
     1
290
     0
176
     1
290
     0
176
     1
290
     0
176
     1
 90
       50
176
     1
 40
0.0
176
     1
 40
1.0
176
     1
 90
        0
176
     1
 62
    18
420
        0
176
     1
 90
       50
176
     1
 90
        3
176
     1
 62
     5
420
      255
176
     1
290
     0
176
     1
 90
       50
176
     1
 90
       50
176
     1
 90
       50
176
     1
290
     0
176
     1
 90
       50
176
     1
 62
   256
176
     0
 40
1.0
176
     0
 90
        2
176
     1
  1
strokes_ogs.tif
176
     1
290
     0
176
     1
 40
1.0
176
     1
 40
1.0
176
     1
  0
VISUALSTYLE
  5
1A4
102
{ACAD_REACTORS
330
197
102
}
330
197
100
AcDbVisualStyle
  2
Thicken
 70
    13
177
     3
291
     1
 70
    58
 90
        2
176
     1
 90
        2
176
     1
 90
        0
176
     1
 90
        0
176
     1
 40
-0.6
176
     1
 40
-30.0
176
     1
 62
     7
176
     1
 90
        1
176
     1
 90
        4
176
     1
 62
     7
176
     1
 62
   257
176
     1
 90
        1
176
     1
 90
        1
176
     1
 40
1.0
176
     1
 90
       12
176
     1
 62
     7
176
     1
 40
1.0
176
     1
 90
        1
176
     1
 90
        6
176
     1
 90
        2
176
     1
 62
     7
176
     1
 90
        5
176
     1
 90
        0
176
     1
 90
        0
176
     1
290
     0
176
     1
 90
        1
176
     1
 40
0.0
176
     1
 90
        0
176
     1
290
     0
176
     1
290
     1
176
     1
290
     1
176
     1
290
     0
176
     1
290
     0
176
     1
290
     0
176
     1
290
     0
176
     1
290
     0
176
     1
290
     0
176
     1
 90
       50
176
     1
 40
0.0
176
     1
 40
1.0
176
     1
 90
        0
176
     1
 62
    18
420
        0
176
     1
 90
       50
176
     1
 90
        3
176
     1
 62
     5
420
      255
176
     1
290
     0
176
     1
 90
       50
176
     1
 90
       50
176
     1
 90
       50
176
     1
290
     0
176
     1
 90
       50
176
     1
 62
   256
176
     0
 40
1.0
176
     0
 90
        2
176
     1
  1
strokes_ogs.tif
176
     1
290
     0
176
     1
 40
1.0
176
     1
 40
1.0
176
     1
  0
VISUALSTYLE
  5
1F4
102
{ACAD_REACTORS
330
197
102
}
330
197
100
AcDbVisualStyle
  2
Wireframe
 70
     5
177
     3
291
     0
 70
    58
 90
        0
176
     1
 90
        2
176
     1
 90
        0
176
     1
 90
        0
176
     1
 40
0.6
176
     1
 40
30.0
176
     1
 62
     7
420
 16777215
176
     1
 90
        1
176
     1
 90
        4
176
     1
 62
     7
176
     1
 62
   257
176
     1
 90
        1
176
     1
 90
        1
176
     1
 40
1.0
176
     1
 90
        0
176
     1
 62
   257
176
     1
 40
1.0
176
     1
 90
        1
176
     1
 90
        6
176
     1
 90
        2
176
     1
 62
     7
176
     1
 90
        3
176
     1
 90
        0
176
     1
 90
        0
176
     1
290
     0
176
     1
 90
        1
176
     1
 40
0.0
176
     1
 90
        0
176
     1
290
     0
176
     1
290
     1
176
     1
290
     1
176
     1
290
     0
176
     1
290
     0
176
     1
290
     0
176
     1
290
     0
176
     1
290
     0
176
     1
290
     0
176
     1
 90
       50
176
     1
 40
0.0
176
     1
 40
1.0
176
     1
 90
        0
176
     1
 62
    18
420
        0
176
     1
 90
       50
176
     1
 90
        3
176
     1
 62
     5
420
      255
176
     1
290
     0
176
     1
 90
       50
176
     1
 90
       50
176
     1
 90
       50
176
     1
290
     0
176
     1
 90
       50
176
     1
 62
   256
176
     0
 40
1.0
176
     0
 90
        2
176
     1
  1
strokes_ogs.tif
176
     1
290
     0
176
     1
 40
1.0
176
     1
 40
1.0
176
     1
  0
VISUALSTYLE
  5
1FB
102
{ACAD_REACTORS
330
197
102
}
330
197
100
AcDbVisualStyle
  2
X-Ray
 70
    25
177
     3
291
     0
 70
    58
 90
        2
176
     1
 90
        2
176
     1
 90
        1
176
     1
 90
        1
176
     1
 40
0.5
176
     1
 40
30.0
176
     1
 62
     7
420
 16777215
176
     1
 90
        1
176
     1
 90
        0
176
     1
 62
     7
176
     1
 62
   257
176
     1
 90
        1
176
     1
 90
        1
176
     1
 40
1.0
176
     1
 90
        8
176
     1
 62
     7
176
     1
 40
1.0
176
     1
 90
        1
176
     1
 90
        6
176
     1
 90
        2
176
     1
 62
     7
176
     1
 90
        3
176
     1
 90
        0
176
     1
 90
        0
176
     1
290
     0
176
     1
 90
       13
176
     1
 40
0.0
176
     1
 90
        0
176
     1
290
     0
176
     1
290
     1
176
     1
290
     1
176
     1
290
     0
176
     1
290
     0
176
     1
290
     0
176
     1
290
     0
176
     1
290
     0
176
     1
290
     0
176
     1
 90
       50
176
     1
 40
0.0
176
     1
 40
1.0
176
     1
 90
        0
176
     1
 62
    18
420
        0
176
     1
 90
       50
176
     1
 90
        3
176
     1
 62
     5
420
      255
176
     1
290
     0
176
     1
 90
       50
176
     1
 90
       50
176
     1
 90
       50
176
     1
290
     0
176
     1
 90
       50
176
     1
 62
   256
176
     0
 40
1.0
176
     0
 90
        2
176
     1
  1
strokes_ogs.tif
176
     1
290
     0
176
     1
 40
1.0
176
     1
 40
1.0
176
     1
  0
DICTIONARYVAR
  5
202
102
{ACAD_REACTORS
330
1B3
102
}
330
1B3
100
DictionaryVariables
280
     0
  1
1:1
  0
DICTIONARYVAR
  5
204
102
{ACAD_REACTORS
330
1B3
102
}
330
1B3
100
DictionaryVariables
280
     0
  1
Standard
  0
DICTIONARYVAR
  5
203
102
{ACAD_REACTORS
330
1B3
102
}
330
1B3
100
DictionaryVariables
280
     0
  1
Standard
  0
DICTIONARYVAR
  5
1B7
102
{ACAD_REACTORS
330
1B3
102
}
330
1B3
100
DictionaryVariables
280
     0
  1
2
  0
DICTIONARYVAR
  5
1B8
102
{ACAD_REACTORS
330
1B3
102
}
330
1B3
100
DictionaryVariables
280
     0
  1
1
  0
DICTIONARYVAR
  5
1B6
102
{ACAD_REACTORS
330
1B3
102
}
330
1B3
100
DictionaryVariables
280
     0
  1
0
  0
DICTIONARY
  5
28F
330
1FF
100
AcDbDictionary
280
     1
281
     1
  3
ACAD_ROUNDTRIP_2008_TABLESTYLE_CELLSTYLEMAP
360
290
  0
CELLSTYLEMAP
  5
290
102
{ACAD_REACTORS
330
28F
102
}
330
28F
100
AcDbCellStyleMap
 90
        3
300
CELLSTYLE
  1
TABLEFORMAT_BEGIN
 90
        5
170
     1
 91
        0
 92
    32768
 62
   257
 93
        1
300
CONTENTFORMAT
  1
CONTENTFORMAT_BEGIN
 90
        0
 91
        0
 92
        4
 93
        0
300

 40
0.0
140
1.0
 94
        5
 62
     0
340
11
144
0.25
309
CONTENTFORMAT_END
171
     1
301
MARGIN
  1
CELLMARGIN_BEGIN
 40
0.06
 40
0.06
 40
0.06
 40
0.06
 40
0.06
 40
0.06
309
CELLMARGIN_END
 94
        6
 95
        1
302
GRIDFORMAT
  1
GRIDFORMAT_BEGIN
 90
        0
 91
        1
 62
     0
 92
       -2
340
14
 93
        0
 40
0.045
309
GRIDFORMAT_END
 95
        2
302
GRIDFORMAT
  1
GRIDFORMAT_BEGIN
 90
        0
 91
        1
 62
     0
 92
       -2
340
14
 93
        0
 40
0.045
309
GRIDFORMAT_END
 95
        4
302
GRIDFORMAT
  1
GRIDFORMAT_BEGIN
 90
        0
 91
        1
 62
     0
 92
       -2
340
14
 93
        0
 40
0.045
309
GRIDFORMAT_END
 95
        8
302
GRIDFORMAT
  1
GRIDFORMAT_BEGIN
 90
        0
 91
        1
 62
     0
 92
       -2
340
14
 93
        0
 40
0.045
309
GRIDFORMAT_END
 95
       16
302
GRIDFORMAT
  1
GRIDFORMAT_BEGIN
 90
        0
 91
        1
 62
     0
 92
       -2
340
14
 93
        0
 40
0.045
309
GRIDFORMAT_END
 95
       32
302
GRIDFORMAT
  1
GRIDFORMAT_BEGIN
 90
        0
 91
        1
 62
     0
 92
       -2
340
14
 93
        0
 40
0.045
309
GRIDFORMAT_END
309
TABLEFORMAT_END
  1
CELLSTYLE_BEGIN
 90
        1
 91
        1
300
_TITLE
309
CELLSTYLE_END
300
CELLSTYLE
  1
TABLEFORMAT_BEGIN
 90
        5
170
     1
 91
        0
 92
        0
 62
   257
 93
        1
300
CONTENTFORMAT
  1
CONTENTFORMAT_BEGIN
 90
        0
 91
        0
 92
        4
 93
        0
300

 40
0.0
140
1.0
 94
        5
 62
     0
340
11
144
0.18
309
CONTENTFORMAT_END
171
     1
301
MARGIN
  1
CELLMARGIN_BEGIN
 40
0.06
 40
0.06
 40
0.06
 40
0.06
 40
0.06
 40
0.06
309
CELLMARGIN_END
 94
        6
 95
        1
302
GRIDFORMAT
  1
GRIDFORMAT_BEGIN
 90
        0
 91
        1
 62
     0
 92
       -2
340
14
 93
        0
 40
0.045
309
GRIDFORMAT_END
 95
        2
302
GRIDFORMAT
  1
GRIDFORMAT_BEGIN
 90
        0
 91
        1
 62
     0
 92
       -2
340
14
 93
        0
 40
0.045
309
GRIDFORMAT_END
 95
        4
302
GRIDFORMAT
  1
GRIDFORMAT_BEGIN
 90
        0
 91
        1
 62
     0
 92
       -2
340
14
 93
        0
 40
0.045
309
GRIDFORMAT_END
 95
        8
302
GRIDFORMAT
  1
GRIDFORMAT_BEGIN
 90
        0
 91
        1
 62
     0
 92
       -2
340
14
 93
        0
 40
0.045
309
GRIDFORMAT_END
 95
       16
302
GRIDFORMAT
  1
GRIDFORMAT_BEGIN
 90
        0
 91
        1
 62
     0
 92
       -2
340
14
 93
        0
 40
0.045
309
GRIDFORMAT_END
 95
       32
302
GRIDFORMAT
  1
GRIDFORMAT_BEGIN
 90
        0
 91
        1
 62
     0
 92
       -2
340
14
 93
        0
 40
0.045
309
GRIDFORMAT_END
309
TABLEFORMAT_END
  1
CELLSTYLE_BEGIN
 90
        2
 91
        1
300
_HEADER
309
CELLSTYLE_END
300
CELLSTYLE
  1
TABLEFORMAT_BEGIN
 90
        5
170
     1
 91
        0
 92
        0
 62
   257
 93
        1
300
CONTENTFORMAT
  1
CONTENTFORMAT_BEGIN
 90
        0
 91
        0
 92
        4
 93
        0
300

 40
0.0
140
1.0
 94
        2
 62
     0
340
11
144
0.18
309
CONTENTFORMAT_END
171
     1
301
MARGIN
  1
CELLMARGIN_BEGIN
 40
0.06
 40
0.06
 40
0.06
 40
0.06
 40
0.06
 40
0.06
309
CELLMARGIN_END
 94
        6
 95
        1
302
GRIDFORMAT
  1
GRIDFORMAT_BEGIN
 90
        0
 91
        1
 62
     0
 92
       -2
340
14
 93
        0
 40
0.045
309
GRIDFORMAT_END
 95
        2
302
GRIDFORMAT
  1
GRIDFORMAT_BEGIN
 90
        0
 91
        1
 62
     0
 92
       -2
340
14
 93
        0
 40
0.045
309
GRIDFORMAT_END
 95
        4
302
GRIDFORMAT
  1
GRIDFORMAT_BEGIN
 90
        0
 91
        1
 62
     0
 92
       -2
340
14
 93
        0
 40
0.045
309
GRIDFORMAT_END
 95
        8
302
GRIDFORMAT
  1
GRIDFORMAT_BEGIN
 90
        0
 91
        1
 62
     0
 92
       -2
340
14
 93
        0
 40
0.045
309
GRIDFORMAT_END
 95
       16
302
GRIDFORMAT
  1
GRIDFORMAT_BEGIN
 90
        0
 91
        1
 62
     0
 92
       -2
340
14
 93
        0
 40
0.045
309
GRIDFORMAT_END
 95
       32
302
GRIDFORMAT
  1
GRIDFORMAT_BEGIN
 90
        0
 91
        1
 62
     0
 92
       -2
340
14
 93
        0
 40
0.045
309
GRIDFORMAT_END
309
TABLEFORMAT_END
  1
CELLSTYLE_BEGIN
 90
        3
 91
        2
300
_DATA
309
CELLSTYLE_END
  0
ENDSEC
  0
EOF
