  0
SECTION
  2
HEADER
  9
$ACADVER
  1
AC1027
  9
$ACADMAINTVER
 70
   105
  9
$DWGCODEPAGE
  3
ANSI_1252
  9
$REQUIREDVERSIONS
160
                 0
  9
$LASTSAVEDBY
  1
matthias.ochs
  9
$INSBASE
 10
0.0
 20
0.0
 30
0.0
  9
$EXTMIN
 10
-91.92102110514199
 20
-73.23812832236328
 30
0.0
  9
$EXTMAX
 10
124.3355996334546
 20
63.66252214520324
 30
0.0
  9
$LIMMIN
 10
-94.254344593
 20
-49.896156632
  9
$LIMMAX
 10
95.36738117
 20
47.800511888
  9
$ORTHOMODE
 70
     0
  9
$REGENMODE
 70
     1
  9
$FILLMODE
 70
     1
  9
$QTEXTMODE
 70
     0
  9
$MIRRTEXT
 70
     1
  9
$LTSCALE
 40
1.0
  9
$ATTMODE
 70
     1
  9
$TEXTSIZE
 40
0.2
  9
$TRACEWID
 40
0.05
  9
$TEXTSTYLE
  7
Standard
  9
$CLAYER
  8
SK4
  9
$CELTYPE
  6
ByLayer
  9
$CECOLOR
 62
   256
  9
$CELTSCALE
 40
1.0
  9
$DISPSILH
 70
     0
  9
$DIMSCALE
 40
1.0
  9
$DIMASZ
 40
0.18
  9
$DIMEXO
 40
0.0625
  9
$DIMDLI
 40
0.38
  9
$DIMRND
 40
0.0
  9
$DIMDLE
 40
0.0
  9
$DIMEXE
 40
0.18
  9
$DIMTP
 40
0.0
  9
$DIMTM
 40
0.0
  9
$DIMTXT
 40
0.18
  9
$DIMCEN
 40
0.09
  9
$DIMTSZ
 40
0.0
  9
$DIMTOL
 70
     0
  9
$DIMLIM
 70
     0
  9
$DIMTIH
 70
     1
  9
$DIMTOH
 70
     1
  9
$DIMSE1
 70
     0
  9
$DIMSE2
 70
     0
  9
$DIMTAD
 70
     0
  9
$DIMZIN
 70
     0
  9
$DIMBLK
  1

  9
$DIMASO
 70
     1
  9
$DIMSHO
 70
     1
  9
$DIMPOST
  1

  9
$DIMAPOST
  1

  9
$DIMALT
 70
     0
  9
$DIMALTD
 70
     2
  9
$DIMALTF
 40
25.4
  9
$DIMLFAC
 40
1.0
  9
$DIMTOFL
 70
     0
  9
$DIMTVP
 40
0.0
  9
$DIMTIX
 70
     0
  9
$DIMSOXD
 70
     0
  9
$DIMSAH
 70
     0
  9
$DIMBLK1
  1

  9
$DIMBLK2
  1

  9
$DIMSTYLE
  2
Standard
  9
$DIMCLRD
 70
     0
  9
$DIMCLRE
 70
     0
  9
$DIMCLRT
 70
     0
  9
$DIMTFAC
 40
1.0
  9
$DIMGAP
 40
0.09
  9
$DIMJUST
 70
     0
  9
$DIMSD1
 70
     0
  9
$DIMSD2
 70
     0
  9
$DIMTOLJ
 70
     1
  9
$DIMTZIN
 70
     0
  9
$DIMALTZ
 70
     0
  9
$DIMALTTZ
 70
     0
  9
$DIMUPT
 70
     0
  9
$DIMDEC
 70
     4
  9
$DIMTDEC
 70
     4
  9
$DIMALTU
 70
     2
  9
$DIMALTTD
 70
     2
  9
$DIMTXSTY
  7
Standard
  9
$DIMAUNIT
 70
     0
  9
$DIMADEC
 70
     0
  9
$DIMALTRND
 40
0.0
  9
$DIMAZIN
 70
     0
  9
$DIMDSEP
 70
    46
  9
$DIMATFIT
 70
     3
  9
$DIMFRAC
 70
     0
  9
$DIMLDRBLK
  1

  9
$DIMLUNIT
 70
     2
  9
$DIMLWD
 70
    -2
  9
$DIMLWE
 70
    -2
  9
$DIMTMOVE
 70
     2
  9
$DIMFXL
 40
1.0
  9
$DIMFXLON
 70
     0
  9
$DIMJOGANG
 40
0.7853981633974483
  9
$DIMTFILL
 70
     0
  9
$DIMTFILLCLR
 70
     0
  9
$DIMARCSYM
 70
     0
  9
$DIMLTYPE
  6

  9
$DIMLTEX1
  6

  9
$DIMLTEX2
  6

  9
$DIMTXTDIRECTION
 70
     0
  9
$LUNITS
 70
     2
  9
$LUPREC
 70
     4
  9
$SKETCHINC
 40
0.1
  9
$FILLETRAD
 40
0.5
  9
$AUNITS
 70
     2
  9
$AUPREC
 70
     0
  9
$MENU
  1
.
  9
$ELEVATION
 40
0.0
  9
$PELEVATION
 40
0.0
  9
$THICKNESS
 40
0.0
  9
$LIMCHECK
 70
     0
  9
$CHAMFERA
 40
0.5
  9
$CHAMFERB
 40
0.5
  9
$CHAMFERC
 40
1.0
  9
$CHAMFERD
 40
0.0
  9
$SKPOLY
 70
     0
  9
$TDCREATE
 40
2458327.54935625
  9
$TDUCREATE
 40
2458327.466022917
  9
$TDUPDATE
 40
2458682.448547083
  9
$TDUUPDATE
 40
2458682.36521375
  9
$TDINDWG
 40
0.0105825579
  9
$TDUSRTIMER
 40
0.0155358796
  9
$USRTIMER
 70
     1
  9
$ANGBASE
 50
0.0
  9
$ANGDIR
 70
     0
  9
$PDMODE
 70
     0
  9
$PDSIZE
 40
0.0
  9
$PLINEWID
 40
0.0
  9
$SPLFRAME
 70
     0
  9
$SPLINETYPE
 70
     6
  9
$SPLINESEGS
 70
     8
  9
$HANDSEED
  5
296
  9
$SURFTAB1
 70
     6
  9
$SURFTAB2
 70
     6
  9
$SURFTYPE
 70
     6
  9
$SURFU
 70
     6
  9
$SURFV
 70
     6
  9
$UCSBASE
  2

  9
$UCSNAME
  2

  9
$UCSORG
 10
0.0
 20
0.0
 30
0.0
  9
$UCSXDIR
 10
1.0
 20
0.0
 30
0.0
  9
$UCSYDIR
 10
0.0
 20
1.0
 30
0.0
  9
$UCSORTHOREF
  2

  9
$UCSORTHOVIEW
 70
     0
  9
$UCSORGTOP
 10
0.0
 20
0.0
 30
0.0
  9
$UCSORGBOTTOM
 10
0.0
 20
0.0
 30
0.0
  9
$UCSORGLEFT
 10
0.0
 20
0.0
 30
0.0
  9
$UCSORGRIGHT
 10
0.0
 20
0.0
 30
0.0
  9
$UCSORGFRONT
 10
0.0
 20
0.0
 30
0.0
  9
$UCSORGBACK
 10
0.0
 20
0.0
 30
0.0
  9
$PUCSBASE
  2

  9
$PUCSNAME
  2

  9
$PUCSORG
 10
0.0
 20
0.0
 30
0.0
  9
$PUCSXDIR
 10
1.0
 20
0.0
 30
0.0
  9
$PUCSYDIR
 10
0.0
 20
1.0
 30
0.0
  9
$PUCSORTHOREF
  2

  9
$PUCSORTHOVIEW
 70
     0
  9
$PUCSORGTOP
 10
0.0
 20
0.0
 30
0.0
  9
$PUCSORGBOTTOM
 10
0.0
 20
0.0
 30
0.0
  9
$PUCSORGLEFT
 10
0.0
 20
0.0
 30
0.0
  9
$PUCSORGRIGHT
 10
0.0
 20
0.0
 30
0.0
  9
$PUCSORGFRONT
 10
0.0
 20
0.0
 30
0.0
  9
$PUCSORGBACK
 10
0.0
 20
0.0
 30
0.0
  9
$USERI1
 70
     0
  9
$USERI2
 70
     0
  9
$USERI3
 70
     0
  9
$USERI4
 70
     0
  9
$USERI5
 70
     0
  9
$USERR1
 40
0.0
  9
$USERR2
 40
0.0
  9
$USERR3
 40
0.0
  9
$USERR4
 40
0.0
  9
$USERR5
 40
0.0
  9
$WORLDVIEW
 70
     1
  9
$SHADEDGE
 70
     3
  9
$SHADEDIF
 70
    70
  9
$TILEMODE
 70
     1
  9
$MAXACTVP
 70
    64
  9
$PINSBASE
 10
0.0
 20
0.0
 30
0.0
  9
$PLIMCHECK
 70
     0
  9
$PEXTMIN
 10
1.000000000000000E+20
 20
1.000000000000000E+20
 30
1.000000000000000E+20
  9
$PEXTMAX
 10
-1.000000000000000E+20
 20
-1.000000000000000E+20
 30
-1.000000000000000E+20
  9
$PLIMMIN
 10
0.0
 20
0.0
  9
$PLIMMAX
 10
0.0
 20
0.0
  9
$UNITMODE
 70
     0
  9
$VISRETAIN
 70
     1
  9
$PLINEGEN
 70
     0
  9
$PSLTSCALE
 70
     1
  9
$TREEDEPTH
 70
  3020
  9
$CMLSTYLE
  2
Standard
  9
$CMLJUST
 70
     0
  9
$CMLSCALE
 40
1.0
  9
$PROXYGRAPHICS
 70
     1
  9
$MEASUREMENT
 70
     0
  9
$CELWEIGHT
370
    -1
  9
$ENDCAPS
280
     0
  9
$JOINSTYLE
280
     0
  9
$LWDISPLAY
290
     0
  9
$INSUNITS
 70
     0
  9
$HYPERLINKBASE
  1

  9
$STYLESHEET
  1

  9
$XEDIT
290
     1
  9
$CEPSNTYPE
380
     0
  9
$PSTYLEMODE
290
     1
  9
$FINGERPRINTGUID
  2
{60C2231C-0578-4308-A6BE-41DCA247260B}
  9
$VERSIONGUID
  2
{FAEB1C32-E019-11D5-929B-00C0DF256EC4}
  9
$EXTNAMES
290
     1
  9
$PSVPSCALE
 40
0.0
  9
$OLESTARTUP
290
     0
  9
$SORTENTS
280
   127
  9
$INDEXCTL
280
     0
  9
$HIDETEXT
280
     1
  9
$XCLIPFRAME
280
     2
  9
$HALOGAP
280
     0
  9
$OBSCOLOR
 70
   257
  9
$OBSLTYPE
280
     0
  9
$INTERSECTIONDISPLAY
280
     0
  9
$INTERSECTIONCOLOR
 70
   257
  9
$DIMASSOC
280
     2
  9
$PROJECTNAME
  1

  9
$CAMERADISPLAY
290
     0
  9
$LENSLENGTH
 40
50.0
  9
$CAMERAHEIGHT
 40
0.0
  9
$STEPSPERSEC
 40
2.0
  9
$STEPSIZE
 40
6.0
  9
$3DDWFPREC
 40
2.0
  9
$PSOLWIDTH
 40
0.25
  9
$PSOLHEIGHT
 40
4.0
  9
$LOFTANG1
 40
1.570796326794897
  9
$LOFTANG2
 40
1.570796326794897
  9
$LOFTMAG1
 40
0.0
  9
$LOFTMAG2
 40
0.0
  9
$LOFTPARAM
 70
     7
  9
$LOFTNORMALS
280
     1
  9
$LATITUDE
 40
37.795
  9
$LONGITUDE
 40
-122.394
  9
$NORTHDIRECTION
 40
0.0
  9
$TIMEZONE
 70
 -8000
  9
$LIGHTGLYPHDISPLAY
280
     1
  9
$TILEMODELIGHTSYNCH
280
     1
  9
$SOLIDHIST
280
     0
  9
$SHOWHIST
280
     1
  9
$DWFFRAME
280
     2
  9
$DGNFRAME
280
     2
  9
$REALWORLDSCALE
290
     1
  9
$INTERFERECOLOR
 62
   256
  9
$CSHADOW
280
     0
  9
$SHADOWPLANELOCATION
 40
0.0
  0
ENDSEC
  0
SECTION
  2
CLASSES
  0
CLASS
  1
ACDBDICTIONARYWDFLT
  2
AcDbDictionaryWithDefault
  3
ObjectDBX Classes
 90
        0
 91
      275
280
     0
281
     0
  0
CLASS
  1
SCALE
  2
AcDbScale
  3
ObjectDBX Classes
 90
     1153
 91
      275
280
     0
281
     0
  0
CLASS
  1
VISUALSTYLE
  2
AcDbVisualStyle
  3
ObjectDBX Classes
 90
     4095
 91
      275
280
     0
281
     0
  0
CLASS
  1
MATERIAL
  2
AcDbMaterial
  3
ObjectDBX Classes
 90
     1153
 91
      275
280
     0
281
     0
  0
CLASS
  1
DICTIONARYVAR
  2
AcDbDictionaryVar
  3
ObjectDBX Classes
 90
        0
 91
        9
280
     0
281
     0
  0
CLASS
  1
ACDBPLACEHOLDER
  2
AcDbPlaceHolder
  3
ObjectDBX Classes
 90
        0
 91
        1
280
     0
281
     0
  0
CLASS
  1
LAYOUT
  2
AcDbLayout
  3
ObjectDBX Classes
 90
        0
 91
        1
280
     0
281
     0
  0
CLASS
  1
TABLESTYLE
  2
AcDbTableStyle
  3
ObjectDBX Classes
 90
     4095
 91
      275
280
     0
281
     0
  0
CLASS
  1
MLEADERSTYLE
  2
AcDbMLeaderStyle
  3
ACDB_MLEADERSTYLE_CLASS
 90
     4095
 91
      275
280
     0
281
     0
  0
CLASS
  1
SUN
  2
AcDbSun
  3
SCENEOE
 90
     1153
 91
      275
280
     0
281
     0
  0
CLASS
  1
SORTENTSTABLE
  2
AcDbSortentsTable
  3
ObjectDBX Classes
 90
        0
 91
        8
280
     0
281
     0
  0
CLASS
  1
CELLSTYLEMAP
  2
AcDbCellStyleMap
  3
ObjectDBX Classes
 90
     1152
 91
        6
280
     0
281
     0
  0
ENDSEC
  0
SECTION
  2
TABLES
  0
TABLE
  2
VPORT
  5
8
330
0
100
AcDbSymbolTable
 70
     1
  0
VPORT
  5
175
330
8
100
AcDbSymbolTableRecord
100
AcDbViewportTableRecord
  2
*Active
 70
     0
 10
0.0
 20
0.0
 11
1.0
 21
1.0
 12
-60.96387953974006
 22
18.25128469725686
 13
0.0
 23
0.0
 14
0.5
 24
0.5
 15
0.5
 25
0.5
 16
0.0
 26
0.0
 36
1.0
 17
0.0
 27
0.0
 37
0.0
 40
491.061978920944
 41
1.831002331002331
 42
50.0
 43
0.0
 44
0.0
 50
0.0
 51
0.0
 71
    16
 72
   100
 73
     1
 74
     3
 75
     0
 76
     0
 77
     0
 78
     0
281
     0
 65
     1
110
0.0
120
0.0
130
0.0
111
1.0
121
0.0
131
0.0
112
0.0
122
1.0
132
0.0
 79
     0
146
0.0
348
1A6
 60
     3
 61
     5
292
     1
282
     1
141
0.0
142
0.0
 63
   256
361
25C
  0
ENDTAB
  0
TABLE
  2
LTYPE
  5
5
330
0
100
AcDbSymbolTable
 70
     8
  0
LTYPE
  5
14
330
5
100
AcDbSymbolTableRecord
100
AcDbLinetypeTableRecord
  2
ByBlock
 70
     0
  3

 72
    65
 73
     0
 40
0.0
  0
LTYPE
  5
15
330
5
100
AcDbSymbolTableRecord
100
AcDbLinetypeTableRecord
  2
ByLayer
 70
     0
  3

 72
    65
 73
     0
 40
0.0
  0
LTYPE
  5
16
330
5
100
AcDbSymbolTableRecord
100
AcDbLinetypeTableRecord
  2
Continuous
 70
     0
  3
Solid line
 72
    65
 73
     0
 40
0.0
  0
LTYPE
  5
20
330
5
100
AcDbSymbolTableRecord
100
AcDbLinetypeTableRecord
  2
PUNKT
 70
     0
  3
..............
 72
    65
 73
     2
 40
1.5
 49
0.7
 74
     0
 49
-0.8
 74
     0
  0
LTYPE
  5
21
330
5
100
AcDbSymbolTableRecord
100
AcDbLinetypeTableRecord
  2
GESTRICHELT
 70
     0
  3
-- -- -- -- --
 72
    65
 73
     7
 40
2.8
 49
0.9
 74
     0
 49
0.0
 74
     0
 49
0.9
 74
     0
 49
0.0
 74
     0
 49
0.2
 74
     0
 49
0.0
 74
     0
 49
-0.8
 74
     0
  0
LTYPE
  5
22
330
5
100
AcDbSymbolTableRecord
100
AcDbLinetypeTableRecord
  2
STRICHPUNKT
 70
     0
  3
--.--.--.--.--
 72
    65
 73
     4
 40
8.8
 49
5.5
 74
     0
 49
-1.3
 74
     0
 49
0.7
 74
     0
 49
-1.3
 74
     0
  0
LTYPE
  5
25
330
5
100
AcDbSymbolTableRecord
100
AcDbLinetypeTableRecord
  2
PHANTOM
 70
     0
  3
--..--..--..--
 72
    65
 73
     6
 40
14.2
 49
7.0
 74
     0
 49
-1.8
 74
     0
 49
0.9
 74
     0
 49
-1.8
 74
     0
 49
0.9
 74
     0
 49
-1.8
 74
     0
  0
LTYPE
  5
1ED
330
5
100
AcDbSymbolTableRecord
100
AcDbLinetypeTableRecord
  2
DASH
 70
     0
  3
DASH _ _ _ _ _
 72
    65
 73
     2
 40
0.75
 49
0.4
 74
     0
 49
-0.35
 74
     0
  0
LTYPE
  5
1EE
330
5
100
AcDbSymbolTableRecord
100
AcDbLinetypeTableRecord
  2
LONGDASH_DASH
 70
     0
  3
LONGDASH_DASH __ . __ . __
 72
    65
 73
     4
 40
0.85
 49
0.4
 74
     0
 49
-0.2
 74
     0
 49
0.05
 74
     0
 49
-0.2
 74
     0
  0
LTYPE
  5
1EF
330
5
100
AcDbSymbolTableRecord
100
AcDbLinetypeTableRecord
  2
LONGDASH_DASH_DASH
 70
     0
  3
LONGDASH_DASH_DASH __ . . __ . . __
 72
    65
 73
     6
 40
1.1
 49
0.4
 74
     0
 49
-0.2
 74
     0
 49
0.05
 74
     0
 49
-0.2
 74
     0
 49
0.05
 74
     0
 49
-0.2
 74
     0
  0
ENDTAB
  0
TABLE
  2
LAYER
  5
2
102
{ACAD_XDICTIONARY
360
20C
102
}
330
0
100
AcDbSymbolTable
 70
    16
  0
LAYER
  5
1B7
330
2
100
AcDbSymbolTableRecord
100
AcDbLayerTableRecord
  2
200
 70
     0
 62
     2
  6
Continuous
370
    50
390
F
347
1B5
348
0
  0
LAYER
  5
1F0
330
2
100
AcDbSymbolTableRecord
100
AcDbLayerTableRecord
  2
0
 70
     0
 62
     1
  6
Continuous
370
    -3
390
F
347
1B5
348
0
  0
LAYER
  5
1F1
330
2
100
AcDbSymbolTableRecord
100
AcDbLayerTableRecord
  2
1
 70
     0
 62
     4
  6
Continuous
370
    50
390
F
347
1B5
348
0
  0
LAYER
  5
1F2
330
2
100
AcDbSymbolTableRecord
100
AcDbLayerTableRecord
  2
2
 70
     0
 62
     7
  6
Continuous
370
    25
390
F
347
1B5
348
0
  0
LAYER
  5
1F3
330
2
100
AcDbSymbolTableRecord
100
AcDbLayerTableRecord
  2
3
 70
     0
 62
     1
  6
DASH
370
    35
390
F
347
1B5
348
0
  0
LAYER
  5
1F4
330
2
100
AcDbSymbolTableRecord
100
AcDbLayerTableRecord
  2
4
 70
     0
 62
     2
  6
LONGDASH_DASH
370
    25
390
F
347
1B5
348
0
  0
LAYER
  5
1F5
330
2
100
AcDbSymbolTableRecord
100
AcDbLayerTableRecord
  2
6
 70
     0
 62
     5
  6
Continuous
370
    -3
390
F
347
1B5
348
0
  0
LAYER
  5
1F6
330
2
100
AcDbSymbolTableRecord
100
AcDbLayerTableRecord
  2
CUT
 70
     0
 62
     1
  6
Continuous
370
    25
390
F
347
1B5
348
0
  0
LAYER
  5
1F7
330
2
100
AcDbSymbolTableRecord
100
AcDbLayerTableRecord
  2
NOCUT
 70
     0
 62
     7
  6
Continuous
370
    25
390
F
347
1B5
348
0
  0
LAYER
  5
1F8
330
2
100
AcDbSymbolTableRecord
100
AcDbLayerTableRecord
  2
SK1
 70
     0
 62
     4
  6
Continuous
370
    50
390
F
347
1B5
348
0
  0
LAYER
  5
1F9
330
2
100
AcDbSymbolTableRecord
100
AcDbLayerTableRecord
  2
SK2
 70
     0
 62
     7
  6
Continuous
370
    25
390
F
347
1B5
348
0
  0
LAYER
  5
1FA
330
2
100
AcDbSymbolTableRecord
100
AcDbLayerTableRecord
  2
SK3
 70
     0
 62
     1
  6
DASH
370
    35
390
F
347
1B5
348
0
  0
LAYER
  5
1FB
330
2
100
AcDbSymbolTableRecord
100
AcDbLayerTableRecord
  2
SK4
 70
     0
 62
     2
  6
LONGDASH_DASH
370
    25
390
F
347
1B5
348
0
  0
LAYER
  5
1FC
330
2
100
AcDbSymbolTableRecord
100
AcDbLayerTableRecord
  2
SK6
 70
     0
 62
     5
  6
Continuous
370
    -3
390
F
347
1B5
348
0
  0
LAYER
  5
1FD
330
2
100
AcDbSymbolTableRecord
100
AcDbLayerTableRecord
  2
INFTOTAL
 70
     0
 62
     9
  6
Continuous
370
    18
390
F
347
1B5
348
0
  0
LAYER
  5
260
330
2
100
AcDbSymbolTableRecord
100
AcDbLayerTableRecord
  2
11
 70
     0
 62
     4
  6
Continuous
370
    50
390
F
347
1B5
348
0
1001
AcAecLayerStandard
1000

1000

  0
ENDTAB
  0
TABLE
  2
STYLE
  5
3
330
0
100
AcDbSymbolTable
 70
     3
  0
STYLE
  5
11
330
3
100
AcDbSymbolTableRecord
100
AcDbTextStyleTableRecord
  2
Standard
 70
     0
 40
0.0
 41
1.0
 50
0.0
 71
     0
 42
0.2
  3
txt
  4

  0
STYLE
  5
1B6
330
3
100
AcDbSymbolTableRecord
100
AcDbTextStyleTableRecord
  2
BMG_Text
 70
     0
 40
3.5
 41
1.0
 50
0.0
 71
     0
 42
0.2
  3
monos.ttf
  4

1001
ACAD
1000
Monospac821 BT
1071
       49
  0
STYLE
  5
266
330
3
100
AcDbSymbolTableRecord
100
AcDbTextStyleTableRecord
  2
SLDTEXTSTYLE0
 70
     0
 40
0.0
 41
0.605
 50
0.0
 71
     0
 42
0.2
  3
TXT
  4

  0
ENDTAB
  0
TABLE
  2
VIEW
  5
6
330
0
100
AcDbSymbolTable
 70
     0
  0
ENDTAB
  0
TABLE
  2
UCS
  5
7
330
0
100
AcDbSymbolTable
 70
     0
  0
ENDTAB
  0
TABLE
  2
APPID
  5
9
330
0
100
AcDbSymbolTable
 70
     2
  0
APPID
  5
12
330
9
100
AcDbSymbolTableRecord
100
AcDbRegAppTableRecord
  2
ACAD
 70
     0
  0
APPID
  5
261
330
9
100
AcDbSymbolTableRecord
100
AcDbRegAppTableRecord
  2
AcAecLayerStandard
 70
     0
  0
ENDTAB
  0
TABLE
  2
DIMSTYLE
  5
A
330
0
100
AcDbSymbolTable
 70
     6
100
AcDbDimStyleTable
  0
DIMSTYLE
105
28
330
A
100
AcDbSymbolTableRecord
100
AcDbDimStyleTableRecord
  2
Standard
 70
     0
178
     0
340
11
  0
DIMSTYLE
105
262
330
A
100
AcDbSymbolTableRecord
100
AcDbDimStyleTableRecord
  2
Matthias
 70
     0
 41
3.0
 44
2.0
 73
     0
 77
     1
140
3.0
147
2.0
178
     0
340
11
  0
DIMSTYLE
105
264
102
{ACAD_REACTORS
102
}
330
A
100
AcDbSymbolTableRecord
100
AcDbDimStyleTableRecord
  2
ISO-25
 70
     0
 41
2.5
 42
0.625
 43
3.75
 44
1.25
 73
     0
 74
     0
 77
     1
 78
     8
140
2.5
141
2.5
143
0.0393700787
147
0.625
171
     3
172
     1
178
     0
271
     2
272
     2
274
     3
278
    44
283
     0
284
     8
340
11
  0
DIMSTYLE
105
265
330
A
100
AcDbSymbolTableRecord
100
AcDbDimStyleTableRecord
  2
SLDDIMSTYLE0
 70
     0
 41
3.5
 44
0.0
 45
0.000000001
 73
     0
 74
     0
 77
     1
 78
    12
 79
     3
140
3.5
144
0.5
147
0.875
173
     1
178
     0
271
     2
272
     1
276
     2
284
    12
340
266
  0
DIMSTYLE
105
267
330
A
100
AcDbSymbolTableRecord
100
AcDbDimStyleTableRecord
  2
SLDDIMSTYLE1
 70
     0
 41
3.5
 44
0.0
 45
0.000000001
 73
     0
 74
     0
 77
     1
 78
    12
 79
     3
140
3.5
144
0.5
147
0.875
173
     1
178
     0
271
     2
272
     3
276
     2
284
    12
340
266
  0
DIMSTYLE
105
268
330
A
100
AcDbSymbolTableRecord
100
AcDbDimStyleTableRecord
  2
SLDDIMSTYLE2
 70
     0
 41
3.5
 44
0.0
 45
0.000000001
 73
     0
 74
     0
 77
     1
 78
    12
 79
     3
140
3.5
147
0.875
173
     1
178
     0
271
     2
272
     0
276
     2
284
    12
340
266
  0
ENDTAB
  0
TABLE
  2
BLOCK_RECORD
  5
1
330
0
100
AcDbSymbolTable
 70
     1
  0
BLOCK_RECORD
  5
1D
330
1
100
AcDbSymbolTableRecord
100
AcDbBlockTableRecord
  2
*Model_Space
340
1E
 70
     0
280
     1
281
     0
  0
BLOCK_RECORD
  5
1B
330
1
100
AcDbSymbolTableRecord
100
AcDbBlockTableRecord
  2
*Paper_Space
340
1C
 70
     0
280
     1
281
     0
  0
ENDTAB
  0
ENDSEC
  0
SECTION
  2
BLOCKS
  0
BLOCK
  5
19F
330
1D
100
AcDbEntity
  8
0
100
AcDbBlockBegin
  2
*Model_Space
 70
     0
 10
0.0
 20
0.0
 30
0.0
  3
*Model_Space
  1

  0
ENDBLK
  5
1A0
330
1D
100
AcDbEntity
  8
0
100
AcDbBlockEnd
  0
BLOCK
  5
19D
330
1B
100
AcDbEntity
 67
     1
  8
0
100
AcDbBlockBegin
  2
*Paper_Space
 70
     0
 10
0.0
 20
0.0
 30
0.0
  3
*Paper_Space
  1

  0
ENDBLK
  5
19E
330
1B
100
AcDbEntity
 67
     1
  8
0
100
AcDbBlockEnd
  0
ENDSEC
  0
SECTION
  2
ENTITIES
  0
LINE
  5
29
330
1D
100
AcDbEntity
  8
SK4
100
AcDbLine
 10
-0.622386605
 20
-27.947437431
 30
0.0
 11
13.412493097
 21
-6.582629361000004
 31
0.0
  0
LINE
  5
2A
330
1D
100
AcDbEntity
  8
3
100
AcDbLine
 10
0.0
 20
-23.994783677
 30
0.0
 11
11.116340388
 21
-7.072766255000004
 31
0.0
  0
LINE
  5
2B
330
1D
100
AcDbEntity
  8
3
100
AcDbLine
 10
0.0102689540000001
 20
-29.989584252
 30
0.0
 11
15.064688479
 21
-7.072766255000004
 31
0.0
  0
LINE
  5
2C
330
1D
100
AcDbEntity
  8
SK4
100
AcDbLine
 10
-72.330118137
 20
-0.0000000000000036
 30
0.0
 11
-18.963616339
 21
-0.0000000000000036
 31
0.0
  0
LINE
  5
2D
330
1D
100
AcDbEntity
  8
SK4
100
AcDbLine
 10
-0.622386605
 20
27.947437431
 30
0.0
 11
13.520652029
 21
6.417982788999996
 31
0.0
  0
LINE
  5
2E
330
1D
100
AcDbEntity
  8
3
100
AcDbLine
 10
0.0
 20
23.994783677
 30
0.0
 11
11.113405624
 21
7.077233744999996
 31
0.0
  0
LINE
  5
2F
330
1D
100
AcDbEntity
  8
3
100
AcDbLine
 10
0.0102689540000001
 20
29.989584252
 30
0.0
 11
15.061753714
 21
7.077233744999996
 31
0.0
  0
LINE
  5
30
330
1D
100
AcDbEntity
  8
SK6
100
AcDbLine
 10
-38.002325239
 20
-33.18833089700001
 30
0.0
 11
-38.002325239
 21
-35.25832296700001
 31
0.0
  0
ARC
  5
31
330
1D
100
AcDbEntity
  8
SK6
100
AcDbCircle
 10
-40.882314869
 20
-36.338332427
 30
0.0
 40
1.08000004
100
AcDbArc
 50
90.0000076300002
 51
206.54360962
  0
LINE
  5
32
330
1D
100
AcDbEntity
  8
SK6
100
AcDbLine
 10
-40.882314869
 20
-35.25835348700001
 30
0.0
 11
-38.002309989
 21
-35.25835348700001
 31
0.0
  0
ARC
  5
33
330
1D
100
AcDbEntity
  8
SK6
100
AcDbCircle
 10
-42.052320669
 20
-35.88832784700001
 30
0.0
 40
2.70000005
100
AcDbArc
 50
90.00000763000003
 51
206.5436554000001
  0
ARC
  5
34
330
1D
100
AcDbEntity
  8
SK6
100
AcDbCircle
 10
-41.332304189
 20
-45.78833700700001
 30
0.0
 40
1.08000004
100
AcDbArc
 50
270.0
 51
26.54360961999999
  0
LINE
  5
35
330
1D
100
AcDbEntity
  8
SK6
100
AcDbLine
 10
-41.332304189
 20
-46.86833883700001
 30
0.0
 11
-44.752302359
 21
-46.86833883700001
 31
0.0
  0
LINE
  5
36
330
1D
100
AcDbEntity
  8
SK6
100
AcDbLine
 10
-44.467718309
 20
-37.09490133700001
 30
0.0
 11
-40.366155809
 21
-45.30569387700001
 31
0.0
  0
ARC
  5
37
330
1D
100
AcDbEntity
  8
SK6
100
AcDbCircle
 10
-40.162313649
 20
-46.23834157700001
 30
0.0
 40
2.70000005
100
AcDbArc
 50
270.0
 51
26.54364013999999
  0
LINE
  5
38
330
1D
100
AcDbEntity
  8
SK6
100
AcDbLine
 10
-41.848478499
 20
-36.82096029700001
 30
0.0
 11
-37.746908369
 21
-45.03176046700001
 31
0.0
  0
LINE
  5
39
330
1D
100
AcDbEntity
  8
SK6
100
AcDbLine
 10
-44.752325239
 20
-46.86833883700001
 30
0.0
 11
-44.752325239
 21
-48.93834615700001
 31
0.0
  0
LINE
  5
3A
330
1D
100
AcDbEntity
  8
SK6
100
AcDbLine
 10
-44.752325239
 20
-48.93834615700001
 30
0.0
 11
-40.162321279
 21
-48.93834615700001
 31
0.0
  0
LINE
  5
3B
330
1D
100
AcDbEntity
  8
SK6
100
AcDbLine
 10
-35.302320669
 20
-48.93834615700001
 30
0.0
 11
-35.302320669
 21
-33.18834615700001
 31
0.0
  0
LINE
  5
3C
330
1D
100
AcDbEntity
  8
SK6
100
AcDbLine
 10
-27.022314259
 20
-48.93834615700001
 30
0.0
 11
-27.022314259
 21
-33.18834615700001
 31
0.0
  0
LINE
  5
3D
330
1D
100
AcDbEntity
  8
SK6
100
AcDbLine
 10
-27.022314259
 20
-48.93834615700001
 30
0.0
 11
-24.322321119
 21
-48.93834615700001
 31
0.0
  0
LINE
  5
3E
330
1D
100
AcDbEntity
  8
SK6
100
AcDbLine
 10
-24.322321119
 20
-48.93834615700001
 30
0.0
 11
-24.322321119
 21
-42.09834981700001
 31
0.0
  0
ARC
  5
3F
330
1D
100
AcDbEntity
  8
SK6
100
AcDbCircle
 10
-22.972307389
 20
-43.17833639700001
 30
0.0
 40
1.08000004
100
AcDbArc
 50
0.0
 51
90.00000763
  0
LINE
  5
40
330
1D
100
AcDbEntity
  8
SK6
100
AcDbLine
 10
-22.972307389
 20
-42.09833456700001
 30
0.0
 11
-24.322309679
 21
-42.09833456700001
 31
0.0
  0
LINE
  5
41
330
1D
100
AcDbEntity
  8
SK6
100
AcDbLine
 10
-21.892328449
 20
-46.418341887
 30
0.0
 11
-21.892328449
 21
-47.40833211700001
 31
0.0
  0
ARC
  5
42
330
1D
100
AcDbEntity
  8
SK6
100
AcDbCircle
 10
-16.762331199
 20
-47.40833974700001
 30
0.0
 40
2.51999998
100
AcDbArc
 50
180.0
 51
217.38319397
  0
ARC
  5
43
330
1D
100
AcDbEntity
  8
SK6
100
AcDbCircle
 10
-19.372339429
 20
-47.40833974700001
 30
0.0
 40
2.51999998
100
AcDbArc
 50
180.0
 51
217.38319397
  0
LINE
  5
44
330
1D
100
AcDbEntity
  8
SK6
100
AcDbLine
 10
-18.854723159
 20
-48.93834615700001
 30
0.0
 11
-21.374723619
 21
-48.93834615700001
 31
0.0
  0
LINE
  5
45
330
1D
100
AcDbEntity
  8
SK6
100
AcDbLine
 10
-21.892328449
 20
-43.17835164700001
 30
0.0
 11
-21.892328449
 21
-47.40833974700001
 31
0.0
  0
ARC
  5
46
330
1D
100
AcDbEntity
  8
SK6
100
AcDbCircle
 10
-21.802309219
 20
-43.358344327
 30
0.0
 40
2.51999998
100
AcDbArc
 50
358.70883179
 51
93.06652832000003
  0
ARC
  5
47
330
1D
100
AcDbEntity
  8
SK6
100
AcDbCircle
 10
-22.072321119
 20
-38.31834341700001
 30
0.0
 40
2.51999998
100
AcDbArc
 50
273.06652832
 51
0.0
  0
ARC
  5
48
330
1D
100
AcDbEntity
  8
SK6
100
AcDbCircle
 10
-22.072321119
 20
-35.70835042700001
 30
0.0
 40
2.51999998
100
AcDbArc
 50
0.0
 51
90.00000763000001
  0
LINE
  5
49
330
1D
100
AcDbEntity
  8
SK6
100
AcDbLine
 10
-19.552309219
 20
-35.70835042700001
 30
0.0
 11
-19.552309219
 21
-38.31835103700001
 31
0.0
  0
ARC
  5
4A
330
1D
100
AcDbEntity
  8
SK6
100
AcDbCircle
 10
-22.702318379
 20
-36.15834737700001
 30
0.0
 40
0.90000004
100
AcDbArc
 50
0.0
 51
90.00000763000006
  0
LINE
  5
4B
330
1D
100
AcDbEntity
  8
SK6
100
AcDbLine
 10
-22.702318379
 20
-35.25835348700001
 30
0.0
 11
-24.322321119
 21
-35.25835348700001
 31
0.0
  0
ARC
  5
4C
330
1D
100
AcDbEntity
  8
SK6
100
AcDbCircle
 10
-22.702318379
 20
-39.03833700700001
 30
0.0
 40
0.90000004
100
AcDbArc
 50
270.0
 51
0.0
  0
LINE
  5
4D
330
1D
100
AcDbEntity
  8
SK6
100
AcDbLine
 10
-21.802309219
 20
-36.15834737700001
 30
0.0
 11
-21.802309219
 21
-39.03834463700001
 31
0.0
  0
LINE
  5
4E
330
1D
100
AcDbEntity
  8
SK6
100
AcDbLine
 10
-24.322321119
 20
-35.25835348700001
 30
0.0
 11
-24.322321119
 21
-39.93834615700001
 31
0.0
  0
LINE
  5
4F
330
1D
100
AcDbEntity
  8
SK6
100
AcDbLine
 10
-22.702318379
 20
-39.93834615700001
 30
0.0
 11
-24.322321119
 21
-39.93834615700001
 31
0.0
  0
LINE
  5
50
330
1D
100
AcDbEntity
  8
SK6
100
AcDbLine
 10
-19.282961079
 20
-43.41512990700001
 30
0.0
 11
-19.282331649
 21
-47.408744107
 31
0.0
  0
LINE
  5
51
330
1D
100
AcDbEntity
  8
SK6
100
AcDbLine
 10
-18.854723159
 20
-48.93834615700001
 30
0.0
 11
-18.764726829
 21
-48.93834615700001
 31
0.0
  0
LINE
  5
52
330
1D
100
AcDbEntity
  8
SK6
100
AcDbLine
 10
-42.052320669
 20
-33.18833089700001
 30
0.0
 11
-38.002317609
 21
-33.18833089700001
 31
0.0
  0
LINE
  5
53
330
1D
100
AcDbEntity
  8
SK6
100
AcDbLine
 10
-22.072321119
 20
-33.18833089700001
 30
0.0
 11
-27.022325699
 21
-33.18833089700001
 31
0.0
  0
LINE
  5
54
330
1D
100
AcDbEntity
  8
SK6
100
AcDbLine
 10
-69.052320669
 20
-48.93834615700001
 30
0.0
 11
-71.842321579
 21
-48.93834615700001
 31
0.0
  0
LINE
  5
55
330
1D
100
AcDbEntity
  8
SK6
100
AcDbLine
 10
-69.052320669
 20
-45.51834798700001
 30
0.0
 11
-69.052320669
 21
-48.93834615700001
 31
0.0
  0
LINE
  5
56
330
1D
100
AcDbEntity
  8
SK6
100
AcDbLine
 10
-67.972318839
 20
-43.448340667
 30
0.0
 11
-69.052320669
 21
-45.51834798700001
 31
0.0
  0
LINE
  5
57
330
1D
100
AcDbEntity
  8
SK6
100
AcDbLine
 10
-65.542326159
 20
-48.93834615700001
 30
0.0
 11
-67.972318839
 21
-43.448340667
 31
0.0
  0
LINE
  5
58
330
1D
100
AcDbEntity
  8
SK6
100
AcDbLine
 10
-62.752325239
 20
-48.93834615700001
 30
0.0
 11
-65.542318529
 21
-48.93834615700001
 31
0.0
  0
LINE
  5
59
330
1D
100
AcDbEntity
  8
SK6
100
AcDbLine
 10
-66.352331349
 20
-39.93834615700001
 30
0.0
 11
-62.752325239
 21
-48.93834615700001
 31
0.0
  0
LINE
  5
5A
330
1D
100
AcDbEntity
  8
SK6
100
AcDbLine
 10
-63.292326159
 20
-33.18834615700001
 30
0.0
 11
-66.352316089
 21
-39.93834615700001
 31
0.0
  0
LINE
  5
5B
330
1D
100
AcDbEntity
  8
SK6
100
AcDbLine
 10
-69.052320669
 20
-40.298354397
 30
0.0
 11
-66.082327079
 21
-33.18836141700001
 31
0.0
  0
LINE
  5
5C
330
1D
100
AcDbEntity
  8
SK6
100
AcDbLine
 10
-69.052320669
 20
-33.18834615700001
 30
0.0
 11
-69.052320669
 21
-40.298354397
 31
0.0
  0
LINE
  5
5D
330
1D
100
AcDbEntity
  8
SK6
100
AcDbLine
 10
-71.842321579
 20
-48.93834615700001
 30
0.0
 11
-71.842321579
 21
-33.18834615700001
 31
0.0
  0
LINE
  5
5E
330
1D
100
AcDbEntity
  8
SK6
100
AcDbLine
 10
-66.082327079
 20
-33.18834615700001
 30
0.0
 11
-63.292326159
 21
-33.18834615700001
 31
0.0
  0
LINE
  5
5F
330
1D
100
AcDbEntity
  8
SK6
100
AcDbLine
 10
-71.842321579
 20
-33.18834615700001
 30
0.0
 11
-69.052320669
 21
-33.18834615700001
 31
0.0
  0
LINE
  5
60
330
1D
100
AcDbEntity
  8
SK6
100
AcDbLine
 10
-49.792318529
 20
-33.18834615700001
 30
0.0
 11
-49.792318529
 21
-48.93834615700001
 31
0.0
  0
LINE
  5
61
330
1D
100
AcDbEntity
  8
SK6
100
AcDbLine
 10
-46.912313649
 20
-48.93834615700001
 30
0.0
 11
-46.912313649
 21
-33.18834615700001
 31
0.0
  0
LINE
  5
62
330
1D
100
AcDbEntity
  8
SK6
100
AcDbLine
 10
-49.792318529
 20
-48.93834615700001
 30
0.0
 11
-46.912313649
 21
-48.93834615700001
 31
0.0
  0
LINE
  5
63
330
1D
100
AcDbEntity
  8
SK6
100
AcDbLine
 10
-46.912313649
 20
-33.18834615700001
 30
0.0
 11
-49.792326159
 21
-33.18834615700001
 31
0.0
  0
LINE
  5
64
330
1D
100
AcDbEntity
  8
SK6
100
AcDbLine
 10
-29.452318379
 20
-48.93834615700001
 30
0.0
 11
-29.452318379
 21
-46.86833883700001
 31
0.0
  0
LINE
  5
65
330
1D
100
AcDbEntity
  8
SK6
100
AcDbLine
 10
-35.302320669
 20
-48.93834615700001
 30
0.0
 11
-29.452318379
 21
-48.93834615700001
 31
0.0
  0
LINE
  5
66
330
1D
100
AcDbEntity
  8
SK6
100
AcDbLine
 10
-29.452329819
 20
-35.25833822700001
 30
0.0
 11
-29.452329819
 21
-33.18834615700001
 31
0.0
  0
LINE
  5
67
330
1D
100
AcDbEntity
  8
SK6
100
AcDbLine
 10
-32.422346299
 20
-35.25833822700001
 30
0.0
 11
-29.452341269
 21
-35.25833822700001
 31
0.0
  0
LINE
  5
68
330
1D
100
AcDbEntity
  8
SK6
100
AcDbLine
 10
-32.422346299
 20
-39.93834615700001
 30
0.0
 11
-32.422346299
 21
-35.25835348700001
 31
0.0
  0
LINE
  5
69
330
1D
100
AcDbEntity
  8
SK6
100
AcDbLine
 10
-29.452329819
 20
-39.93834615700001
 30
0.0
 11
-32.422334859
 21
-39.93834615700001
 31
0.0
  0
LINE
  5
6A
330
1D
100
AcDbEntity
  8
SK6
100
AcDbLine
 10
-29.452329819
 20
-42.09832693700001
 30
0.0
 11
-29.452329819
 21
-39.93832326700001
 31
0.0
  0
LINE
  5
6B
330
1D
100
AcDbEntity
  8
SK6
100
AcDbLine
 10
-32.422346299
 20
-42.09832693700001
 30
0.0
 11
-29.452341269
 21
-42.09832693700001
 31
0.0
  0
LINE
  5
6C
330
1D
100
AcDbEntity
  8
SK6
100
AcDbLine
 10
-32.422346299
 20
-46.86833883700001
 30
0.0
 11
-32.422346299
 21
-42.09832693700001
 31
0.0
  0
LINE
  5
6D
330
1D
100
AcDbEntity
  8
SK6
100
AcDbLine
 10
-29.452329819
 20
-46.86833883700001
 30
0.0
 11
-32.422334859
 21
-46.86833883700001
 31
0.0
  0
LINE
  5
6E
330
1D
100
AcDbEntity
  8
SK6
100
AcDbLine
 10
-29.452329819
 20
-33.18834615700001
 30
0.0
 11
-35.302328299
 21
-33.18834615700001
 31
0.0
  0
LINE
  5
6F
330
1D
100
AcDbEntity
  8
SK6
100
AcDbLine
 10
-55.372320359
 20
-48.93834615700001
 30
0.0
 11
-61.672323409
 21
-48.93834615700001
 31
0.0
  0
LINE
  5
70
330
1D
100
AcDbEntity
  8
SK6
100
AcDbLine
 10
-55.822309679
 20
-46.41833425700001
 30
0.0
 11
-55.372320359
 21
-48.93833089700001
 31
0.0
  0
LINE
  5
71
330
1D
100
AcDbEntity
  8
SK6
100
AcDbLine
 10
-58.702329819
 20
-46.41833425700001
 30
0.0
 11
-55.822332569
 21
-46.41833425700001
 31
0.0
  0
LINE
  5
72
330
1D
100
AcDbEntity
  8
SK6
100
AcDbLine
 10
-57.172323409
 20
-37.05834890700001
 30
0.0
 11
-58.702322189
 21
-46.41835714700001
 31
0.0
  0
LINE
  5
73
330
1D
100
AcDbEntity
  8
SK6
100
AcDbLine
 10
-54.112325849
 20
-48.93834615700001
 30
0.0
 11
-57.172323409
 21
-37.05834890700001
 31
0.0
  0
LINE
  5
74
330
1D
100
AcDbEntity
  8
SK6
100
AcDbLine
 10
-51.142316999
 20
-48.93834615700001
 30
0.0
 11
-54.112310599
 21
-48.93834615700001
 31
0.0
  0
LINE
  5
75
330
1D
100
AcDbEntity
  8
SK6
100
AcDbLine
 10
-55.552320669
 20
-32.73834157700001
 30
0.0
 11
-51.142324629
 21
-48.93834615700001
 31
0.0
  0
LINE
  5
76
330
1D
100
AcDbEntity
  8
SK6
100
AcDbLine
 10
-58.612325849
 20
-32.73834157700001
 30
0.0
 11
-55.552328299
 21
-32.73834157700001
 31
0.0
  0
LINE
  5
77
330
1D
100
AcDbEntity
  8
SK6
100
AcDbLine
 10
-61.672323409
 20
-48.93834615700001
 30
0.0
 11
-58.612325849
 21
-32.73834157700001
 31
0.0
  0
LINE
  5
78
330
1D
100
AcDbEntity
  8
SK2
100
AcDbLine
 10
-14.219511032
 20
-22.225014583
 30
0.0
 11
-1.0
 21
-22.225014583
 31
0.0
  0
LINE
  5
79
330
1D
100
AcDbEntity
  8
SK2
100
AcDbLine
 10
-12.219511032
 20
-22.225014583
 30
0.0
 11
-12.669511032
 21
-18.725014583
 31
0.0
  0
LINE
  5
7A
330
1D
100
AcDbEntity
  8
SK2
100
AcDbLine
 10
-12.669511032
 20
-18.725014583
 30
0.0
 11
-11.769511032
 21
-18.725014583
 31
0.0
  0
LINE
  5
7B
330
1D
100
AcDbEntity
  8
SK2
100
AcDbLine
 10
-11.769511032
 20
-18.725014583
 30
0.0
 11
-12.219511032
 21
-22.225014583
 31
0.0
  0
LINE
  5
7C
330
1D
100
AcDbEntity
  8
SK2
100
AcDbLine
 10
-12.219511032
 20
-18.82501458300001
 30
0.0
 11
-12.219511032
 21
-22.125014583
 31
0.0
  0
LINE
  5
7D
330
1D
100
AcDbEntity
  8
SK2
100
AcDbLine
 10
-12.019511032
 20
-18.82501458300001
 30
0.0
 11
-12.019511032
 21
-20.569459028
 31
0.0
  0
LINE
  5
7E
330
1D
100
AcDbEntity
  8
SK2
100
AcDbLine
 10
-12.419511032
 20
-18.82501458300001
 30
0.0
 11
-12.419511032
 21
-20.569459028
 31
0.0
  0
LINE
  5
7F
330
1D
100
AcDbEntity
  8
SK2
100
AcDbLine
 10
-11.819511032
 20
-18.82501458300001
 30
0.0
 11
-11.819511032
 21
-19.013903472
 31
0.0
  0
LINE
  5
80
330
1D
100
AcDbEntity
  8
SK2
100
AcDbLine
 10
-12.619511032
 20
-18.82501458300001
 30
0.0
 11
-12.619511032
 21
-19.013903472
 31
0.0
  0
LINE
  5
81
330
1D
100
AcDbEntity
  8
SK2
100
AcDbLine
 10
-14.219511032
 20
22.225014583
 30
0.0
 11
-1.0
 21
22.225014583
 31
0.0
  0
LINE
  5
82
330
1D
100
AcDbEntity
  8
SK2
100
AcDbLine
 10
-12.219511032
 20
22.225014583
 30
0.0
 11
-11.769511032
 21
18.725014583
 31
0.0
  0
LINE
  5
83
330
1D
100
AcDbEntity
  8
SK2
100
AcDbLine
 10
-11.769511032
 20
18.725014583
 30
0.0
 11
-12.669511032
 21
18.725014583
 31
0.0
  0
LINE
  5
84
330
1D
100
AcDbEntity
  8
SK2
100
AcDbLine
 10
-12.669511032
 20
18.725014583
 30
0.0
 11
-12.219511032
 21
22.225014583
 31
0.0
  0
LINE
  5
85
330
1D
100
AcDbEntity
  8
SK2
100
AcDbLine
 10
-12.219511032
 20
18.825014583
 30
0.0
 11
-12.219511032
 21
22.125014583
 31
0.0
  0
LINE
  5
86
330
1D
100
AcDbEntity
  8
SK2
100
AcDbLine
 10
-12.419511032
 20
18.825014583
 30
0.0
 11
-12.419511032
 21
20.569459028
 31
0.0
  0
LINE
  5
87
330
1D
100
AcDbEntity
  8
SK2
100
AcDbLine
 10
-12.019511032
 20
18.825014583
 30
0.0
 11
-12.019511032
 21
20.569459028
 31
0.0
  0
LINE
  5
88
330
1D
100
AcDbEntity
  8
SK2
100
AcDbLine
 10
-12.619511032
 20
18.825014583
 30
0.0
 11
-12.619511032
 21
19.013903472
 31
0.0
  0
LINE
  5
89
330
1D
100
AcDbEntity
  8
SK2
100
AcDbLine
 10
-11.819511032
 20
18.825014583
 30
0.0
 11
-11.819511032
 21
19.013903472
 31
0.0
  0
LINE
  5
8A
330
1D
100
AcDbEntity
  8
SK2
100
AcDbLine
 10
-12.219511032
 20
-18.725014583
 30
0.0
 11
-12.219511032
 21
18.725014583
 31
0.0
  0
TEXT
  5
8B
330
1D
100
AcDbEntity
  8
SK2
100
AcDbText
 10
-13.719511032
 20
-2.539687997000004
 30
0.0
 40
3.5
  1
44.45
 50
90.0
  7
BMG_Text
100
AcDbText
  0
CIRCLE
  5
8C
330
1D
100
AcDbEntity
  8
SK2
100
AcDbCircle
 10
-14.969511032
 20
-4.789687997000003
 30
0.0
 40
1.25
  0
LINE
  5
8D
330
1D
100
AcDbEntity
  8
SK2
100
AcDbLine
 10
-13.719511032
 20
-6.039687997000003
 30
0.0
 11
-16.219511032
 21
-3.539687997000004
 31
0.0
  0
LINE
  5
8E
330
1D
100
AcDbEntity
  8
1
100
AcDbLine
 10
0.0
 20
25.297292551
 30
0.0
 11
0.0
 21
29.979315298
 31
0.0
  0
LINE
  5
8F
330
1D
100
AcDbEntity
  8
1
100
AcDbLine
 10
0.0
 20
29.979315298
 30
0.0
 11
0.5
 21
30.479315298
 31
0.0
  0
LINE
  5
90
330
1D
100
AcDbEntity
  8
1
100
AcDbLine
 10
0.5
 20
30.479315298
 30
0.0
 11
6.578163358
 21
30.479315298
 31
0.0
  0
LINE
  5
91
330
1D
100
AcDbEntity
  8
1
100
AcDbLine
 10
6.578163358
 20
30.479315298
 30
0.0
 11
7.183662182999999
 21
29.629315295
 31
0.0
  0
LINE
  5
92
330
1D
100
AcDbEntity
  8
1
100
AcDbLine
 10
7.183662182999999
 20
29.629315295
 30
0.0
 11
8.175
 21
27.846106004
 31
0.0
  0
LINE
  5
93
330
1D
100
AcDbEntity
  8
1
100
AcDbLine
 10
8.175
 20
27.846106004
 30
0.0
 11
8.175
 21
22.437946847
 31
0.0
  0
LINE
  5
94
330
1D
100
AcDbEntity
  8
1
100
AcDbLine
 10
0.5
 20
-30.474847807
 30
0.0
 11
0.5
 21
18.352233745
 31
0.0
  0
LINE
  5
95
330
1D
100
AcDbEntity
  8
1
100
AcDbLine
 10
0.5
 20
18.352233745
 30
0.0
 11
6.578163358
 21
18.352233745
 31
0.0
  0
LINE
  5
96
330
1D
100
AcDbEntity
  8
1
100
AcDbLine
 10
6.578163358
 20
18.352233745
 30
0.0
 11
6.578163358
 21
-30.474847807
 31
0.0
  0
LINE
  5
97
330
1D
100
AcDbEntity
  8
1
100
AcDbLine
 10
6.578163358
 20
-30.474847807
 30
0.0
 11
0.5
 21
-30.474847807
 31
0.0
  0
LINE
  5
98
330
1D
100
AcDbEntity
  8
1
100
AcDbLine
 10
0.5
 20
-30.474847807
 30
0.0
 11
0.0
 21
-29.974847807
 31
0.0
  0
LINE
  5
99
330
1D
100
AcDbEntity
  8
1
100
AcDbLine
 10
0.0
 20
-29.974847807
 30
0.0
 11
0.0
 21
25.297292551
 31
0.0
  0
LINE
  5
9A
330
1D
100
AcDbEntity
  8
1
100
AcDbLine
 10
0.0
 20
25.297292551
 30
0.0
 11
0.5
 21
25.912463385
 31
0.0
  0
LINE
  5
9B
330
1D
100
AcDbEntity
  8
1
100
AcDbLine
 10
0.5
 20
25.912463385
 30
0.0
 11
6.578163358
 21
25.912463385
 31
0.0
  0
LINE
  5
9C
330
1D
100
AcDbEntity
  8
1
100
AcDbLine
 10
6.578163358
 20
25.912463385
 30
0.0
 11
8.175
 21
22.437946847
 31
0.0
  0
LINE
  5
9D
330
1D
100
AcDbEntity
  8
1
100
AcDbLine
 10
8.175
 20
22.437946847
 30
0.0
 11
8.175
 21
21.808826785
 31
0.0
  0
ARC
  5
9E
330
1D
100
AcDbEntity
  8
1
100
AcDbCircle
 10
8.748720311
 20
21.726114748
 30
0.0
 40
0.579651858
100
AcDbArc
 50
171.7963139140001
 51
262.6933157829999
  0
LINE
  5
9F
330
1D
100
AcDbEntity
  8
1
100
AcDbLine
 10
8.675
 20
21.15116988899999
 30
0.0
 11
11.525
 21
21.15116988899999
 31
0.0
  0
LINE
  5
A0
330
1D
100
AcDbEntity
  8
1
100
AcDbLine
 10
11.525
 20
21.15116988899999
 30
0.0
 11
11.556217325
 21
21.152461343
 31
0.0
  0
LINE
  5
A1
330
1D
100
AcDbEntity
  8
1
100
AcDbLine
 10
11.556217325
 20
21.152461343
 30
0.0
 11
11.682695584
 21
21.184944194
 31
0.0
  0
LINE
  5
A2
330
1D
100
AcDbEntity
  8
1
100
AcDbLine
 10
11.682695584
 20
21.184944194
 30
0.0
 11
11.753699097
 21
21.224420954
 31
0.0
  0
LINE
  5
A3
330
1D
100
AcDbEntity
  8
1
100
AcDbLine
 10
11.753699097
 20
21.224420954
 30
0.0
 11
11.875606716
 21
21.340824597
 31
0.0
  0
LINE
  5
A4
330
1D
100
AcDbEntity
  8
1
100
AcDbLine
 10
11.875606716
 20
21.340824597
 30
0.0
 11
11.980491472
 21
21.53860699399999
 31
0.0
  0
LINE
  5
A5
330
1D
100
AcDbEntity
  8
1
100
AcDbLine
 10
11.980491472
 20
21.53860699399999
 30
0.0
 11
12.025
 21
21.808826785
 31
0.0
  0
LINE
  5
A6
330
1D
100
AcDbEntity
  8
1
100
AcDbLine
 10
12.025
 20
21.808826785
 30
0.0
 11
12.025
 21
22.437946847
 31
0.0
  0
LINE
  5
A7
330
1D
100
AcDbEntity
  8
1
100
AcDbLine
 10
12.025
 20
22.437946847
 30
0.0
 11
13.621836642
 21
25.912463385
 31
0.0
  0
LINE
  5
A8
330
1D
100
AcDbEntity
  8
1
100
AcDbLine
 10
13.621836642
 20
25.912463385
 30
0.0
 11
17.55
 21
25.912463385
 31
0.0
  0
LINE
  5
A9
330
1D
100
AcDbEntity
  8
1
100
AcDbLine
 10
17.55
 20
25.912463385
 30
0.0
 11
18.05
 21
25.297292551
 31
0.0
  0
LINE
  5
AA
330
1D
100
AcDbEntity
  8
1
100
AcDbLine
 10
18.05
 20
25.297292551
 30
0.0
 11
18.05
 21
18.352233745
 31
0.0
  0
LINE
  5
AB
330
1D
100
AcDbEntity
  8
1
100
AcDbLine
 10
18.05
 20
18.352233745
 30
0.0
 11
18.05
 21
-30.070721409
 31
0.0
  0
LINE
  5
AC
330
1D
100
AcDbEntity
  8
1
100
AcDbLine
 10
18.05
 20
-30.070721409
 30
0.0
 11
17.55
 21
-30.474847807
 31
0.0
  0
LINE
  5
AD
330
1D
100
AcDbEntity
  8
1
100
AcDbLine
 10
17.55
 20
-30.474847807
 30
0.0
 11
17.55
 21
18.352233745
 31
0.0
  0
LINE
  5
AE
330
1D
100
AcDbEntity
  8
1
100
AcDbLine
 10
17.55
 20
18.352233745
 30
0.0
 11
13.621836642
 21
18.352233745
 31
0.0
  0
LINE
  5
AF
330
1D
100
AcDbEntity
  8
1
100
AcDbLine
 10
13.621836642
 20
18.352233745
 30
0.0
 11
13.621836642
 21
-30.474847807
 31
0.0
  0
ARC
  5
B0
330
1D
100
AcDbEntity
  8
1
100
AcDbCircle
 10
-0.2
 20
-22.422766255
 30
0.0
 40
0.5
100
AcDbArc
 50
66.42182152200006
 51
90.0
  0
LINE
  5
B1
330
1D
100
AcDbEntity
  8
SK1
100
AcDbLine
 10
-1.0
 20
22.227233745
 30
0.0
 11
-68.437091548
 21
12.392657894
 31
0.0
  0
LINE
  5
B2
330
1D
100
AcDbEntity
  8
SK1
100
AcDbLine
 10
-68.467478641
 20
-12.383758953
 30
0.0
 11
-1.0
 21
-22.222766255
 31
0.0
  0
LINE
  5
B3
330
1D
100
AcDbEntity
  8
1
100
AcDbLine
 10
-1.0
 20
-22.222766255
 30
0.0
 11
-0.457109723
 21
-21.969612361
 31
0.0
  0
LINE
  5
B4
330
1D
100
AcDbEntity
  8
1
100
AcDbLine
 10
-0.457109723
 20
21.974079852
 30
0.0
 11
-1.0
 21
22.227233745
 31
0.0
  0
ARC
  5
B5
330
1D
100
AcDbEntity
  8
1
100
AcDbCircle
 10
-0.245800592
 20
-22.422766255
 30
0.0
 40
0.5
100
AcDbArc
 50
90.0
 51
114.9999999999999
  0
ARC
  5
B6
330
1D
100
AcDbEntity
  8
1
100
AcDbCircle
 10
-0.245800592
 20
22.427233745
 30
0.0
 40
0.5
100
AcDbArc
 50
245.0
 51
299.445877252
  0
ARC
  5
B7
330
1D
100
AcDbEntity
  8
SK1
100
AcDbCircle
 10
-68.3
 20
-11.448134072
 30
0.0
 40
0.95
100
AcDbArc
 50
180.0
 51
258.0000000000004
  0
ARC
  5
B8
330
1D
100
AcDbEntity
  8
SK1
100
AcDbCircle
 10
-68.3
 20
11.452601562
 30
0.0
 40
0.95
100
AcDbArc
 50
98.29714496999965
 51
180.0
  0
LINE
  5
B9
330
1D
100
AcDbEntity
  8
1
100
AcDbLine
 10
0.0
 20
18.352233745
 30
0.0
 11
0.5
 21
18.352233745
 31
0.0
  0
LINE
  5
BA
330
1D
100
AcDbEntity
  8
1
100
AcDbLine
 10
17.55
 20
-30.474847807
 30
0.0
 11
13.621836642
 21
-30.474847807
 31
0.0
  0
LINE
  5
BB
330
1D
100
AcDbEntity
  8
1
100
AcDbLine
 10
13.621836642
 20
-30.474847807
 30
0.0
 11
13.016337817
 21
-29.62484780500001
 31
0.0
  0
LINE
  5
BC
330
1D
100
AcDbEntity
  8
1
100
AcDbLine
 10
12.025
 20
-27.841638514
 30
0.0
 11
12.604165392
 21
-28.884409562
 31
0.0
  0
LINE
  5
BD
330
1D
100
AcDbEntity
  8
1
100
AcDbLine
 10
12.604165392
 20
-28.884409562
 30
0.0
 11
13.016337817
 21
-29.62484780500001
 31
0.0
  0
LINE
  5
BE
330
1D
100
AcDbEntity
  8
1
100
AcDbLine
 10
12.025
 20
18.352233745
 30
0.0
 11
12.025
 21
-27.841638514
 31
0.0
  0
LINE
  5
BF
330
1D
100
AcDbEntity
  8
1
100
AcDbLine
 10
13.621836642
 20
18.352233745
 30
0.0
 11
12.025
 21
18.352233745
 31
0.0
  0
LINE
  5
C0
330
1D
100
AcDbEntity
  8
1
100
AcDbLine
 10
17.55
 20
18.352233745
 30
0.0
 11
18.05
 21
18.352233745
 31
0.0
  0
LINE
  5
C1
330
1D
100
AcDbEntity
  8
1
100
AcDbLine
 10
7.183662182999999
 20
-29.62484780500001
 30
0.0
 11
6.578163358
 21
-30.474847807
 31
0.0
  0
LINE
  5
C2
330
1D
100
AcDbEntity
  8
1
100
AcDbLine
 10
8.175
 20
18.352233745
 30
0.0
 11
6.578163358
 21
18.352233745
 31
0.0
  0
LINE
  5
C3
330
1D
100
AcDbEntity
  8
1
100
AcDbLine
 10
8.175
 20
-27.841638514
 30
0.0
 11
8.175
 21
18.352233745
 31
0.0
  0
LINE
  5
C4
330
1D
100
AcDbEntity
  8
1
100
AcDbLine
 10
7.183662182999999
 20
-29.62484780500001
 30
0.0
 11
7.595834608000001
 21
-28.884409562
 31
0.0
  0
LINE
  5
C5
330
1D
100
AcDbEntity
  8
1
100
AcDbLine
 10
7.595834608000001
 20
-28.884409562
 30
0.0
 11
8.175
 21
-27.841638514
 31
0.0
  0
ARC
  5
C6
330
1D
100
AcDbEntity
  8
1
100
AcDbCircle
 10
8.686395939
 20
-27.326995926
 30
0.0
 40
0.511498779
100
AcDbArc
 50
91.27662713999993
 51
181.1489553390001
  0
LINE
  5
C7
330
1D
100
AcDbEntity
  8
1
100
AcDbLine
 10
8.175
 20
18.352233745
 30
0.0
 11
8.675
 21
18.352233745
 31
0.0
  0
ARC
  5
C8
330
1D
100
AcDbEntity
  8
1
100
AcDbCircle
 10
11.51529751
 20
-27.325372693
 30
0.0
 40
0.509840911
100
AcDbArc
 50
358.6648465179998
 51
88.90957100300008
  0
LINE
  5
C9
330
1D
100
AcDbEntity
  8
1
100
AcDbLine
 10
11.525
 20
18.352233745
 30
0.0
 11
12.025
 21
18.352233745
 31
0.0
  0
LINE
  5
CA
330
1D
100
AcDbEntity
  8
1
100
AcDbLine
 10
11.525
 20
-26.81562411100001
 30
0.0
 11
8.675
 21
-26.81562411100001
 31
0.0
  0
LINE
  5
CB
330
1D
100
AcDbEntity
  8
1
100
AcDbLine
 10
8.675
 20
18.352233745
 30
0.0
 11
11.525
 21
18.352233745
 31
0.0
  0
LINE
  5
CC
330
1D
100
AcDbEntity
  8
SK1
100
AcDbLine
 10
-1.0
 20
-22.222766255
 30
0.0
 11
-1.0
 21
22.227233745
 31
0.0
  0
ARC
  5
CD
330
1D
100
AcDbEntity
  8
1
100
AcDbCircle
 10
11.514366592
 20
27.330732503
 30
0.0
 40
0.510751602
100
AcDbArc
 50
270.0
 51
0.0
  0
LINE
  5
CE
330
1D
100
AcDbEntity
  8
1
100
AcDbLine
 10
11.514366592
 20
26.820091601
 30
0.0
 11
8.687293654
 21
26.820091601
 31
0.0
  0
ARC
  5
CF
330
1D
100
AcDbEntity
  8
1
100
AcDbCircle
 10
8.687293654
 20
27.332323909
 30
0.0
 40
0.512379811
100
AcDbArc
 50
180.0
 51
270.0
  0
LINE
  5
D0
330
1D
100
AcDbEntity
  8
1
100
AcDbLine
 10
6.578163358
 20
25.912463385
 30
0.0
 11
6.578163358
 21
30.479315298
 31
0.0
  0
LINE
  5
D1
330
1D
100
AcDbEntity
  8
1
100
AcDbLine
 10
13.016337817
 20
29.629315295
 30
0.0
 11
13.621836642
 21
30.479315298
 31
0.0
  0
LINE
  5
D2
330
1D
100
AcDbEntity
  8
1
100
AcDbLine
 10
13.621836642
 20
25.912463385
 30
0.0
 11
13.621836642
 21
30.479315298
 31
0.0
  0
LINE
  5
D3
330
1D
100
AcDbEntity
  8
1
100
AcDbLine
 10
12.025
 20
27.846106004
 30
0.0
 11
13.016337817
 21
29.629315295
 31
0.0
  0
LINE
  5
D4
330
1D
100
AcDbEntity
  8
1
100
AcDbLine
 10
12.025
 20
27.846106004
 30
0.0
 11
12.025
 21
22.437946847
 31
0.0
  0
LINE
  5
D5
330
1D
100
AcDbEntity
  8
1
100
AcDbLine
 10
17.55
 20
25.912463385
 30
0.0
 11
17.55
 21
30.479315298
 31
0.0
  0
LINE
  5
D6
330
1D
100
AcDbEntity
  8
1
100
AcDbLine
 10
17.55
 20
30.479315298
 30
0.0
 11
18.05
 21
30.075188899
 31
0.0
  0
LINE
  5
D7
330
1D
100
AcDbEntity
  8
1
100
AcDbLine
 10
18.05
 20
30.075188899
 30
0.0
 11
18.05
 21
25.297292551
 31
0.0
  0
LINE
  5
D8
330
1D
100
AcDbEntity
  8
1
100
AcDbLine
 10
0.5
 20
30.479315298
 30
0.0
 11
0.5
 21
25.912463385
 31
0.0
  0
LINE
  5
D9
330
1D
100
AcDbEntity
  8
1
100
AcDbLine
 10
13.621836642
 20
30.479315298
 30
0.0
 11
17.55
 21
30.479315298
 31
0.0
  0
LINE
  5
DA
330
1D
100
AcDbEntity
  8
SK1
100
AcDbLine
 10
-69.25
 20
-11.448134066
 30
0.0
 11
-69.25
 21
11.452601562
 31
0.0
  0
LINE
  5
DB
330
1D
100
AcDbEntity
  8
SK3
100
AcDbLine
 10
-63.320096189
 20
8.502233744999996
 30
0.0
 11
-63.320096189
 21
-8.497766255000004
 31
0.0
  0
LINE
  5
DC
330
1D
100
AcDbEntity
  8
SK3
100
AcDbLine
 10
-63.060288568
 20
8.652233744999997
 30
0.0
 11
-63.060288568
 21
-8.647766255000004
 31
0.0
  0
LINE
  5
DD
330
1D
100
AcDbEntity
  8
SK3
100
AcDbLine
 10
-59.840673326
 20
7.077233744999996
 30
0.0
 11
-59.840673326
 21
-7.072766255000004
 31
0.0
  0
LINE
  5
DE
330
1D
100
AcDbEntity
  8
SK3
100
AcDbLine
 10
-60.75
 20
8.652233744999997
 30
0.0
 11
-60.75
 21
-8.647766255000004
 31
0.0
  0
ARC
  5
DF
330
1D
100
AcDbEntity
  8
SK3
100
AcDbCircle
 10
-68.25
 20
-9.497766255000004
 30
0.0
 40
1.0
100
AcDbArc
 50
136.7786548810002
 51
180.0
  0
ARC
  5
E0
330
1D
100
AcDbEntity
  8
SK3
100
AcDbCircle
 10
-68.25
 20
9.502233744999996
 30
0.0
 40
1.0
100
AcDbArc
 50
180.0
 51
223.2213451189998
  0
LINE
  5
E1
330
1D
100
AcDbEntity
  8
SK3
100
AcDbLine
 10
-68.978713554
 20
-8.812947625000003
 30
0.0
 11
-68.478713554
 21
-8.524272490000003
 31
0.0
  0
LINE
  5
E2
330
1D
100
AcDbEntity
  8
SK3
100
AcDbLine
 10
-68.478713554
 20
8.528739979999996
 30
0.0
 11
-68.978713554
 21
8.817415114999996
 31
0.0
  0
LINE
  5
E3
330
1D
100
AcDbEntity
  8
SK3
100
AcDbLine
 10
-63.060288568
 20
8.652233744999997
 30
0.0
 11
-63.320096189
 21
8.502233744999996
 31
0.0
  0
LINE
  5
E4
330
1D
100
AcDbEntity
  8
SK3
100
AcDbLine
 10
-63.320096189
 20
-8.497766255000004
 30
0.0
 11
-63.060288568
 21
-8.647766255000004
 31
0.0
  0
LINE
  5
E5
330
1D
100
AcDbEntity
  8
SK3
100
AcDbLine
 10
-60.75
 20
-8.647766255000004
 30
0.0
 11
-59.840673326
 21
-7.072766255000004
 31
0.0
  0
LINE
  5
E6
330
1D
100
AcDbEntity
  8
SK3
100
AcDbLine
 10
-59.840673326
 20
7.077233744999996
 30
0.0
 11
-60.75
 21
8.652233744999997
 31
0.0
  0
LINE
  5
E7
330
1D
100
AcDbEntity
  8
SK3
100
AcDbLine
 10
-60.75
 20
8.652233744999997
 30
0.0
 11
-63.060288568
 21
8.652233744999997
 31
0.0
  0
LINE
  5
E8
330
1D
100
AcDbEntity
  8
SK3
100
AcDbLine
 10
-63.060288568
 20
-8.647766255000004
 30
0.0
 11
-60.75
 21
-8.647766255000004
 31
0.0
  0
ARC
  5
E9
330
1D
100
AcDbEntity
  8
SK3
100
AcDbCircle
 10
-68.25
 20
-9.497766255000004
 30
0.0
 40
1.0
100
AcDbArc
 50
90.0
 51
103.2213451190001
  0
ARC
  5
EA
330
1D
100
AcDbEntity
  8
SK3
100
AcDbCircle
 10
-68.25
 20
9.502233744999996
 30
0.0
 40
1.0
100
AcDbArc
 50
256.7786548809999
 51
270.0
  0
LINE
  5
EB
330
1D
100
AcDbEntity
  8
SK3
100
AcDbLine
 10
-68.25
 20
-8.497766255000004
 30
0.0
 11
-63.320096189
 21
-8.497766255000004
 31
0.0
  0
LINE
  5
EC
330
1D
100
AcDbEntity
  8
SK3
100
AcDbLine
 10
-63.320096189
 20
8.502233744999996
 30
0.0
 11
-68.25
 21
8.502233744999996
 31
0.0
  0
LINE
  5
ED
330
1D
100
AcDbEntity
  8
3
100
AcDbLine
 10
17.729249231
 20
7.077233744999996
 30
0.0
 11
0.0
 21
7.077233744999994
 31
0.0
  0
LINE
  5
EE
330
1D
100
AcDbEntity
  8
3
100
AcDbLine
 10
0.0
 20
-7.072766255000001
 30
0.0
 11
17.711418154
 21
-7.072766255000004
 31
0.0
  0
LINE
  5
EF
330
1D
100
AcDbEntity
  8
SK3
100
AcDbLine
 10
-35.26
 20
7.077233744999996
 30
0.0
 11
-59.840673326
 21
7.077233744999996
 31
0.0
  0
LINE
  5
F0
330
1D
100
AcDbEntity
  8
SK3
100
AcDbLine
 10
-59.840673326
 20
-7.072766255000004
 30
0.0
 11
-35.26
 21
-7.072766255000004
 31
0.0
  0
LINE
  5
F1
330
1D
100
AcDbEntity
  8
11
100
AcDbLine
 10
-35.34
 20
8.002233744999996
 30
0.0
 11
-60.374722325
 21
8.002233744999996
 31
0.0
  0
LINE
  5
F2
330
1D
100
AcDbEntity
  8
11
100
AcDbLine
 10
-60.374722325
 20
-7.997766255000004
 30
0.0
 11
-35.34
 21
-7.997766255000004
 31
0.0
  0
LINE
  5
F3
330
1D
100
AcDbEntity
  8
SK3
100
AcDbLine
 10
-35.34
 20
7.997766254999997
 30
0.0
 11
-35.34
 21
-7.997766255000004
 31
0.0
  0
ARC
  5
F4
330
1D
100
AcDbEntity
  8
1
100
AcDbCircle
 10
20.05
 20
21.5
 30
0.0
 40
2.0
100
AcDbArc
 50
180.0
 51
270.0
  0
CIRCLE
  5
F5
330
1D
100
AcDbEntity
  8
1
100
AcDbCircle
 10
61.94999695
 20
-0.0000000000000036
 30
0.0
 40
4.0
  0
LINE
  5
F6
330
1D
100
AcDbEntity
  8
1
100
AcDbLine
 10
63.94999695
 20
-1.154693600000004
 30
0.0
 11
63.94999695
 21
1.154693599999997
 31
0.0
  0
LINE
  5
F7
330
1D
100
AcDbEntity
  8
1
100
AcDbLine
 10
61.94999695
 20
2.309402469999997
 30
0.0
 11
63.94999695
 21
1.154693599999997
 31
0.0
  0
LINE
  5
F8
330
1D
100
AcDbEntity
  8
1
100
AcDbLine
 10
59.94999695
 20
1.154693599999997
 30
0.0
 11
61.94999695
 21
2.309402469999997
 31
0.0
  0
LINE
  5
F9
330
1D
100
AcDbEntity
  8
1
100
AcDbLine
 10
59.94999695
 20
-1.154693600000004
 30
0.0
 11
59.94999695
 21
1.154693599999997
 31
0.0
  0
LINE
  5
FA
330
1D
100
AcDbEntity
  8
SK4
100
AcDbLine
 10
61.94999695
 20
-5.000000000000004
 30
0.0
 11
61.94999695
 21
4.999999999999996
 31
0.0
  0
ARC
  5
FB
330
1D
100
AcDbEntity
  8
1
100
AcDbCircle
 10
20.05
 20
-21.5
 30
0.0
 40
2.0
100
AcDbArc
 50
90.0
 51
180.0
  0
LINE
  5
FC
330
1D
100
AcDbEntity
  8
1
100
AcDbLine
 10
20.05
 20
-19.5
 30
0.0
 11
71.25
 21
-19.5
 31
0.0
  0
LINE
  5
FD
330
1D
100
AcDbEntity
  8
1
100
AcDbLine
 10
59.94999695
 20
-1.154693600000004
 30
0.0
 11
61.94999695
 21
-2.309402470000004
 31
0.0
  0
LINE
  5
FE
330
1D
100
AcDbEntity
  8
1
100
AcDbLine
 10
63.94999695
 20
-1.154693600000004
 30
0.0
 11
61.94999695
 21
-2.309402470000004
 31
0.0
  0
LINE
  5
FF
330
1D
100
AcDbEntity
  8
3
100
AcDbLine
 10
50.000007631
 20
11.0
 30
0.0
 11
72.0
 21
11.0
 31
0.0
  0
LINE
  5
100
330
1D
100
AcDbEntity
  8
SK4
100
AcDbLine
 10
74.0
 20
-0.0000000000000036
 30
0.0
 11
-10.956110188
 21
-0.0000000000000036
 31
0.0
  0
LINE
  5
101
330
1D
100
AcDbEntity
  8
3
100
AcDbLine
 10
50.000007631
 20
-11.0
 30
0.0
 11
72.0
 21
-11.0
 31
0.0
  0
LINE
  5
102
330
1D
100
AcDbEntity
  8
3
100
AcDbLine
 10
50.000007631
 20
11.25
 30
0.0
 11
50.000007631
 21
-11.25
 31
0.0
  0
LINE
  5
103
330
1D
100
AcDbEntity
  8
3
100
AcDbLine
 10
43.000007631
 20
11.25
 30
0.0
 11
43.000007631
 21
-11.25
 31
0.0
  0
LINE
  5
104
330
1D
100
AcDbEntity
  8
3
100
AcDbLine
 10
43.000007631
 20
-11.25
 30
0.0
 11
50.000007631
 21
-11.25
 31
0.0
  0
LINE
  5
105
330
1D
100
AcDbEntity
  8
3
100
AcDbLine
 10
18.000007631
 20
-8.250000000000004
 30
0.0
 11
43.000007631
 21
-8.250000000000004
 31
0.0
  0
LINE
  5
106
330
1D
100
AcDbEntity
  8
3
100
AcDbLine
 10
18.000007631
 20
-8.250000000000004
 30
0.0
 11
17.711418154
 21
-7.000000000000004
 31
0.0
  0
LINE
  5
107
330
1D
100
AcDbEntity
  8
3
100
AcDbLine
 10
43.000007631
 20
11.25
 30
0.0
 11
50.000007631
 21
11.25
 31
0.0
  0
LINE
  5
108
330
1D
100
AcDbEntity
  8
3
100
AcDbLine
 10
18.000007631
 20
8.249999999999996
 30
0.0
 11
43.000007631
 21
8.249999999999996
 31
0.0
  0
LINE
  5
109
330
1D
100
AcDbEntity
  8
3
100
AcDbLine
 10
18.000007631
 20
8.249999999999996
 30
0.0
 11
17.729249231
 21
7.077233744999996
 31
0.0
  0
LINE
  5
10A
330
1D
100
AcDbEntity
  8
3
100
AcDbLine
 10
17.711418154
 20
6.999999999999996
 30
0.0
 11
17.711418154
 21
-7.000000000000004
 31
0.0
  0
LINE
  5
10B
330
1D
100
AcDbEntity
  8
3
100
AcDbLine
 10
29.000007631
 20
-9.000000000000004
 30
0.0
 11
27.700965883
 21
-8.250000000000004
 31
0.0
  0
LINE
  5
10C
330
1D
100
AcDbEntity
  8
11
100
AcDbLine
 10
29.000007631
 20
-9.000000000000004
 30
0.0
 11
43.000007631
 21
-9.000000000000004
 31
0.0
  0
LINE
  5
10D
330
1D
100
AcDbEntity
  8
3
100
AcDbLine
 10
29.000007631
 20
8.999999999999996
 30
0.0
 11
27.700965883
 21
8.249999999999996
 31
0.0
  0
LINE
  5
10E
330
1D
100
AcDbEntity
  8
11
100
AcDbLine
 10
29.000007631
 20
8.999999999999996
 30
0.0
 11
43.000007631
 21
8.999999999999996
 31
0.0
  0
LINE
  5
10F
330
1D
100
AcDbEntity
  8
3
100
AcDbLine
 10
29.000007631
 20
8.999999999999996
 30
0.0
 11
29.000007631
 21
-9.000000000000004
 31
0.0
  0
LINE
  5
110
330
1D
100
AcDbEntity
  8
1
100
AcDbLine
 10
20.05
 20
19.5
 30
0.0
 11
71.25001526
 21
19.5
 31
0.0
  0
LINE
  5
111
330
1D
100
AcDbEntity
  8
1
100
AcDbLine
 10
72.0
 20
18.75
 30
0.0
 11
72.0
 21
-18.75
 31
0.0
  0
LINE
  5
112
330
1D
100
AcDbEntity
  8
1
100
AcDbLine
 10
72.0
 20
18.75
 30
0.0
 11
71.25
 21
19.5
 31
0.0
  0
LINE
  5
113
330
1D
100
AcDbEntity
  8
1
100
AcDbLine
 10
71.25
 20
-19.5
 30
0.0
 11
72.0
 21
-18.75
 31
0.0
  0
LINE
  5
114
330
1D
100
AcDbEntity
  8
2
100
AcDbLine
 10
-1.0
 20
43.67087554599999
 30
0.0
 11
-1.0
 21
22.2250061
 31
0.0
  0
LINE
  5
115
330
1D
100
AcDbEntity
  8
2
100
AcDbLine
 10
-1.0
 20
41.67087554599999
 30
0.0
 11
2.5
 21
42.12087554599999
 31
0.0
  0
LINE
  5
116
330
1D
100
AcDbEntity
  8
2
100
AcDbLine
 10
2.5
 20
42.12087554599999
 30
0.0
 11
2.5
 21
41.22087554599999
 31
0.0
  0
LINE
  5
117
330
1D
100
AcDbEntity
  8
2
100
AcDbLine
 10
2.5
 20
41.22087554599999
 30
0.0
 11
-1.0
 21
41.67087554599999
 31
0.0
  0
LINE
  5
118
330
1D
100
AcDbEntity
  8
2
100
AcDbLine
 10
2.4
 20
41.67087554599999
 30
0.0
 11
-0.9
 21
41.67087554599999
 31
0.0
  0
LINE
  5
119
330
1D
100
AcDbEntity
  8
2
100
AcDbLine
 10
2.4
 20
41.47087554599999
 30
0.0
 11
0.6555555559999999
 21
41.47087554599999
 31
0.0
  0
LINE
  5
11A
330
1D
100
AcDbEntity
  8
2
100
AcDbLine
 10
2.4
 20
41.87087554599999
 30
0.0
 11
0.6555555559999999
 21
41.87087554599999
 31
0.0
  0
LINE
  5
11B
330
1D
100
AcDbEntity
  8
2
100
AcDbLine
 10
2.4
 20
41.27087554599999
 30
0.0
 11
2.211111111
 21
41.27087554599999
 31
0.0
  0
LINE
  5
11C
330
1D
100
AcDbEntity
  8
2
100
AcDbLine
 10
2.4
 20
42.070875546
 30
0.0
 11
2.211111111
 21
42.070875546
 31
0.0
  0
LINE
  5
11D
330
1D
100
AcDbEntity
  8
2
100
AcDbLine
 10
72.0
 20
43.67087554899999
 30
0.0
 11
72.0
 21
18.75
 31
0.0
  0
LINE
  5
11E
330
1D
100
AcDbEntity
  8
2
100
AcDbLine
 10
72.0
 20
41.67087554899999
 30
0.0
 11
68.5
 21
41.22087554899999
 31
0.0
  0
LINE
  5
11F
330
1D
100
AcDbEntity
  8
2
100
AcDbLine
 10
68.5
 20
41.22087554899999
 30
0.0
 11
68.5
 21
42.12087554899999
 31
0.0
  0
LINE
  5
120
330
1D
100
AcDbEntity
  8
2
100
AcDbLine
 10
68.5
 20
42.12087554899999
 30
0.0
 11
72.0
 21
41.67087554899999
 31
0.0
  0
LINE
  5
121
330
1D
100
AcDbEntity
  8
2
100
AcDbLine
 10
68.6
 20
41.67087554899999
 30
0.0
 11
71.9
 21
41.67087554899999
 31
0.0
  0
LINE
  5
122
330
1D
100
AcDbEntity
  8
2
100
AcDbLine
 10
68.6
 20
41.87087554899999
 30
0.0
 11
70.344444444
 21
41.87087554899999
 31
0.0
  0
LINE
  5
123
330
1D
100
AcDbEntity
  8
2
100
AcDbLine
 10
68.6
 20
41.47087554899999
 30
0.0
 11
70.344444444
 21
41.47087554899999
 31
0.0
  0
LINE
  5
124
330
1D
100
AcDbEntity
  8
2
100
AcDbLine
 10
68.6
 20
42.07087554899999
 30
0.0
 11
68.788888889
 21
42.07087554899999
 31
0.0
  0
LINE
  5
125
330
1D
100
AcDbEntity
  8
2
100
AcDbLine
 10
68.6
 20
41.270875549
 30
0.0
 11
68.788888889
 21
41.270875549
 31
0.0
  0
LINE
  5
126
330
1D
100
AcDbEntity
  8
2
100
AcDbLine
 10
2.5
 20
41.67087554599999
 30
0.0
 11
68.5
 21
41.67087554899999
 31
0.0
  0
TEXT
  5
127
330
1D
100
AcDbEntity
  8
2
100
AcDbText
 10
34.026717934
 20
43.17087554699999
 30
0.0
 40
3.5
  1
73
  7
BMG_Text
100
AcDbText
  0
LINE
  5
128
330
1D
100
AcDbEntity
  8
SK2
100
AcDbLine
 10
95.467643738
 20
-19.5
 30
0.0
 11
71.25
 21
-19.5
 31
0.0
  0
LINE
  5
129
330
1D
100
AcDbEntity
  8
SK2
100
AcDbLine
 10
93.467643738
 20
-19.5
 30
0.0
 11
93.017640999
 21
-16.000000352
 31
0.0
  0
LINE
  5
12A
330
1D
100
AcDbEntity
  8
SK2
100
AcDbLine
 10
93.017640999
 20
-16.000000352
 30
0.0
 11
93.917640999
 21
-15.999999648
 31
0.0
  0
LINE
  5
12B
330
1D
100
AcDbEntity
  8
SK2
100
AcDbLine
 10
93.917640999
 20
-15.999999648
 30
0.0
 11
93.467643738
 21
-19.5
 31
0.0
  0
LINE
  5
12C
330
1D
100
AcDbEntity
  8
SK2
100
AcDbLine
 10
93.467641077
 20
-16.1
 30
0.0
 11
93.46764366
 21
-19.4
 31
0.0
  0
LINE
  5
12D
330
1D
100
AcDbEntity
  8
SK2
100
AcDbLine
 10
93.667641077
 20
-16.099999843
 30
0.0
 11
93.667642442
 21
-17.844444288
 31
0.0
  0
LINE
  5
12E
330
1D
100
AcDbEntity
  8
SK2
100
AcDbLine
 10
93.267641077
 20
-16.100000157
 30
0.0
 11
93.267642442
 21
-17.844444601
 31
0.0
  0
LINE
  5
12F
330
1D
100
AcDbEntity
  8
SK2
100
AcDbLine
 10
93.867641077
 20
-16.099999687
 30
0.0
 11
93.867641225
 21
-16.28888857600001
 31
0.0
  0
LINE
  5
130
330
1D
100
AcDbEntity
  8
SK2
100
AcDbLine
 10
93.067641077
 20
-16.100000313
 30
0.0
 11
93.067641225
 21
-16.288889202
 31
0.0
  0
LINE
  5
131
330
1D
100
AcDbEntity
  8
SK2
100
AcDbLine
 10
95.467613219
 20
19.5
 30
0.0
 11
71.24998474
 21
19.5
 31
0.0
  0
LINE
  5
132
330
1D
100
AcDbEntity
  8
SK2
100
AcDbLine
 10
93.467613219
 20
19.5
 30
0.0
 11
93.917615958
 21
16.000000352
 31
0.0
  0
LINE
  5
133
330
1D
100
AcDbEntity
  8
SK2
100
AcDbLine
 10
93.917615958
 20
16.000000352
 30
0.0
 11
93.017615958
 21
15.999999648
 31
0.0
  0
LINE
  5
134
330
1D
100
AcDbEntity
  8
SK2
100
AcDbLine
 10
93.017615958
 20
15.999999648
 30
0.0
 11
93.467613219
 21
19.5
 31
0.0
  0
LINE
  5
135
330
1D
100
AcDbEntity
  8
SK2
100
AcDbLine
 10
93.46761588
 20
16.1
 30
0.0
 11
93.467613297
 21
19.4
 31
0.0
  0
LINE
  5
136
330
1D
100
AcDbEntity
  8
SK2
100
AcDbLine
 10
93.26761588
 20
16.099999843
 30
0.0
 11
93.267614515
 21
17.84444428799999
 31
0.0
  0
LINE
  5
137
330
1D
100
AcDbEntity
  8
SK2
100
AcDbLine
 10
93.66761588
 20
16.100000157
 30
0.0
 11
93.667614515
 21
17.844444601
 31
0.0
  0
LINE
  5
138
330
1D
100
AcDbEntity
  8
SK2
100
AcDbLine
 10
93.06761588
 20
16.099999687
 30
0.0
 11
93.067615732
 21
16.288888576
 31
0.0
  0
LINE
  5
139
330
1D
100
AcDbEntity
  8
SK2
100
AcDbLine
 10
93.86761588
 20
16.100000313
 30
0.0
 11
93.867615732
 21
16.288889202
 31
0.0
  0
LINE
  5
13A
330
1D
100
AcDbEntity
  8
SK2
100
AcDbLine
 10
93.467640999
 20
-16.0
 30
0.0
 11
93.467615958
 21
16.0
 31
0.0
  0
TEXT
  5
13B
330
1D
100
AcDbEntity
  8
SK2
100
AcDbText
 10
91.967628219
 20
0.3314046399999964
 30
0.0
 40
3.5
  1
39
 50
90.00004483599999
  7
BMG_Text
100
AcDbText
  0
CIRCLE
  5
13C
330
1D
100
AcDbEntity
  8
SK2
100
AcDbCircle
 10
90.71762998
 20
-1.918596338000004
 30
0.0
 40
1.25
  0
LINE
  5
13D
330
1D
100
AcDbEntity
  8
SK2
100
AcDbLine
 10
91.967630958
 20
-3.168595360000003
 30
0.0
 11
89.467629002
 21
-0.6685973160000037
 31
0.0
  0
LINE
  5
13E
330
1D
100
AcDbEntity
  8
SK2
100
AcDbLine
 10
87.467628479
 20
-11.0
 30
0.0
 11
72.0
 21
-11.0
 31
0.0
  0
LINE
  5
13F
330
1D
100
AcDbEntity
  8
SK2
100
AcDbLine
 10
85.467628479
 20
-11.0
 30
0.0
 11
85.017628479
 21
-7.500000000000004
 31
0.0
  0
LINE
  5
140
330
1D
100
AcDbEntity
  8
SK2
100
AcDbLine
 10
85.017628479
 20
-7.500000000000004
 30
0.0
 11
85.917628479
 21
-7.500000000000004
 31
0.0
  0
LINE
  5
141
330
1D
100
AcDbEntity
  8
SK2
100
AcDbLine
 10
85.917628479
 20
-7.500000000000004
 30
0.0
 11
85.467628479
 21
-11.0
 31
0.0
  0
LINE
  5
142
330
1D
100
AcDbEntity
  8
SK2
100
AcDbLine
 10
85.467628479
 20
-7.600000000000003
 30
0.0
 11
85.467628479
 21
-10.9
 31
0.0
  0
LINE
  5
143
330
1D
100
AcDbEntity
  8
SK2
100
AcDbLine
 10
85.667628479
 20
-7.600000000000003
 30
0.0
 11
85.667628479
 21
-9.344444444000004
 31
0.0
  0
LINE
  5
144
330
1D
100
AcDbEntity
  8
SK2
100
AcDbLine
 10
85.267628479
 20
-7.600000000000003
 30
0.0
 11
85.267628479
 21
-9.344444444000004
 31
0.0
  0
LINE
  5
145
330
1D
100
AcDbEntity
  8
SK2
100
AcDbLine
 10
85.867628479
 20
-7.600000000000003
 30
0.0
 11
85.867628479
 21
-7.788888889000003
 31
0.0
  0
LINE
  5
146
330
1D
100
AcDbEntity
  8
SK2
100
AcDbLine
 10
85.067628479
 20
-7.600000000000003
 30
0.0
 11
85.067628479
 21
-7.788888889000003
 31
0.0
  0
LINE
  5
147
330
1D
100
AcDbEntity
  8
SK2
100
AcDbLine
 10
87.467628479
 20
11.0
 30
0.0
 11
72.0
 21
11.0
 31
0.0
  0
LINE
  5
148
330
1D
100
AcDbEntity
  8
SK2
100
AcDbLine
 10
85.467628479
 20
11.0
 30
0.0
 11
85.917628479
 21
7.499999999999996
 31
0.0
  0
LINE
  5
149
330
1D
100
AcDbEntity
  8
SK2
100
AcDbLine
 10
85.917628479
 20
7.499999999999996
 30
0.0
 11
85.017628479
 21
7.499999999999996
 31
0.0
  0
LINE
  5
14A
330
1D
100
AcDbEntity
  8
SK2
100
AcDbLine
 10
85.017628479
 20
7.499999999999996
 30
0.0
 11
85.467628479
 21
11.0
 31
0.0
  0
LINE
  5
14B
330
1D
100
AcDbEntity
  8
SK2
100
AcDbLine
 10
85.467628479
 20
7.599999999999996
 30
0.0
 11
85.467628479
 21
10.9
 31
0.0
  0
LINE
  5
14C
330
1D
100
AcDbEntity
  8
SK2
100
AcDbLine
 10
85.267628479
 20
7.599999999999996
 30
0.0
 11
85.267628479
 21
9.344444443999997
 31
0.0
  0
LINE
  5
14D
330
1D
100
AcDbEntity
  8
SK2
100
AcDbLine
 10
85.667628479
 20
7.599999999999996
 30
0.0
 11
85.667628479
 21
9.344444443999997
 31
0.0
  0
LINE
  5
14E
330
1D
100
AcDbEntity
  8
SK2
100
AcDbLine
 10
85.067628479
 20
7.599999999999996
 30
0.0
 11
85.067628479
 21
7.788888888999996
 31
0.0
  0
LINE
  5
14F
330
1D
100
AcDbEntity
  8
SK2
100
AcDbLine
 10
85.867628479
 20
7.599999999999996
 30
0.0
 11
85.867628479
 21
7.788888888999996
 31
0.0
  0
LINE
  5
150
330
1D
100
AcDbEntity
  8
SK2
100
AcDbLine
 10
85.467628479
 20
-7.500000000000004
 30
0.0
 11
85.467628479
 21
7.499999999999996
 31
0.0
  0
TEXT
  5
151
330
1D
100
AcDbEntity
  8
SK2
100
AcDbText
 10
83.967628479
 20
0.0853122539999964
 30
0.0
 40
3.5
  1
22
 50
90.0
  7
BMG_Text
100
AcDbText
  0
CIRCLE
  5
152
330
1D
100
AcDbEntity
  8
SK2
100
AcDbCircle
 10
82.717628479
 20
-2.164687746000003
 30
0.0
 40
1.25
  0
LINE
  5
153
330
1D
100
AcDbEntity
  8
SK2
100
AcDbLine
 10
83.967628479
 20
-3.414687746000003
 30
0.0
 11
81.467628479
 21
-0.9146877460000037
 31
0.0
  0
LINE
  5
154
330
1D
100
AcDbEntity
  8
2
100
AcDbLine
 10
-1.0
 20
-48.32912444600001
 30
0.0
 11
-1.0
 21
-22.22499084
 31
0.0
  0
LINE
  5
155
330
1D
100
AcDbEntity
  8
2
100
AcDbLine
 10
-1.0
 20
-46.32912444600001
 30
0.0
 11
2.499999989
 21
-45.87912436300001
 31
0.0
  0
LINE
  5
156
330
1D
100
AcDbEntity
  8
2
100
AcDbLine
 10
2.499999989
 20
-45.87912436300001
 30
0.0
 11
2.500000011
 21
-46.77912436300001
 31
0.0
  0
LINE
  5
157
330
1D
100
AcDbEntity
  8
2
100
AcDbLine
 10
2.500000011
 20
-46.77912436300001
 30
0.0
 11
-1.0
 21
-46.32912444600001
 31
0.0
  0
LINE
  5
158
330
1D
100
AcDbEntity
  8
2
100
AcDbLine
 10
2.4
 20
-46.32912436500001
 30
0.0
 11
-0.9
 21
-46.32912444400001
 31
0.0
  0
LINE
  5
159
330
1D
100
AcDbEntity
  8
2
100
AcDbLine
 10
2.400000005
 20
-46.52912436500001
 30
0.0
 11
0.65555556
 21
-46.529124407
 31
0.0
  0
LINE
  5
15A
330
1D
100
AcDbEntity
  8
2
100
AcDbLine
 10
2.399999995
 20
-46.12912436500001
 30
0.0
 11
0.655555551
 21
-46.12912440700001
 31
0.0
  0
LINE
  5
15B
330
1D
100
AcDbEntity
  8
2
100
AcDbLine
 10
2.400000009
 20
-46.729124365
 30
0.0
 11
2.211111121
 21
-46.72912437000001
 31
0.0
  0
LINE
  5
15C
330
1D
100
AcDbEntity
  8
2
100
AcDbLine
 10
2.399999991
 20
-45.92912436500001
 30
0.0
 11
2.211111102
 21
-45.92912437
 31
0.0
  0
LINE
  5
15D
330
1D
100
AcDbEntity
  8
2
100
AcDbLine
 10
39.0
 20
-48.32912349600001
 30
0.0
 11
39.0
 21
-31.74999237
 31
0.0
  0
LINE
  5
15E
330
1D
100
AcDbEntity
  8
2
100
AcDbLine
 10
39.0
 20
-46.32912349600001
 30
0.0
 11
35.500000011
 21
-46.77912357900001
 31
0.0
  0
LINE
  5
15F
330
1D
100
AcDbEntity
  8
2
100
AcDbLine
 10
35.500000011
 20
-46.77912357900001
 30
0.0
 11
35.499999989
 21
-45.87912357900001
 31
0.0
  0
LINE
  5
160
330
1D
100
AcDbEntity
  8
2
100
AcDbLine
 10
35.499999989
 20
-45.87912357900001
 30
0.0
 11
39.0
 21
-46.32912349600001
 31
0.0
  0
LINE
  5
161
330
1D
100
AcDbEntity
  8
2
100
AcDbLine
 10
35.6
 20
-46.329123577
 30
0.0
 11
38.9
 21
-46.329123499
 31
0.0
  0
LINE
  5
162
330
1D
100
AcDbEntity
  8
2
100
AcDbLine
 10
35.599999995
 20
-46.12912357700001
 30
0.0
 11
37.34444444
 21
-46.12912353600001
 31
0.0
  0
LINE
  5
163
330
1D
100
AcDbEntity
  8
2
100
AcDbLine
 10
35.600000005
 20
-46.52912357700001
 30
0.0
 11
37.344444449
 21
-46.52912353600001
 31
0.0
  0
LINE
  5
164
330
1D
100
AcDbEntity
  8
2
100
AcDbLine
 10
35.599999991
 20
-45.92912357700001
 30
0.0
 11
35.788888879
 21
-45.92912357300001
 31
0.0
  0
LINE
  5
165
330
1D
100
AcDbEntity
  8
2
100
AcDbLine
 10
35.600000009
 20
-46.72912357700001
 30
0.0
 11
35.788888898
 21
-46.72912357300001
 31
0.0
  0
LINE
  5
166
330
1D
100
AcDbEntity
  8
2
100
AcDbLine
 10
2.5
 20
-46.32912436300001
 30
0.0
 11
35.5
 21
-46.329123579
 31
0.0
  0
TEXT
  5
167
330
1D
100
AcDbEntity
  8
2
100
AcDbText
 10
17.335312017
 20
-44.829124011
 30
0.0
 40
3.5
  1
40
 50
0.00000136
  7
BMG_Text
100
AcDbText
  0
LINE
  5
168
330
1D
100
AcDbEntity
  8
2
100
AcDbLine
 10
39.0
 20
-48.32912349600001
 30
0.0
 11
39.0
 21
-31.74999237
 31
0.0
  0
LINE
  5
169
330
1D
100
AcDbEntity
  8
2
100
AcDbLine
 10
39.0
 20
-46.32912349600001
 30
0.0
 11
42.5
 21
-45.87912349600001
 31
0.0
  0
LINE
  5
16A
330
1D
100
AcDbEntity
  8
2
100
AcDbLine
 10
42.5
 20
-45.87912349600001
 30
0.0
 11
42.5
 21
-46.779123496
 31
0.0
  0
LINE
  5
16B
330
1D
100
AcDbEntity
  8
2
100
AcDbLine
 10
42.5
 20
-46.779123496
 30
0.0
 11
39.0
 21
-46.32912349600001
 31
0.0
  0
LINE
  5
16C
330
1D
100
AcDbEntity
  8
2
100
AcDbLine
 10
42.4
 20
-46.32912349600001
 30
0.0
 11
39.1
 21
-46.32912349600001
 31
0.0
  0
LINE
  5
16D
330
1D
100
AcDbEntity
  8
2
100
AcDbLine
 10
42.4
 20
-46.529123496
 30
0.0
 11
40.655555556
 21
-46.529123496
 31
0.0
  0
LINE
  5
16E
330
1D
100
AcDbEntity
  8
2
100
AcDbLine
 10
42.4
 20
-46.12912349600001
 30
0.0
 11
40.655555556
 21
-46.12912349600001
 31
0.0
  0
LINE
  5
16F
330
1D
100
AcDbEntity
  8
2
100
AcDbLine
 10
42.4
 20
-46.72912349600001
 30
0.0
 11
42.211111111
 21
-46.72912349600001
 31
0.0
  0
LINE
  5
170
330
1D
100
AcDbEntity
  8
2
100
AcDbLine
 10
42.4
 20
-45.92912349600001
 30
0.0
 11
42.211111111
 21
-45.92912349600001
 31
0.0
  0
LINE
  5
171
330
1D
100
AcDbEntity
  8
2
100
AcDbLine
 10
42.5
 20
-46.32912349600001
 30
0.0
 11
75.3
 21
-46.32912349600001
 31
0.0
  0
TEXT
  5
172
330
1D
100
AcDbEntity
  8
2
100
AcDbText
 10
80.98198123632582
 20
-44.94871342479173
 30
0.0
 40
3.5
  1
80
  7
BMG_Text
100
AcDbText
  0
TEXT
  5
173
330
1D
100
AcDbEntity
  8
2
100
AcDbText
 10
42.625312094
 20
-44.82912349600001
 30
0.0
 40
3.5
  1
Ausdrehtiefe
  7
BMG_Text
100
AcDbText
  0
TEXT
  5
174
330
1D
100
AcDbEntity
  8
SK6
100
AcDbText
 10
57.052734734
 20
-17.464177686
 30
0.0
 40
3.5
  1
323.826
  7
BMG_Text
100
AcDbText
  0
ARC
  5
211
330
1D
100
AcDbEntity
  8
NOCUT
100
AcDbCircle
 10
8.687040575146582
 20
27.33221635113787
 30
0.0
 40
0.5121248126703968
100
AcDbArc
 50
181.0392223311029
 51
270.0283140953459
  0
ARC
  5
212
330
1D
100
AcDbEntity
  8
NOCUT
100
AcDbCircle
 10
11.514366592
 20
27.330732503
 30
0.0
 40
0.5107516019999975
100
AcDbArc
 50
269.9999999999998
 51
358.7673526334418
  0
ARC
  5
213
330
1D
100
AcDbEntity
  8
NOCUT
100
AcDbCircle
 10
20.05
 20
21.49999999999999
 30
0.0
 40
1.999999999999997
100
AcDbArc
 50
179.9999999999999
 51
270.0000000000001
  0
LINE
  5
214
330
1D
100
AcDbEntity
  8
NOCUT
100
AcDbLine
 10
0.0
 20
0.0
 30
0.0
 11
0.0
 21
29.979315298
 31
0.0
  0
LINE
  5
21D
330
1D
100
AcDbEntity
  8
NOCUT
100
AcDbLine
 10
0.0
 20
29.979315298
 30
0.0
 11
0.5
 21
30.479315298
 31
0.0
  0
LINE
  5
21E
330
1D
100
AcDbEntity
  8
NOCUT
100
AcDbLine
 10
0.5
 20
30.479315298
 30
0.0
 11
6.578163358
 21
30.479315298
 31
0.0
  0
LINE
  5
21F
330
1D
100
AcDbEntity
  8
NOCUT
100
AcDbLine
 10
6.578163358
 20
30.479315298
 30
0.0
 11
7.183662182999999
 21
29.629315295
 31
0.0
  0
LINE
  5
220
330
1D
100
AcDbEntity
  8
NOCUT
100
AcDbLine
 10
7.183662182999999
 20
29.629315295
 30
0.0
 11
8.175
 21
27.846106004
 31
0.0
  0
LINE
  5
221
330
1D
100
AcDbEntity
  8
NOCUT
100
AcDbLine
 10
8.175
 20
27.846106004
 30
0.0
 11
8.174913842999999
 21
27.332323909
 31
0.0
  0
LINE
  5
222
330
1D
100
AcDbEntity
  8
NOCUT
100
AcDbLine
 10
8.687293654
 20
26.820091601
 30
0.0
 11
11.52499994284506
 21
26.820091601
 31
0.0
  0
LINE
  5
223
330
1D
100
AcDbEntity
  8
NOCUT
100
AcDbLine
 10
12.025
 20
27.3197451657488
 30
0.0
 11
12.025
 21
27.846106004
 31
0.0
  0
LINE
  5
224
330
1D
100
AcDbEntity
  8
NOCUT
100
AcDbLine
 10
12.025
 20
27.846106004
 30
0.0
 11
13.016337817
 21
29.629315295
 31
0.0
  0
LINE
  5
225
330
1D
100
AcDbEntity
  8
NOCUT
100
AcDbLine
 10
13.016337817
 20
29.629315295
 30
0.0
 11
13.621836642
 21
30.479315298
 31
0.0
  0
LINE
  5
226
330
1D
100
AcDbEntity
  8
NOCUT
100
AcDbLine
 10
13.621836642
 20
30.479315298
 30
0.0
 11
17.55
 21
30.479315298
 31
0.0
  0
LINE
  5
227
330
1D
100
AcDbEntity
  8
NOCUT
100
AcDbLine
 10
17.55
 20
30.479315298
 30
0.0
 11
18.05
 21
30.075188899
 31
0.0
  0
LINE
  5
228
330
1D
100
AcDbEntity
  8
NOCUT
100
AcDbLine
 10
18.05
 20
30.075188899
 30
0.0
 11
18.05
 21
21.5
 31
0.0
  0
LINE
  5
229
330
1D
100
AcDbEntity
  8
NOCUT
100
AcDbLine
 10
20.05
 20
19.5
 30
0.0
 11
71.24998474
 21
19.5
 31
0.0
  0
LINE
  5
22A
330
1D
100
AcDbEntity
  8
NOCUT
100
AcDbLine
 10
71.24998474
 20
19.5
 30
0.0
 11
72.0
 21
18.75
 31
0.0
  0
LINE
  5
22B
330
1D
100
AcDbEntity
  8
NOCUT
100
AcDbLine
 10
72.0
 20
18.75
 30
0.0
 11
72.0
 21
11.0
 31
0.0
  0
LINE
  5
22C
330
1D
100
AcDbEntity
  8
NOCUT
100
AcDbLine
 10
72.0
 20
11.0
 30
0.0
 11
72.0
 21
-0.0000000000000036
 31
0.0
  0
LINE
  5
22D
330
1D
100
AcDbEntity
  8
NOCUT
100
AcDbLine
 10
72.0
 20
-0.0000000000000036
 30
0.0
 11
0.0
 21
0.0
 31
0.0
  0
LWPOLYLINE
  5
22F
330
1D
100
AcDbEntity
  8
INFTOTAL
100
AcDbPolyline
 90
        4
 70
     1
 43
0.0
 10
-91.92102110514199
 20
63.66252214520323
 10
-91.92102110514199
 20
-73.23812832236328
 10
124.3355996334546
 20
-73.23812832236328
 10
124.3355996334546
 20
63.66252214520323
  0
LINE
  5
283
330
1D
100
AcDbEntity
  8
4
100
AcDbLine
 10
61.94999695
 20
4.999999999999996
 30
0.0
 11
61.94999695
 21
-5.000000000000004
 31
0.0
  0
LINE
  5
284
330
1D
100
AcDbEntity
  8
4
100
AcDbLine
 10
74.0
 20
-0.0000000000000036
 30
0.0
 11
0.0
 21
0.0
 31
0.0
  0
LINE
  5
285
330
1D
100
AcDbEntity
  8
4
100
AcDbLine
 10
0.0000000000000003
 20
27.00000000055114
 30
0.0
 11
13.520652029
 21
6.417982788999996
 31
0.0
  0
LINE
  5
286
330
1D
100
AcDbEntity
  8
4
100
AcDbLine
 10
13.412493097
 20
-6.582629361000004
 30
0.0
 11
0.0
 21
-27.00000000057664
 31
0.0
  0
LINE
  5
289
330
1D
100
AcDbEntity
  8
SK3
100
AcDbLine
 10
0.0
 20
7.077233744999994
 30
0.0
 11
-59.840673326
 21
7.077233744999996
 31
0.0
  0
LINE
  5
28A
330
1D
100
AcDbEntity
  8
SK3
100
AcDbLine
 10
-59.840673326
 20
-7.072766255000004
 30
0.0
 11
0.0
 21
-7.072766255000001
 31
0.0
  0
ENDSEC
  0
SECTION
  2
OBJECTS
  0
DICTIONARY
  5
C
330
0
100
AcDbDictionary
281
     1
  3
ACAD_COLOR
350
26A
  3
ACAD_DETAILVIEWSTYLE
350
219
  3
ACAD_GROUP
350
D
  3
ACAD_LAYOUT
350
1A
  3
ACAD_MATERIAL
350
1B2
  3
ACAD_MLEADERSTYLE
350
1BF
  3
ACAD_MLINESTYLE
350
17
  3
ACAD_PLOTSETTINGS
350
19
  3
ACAD_PLOTSTYLENAME
350
E
  3
ACAD_SCALELIST
350
17B
  3
ACAD_SECTIONVIEWSTYLE
350
21A
  3
ACAD_TABLESTYLE
350
208
  3
ACAD_VISUALSTYLE
350
1A1
  3
ACDB_RECOMPOSE_DATA
350
295
  3
AcDbVariableDictionary
350
1BD
  3
APPDATA
350
20B
  0
SUN
  5
25C
330
175
100
AcDbSun
 90
        1
290
     0
 63
     7
421
 16777215
 40
1.0
291
     1
 91
  2455826
 92
 54000000
292
     0
 70
     2
 71
   256
280
     1
  0
DICTIONARY
  5
20C
330
2
100
AcDbDictionary
280
     1
281
     1
  3
ACAD_LAYERSTATES
360
20D
  0
DICTIONARY
  5
26A
102
{ACAD_REACTORS
330
C
102
}
330
C
100
AcDbDictionary
281
     1
  0
DICTIONARY
  5
219
102
{ACAD_REACTORS
330
C
102
}
330
C
100
AcDbDictionary
281
     1
  0
DICTIONARY
  5
D
102
{ACAD_REACTORS
330
C
102
}
330
C
100
AcDbDictionary
281
     1
  0
DICTIONARY
  5
1A
102
{ACAD_REACTORS
330
C
102
}
330
C
100
AcDbDictionary
281
     1
  3
Layout1
350
1C
  3
Model
350
1E
  0
DICTIONARY
  5
1B2
102
{ACAD_REACTORS
330
C
102
}
330
C
100
AcDbDictionary
281
     1
  3
ByBlock
350
1B4
  3
ByLayer
350
1B3
  3
Global
350
1B5
  0
DICTIONARY
  5
1BF
102
{ACAD_REACTORS
330
C
102
}
330
C
100
AcDbDictionary
281
     1
  3
Standard
350
20A
  0
DICTIONARY
  5
17
102
{ACAD_REACTORS
330
C
102
}
330
C
100
AcDbDictionary
281
     1
  3
Standard
350
18
  0
DICTIONARY
  5
19
102
{ACAD_REACTORS
330
C
102
}
330
C
100
AcDbDictionary
281
     1
  0
ACDBDICTIONARYWDFLT
  5
E
102
{ACAD_REACTORS
330
C
102
}
330
C
100
AcDbDictionary
281
     1
  3
Normal
350
F
100
AcDbDictionaryWithDefault
340
F
  0
DICTIONARY
  5
17B
102
{ACAD_REACTORS
330
C
102
}
330
C
100
AcDbDictionary
281
     1
  3
A0
350
17C
  3
A1
350
17D
  3
A2
350
17E
  3
A3
350
17F
  3
A4
350
180
  3
A5
350
181
  3
A6
350
182
  3
A7
350
183
  3
A8
350
184
  3
A9
350
185
  3
B0
350
186
  3
B1
350
187
  3
B2
350
188
  3
B3
350
189
  3
B4
350
18A
  3
B5
350
18B
  3
B6
350
18C
  3
B7
350
18D
  3
B8
350
18E
  3
B9
350
18F
  3
C0
350
190
  3
C1
350
191
  3
C2
350
192
  3
C3
350
193
  3
C4
350
194
  3
C5
350
195
  3
C6
350
196
  3
C7
350
197
  3
C8
350
198
  3
C9
350
199
  3
D0
350
19A
  3
D1
350
19B
  3
D2
350
19C
  0
DICTIONARY
  5
21A
102
{ACAD_REACTORS
330
C
102
}
330
C
100
AcDbDictionary
281
     1
  0
DICTIONARY
  5
208
102
{ACAD_REACTORS
330
C
102
}
330
C
100
AcDbDictionary
281
     1
  3
Standard
350
209
  0
DICTIONARY
  5
1A1
102
{ACAD_REACTORS
330
C
102
}
330
C
100
AcDbDictionary
281
     1
  3
2dWireframe
350
1A6
  3
3D Hidden
350
1A8
  3
3dWireframe
350
1A7
  3
Basic
350
1A9
  3
Brighten
350
1AD
  3
ColorChange
350
1B1
  3
Conceptual
350
1AB
  3
Dim
350
1AC
  3
EdgeColorOff
350
202
  3
Facepattern
350
1B0
  3
Flat
350
1A2
  3
FlatWithEdges
350
1A3
  3
Gouraud
350
1A4
  3
GouraudWithEdges
350
1A5
  3
Hidden
350
1FF
  3
JitterOff
350
200
  3
Linepattern
350
1AF
  3
OverhangOff
350
201
  3
Realistic
350
1AA
  3
Shaded
350
207
  3
Shaded with edges
350
206
  3
Shades of Gray
350
203
  3
Sketchy
350
204
  3
Thicken
350
1AE
  3
Wireframe
350
1FE
  3
X-Ray
350
205
  0
XRECORD
  5
295
102
{ACAD_REACTORS
330
C
102
}
330
C
100
AcDbXrecord
280
     1
 90
        1
330
209
  0
DICTIONARY
  5
1BD
102
{ACAD_REACTORS
330
C
102
}
330
C
100
AcDbDictionary
281
     1
  3
CANNOSCALE
350
216
  3
CMLEADERSTYLE
350
218
  3
CTABLESTYLE
350
217
  3
DIMASSOC
350
1C1
  3
HIDETEXT
350
1C2
  3
MSLTSCALE
350
1C0
  0
DICTIONARY
  5
20B
102
{ACAD_REACTORS
330
C
102
}
330
C
100
AcDbDictionary
281
     1
  0
DICTIONARY
  5
20D
102
{ACAD_REACTORS
330
20C
102
}
330
20C
100
AcDbDictionary
281
     1
  0
LAYOUT
  5
1C
102
{ACAD_REACTORS
330
1A
102
}
330
1A
100
AcDbPlotSettings
  1

  2
none_device
  4

  6

 40
0.0
 41
0.0
 42
0.0
 43
0.0
 44
0.0
 45
0.0
 46
0.0
 47
0.0
 48
0.0
 49
0.0
140
0.0
141
0.0
142
1.0
143
1.0
 70
   688
 72
     0
 73
     0
 74
     5
  7

 75
    16
 76
     0
 77
     2
 78
   300
147
1.0
148
0.0
149
0.0
100
AcDbLayout
  1
Layout1
 70
     1
 71
     1
 10
0.0
 20
0.0
 11
12.0
 21
9.0
 12
0.0
 22
0.0
 32
0.0
 14
1.000000000000000E+20
 24
1.000000000000000E+20
 34
1.000000000000000E+20
 15
-1.000000000000000E+20
 25
-1.000000000000000E+20
 35
-1.000000000000000E+20
146
0.0
 13
0.0
 23
0.0
 33
0.0
 16
1.0
 26
0.0
 36
0.0
 17
0.0
 27
1.0
 37
0.0
 76
     0
330
1B
  0
LAYOUT
  5
1E
102
{ACAD_REACTORS
330
1A
102
}
330
1A
100
AcDbPlotSettings
  1

  2
none_device
  4

  6

 40
0.0
 41
0.0
 42
0.0
 43
0.0
 44
0.0
 45
0.0
 46
0.0
 47
0.0
 48
0.0
 49
0.0
140
0.0
141
0.0
142
1.0
143
1.0
 70
  1712
 72
     0
 73
     0
 74
     0
  7

 75
     0
 76
     0
 77
     2
 78
   300
147
1.0
148
0.0
149
0.0
100
AcDbLayout
  1
Model
 70
     1
 71
     0
 10
0.0
 20
0.0
 11
12.0
 21
9.0
 12
0.0
 22
0.0
 32
0.0
 14
-91.92102110514199
 24
-73.23812832236328
 34
0.0
 15
124.3355996334546
 25
63.66252214520324
 35
0.0
146
0.0
 13
0.0
 23
0.0
 33
0.0
 16
1.0
 26
0.0
 36
0.0
 17
0.0
 27
1.0
 37
0.0
 76
     0
330
1D
331
175
  0
MATERIAL
  5
1B4
102
{ACAD_REACTORS
330
1B2
102
}
330
1B2
100
AcDbMaterial
  1
ByBlock
 72
     1
 94
      127
  0
MATERIAL
  5
1B3
102
{ACAD_REACTORS
330
1B2
102
}
330
1B2
100
AcDbMaterial
  1
ByLayer
 72
     1
 94
      127
  0
MATERIAL
  5
1B5
102
{ACAD_REACTORS
330
1B2
102
}
330
1B2
100
AcDbMaterial
  1
Global
 72
     1
 94
      127
  0
MLEADERSTYLE
  5
20A
102
{ACAD_REACTORS
330
1BF
102
}
330
1BF
100
AcDbMLeaderStyle
179
     2
170
     2
171
     1
172
     0
 90
        2
 40
0.0
 41
0.0
173
     1
 91
-1056964608
340
14
 92
       -2
290
     1
 42
0.09
291
     1
 43
0.36
  3
Standard
341
0
 44
0.18
300

342
11
174
     1
178
     1
175
     1
176
     0
 93
-1056964608
 45
0.18
292
     0
297
     0
 46
0.18
343
0
 94
-1056964608
 47
1.0
 49
1.0
140
1.0
293
     1
141
0.0
294
     1
177
     0
142
1.0
295
     0
296
     0
143
0.125
271
     0
272
     9
273
     9
298
     0
  0
MLINESTYLE
  5
18
102
{ACAD_REACTORS
330
17
102
}
330
17
100
AcDbMlineStyle
  2
Standard
 70
     0
  3

 62
   256
 51
90.0
 52
90.0
 71
     2
 49
0.5
 62
   256
  6
BYLAYER
 49
-0.5
 62
   256
  6
BYLAYER
  0
ACDBPLACEHOLDER
  5
F
102
{ACAD_REACTORS
330
E
102
}
330
E
  0
SCALE
  5
17C
102
{ACAD_REACTORS
330
17B
102
}
330
17B
100
AcDbScale
 70
     0
300
1:1
140
1.0
141
1.0
290
     1
  0
SCALE
  5
17D
102
{ACAD_REACTORS
330
17B
102
}
330
17B
100
AcDbScale
 70
     0
300
1:2
140
1.0
141
2.0
290
     0
  0
SCALE
  5
17E
102
{ACAD_REACTORS
330
17B
102
}
330
17B
100
AcDbScale
 70
     0
300
1:4
140
1.0
141
4.0
290
     0
  0
SCALE
  5
17F
102
{ACAD_REACTORS
330
17B
102
}
330
17B
100
AcDbScale
 70
     0
300
1:5
140
1.0
141
5.0
290
     0
  0
SCALE
  5
180
102
{ACAD_REACTORS
330
17B
102
}
330
17B
100
AcDbScale
 70
     0
300
1:8
140
1.0
141
8.0
290
     0
  0
SCALE
  5
181
102
{ACAD_REACTORS
330
17B
102
}
330
17B
100
AcDbScale
 70
     0
300
1:10
140
1.0
141
10.0
290
     0
  0
SCALE
  5
182
102
{ACAD_REACTORS
330
17B
102
}
330
17B
100
AcDbScale
 70
     0
300
1:16
140
1.0
141
16.0
290
     0
  0
SCALE
  5
183
102
{ACAD_REACTORS
330
17B
102
}
330
17B
100
AcDbScale
 70
     0
300
1:20
140
1.0
141
20.0
290
     0
  0
SCALE
  5
184
102
{ACAD_REACTORS
330
17B
102
}
330
17B
100
AcDbScale
 70
     0
300
1:30
140
1.0
141
30.0
290
     0
  0
SCALE
  5
185
102
{ACAD_REACTORS
330
17B
102
}
330
17B
100
AcDbScale
 70
     0
300
1:40
140
1.0
141
40.0
290
     0
  0
SCALE
  5
186
102
{ACAD_REACTORS
330
17B
102
}
330
17B
100
AcDbScale
 70
     0
300
1:50
140
1.0
141
50.0
290
     0
  0
SCALE
  5
187
102
{ACAD_REACTORS
330
17B
102
}
330
17B
100
AcDbScale
 70
     0
300
1:100
140
1.0
141
100.0
290
     0
  0
SCALE
  5
188
102
{ACAD_REACTORS
330
17B
102
}
330
17B
100
AcDbScale
 70
     0
300
2:1
140
2.0
141
1.0
290
     0
  0
SCALE
  5
189
102
{ACAD_REACTORS
330
17B
102
}
330
17B
100
AcDbScale
 70
     0
300
4:1
140
4.0
141
1.0
290
     0
  0
SCALE
  5
18A
102
{ACAD_REACTORS
330
17B
102
}
330
17B
100
AcDbScale
 70
     0
300
8:1
140
8.0
141
1.0
290
     0
  0
SCALE
  5
18B
102
{ACAD_REACTORS
330
17B
102
}
330
17B
100
AcDbScale
 70
     0
300
10:1
140
10.0
141
1.0
290
     0
  0
SCALE
  5
18C
102
{ACAD_REACTORS
330
17B
102
}
330
17B
100
AcDbScale
 70
     0
300
100:1
140
100.0
141
1.0
290
     0
  0
SCALE
  5
18D
102
{ACAD_REACTORS
330
17B
102
}
330
17B
100
AcDbScale
 70
     0
300
1/128" = 1'-0"
140
0.0078125
141
12.0
290
     0
  0
SCALE
  5
18E
102
{ACAD_REACTORS
330
17B
102
}
330
17B
100
AcDbScale
 70
     0
300
1/64" = 1'-0"
140
0.015625
141
12.0
290
     0
  0
SCALE
  5
18F
102
{ACAD_REACTORS
330
17B
102
}
330
17B
100
AcDbScale
 70
     0
300
1/32" = 1'-0"
140
0.03125
141
12.0
290
     0
  0
SCALE
  5
190
102
{ACAD_REACTORS
330
17B
102
}
330
17B
100
AcDbScale
 70
     0
300
1/16" = 1'-0"
140
0.0625
141
12.0
290
     0
  0
SCALE
  5
191
102
{ACAD_REACTORS
330
17B
102
}
330
17B
100
AcDbScale
 70
     0
300
3/32" = 1'-0"
140
0.09375
141
12.0
290
     0
  0
SCALE
  5
192
102
{ACAD_REACTORS
330
17B
102
}
330
17B
100
AcDbScale
 70
     0
300
1/8" = 1'-0"
140
0.125
141
12.0
290
     0
  0
SCALE
  5
193
102
{ACAD_REACTORS
330
17B
102
}
330
17B
100
AcDbScale
 70
     0
300
3/16" = 1'-0"
140
0.1875
141
12.0
290
     0
  0
SCALE
  5
194
102
{ACAD_REACTORS
330
17B
102
}
330
17B
100
AcDbScale
 70
     0
300
1/4" = 1'-0"
140
0.25
141
12.0
290
     0
  0
SCALE
  5
195
102
{ACAD_REACTORS
330
17B
102
}
330
17B
100
AcDbScale
 70
     0
300
3/8" = 1'-0"
140
0.375
141
12.0
290
     0
  0
SCALE
  5
196
102
{ACAD_REACTORS
330
17B
102
}
330
17B
100
AcDbScale
 70
     0
300
1/2" = 1'-0"
140
0.5
141
12.0
290
     0
  0
SCALE
  5
197
102
{ACAD_REACTORS
330
17B
102
}
330
17B
100
AcDbScale
 70
     0
300
3/4" = 1'-0"
140
0.75
141
12.0
290
     0
  0
SCALE
  5
198
102
{ACAD_REACTORS
330
17B
102
}
330
17B
100
AcDbScale
 70
     0
300
1" = 1'-0"
140
1.0
141
12.0
290
     0
  0
SCALE
  5
199
102
{ACAD_REACTORS
330
17B
102
}
330
17B
100
AcDbScale
 70
     0
300
1-1/2" = 1'-0"
140
1.5
141
12.0
290
     0
  0
SCALE
  5
19A
102
{ACAD_REACTORS
330
17B
102
}
330
17B
100
AcDbScale
 70
     0
300
3" = 1'-0"
140
3.0
141
12.0
290
     0
  0
SCALE
  5
19B
102
{ACAD_REACTORS
330
17B
102
}
330
17B
100
AcDbScale
 70
     0
300
6" = 1'-0"
140
6.0
141
12.0
290
     0
  0
SCALE
  5
19C
102
{ACAD_REACTORS
330
17B
102
}
330
17B
100
AcDbScale
 70
     0
300
1'-0" = 1'-0"
140
12.0
141
12.0
290
     0
  0
TABLESTYLE
  5
209
102
{ACAD_REACTORS
330
208
102
}
102
{ACAD_XDICTIONARY
360
293
102
}
330
208
100
AcDbTableStyle
  3
Standard
 70
     0
 71
     0
 40
0.06
 41
0.06
280
     0
281
     0
  7
Standard
140
0.18
170
     2
 62
     0
 63
   257
283
     0
 90
        4
 91
        0
  1

274
    -2
284
     1
 64
     0
275
    -2
285
     1
 65
     0
276
    -2
286
     1
 66
     0
277
    -2
287
     1
 67
     0
278
    -2
288
     1
 68
     0
279
    -2
289
     1
 69
     0
  7
Standard
140
0.25
170
     5
 62
     0
 63
   257
283
     0
 90
        4
 91
        0
  1

274
    -2
284
     1
 64
     0
275
    -2
285
     1
 65
     0
276
    -2
286
     1
 66
     0
277
    -2
287
     1
 67
     0
278
    -2
288
     1
 68
     0
279
    -2
289
     1
 69
     0
  7
Standard
140
0.18
170
     5
 62
     0
 63
   257
283
     0
 90
        4
 91
        0
  1

274
    -2
284
     1
 64
     0
275
    -2
285
     1
 65
     0
276
    -2
286
     1
 66
     0
277
    -2
287
     1
 67
     0
278
    -2
288
     1
 68
     0
279
    -2
289
     1
 69
     0
  0
VISUALSTYLE
  5
1A6
102
{ACAD_REACTORS
330
1A1
102
}
330
1A1
100
AcDbVisualStyle
  2
2dWireframe
 70
     4
177
     3
291
     0
 70
    58
 90
        0
176
     1
 90
        2
176
     1
 90
        0
176
     1
 90
        0
176
     1
 40
-0.6
176
     1
 40
-30.0
176
     1
 62
     7
176
     1
 90
        1
176
     1
 90
        4
176
     1
 62
     7
176
     1
 62
   257
176
     1
 90
        1
176
     1
 90
        1
176
     1
 40
1.0
176
     1
 90
        0
176
     1
 62
   257
176
     1
 40
1.0
176
     1
 90
        1
176
     1
 90
        6
176
     1
 90
        2
176
     1
 62
     7
176
     1
 90
        5
176
     1
 90
        0
176
     1
 90
        0
176
     1
290
     0
176
     1
 90
        1
176
     1
 40
0.0
176
     1
 90
        0
176
     1
290
     1
176
     1
290
     1
176
     1
290
     0
176
     1
290
     0
176
     1
290
     0
176
     1
290
     0
176
     1
290
     0
176
     1
290
     0
176
     1
290
     0
176
     1
 90
       50
176
     1
 40
0.0
176
     1
 40
1.0
176
     1
 90
        0
176
     1
 62
    18
420
        0
176
     1
 90
       50
176
     1
 90
        3
176
     1
 62
     5
420
      255
176
     1
290
     0
176
     1
 90
       50
176
     1
 90
       50
176
     1
 90
       50
176
     1
290
     0
176
     1
 90
       50
176
     1
 62
   256
176
     0
 40
1.0
176
     0
 90
        2
176
     1
  1
strokes_ogs.tif
176
     1
290
     0
176
     1
 40
1.0
176
     1
 40
1.0
176
     1
  0
VISUALSTYLE
  5
1A8
102
{ACAD_REACTORS
330
1A1
102
}
330
1A1
100
AcDbVisualStyle
  2
3D Hidden
 70
     6
177
     3
291
     0
 70
    58
 90
        1
176
     1
 90
        2
176
     1
 90
        2
176
     1
 90
        0
176
     1
 40
-0.6
176
     1
 40
-30.0
176
     1
 62
     7
176
     1
 90
        2
176
     1
 90
        2
176
     1
 62
     7
176
     1
 62
   257
176
     1
 90
        2
176
     1
 90
        1
176
     1
 40
40.0
176
     1
 90
        0
176
     1
 62
   257
176
     1
 40
1.0
176
     1
 90
        1
176
     1
 90
        6
176
     1
 90
        2
176
     1
 62
     7
176
     1
 90
        3
176
     1
 90
        0
176
     1
 90
        0
176
     1
290
     0
176
     1
 90
        1
176
     1
 40
0.0
176
     1
 90
        0
176
     1
290
     0
176
     1
290
     1
176
     1
290
     1
176
     1
290
     0
176
     1
290
     0
176
     1
290
     0
176
     1
290
     0
176
     1
290
     0
176
     1
290
     0
176
     1
 90
       50
176
     1
 40
0.0
176
     1
 40
1.0
176
     1
 90
        0
176
     1
 62
    18
420
        0
176
     1
 90
       50
176
     1
 90
        3
176
     1
 62
     5
420
      255
176
     1
290
     0
176
     1
 90
       50
176
     1
 90
       50
176
     1
 90
       50
176
     1
290
     0
176
     1
 90
       50
176
     1
 62
   256
176
     0
 40
1.0
176
     0
 90
        2
176
     1
  1
strokes_ogs.tif
176
     1
290
     0
176
     1
 40
1.0
176
     1
 40
1.0
176
     1
  0
VISUALSTYLE
  5
1A7
102
{ACAD_REACTORS
330
1A1
102
}
330
1A1
100
AcDbVisualStyle
  2
3dWireframe
 70
     5
177
     3
291
     0
 70
    58
 90
        0
176
     1
 90
        2
176
     1
 90
        0
176
     1
 90
        0
176
     1
 40
-0.6
176
     1
 40
-30.0
176
     1
 62
     7
176
     1
 90
        1
176
     1
 90
        4
176
     1
 62
     7
176
     1
 62
   257
176
     1
 90
        1
176
     1
 90
        1
176
     1
 40
1.0
176
     1
 90
        0
176
     1
 62
   257
176
     1
 40
1.0
176
     1
 90
        1
176
     1
 90
        6
176
     1
 90
        2
176
     1
 62
     7
176
     1
 90
        5
176
     1
 90
        0
176
     1
 90
        0
176
     1
290
     0
176
     1
 90
        1
176
     1
 40
0.0
176
     1
 90
        0
176
     1
290
     0
176
     1
290
     1
176
     1
290
     1
176
     1
290
     0
176
     1
290
     0
176
     1
290
     0
176
     1
290
     0
176
     1
290
     0
176
     1
290
     0
176
     1
 90
       50
176
     1
 40
0.0
176
     1
 40
1.0
176
     1
 90
        0
176
     1
 62
    18
420
        0
176
     1
 90
       50
176
     1
 90
        3
176
     1
 62
     5
420
      255
176
     1
290
     0
176
     1
 90
       50
176
     1
 90
       50
176
     1
 90
       50
176
     1
290
     0
176
     1
 90
       50
176
     1
 62
   256
176
     0
 40
1.0
176
     0
 90
        2
176
     1
  1
strokes_ogs.tif
176
     1
290
     0
176
     1
 40
1.0
176
     1
 40
1.0
176
     1
  0
VISUALSTYLE
  5
1A9
102
{ACAD_REACTORS
330
1A1
102
}
330
1A1
100
AcDbVisualStyle
  2
Basic
 70
     7
177
     3
291
     1
 70
    58
 90
        1
176
     1
 90
        0
176
     1
 90
        1
176
     1
 90
        0
176
     1
 40
-0.6
176
     1
 40
-30.0
176
     1
 62
     7
176
     1
 90
        0
176
     1
 90
        4
176
     1
 62
     7
176
     1
 62
   257
176
     1
 90
        1
176
     1
 90
        1
176
     1
 40
1.0
176
     1
 90
        8
176
     1
 62
     7
176
     1
 40
1.0
176
     1
 90
        1
176
     1
 90
        6
176
     1
 90
        2
176
     1
 62
     7
176
     1
 90
        5
176
     1
 90
        0
176
     1
 90
        0
176
     1
290
     0
176
     1
 90
        1
176
     1
 40
0.0
176
     1
 90
        0
176
     1
290
     0
176
     1
290
     1
176
     1
290
     1
176
     1
290
     0
176
     1
290
     0
176
     1
290
     0
176
     1
290
     0
176
     1
290
     0
176
     1
290
     0
176
     1
 90
       50
176
     1
 40
0.0
176
     1
 40
1.0
176
     1
 90
        0
176
     1
 62
    18
420
        0
176
     1
 90
       50
176
     1
 90
        3
176
     1
 62
     5
420
      255
176
     1
290
     0
176
     1
 90
       50
176
     1
 90
       50
176
     1
 90
       50
176
     1
290
     0
176
     1
 90
       50
176
     1
 62
   256
176
     0
 40
1.0
176
     0
 90
        2
176
     1
  1
strokes_ogs.tif
176
     1
290
     0
176
     1
 40
1.0
176
     1
 40
1.0
176
     1
  0
VISUALSTYLE
  5
1AD
102
{ACAD_REACTORS
330
1A1
102
}
330
1A1
100
AcDbVisualStyle
  2
Brighten
 70
    12
177
     3
291
     1
 70
    58
 90
        2
176
     1
 90
        2
176
     1
 90
        0
176
     1
 90
        0
176
     1
 40
-0.6
176
     1
 40
-30.0
176
     1
 62
     7
176
     1
 90
        1
176
     1
 90
        4
176
     1
 62
     7
176
     1
 62
   257
176
     1
 90
        1
176
     1
 90
        1
176
     1
 40
1.0
176
     1
 90
        8
176
     1
 62
     7
176
     1
 40
1.0
176
     1
 90
        1
176
     1
 90
        6
176
     1
 90
        2
176
     1
 62
     7
176
     1
 90
        5
176
     1
 90
        0
176
     1
 90
        0
176
     1
290
     0
176
     1
 90
        1
176
     1
 40
50.0
176
     1
 90
        0
176
     1
290
     0
176
     1
290
     1
176
     1
290
     1
176
     1
290
     0
176
     1
290
     0
176
     1
290
     0
176
     1
290
     0
176
     1
290
     0
176
     1
290
     0
176
     1
 90
       50
176
     1
 40
0.0
176
     1
 40
1.0
176
     1
 90
        0
176
     1
 62
    18
420
        0
176
     1
 90
       50
176
     1
 90
        3
176
     1
 62
     5
420
      255
176
     1
290
     0
176
     1
 90
       50
176
     1
 90
       50
176
     1
 90
       50
176
     1
290
     0
176
     1
 90
       50
176
     1
 62
   256
176
     0
 40
1.0
176
     0
 90
        2
176
     1
  1
strokes_ogs.tif
176
     1
290
     0
176
     1
 40
1.0
176
     1
 40
1.0
176
     1
  0
VISUALSTYLE
  5
1B1
102
{ACAD_REACTORS
330
1A1
102
}
330
1A1
100
AcDbVisualStyle
  2
ColorChange
 70
    16
177
     3
291
     1
 70
    58
 90
        2
176
     1
 90
        2
176
     1
 90
        3
176
     1
 90
        0
176
     1
 40
-0.6
176
     1
 40
-30.0
176
     1
 62
     8
176
     1
 90
        1
176
     1
 90
        4
176
     1
 62
     7
176
     1
 62
   257
176
     1
 90
        1
176
     1
 90
        1
176
     1
 40
1.0
176
     1
 90
        8
176
     1
 62
     8
176
     1
 40
1.0
176
     1
 90
        1
176
     1
 90
        6
176
     1
 90
        2
176
     1
 62
     7
176
     1
 90
        5
176
     1
 90
        0
176
     1
 90
        0
176
     1
290
     0
176
     1
 90
        1
176
     1
 40
0.0
176
     1
 90
        0
176
     1
290
     0
176
     1
290
     1
176
     1
290
     1
176
     1
290
     0
176
     1
290
     0
176
     1
290
     0
176
     1
290
     0
176
     1
290
     0
176
     1
290
     0
176
     1
 90
       50
176
     1
 40
0.0
176
     1
 40
1.0
176
     1
 90
        0
176
     1
 62
    18
420
        0
176
     1
 90
       50
176
     1
 90
        3
176
     1
 62
     5
420
      255
176
     1
290
     0
176
     1
 90
       50
176
     1
 90
       50
176
     1
 90
       50
176
     1
290
     0
176
     1
 90
       50
176
     1
 62
   256
176
     0
 40
1.0
176
     0
 90
        2
176
     1
  1
strokes_ogs.tif
176
     1
290
     0
176
     1
 40
1.0
176
     1
 40
1.0
176
     1
  0
VISUALSTYLE
  5
1AB
102
{ACAD_REACTORS
330
1A1
102
}
330
1A1
100
AcDbVisualStyle
  2
Conceptual
 70
     9
177
     3
291
     0
 70
    58
 90
        3
176
     1
 90
        2
176
     1
 90
        0
176
     1
 90
        0
176
     1
 40
-0.6
176
     1
 40
-30.0
176
     1
 62
     7
176
     1
 90
        2
176
     1
 90
        2
176
     1
 62
     7
176
     1
 62
   257
176
     1
 90
        1
176
     1
 90
        1
176
     1
 40
40.0
176
     1
 90
        8
176
     1
 62
     7
176
     1
 40
1.0
176
     1
 90
        1
176
     1
 90
        6
176
     1
 90
        2
176
     1
 62
     7
176
     1
 90
        3
176
     1
 90
        0
176
     1
 90
        0
176
     1
290
     0
176
     1
 90
        1
176
     1
 40
0.0
176
     1
 90
        0
176
     1
290
     0
176
     1
290
     1
176
     1
290
     1
176
     1
290
     0
176
     1
290
     0
176
     1
290
     0
176
     1
290
     0
176
     1
290
     0
176
     1
290
     0
176
     1
 90
       50
176
     1
 40
0.0
176
     1
 40
1.0
176
     1
 90
        0
176
     1
 62
    18
420
        0
176
     1
 90
       50
176
     1
 90
        3
176
     1
 62
     5
420
      255
176
     1
290
     0
176
     1
 90
       50
176
     1
 90
       50
176
     1
 90
       50
176
     1
290
     0
176
     1
 90
       50
176
     1
 62
   256
176
     0
 40
1.0
176
     0
 90
        2
176
     1
  1
strokes_ogs.tif
176
     1
290
     0
176
     1
 40
1.0
176
     1
 40
1.0
176
     1
  0
VISUALSTYLE
  5
1AC
102
{ACAD_REACTORS
330
1A1
102
}
330
1A1
100
AcDbVisualStyle
  2
Dim
 70
    11
177
     3
291
     1
 70
    58
 90
        2
176
     1
 90
        2
176
     1
 90
        0
176
     1
 90
        0
176
     1
 40
-0.6
176
     1
 40
-30.0
176
     1
 62
     7
176
     1
 90
        1
176
     1
 90
        4
176
     1
 62
     7
176
     1
 62
   257
176
     1
 90
        1
176
     1
 90
        1
176
     1
 40
1.0
176
     1
 90
        8
176
     1
 62
     7
176
     1
 40
1.0
176
     1
 90
        1
176
     1
 90
        6
176
     1
 90
        2
176
     1
 62
     7
176
     1
 90
        5
176
     1
 90
        0
176
     1
 90
        0
176
     1
290
     0
176
     1
 90
        1
176
     1
 40
-50.0
176
     1
 90
        0
176
     1
290
     0
176
     1
290
     1
176
     1
290
     1
176
     1
290
     0
176
     1
290
     0
176
     1
290
     0
176
     1
290
     0
176
     1
290
     0
176
     1
290
     0
176
     1
 90
       50
176
     1
 40
0.0
176
     1
 40
1.0
176
     1
 90
        0
176
     1
 62
    18
420
        0
176
     1
 90
       50
176
     1
 90
        3
176
     1
 62
     5
420
      255
176
     1
290
     0
176
     1
 90
       50
176
     1
 90
       50
176
     1
 90
       50
176
     1
290
     0
176
     1
 90
       50
176
     1
 62
   256
176
     0
 40
1.0
176
     0
 90
        2
176
     1
  1
strokes_ogs.tif
176
     1
290
     0
176
     1
 40
1.0
176
     1
 40
1.0
176
     1
  0
VISUALSTYLE
  5
202
102
{ACAD_REACTORS
330
1A1
102
}
330
1A1
100
AcDbVisualStyle
  2
EdgeColorOff
 70
    22
177
     3
291
     1
 70
    58
 90
        2
176
     0
 90
        2
176
     0
 90
        0
176
     0
 90
        0
176
     0
 40
0.6
176
     0
 40
30.0
176
     0
 62
     7
420
 16777215
176
     0
 90
        1
176
     0
 90
        4
176
     0
 62
     7
176
     0
 62
   257
176
     0
 90
        1
176
     0
 90
        1
176
     0
 40
1.0
176
     0
 90
        8
176
     2
 62
     7
176
     0
 40
1.0
176
     0
 90
        1
176
     0
 90
        6
176
     0
 90
        2
176
     0
 62
     7
176
     0
 90
        5
176
     0
 90
        0
176
     0
 90
        0
176
     0
290
     0
176
     0
 90
        1
176
     0
 40
0.0
176
     0
 90
        0
176
     0
290
     0
176
     0
290
     1
176
     0
290
     1
176
     0
290
     0
176
     0
290
     0
176
     0
290
     0
176
     0
290
     0
176
     0
290
     0
176
     0
290
     0
176
     0
 90
       50
176
     0
 40
0.0
176
     0
 40
1.0
176
     0
 90
        0
176
     0
 62
    18
420
        0
176
     0
 90
       50
176
     0
 90
        3
176
     0
 62
     5
420
      255
176
     0
290
     0
176
     0
 90
       50
176
     0
 90
       50
176
     0
 90
       50
176
     0
290
     0
176
     0
 90
       50
176
     0
 62
   256
176
     0
 40
1.0
176
     0
 90
        2
176
     0
  1
strokes_ogs.tif
176
     0
290
     0
176
     0
 40
1.0
176
     0
 40
1.0
176
     0
  0
VISUALSTYLE
  5
1B0
102
{ACAD_REACTORS
330
1A1
102
}
330
1A1
100
AcDbVisualStyle
  2
Facepattern
 70
    15
177
     3
291
     1
 70
    58
 90
        2
176
     1
 90
        2
176
     1
 90
        0
176
     1
 90
        0
176
     1
 40
-0.6
176
     1
 40
-30.0
176
     1
 62
     7
176
     1
 90
        1
176
     1
 90
        4
176
     1
 62
     7
176
     1
 62
   257
176
     1
 90
        1
176
     1
 90
        1
176
     1
 40
1.0
176
     1
 90
        8
176
     1
 62
     7
176
     1
 40
1.0
176
     1
 90
        1
176
     1
 90
        6
176
     1
 90
        2
176
     1
 62
     7
176
     1
 90
        5
176
     1
 90
        0
176
     1
 90
        0
176
     1
290
     0
176
     1
 90
        1
176
     1
 40
0.0
176
     1
 90
        0
176
     1
290
     0
176
     1
290
     1
176
     1
290
     1
176
     1
290
     0
176
     1
290
     0
176
     1
290
     0
176
     1
290
     0
176
     1
290
     0
176
     1
290
     0
176
     1
 90
       50
176
     1
 40
0.0
176
     1
 40
1.0
176
     1
 90
        0
176
     1
 62
    18
420
        0
176
     1
 90
       50
176
     1
 90
        3
176
     1
 62
     5
420
      255
176
     1
290
     0
176
     1
 90
       50
176
     1
 90
       50
176
     1
 90
       50
176
     1
290
     0
176
     1
 90
       50
176
     1
 62
   256
176
     0
 40
1.0
176
     0
 90
        2
176
     1
  1
strokes_ogs.tif
176
     1
290
     0
176
     1
 40
1.0
176
     1
 40
1.0
176
     1
  0
VISUALSTYLE
  5
1A2
102
{ACAD_REACTORS
330
1A1
102
}
330
1A1
100
AcDbVisualStyle
  2
Flat
 70
     0
177
     3
291
     1
 70
    58
 90
        2
176
     1
 90
        1
176
     1
 90
        1
176
     1
 90
        2
176
     1
 40
-0.6
176
     1
 40
30.0
176
     1
 62
     7
176
     1
 90
        0
176
     1
 90
        4
176
     1
 62
     7
176
     1
 62
   257
176
     1
 90
        1
176
     1
 90
        1
176
     1
 40
1.0
176
     1
 90
        8
176
     1
 62
     7
176
     1
 40
1.0
176
     1
 90
        1
176
     1
 90
        6
176
     1
 90
        2
176
     1
 62
     7
176
     1
 90
        5
176
     1
 90
        0
176
     1
 90
        0
176
     1
290
     0
176
     1
 90
       13
176
     1
 40
0.0
176
     1
 90
        0
176
     1
290
     0
176
     1
290
     1
176
     1
290
     1
176
     1
290
     0
176
     1
290
     0
176
     1
290
     0
176
     1
290
     0
176
     1
290
     0
176
     1
290
     0
176
     1
 90
       50
176
     1
 40
0.0
176
     1
 40
1.0
176
     1
 90
        0
176
     1
 62
    18
420
        0
176
     1
 90
       50
176
     1
 90
        3
176
     1
 62
     5
420
      255
176
     1
290
     0
176
     1
 90
       50
176
     1
 90
       50
176
     1
 90
       50
176
     1
290
     0
176
     1
 90
       50
176
     1
 62
   256
176
     0
 40
1.0
176
     0
 90
        2
176
     1
  1
strokes_ogs.tif
176
     1
290
     0
176
     1
 40
1.0
176
     1
 40
1.0
176
     1
  0
VISUALSTYLE
  5
1A3
102
{ACAD_REACTORS
330
1A1
102
}
330
1A1
100
AcDbVisualStyle
  2
FlatWithEdges
 70
     1
177
     3
291
     1
 70
    58
 90
        2
176
     1
 90
        1
176
     1
 90
        1
176
     1
 90
        2
176
     1
 40
-0.6
176
     1
 40
30.0
176
     1
 62
     7
176
     1
 90
        1
176
     1
 90
        4
176
     1
 62
     7
176
     1
 62
   257
176
     1
 90
        1
176
     1
 90
        1
176
     1
 40
1.0
176
     1
 90
        0
176
     1
 62
   257
176
     1
 40
1.0
176
     1
 90
        1
176
     1
 90
        6
176
     1
 90
        2
176
     1
 62
     7
176
     1
 90
        5
176
     1
 90
        0
176
     1
 90
        0
176
     1
290
     0
176
     1
 90
       13
176
     1
 40
0.0
176
     1
 90
        0
176
     1
290
     0
176
     1
290
     1
176
     1
290
     1
176
     1
290
     0
176
     1
290
     0
176
     1
290
     0
176
     1
290
     0
176
     1
290
     0
176
     1
290
     0
176
     1
 90
       50
176
     1
 40
0.0
176
     1
 40
1.0
176
     1
 90
        0
176
     1
 62
    18
420
        0
176
     1
 90
       50
176
     1
 90
        3
176
     1
 62
     5
420
      255
176
     1
290
     0
176
     1
 90
       50
176
     1
 90
       50
176
     1
 90
       50
176
     1
290
     0
176
     1
 90
       50
176
     1
 62
   256
176
     0
 40
1.0
176
     0
 90
        2
176
     1
  1
strokes_ogs.tif
176
     1
290
     0
176
     1
 40
1.0
176
     1
 40
1.0
176
     1
  0
VISUALSTYLE
  5
1A4
102
{ACAD_REACTORS
330
1A1
102
}
330
1A1
100
AcDbVisualStyle
  2
Gouraud
 70
     2
177
     3
291
     1
 70
    58
 90
        2
176
     1
 90
        2
176
     1
 90
        1
176
     1
 90
        2
176
     1
 40
-0.6
176
     1
 40
30.0
176
     1
 62
     7
176
     1
 90
        0
176
     1
 90
        4
176
     1
 62
     7
176
     1
 62
   257
176
     1
 90
        1
176
     1
 90
        1
176
     1
 40
1.0
176
     1
 90
        0
176
     1
 62
     7
176
     1
 40
1.0
176
     1
 90
        1
176
     1
 90
        6
176
     1
 90
        2
176
     1
 62
     7
176
     1
 90
        5
176
     1
 90
        0
176
     1
 90
        0
176
     1
290
     0
176
     1
 90
       13
176
     1
 40
0.0
176
     1
 90
        0
176
     1
290
     0
176
     1
290
     1
176
     1
290
     1
176
     1
290
     0
176
     1
290
     0
176
     1
290
     0
176
     1
290
     0
176
     1
290
     0
176
     1
290
     0
176
     1
 90
       50
176
     1
 40
0.0
176
     1
 40
1.0
176
     1
 90
        0
176
     1
 62
    18
420
        0
176
     1
 90
       50
176
     1
 90
        3
176
     1
 62
     5
420
      255
176
     1
290
     0
176
     1
 90
       50
176
     1
 90
       50
176
     1
 90
       50
176
     1
290
     0
176
     1
 90
       50
176
     1
 62
   256
176
     0
 40
1.0
176
     0
 90
        2
176
     1
  1
strokes_ogs.tif
176
     1
290
     0
176
     1
 40
1.0
176
     1
 40
1.0
176
     1
  0
VISUALSTYLE
  5
1A5
102
{ACAD_REACTORS
330
1A1
102
}
330
1A1
100
AcDbVisualStyle
  2
GouraudWithEdges
 70
     3
177
     3
291
     1
 70
    58
 90
        2
176
     1
 90
        2
176
     1
 90
        1
176
     1
 90
        2
176
     1
 40
-0.6
176
     1
 40
30.0
176
     1
 62
     7
176
     1
 90
        1
176
     1
 90
        4
176
     1
 62
     7
176
     1
 62
   257
176
     1
 90
        1
176
     1
 90
        1
176
     1
 40
1.0
176
     1
 90
        0
176
     1
 62
   257
176
     1
 40
1.0
176
     1
 90
        1
176
     1
 90
        6
176
     1
 90
        2
176
     1
 62
     7
176
     1
 90
        5
176
     1
 90
        0
176
     1
 90
        0
176
     1
290
     0
176
     1
 90
       13
176
     1
 40
0.0
176
     1
 90
        0
176
     1
290
     0
176
     1
290
     1
176
     1
290
     1
176
     1
290
     0
176
     1
290
     0
176
     1
290
     0
176
     1
290
     0
176
     1
290
     0
176
     1
290
     0
176
     1
 90
       50
176
     1
 40
0.0
176
     1
 40
1.0
176
     1
 90
        0
176
     1
 62
    18
420
        0
176
     1
 90
       50
176
     1
 90
        3
176
     1
 62
     5
420
      255
176
     1
290
     0
176
     1
 90
       50
176
     1
 90
       50
176
     1
 90
       50
176
     1
290
     0
176
     1
 90
       50
176
     1
 62
   256
176
     0
 40
1.0
176
     0
 90
        2
176
     1
  1
strokes_ogs.tif
176
     1
290
     0
176
     1
 40
1.0
176
     1
 40
1.0
176
     1
  0
VISUALSTYLE
  5
1FF
102
{ACAD_REACTORS
330
1A1
102
}
330
1A1
100
AcDbVisualStyle
  2
Hidden
 70
     6
177
     3
291
     0
 70
    58
 90
        1
176
     1
 90
        2
176
     1
 90
        2
176
     1
 90
        0
176
     1
 40
0.6
176
     1
 40
30.0
176
     1
 62
     7
420
 16777215
176
     1
 90
        2
176
     1
 90
        2
176
     1
 62
     7
176
     1
 62
   257
176
     1
 90
        2
176
     1
 90
        1
176
     1
 40
40.0
176
     1
 90
        0
176
     1
 62
   257
176
     1
 40
1.0
176
     1
 90
        1
176
     1
 90
        6
176
     1
 90
        2
176
     1
 62
     7
176
     1
 90
        3
176
     1
 90
        0
176
     1
 90
        0
176
     1
290
     0
176
     1
 90
        1
176
     1
 40
0.0
176
     1
 90
        0
176
     1
290
     0
176
     1
290
     1
176
     1
290
     1
176
     1
290
     0
176
     1
290
     0
176
     1
290
     0
176
     1
290
     0
176
     1
290
     0
176
     1
290
     0
176
     1
 90
       50
176
     1
 40
0.0
176
     1
 40
1.0
176
     1
 90
        0
176
     1
 62
    18
420
        0
176
     1
 90
       50
176
     1
 90
        3
176
     1
 62
     5
420
      255
176
     1
290
     0
176
     1
 90
       50
176
     1
 90
       50
176
     1
 90
       50
176
     1
290
     0
176
     1
 90
       50
176
     1
 62
   256
176
     0
 40
1.0
176
     0
 90
        2
176
     1
  1
strokes_ogs.tif
176
     1
290
     0
176
     1
 40
1.0
176
     1
 40
1.0
176
     1
  0
VISUALSTYLE
  5
200
102
{ACAD_REACTORS
330
1A1
102
}
330
1A1
100
AcDbVisualStyle
  2
JitterOff
 70
    20
177
     3
291
     1
 70
    58
 90
        2
176
     0
 90
        2
176
     0
 90
        0
176
     0
 90
        0
176
     0
 40
0.6
176
     0
 40
30.0
176
     0
 62
     7
420
 16777215
176
     0
 90
        1
176
     0
 90
        4
176
     0
 62
     7
176
     0
 62
   257
176
     0
 90
        1
176
     0
 90
        1
176
     0
 40
1.0
176
     0
 90
       10
176
     2
 62
     7
176
     0
 40
1.0
176
     0
 90
        1
176
     0
 90
        6
176
     0
 90
        2
176
     0
 62
     7
176
     0
 90
        5
176
     0
 90
        0
176
     0
 90
        0
176
     0
290
     0
176
     0
 90
        1
176
     0
 40
0.0
176
     0
 90
        0
176
     0
290
     0
176
     0
290
     1
176
     0
290
     1
176
     0
290
     0
176
     0
290
     0
176
     0
290
     0
176
     0
290
     0
176
     0
290
     0
176
     0
290
     0
176
     0
 90
       50
176
     0
 40
0.0
176
     0
 40
1.0
176
     0
 90
        0
176
     0
 62
    18
420
        0
176
     0
 90
       50
176
     0
 90
        3
176
     0
 62
     5
420
      255
176
     0
290
     0
176
     0
 90
       50
176
     0
 90
       50
176
     0
 90
       50
176
     0
290
     0
176
     0
 90
       50
176
     0
 62
   256
176
     0
 40
1.0
176
     0
 90
        2
176
     0
  1
strokes_ogs.tif
176
     0
290
     0
176
     0
 40
1.0
176
     0
 40
1.0
176
     0
  0
VISUALSTYLE
  5
1AF
102
{ACAD_REACTORS
330
1A1
102
}
330
1A1
100
AcDbVisualStyle
  2
Linepattern
 70
    14
177
     3
291
     1
 70
    58
 90
        2
176
     1
 90
        2
176
     1
 90
        0
176
     1
 90
        0
176
     1
 40
-0.6
176
     1
 40
-30.0
176
     1
 62
     7
176
     1
 90
        1
176
     1
 90
        4
176
     1
 62
     7
176
     1
 62
   257
176
     1
 90
        7
176
     1
 90
        7
176
     1
 40
1.0
176
     1
 90
        8
176
     1
 62
     7
176
     1
 40
1.0
176
     1
 90
        1
176
     1
 90
        6
176
     1
 90
        2
176
     1
 62
     7
176
     1
 90
        5
176
     1
 90
        0
176
     1
 90
        0
176
     1
290
     0
176
     1
 90
        1
176
     1
 40
0.0
176
     1
 90
        0
176
     1
290
     0
176
     1
290
     1
176
     1
290
     1
176
     1
290
     0
176
     1
290
     0
176
     1
290
     0
176
     1
290
     0
176
     1
290
     0
176
     1
290
     0
176
     1
 90
       50
176
     1
 40
0.0
176
     1
 40
1.0
176
     1
 90
        0
176
     1
 62
    18
420
        0
176
     1
 90
       50
176
     1
 90
        3
176
     1
 62
     5
420
      255
176
     1
290
     0
176
     1
 90
       50
176
     1
 90
       50
176
     1
 90
       50
176
     1
290
     0
176
     1
 90
       50
176
     1
 62
   256
176
     0
 40
1.0
176
     0
 90
        2
176
     1
  1
strokes_ogs.tif
176
     1
290
     0
176
     1
 40
1.0
176
     1
 40
1.0
176
     1
  0
VISUALSTYLE
  5
201
102
{ACAD_REACTORS
330
1A1
102
}
330
1A1
100
AcDbVisualStyle
  2
OverhangOff
 70
    21
177
     3
291
     1
 70
    58
 90
        2
176
     0
 90
        2
176
     0
 90
        0
176
     0
 90
        0
176
     0
 40
0.6
176
     0
 40
30.0
176
     0
 62
     7
420
 16777215
176
     0
 90
        1
176
     0
 90
        4
176
     0
 62
     7
176
     0
 62
   257
176
     0
 90
        1
176
     0
 90
        1
176
     0
 40
1.0
176
     0
 90
        9
176
     2
 62
     7
176
     0
 40
1.0
176
     0
 90
        1
176
     0
 90
        6
176
     0
 90
        2
176
     0
 62
     7
176
     0
 90
        5
176
     0
 90
        0
176
     0
 90
        0
176
     0
290
     0
176
     0
 90
        1
176
     0
 40
0.0
176
     0
 90
        0
176
     0
290
     0
176
     0
290
     1
176
     0
290
     1
176
     0
290
     0
176
     0
290
     0
176
     0
290
     0
176
     0
290
     0
176
     0
290
     0
176
     0
290
     0
176
     0
 90
       50
176
     0
 40
0.0
176
     0
 40
1.0
176
     0
 90
        0
176
     0
 62
    18
420
        0
176
     0
 90
       50
176
     0
 90
        3
176
     0
 62
     5
420
      255
176
     0
290
     0
176
     0
 90
       50
176
     0
 90
       50
176
     0
 90
       50
176
     0
290
     0
176
     0
 90
       50
176
     0
 62
   256
176
     0
 40
1.0
176
     0
 90
        2
176
     0
  1
strokes_ogs.tif
176
     0
290
     0
176
     0
 40
1.0
176
     0
 40
1.0
176
     0
  0
VISUALSTYLE
  5
1AA
102
{ACAD_REACTORS
330
1A1
102
}
330
1A1
100
AcDbVisualStyle
  2
Realistic
 70
     8
177
     3
291
     0
 70
    58
 90
        2
176
     1
 90
        2
176
     1
 90
        0
176
     1
 90
        0
176
     1
 40
-0.6
176
     1
 40
-30.0
176
     1
 62
     7
176
     1
 90
        1
176
     1
 90
        0
176
     1
 62
     7
176
     1
 62
   257
176
     1
 90
        1
176
     1
 90
        1
176
     1
 40
1.0
176
     1
 90
        8
176
     1
 62
     8
176
     1
 40
1.0
176
     1
 90
        1
176
     1
 90
        6
176
     1
 90
        2
176
     1
 62
     7
176
     1
 90
        5
176
     1
 90
        0
176
     1
 90
        0
176
     1
290
     0
176
     1
 90
       13
176
     1
 40
0.0
176
     1
 90
        0
176
     1
290
     0
176
     1
290
     1
176
     1
290
     1
176
     1
290
     0
176
     1
290
     0
176
     1
290
     0
176
     1
290
     0
176
     1
290
     0
176
     1
290
     0
176
     1
 90
       50
176
     1
 40
0.0
176
     1
 40
1.0
176
     1
 90
        0
176
     1
 62
    18
420
        0
176
     1
 90
       50
176
     1
 90
        3
176
     1
 62
     5
420
      255
176
     1
290
     0
176
     1
 90
       50
176
     1
 90
       50
176
     1
 90
       50
176
     1
290
     0
176
     1
 90
       50
176
     1
 62
   256
176
     0
 40
1.0
176
     0
 90
        2
176
     1
  1
strokes_ogs.tif
176
     1
290
     0
176
     1
 40
1.0
176
     1
 40
1.0
176
     1
  0
VISUALSTYLE
  5
207
102
{ACAD_REACTORS
330
1A1
102
}
330
1A1
100
AcDbVisualStyle
  2
Shaded
 70
    27
177
     3
291
     0
 70
    58
 90
        2
176
     1
 90
        2
176
     1
 90
        1
176
     1
 90
        2
176
     1
 40
0.6
176
     1
 40
30.0
176
     1
 62
     7
420
 16777215
176
     1
 90
        0
176
     1
 90
        4
176
     1
 62
     7
176
     1
 62
   257
176
     1
 90
        1
176
     1
 90
        1
176
     1
 40
1.0
176
     1
 90
        8
176
     1
 62
   257
176
     1
 40
1.0
176
     1
 90
        1
176
     1
 90
        6
176
     1
 90
        2
176
     1
 62
     8
420
  7895160
176
     1
 90
        3
176
     1
 90
        0
176
     1
 90
        0
176
     1
290
     0
176
     1
 90
        5
176
     1
 40
0.0
176
     1
 90
        0
176
     1
290
     0
176
     1
290
     1
176
     1
290
     1
176
     1
290
     0
176
     1
290
     0
176
     1
290
     0
176
     1
290
     0
176
     1
290
     0
176
     1
290
     0
176
     1
 90
       50
176
     1
 40
0.0
176
     1
 40
1.0
176
     1
 90
        0
176
     1
 62
    18
420
        0
176
     1
 90
       50
176
     1
 90
        3
176
     1
 62
     5
420
      255
176
     1
290
     0
176
     1
 90
       50
176
     1
 90
       50
176
     1
 90
       50
176
     1
290
     0
176
     1
 90
       50
176
     1
 62
   256
176
     0
 40
1.0
176
     0
 90
        2
176
     1
  1
strokes_ogs.tif
176
     1
290
     0
176
     1
 40
1.0
176
     1
 40
1.0
176
     1
  0
VISUALSTYLE
  5
206
102
{ACAD_REACTORS
330
1A1
102
}
330
1A1
100
AcDbVisualStyle
  2
Shaded with edges
 70
    26
177
     3
291
     0
 70
    58
 90
        2
176
     1
 90
        2
176
     1
 90
        1
176
     1
 90
        2
176
     1
 40
0.6
176
     1
 40
30.0
176
     1
 62
     7
420
 16777215
176
     1
 90
        1
176
     1
 90
       10
176
     1
 62
     7
176
     1
 62
   257
176
     1
 90
        2
176
     1
 90
        1
176
     1
 40
1.0
176
     1
 90
        8
176
     1
 62
   257
176
     1
 40
1.0
176
     1
 90
        1
176
     1
 90
        6
176
     1
 90
        2
176
     1
 62
     7
176
     1
 90
        3
176
     1
 90
        0
176
     1
 90
        0
176
     1
290
     0
176
     1
 90
        5
176
     1
 40
0.0
176
     1
 90
        0
176
     1
290
     0
176
     1
290
     1
176
     1
290
     1
176
     1
290
     0
176
     1
290
     0
176
     1
290
     0
176
     1
290
     0
176
     1
290
     0
176
     1
290
     0
176
     1
 90
       50
176
     1
 40
0.0
176
     1
 40
1.0
176
     1
 90
        0
176
     1
 62
    18
420
        0
176
     1
 90
       50
176
     1
 90
        3
176
     1
 62
     5
420
      255
176
     1
290
     0
176
     1
 90
       50
176
     1
 90
       50
176
     1
 90
       50
176
     1
290
     0
176
     1
 90
       50
176
     1
 62
   256
176
     0
 40
1.0
176
     0
 90
        2
176
     1
  1
strokes_ogs.tif
176
     1
290
     0
176
     1
 40
1.0
176
     1
 40
1.0
176
     1
  0
VISUALSTYLE
  5
203
102
{ACAD_REACTORS
330
1A1
102
}
330
1A1
100
AcDbVisualStyle
  2
Shades of Gray
 70
    23
177
     3
291
     0
 70
    58
 90
        2
176
     1
 90
        2
176
     1
 90
        3
176
     1
 90
        0
176
     1
 40
0.6
176
     1
 40
30.0
176
     1
 62
     7
420
 16777215
176
     1
 90
        2
176
     1
 90
        2
176
     1
 62
     7
176
     1
 62
     7
176
     1
 90
        1
176
     1
 90
        1
176
     1
 40
40.0
176
     1
 90
        8
176
     1
 62
     7
176
     1
 40
1.0
176
     1
 90
        1
176
     1
 90
        6
176
     1
 90
        2
176
     1
 62
     7
176
     1
 90
        3
176
     1
 90
        0
176
     1
 90
        0
176
     1
290
     0
176
     1
 90
        1
176
     1
 40
0.0
176
     1
 90
        0
176
     1
290
     0
176
     1
290
     1
176
     1
290
     1
176
     1
290
     0
176
     1
290
     0
176
     1
290
     0
176
     1
290
     0
176
     1
290
     0
176
     1
290
     0
176
     1
 90
       50
176
     1
 40
0.0
176
     1
 40
1.0
176
     1
 90
        0
176
     1
 62
    18
420
        0
176
     1
 90
       50
176
     1
 90
        3
176
     1
 62
     5
420
      255
176
     1
290
     0
176
     1
 90
       50
176
     1
 90
       50
176
     1
 90
       50
176
     1
290
     0
176
     1
 90
       50
176
     1
 62
   256
176
     0
 40
1.0
176
     0
 90
        2
176
     1
  1
strokes_ogs.tif
176
     1
290
     0
176
     1
 40
1.0
176
     1
 40
1.0
176
     1
  0
VISUALSTYLE
  5
204
102
{ACAD_REACTORS
330
1A1
102
}
330
1A1
100
AcDbVisualStyle
  2
Sketchy
 70
    24
177
     3
291
     0
 70
    58
 90
        1
176
     1
 90
        2
176
     1
 90
        2
176
     1
 90
        0
176
     1
 40
0.6
176
     1
 40
30.0
176
     1
 62
     7
420
 16777215
176
     1
 90
        2
176
     1
 90
        2
176
     1
 62
     7
176
     1
 62
     7
176
     1
 90
        1
176
     1
 90
        1
176
     1
 40
40.0
176
     1
 90
       11
176
     1
 62
     7
176
     1
 40
1.0
176
     1
 90
        1
176
     1
 90
        6
176
     1
 90
        2
176
     1
 62
     7
176
     1
 90
        6
176
     1
 90
        0
176
     1
 90
        0
176
     1
290
     0
176
     1
 90
        1
176
     1
 40
0.0
176
     1
 90
        0
176
     1
290
     0
176
     1
290
     1
176
     1
290
     1
176
     1
290
     0
176
     1
290
     0
176
     1
290
     0
176
     1
290
     0
176
     1
290
     0
176
     1
290
     0
176
     1
 90
       50
176
     1
 40
0.0
176
     1
 40
1.0
176
     1
 90
        0
176
     1
 62
    18
420
        0
176
     1
 90
       50
176
     1
 90
        3
176
     1
 62
     5
420
      255
176
     1
290
     0
176
     1
 90
       50
176
     1
 90
       50
176
     1
 90
       50
176
     1
290
     0
176
     1
 90
       50
176
     1
 62
   256
176
     0
 40
1.0
176
     0
 90
        2
176
     1
  1
strokes_ogs.tif
176
     1
290
     0
176
     1
 40
1.0
176
     1
 40
1.0
176
     1
  0
VISUALSTYLE
  5
1AE
102
{ACAD_REACTORS
330
1A1
102
}
330
1A1
100
AcDbVisualStyle
  2
Thicken
 70
    13
177
     3
291
     1
 70
    58
 90
        2
176
     1
 90
        2
176
     1
 90
        0
176
     1
 90
        0
176
     1
 40
-0.6
176
     1
 40
-30.0
176
     1
 62
     7
176
     1
 90
        1
176
     1
 90
        4
176
     1
 62
     7
176
     1
 62
   257
176
     1
 90
        1
176
     1
 90
        1
176
     1
 40
1.0
176
     1
 90
       12
176
     1
 62
     7
176
     1
 40
1.0
176
     1
 90
        1
176
     1
 90
        6
176
     1
 90
        2
176
     1
 62
     7
176
     1
 90
        5
176
     1
 90
        0
176
     1
 90
        0
176
     1
290
     0
176
     1
 90
        1
176
     1
 40
0.0
176
     1
 90
        0
176
     1
290
     0
176
     1
290
     1
176
     1
290
     1
176
     1
290
     0
176
     1
290
     0
176
     1
290
     0
176
     1
290
     0
176
     1
290
     0
176
     1
290
     0
176
     1
 90
       50
176
     1
 40
0.0
176
     1
 40
1.0
176
     1
 90
        0
176
     1
 62
    18
420
        0
176
     1
 90
       50
176
     1
 90
        3
176
     1
 62
     5
420
      255
176
     1
290
     0
176
     1
 90
       50
176
     1
 90
       50
176
     1
 90
       50
176
     1
290
     0
176
     1
 90
       50
176
     1
 62
   256
176
     0
 40
1.0
176
     0
 90
        2
176
     1
  1
strokes_ogs.tif
176
     1
290
     0
176
     1
 40
1.0
176
     1
 40
1.0
176
     1
  0
VISUALSTYLE
  5
1FE
102
{ACAD_REACTORS
330
1A1
102
}
330
1A1
100
AcDbVisualStyle
  2
Wireframe
 70
     5
177
     3
291
     0
 70
    58
 90
        0
176
     1
 90
        2
176
     1
 90
        0
176
     1
 90
        0
176
     1
 40
0.6
176
     1
 40
30.0
176
     1
 62
     7
420
 16777215
176
     1
 90
        1
176
     1
 90
        4
176
     1
 62
     7
176
     1
 62
   257
176
     1
 90
        1
176
     1
 90
        1
176
     1
 40
1.0
176
     1
 90
        0
176
     1
 62
   257
176
     1
 40
1.0
176
     1
 90
        1
176
     1
 90
        6
176
     1
 90
        2
176
     1
 62
     7
176
     1
 90
        3
176
     1
 90
        0
176
     1
 90
        0
176
     1
290
     0
176
     1
 90
        1
176
     1
 40
0.0
176
     1
 90
        0
176
     1
290
     0
176
     1
290
     1
176
     1
290
     1
176
     1
290
     0
176
     1
290
     0
176
     1
290
     0
176
     1
290
     0
176
     1
290
     0
176
     1
290
     0
176
     1
 90
       50
176
     1
 40
0.0
176
     1
 40
1.0
176
     1
 90
        0
176
     1
 62
    18
420
        0
176
     1
 90
       50
176
     1
 90
        3
176
     1
 62
     5
420
      255
176
     1
290
     0
176
     1
 90
       50
176
     1
 90
       50
176
     1
 90
       50
176
     1
290
     0
176
     1
 90
       50
176
     1
 62
   256
176
     0
 40
1.0
176
     0
 90
        2
176
     1
  1
strokes_ogs.tif
176
     1
290
     0
176
     1
 40
1.0
176
     1
 40
1.0
176
     1
  0
VISUALSTYLE
  5
205
102
{ACAD_REACTORS
330
1A1
102
}
330
1A1
100
AcDbVisualStyle
  2
X-Ray
 70
    25
177
     3
291
     0
 70
    58
 90
        2
176
     1
 90
        2
176
     1
 90
        1
176
     1
 90
        1
176
     1
 40
0.5
176
     1
 40
30.0
176
     1
 62
     7
420
 16777215
176
     1
 90
        1
176
     1
 90
        0
176
     1
 62
     7
176
     1
 62
   257
176
     1
 90
        1
176
     1
 90
        1
176
     1
 40
1.0
176
     1
 90
        8
176
     1
 62
     7
176
     1
 40
1.0
176
     1
 90
        1
176
     1
 90
        6
176
     1
 90
        2
176
     1
 62
     7
176
     1
 90
        3
176
     1
 90
        0
176
     1
 90
        0
176
     1
290
     0
176
     1
 90
       13
176
     1
 40
0.0
176
     1
 90
        0
176
     1
290
     0
176
     1
290
     1
176
     1
290
     1
176
     1
290
     0
176
     1
290
     0
176
     1
290
     0
176
     1
290
     0
176
     1
290
     0
176
     1
290
     0
176
     1
 90
       50
176
     1
 40
0.0
176
     1
 40
1.0
176
     1
 90
        0
176
     1
 62
    18
420
        0
176
     1
 90
       50
176
     1
 90
        3
176
     1
 62
     5
420
      255
176
     1
290
     0
176
     1
 90
       50
176
     1
 90
       50
176
     1
 90
       50
176
     1
290
     0
176
     1
 90
       50
176
     1
 62
   256
176
     0
 40
1.0
176
     0
 90
        2
176
     1
  1
strokes_ogs.tif
176
     1
290
     0
176
     1
 40
1.0
176
     1
 40
1.0
176
     1
  0
DICTIONARYVAR
  5
216
102
{ACAD_REACTORS
330
1BD
102
}
330
1BD
100
DictionaryVariables
280
     0
  1
1:1
  0
DICTIONARYVAR
  5
218
102
{ACAD_REACTORS
330
1BD
102
}
330
1BD
100
DictionaryVariables
280
     0
  1
Standard
  0
DICTIONARYVAR
  5
217
102
{ACAD_REACTORS
330
1BD
102
}
330
1BD
100
DictionaryVariables
280
     0
  1
Standard
  0
DICTIONARYVAR
  5
1C1
102
{ACAD_REACTORS
330
1BD
102
}
330
1BD
100
DictionaryVariables
280
     0
  1
2
  0
DICTIONARYVAR
  5
1C2
102
{ACAD_REACTORS
330
1BD
102
}
330
1BD
100
DictionaryVariables
280
     0
  1
1
  0
DICTIONARYVAR
  5
1C0
102
{ACAD_REACTORS
330
1BD
102
}
330
1BD
100
DictionaryVariables
280
     0
  1
0
  0
DICTIONARY
  5
293
330
209
100
AcDbDictionary
280
     1
281
     1
  3
ACAD_ROUNDTRIP_2008_TABLESTYLE_CELLSTYLEMAP
360
294
  0
CELLSTYLEMAP
  5
294
102
{ACAD_REACTORS
330
293
102
}
330
293
100
AcDbCellStyleMap
 90
        3
300
CELLSTYLE
  1
TABLEFORMAT_BEGIN
 90
        5
170
     1
 91
        0
 92
    32768
 62
   257
 93
        1
300
CONTENTFORMAT
  1
CONTENTFORMAT_BEGIN
 90
        0
 91
        0
 92
        4
 93
        0
300

 40
0.0
140
1.0
 94
        5
 62
     0
340
11
144
0.25
309
CONTENTFORMAT_END
171
     1
301
MARGIN
  1
CELLMARGIN_BEGIN
 40
0.06
 40
0.06
 40
0.06
 40
0.06
 40
0.06
 40
0.06
309
CELLMARGIN_END
 94
        6
 95
        1
302
GRIDFORMAT
  1
GRIDFORMAT_BEGIN
 90
        0
 91
        1
 62
     0
 92
       -2
340
14
 93
        0
 40
0.045
309
GRIDFORMAT_END
 95
        2
302
GRIDFORMAT
  1
GRIDFORMAT_BEGIN
 90
        0
 91
        1
 62
     0
 92
       -2
340
14
 93
        0
 40
0.045
309
GRIDFORMAT_END
 95
        4
302
GRIDFORMAT
  1
GRIDFORMAT_BEGIN
 90
        0
 91
        1
 62
     0
 92
       -2
340
14
 93
        0
 40
0.045
309
GRIDFORMAT_END
 95
        8
302
GRIDFORMAT
  1
GRIDFORMAT_BEGIN
 90
        0
 91
        1
 62
     0
 92
       -2
340
14
 93
        0
 40
0.045
309
GRIDFORMAT_END
 95
       16
302
GRIDFORMAT
  1
GRIDFORMAT_BEGIN
 90
        0
 91
        1
 62
     0
 92
       -2
340
14
 93
        0
 40
0.045
309
GRIDFORMAT_END
 95
       32
302
GRIDFORMAT
  1
GRIDFORMAT_BEGIN
 90
        0
 91
        1
 62
     0
 92
       -2
340
14
 93
        0
 40
0.045
309
GRIDFORMAT_END
309
TABLEFORMAT_END
  1
CELLSTYLE_BEGIN
 90
        1
 91
        1
300
_TITLE
309
CELLSTYLE_END
300
CELLSTYLE
  1
TABLEFORMAT_BEGIN
 90
        5
170
     1
 91
        0
 92
        0
 62
   257
 93
        1
300
CONTENTFORMAT
  1
CONTENTFORMAT_BEGIN
 90
        0
 91
        0
 92
        4
 93
        0
300

 40
0.0
140
1.0
 94
        5
 62
     0
340
11
144
0.18
309
CONTENTFORMAT_END
171
     1
301
MARGIN
  1
CELLMARGIN_BEGIN
 40
0.06
 40
0.06
 40
0.06
 40
0.06
 40
0.06
 40
0.06
309
CELLMARGIN_END
 94
        6
 95
        1
302
GRIDFORMAT
  1
GRIDFORMAT_BEGIN
 90
        0
 91
        1
 62
     0
 92
       -2
340
14
 93
        0
 40
0.045
309
GRIDFORMAT_END
 95
        2
302
GRIDFORMAT
  1
GRIDFORMAT_BEGIN
 90
        0
 91
        1
 62
     0
 92
       -2
340
14
 93
        0
 40
0.045
309
GRIDFORMAT_END
 95
        4
302
GRIDFORMAT
  1
GRIDFORMAT_BEGIN
 90
        0
 91
        1
 62
     0
 92
       -2
340
14
 93
        0
 40
0.045
309
GRIDFORMAT_END
 95
        8
302
GRIDFORMAT
  1
GRIDFORMAT_BEGIN
 90
        0
 91
        1
 62
     0
 92
       -2
340
14
 93
        0
 40
0.045
309
GRIDFORMAT_END
 95
       16
302
GRIDFORMAT
  1
GRIDFORMAT_BEGIN
 90
        0
 91
        1
 62
     0
 92
       -2
340
14
 93
        0
 40
0.045
309
GRIDFORMAT_END
 95
       32
302
GRIDFORMAT
  1
GRIDFORMAT_BEGIN
 90
        0
 91
        1
 62
     0
 92
       -2
340
14
 93
        0
 40
0.045
309
GRIDFORMAT_END
309
TABLEFORMAT_END
  1
CELLSTYLE_BEGIN
 90
        2
 91
        1
300
_HEADER
309
CELLSTYLE_END
300
CELLSTYLE
  1
TABLEFORMAT_BEGIN
 90
        5
170
     1
 91
        0
 92
        0
 62
   257
 93
        1
300
CONTENTFORMAT
  1
CONTENTFORMAT_BEGIN
 90
        0
 91
        0
 92
        4
 93
        0
300

 40
0.0
140
1.0
 94
        2
 62
     0
340
11
144
0.18
309
CONTENTFORMAT_END
171
     1
301
MARGIN
  1
CELLMARGIN_BEGIN
 40
0.06
 40
0.06
 40
0.06
 40
0.06
 40
0.06
 40
0.06
309
CELLMARGIN_END
 94
        6
 95
        1
302
GRIDFORMAT
  1
GRIDFORMAT_BEGIN
 90
        0
 91
        1
 62
     0
 92
       -2
340
14
 93
        0
 40
0.045
309
GRIDFORMAT_END
 95
        2
302
GRIDFORMAT
  1
GRIDFORMAT_BEGIN
 90
        0
 91
        1
 62
     0
 92
       -2
340
14
 93
        0
 40
0.045
309
GRIDFORMAT_END
 95
        4
302
GRIDFORMAT
  1
GRIDFORMAT_BEGIN
 90
        0
 91
        1
 62
     0
 92
       -2
340
14
 93
        0
 40
0.045
309
GRIDFORMAT_END
 95
        8
302
GRIDFORMAT
  1
GRIDFORMAT_BEGIN
 90
        0
 91
        1
 62
     0
 92
       -2
340
14
 93
        0
 40
0.045
309
GRIDFORMAT_END
 95
       16
302
GRIDFORMAT
  1
GRIDFORMAT_BEGIN
 90
        0
 91
        1
 62
     0
 92
       -2
340
14
 93
        0
 40
0.045
309
GRIDFORMAT_END
 95
       32
302
GRIDFORMAT
  1
GRIDFORMAT_BEGIN
 90
        0
 91
        1
 62
     0
 92
       -2
340
14
 93
        0
 40
0.045
309
GRIDFORMAT_END
309
TABLEFORMAT_END
  1
CELLSTYLE_BEGIN
 90
        3
 91
        2
300
_DATA
309
CELLSTYLE_END
  0
ENDSEC
  0
EOF
