  0
SECTION
  2
HEADER
  9
$ACADVER
  1
AC1027
  9
$ACADMAINTVER
 70
   105
  9
$DWGCODEPAGE
  3
ANSI_1252
  9
$REQUIREDVERSIONS
160
                 0
  9
$LASTSAVEDBY
  1
matthias.ochs
  9
$INSBASE
 10
0.0
 20
0.0
 30
0.0
  9
$EXTMIN
 10
-109.2675769940976
 20
-73.90008756524489
 30
0.0
  9
$EXTMAX
 10
126.2479488102752
 20
77.50275045185197
 30
0.0
  9
$LIMMIN
 10
-89.136447482
 20
-51.121686457
  9
$LIMMAX
 10
105.216825922
 20
45.951700069
  9
$ORTHOMODE
 70
     0
  9
$REGENMODE
 70
     1
  9
$FILLMODE
 70
     1
  9
$QTEXTMODE
 70
     0
  9
$MIRRTEXT
 70
     1
  9
$LTSCALE
 40
1.0
  9
$ATTMODE
 70
     1
  9
$TEXTSIZE
 40
0.2
  9
$TRACEWID
 40
0.05
  9
$TEXTSTYLE
  7
Standard
  9
$CLAYER
  8
SK3
  9
$CELTYPE
  6
ByLayer
  9
$CECOLOR
 62
   256
  9
$CELTSCALE
 40
1.0
  9
$DISPSILH
 70
     0
  9
$DIMSCALE
 40
1.0
  9
$DIMASZ
 40
0.18
  9
$DIMEXO
 40
0.0625
  9
$DIMDLI
 40
0.38
  9
$DIMRND
 40
0.0
  9
$DIMDLE
 40
0.0
  9
$DIMEXE
 40
0.18
  9
$DIMTP
 40
0.0
  9
$DIMTM
 40
0.0
  9
$DIMTXT
 40
0.18
  9
$DIMCEN
 40
0.09
  9
$DIMTSZ
 40
0.0
  9
$DIMTOL
 70
     0
  9
$DIMLIM
 70
     0
  9
$DIMTIH
 70
     1
  9
$DIMTOH
 70
     1
  9
$DIMSE1
 70
     0
  9
$DIMSE2
 70
     0
  9
$DIMTAD
 70
     0
  9
$DIMZIN
 70
     0
  9
$DIMBLK
  1

  9
$DIMASO
 70
     1
  9
$DIMSHO
 70
     1
  9
$DIMPOST
  1

  9
$DIMAPOST
  1

  9
$DIMALT
 70
     0
  9
$DIMALTD
 70
     2
  9
$DIMALTF
 40
25.4
  9
$DIMLFAC
 40
1.0
  9
$DIMTOFL
 70
     0
  9
$DIMTVP
 40
0.0
  9
$DIMTIX
 70
     0
  9
$DIMSOXD
 70
     0
  9
$DIMSAH
 70
     0
  9
$DIMBLK1
  1

  9
$DIMBLK2
  1

  9
$DIMSTYLE
  2
Standard
  9
$DIMCLRD
 70
     0
  9
$DIMCLRE
 70
     0
  9
$DIMCLRT
 70
     0
  9
$DIMTFAC
 40
1.0
  9
$DIMGAP
 40
0.09
  9
$DIMJUST
 70
     0
  9
$DIMSD1
 70
     0
  9
$DIMSD2
 70
     0
  9
$DIMTOLJ
 70
     1
  9
$DIMTZIN
 70
     0
  9
$DIMALTZ
 70
     0
  9
$DIMALTTZ
 70
     0
  9
$DIMUPT
 70
     0
  9
$DIMDEC
 70
     4
  9
$DIMTDEC
 70
     4
  9
$DIMALTU
 70
     2
  9
$DIMALTTD
 70
     2
  9
$DIMTXSTY
  7
Standard
  9
$DIMAUNIT
 70
     0
  9
$DIMADEC
 70
     0
  9
$DIMALTRND
 40
0.0
  9
$DIMAZIN
 70
     0
  9
$DIMDSEP
 70
    46
  9
$DIMATFIT
 70
     3
  9
$DIMFRAC
 70
     0
  9
$DIMLDRBLK
  1

  9
$DIMLUNIT
 70
     2
  9
$DIMLWD
 70
    -2
  9
$DIMLWE
 70
    -2
  9
$DIMTMOVE
 70
     2
  9
$DIMFXL
 40
1.0
  9
$DIMFXLON
 70
     0
  9
$DIMJOGANG
 40
0.7853981633974483
  9
$DIMTFILL
 70
     0
  9
$DIMTFILLCLR
 70
     0
  9
$DIMARCSYM
 70
     0
  9
$DIMLTYPE
  6

  9
$DIMLTEX1
  6

  9
$DIMLTEX2
  6

  9
$DIMTXTDIRECTION
 70
     0
  9
$LUNITS
 70
     2
  9
$LUPREC
 70
     4
  9
$SKETCHINC
 40
0.1
  9
$FILLETRAD
 40
0.5
  9
$AUNITS
 70
     2
  9
$AUPREC
 70
     0
  9
$MENU
  1
.
  9
$ELEVATION
 40
0.0
  9
$PELEVATION
 40
0.0
  9
$THICKNESS
 40
0.0
  9
$LIMCHECK
 70
     0
  9
$CHAMFERA
 40
0.5
  9
$CHAMFERB
 40
0.5
  9
$CHAMFERC
 40
1.0
  9
$CHAMFERD
 40
0.0
  9
$SKPOLY
 70
     0
  9
$TDCREATE
 40
2458327.549355313
  9
$TDUCREATE
 40
2458327.466021979
  9
$TDUPDATE
 40
2458591.395962026
  9
$TDUUPDATE
 40
2458591.312628692
  9
$TDINDWG
 40
0.0141068634
  9
$TDUSRTIMER
 40
0.0102209259
  9
$USRTIMER
 70
     1
  9
$ANGBASE
 50
0.0
  9
$ANGDIR
 70
     0
  9
$PDMODE
 70
     0
  9
$PDSIZE
 40
0.0
  9
$PLINEWID
 40
0.0
  9
$SPLFRAME
 70
     0
  9
$SPLINETYPE
 70
     6
  9
$SPLINESEGS
 70
     8
  9
$HANDSEED
  5
32F
  9
$SURFTAB1
 70
     6
  9
$SURFTAB2
 70
     6
  9
$SURFTYPE
 70
     6
  9
$SURFU
 70
     6
  9
$SURFV
 70
     6
  9
$UCSBASE
  2

  9
$UCSNAME
  2

  9
$UCSORG
 10
0.0
 20
0.0
 30
0.0
  9
$UCSXDIR
 10
1.0
 20
0.0
 30
0.0
  9
$UCSYDIR
 10
0.0
 20
1.0
 30
0.0
  9
$UCSORTHOREF
  2

  9
$UCSORTHOVIEW
 70
     0
  9
$UCSORGTOP
 10
0.0
 20
0.0
 30
0.0
  9
$UCSORGBOTTOM
 10
0.0
 20
0.0
 30
0.0
  9
$UCSORGLEFT
 10
0.0
 20
0.0
 30
0.0
  9
$UCSORGRIGHT
 10
0.0
 20
0.0
 30
0.0
  9
$UCSORGFRONT
 10
0.0
 20
0.0
 30
0.0
  9
$UCSORGBACK
 10
0.0
 20
0.0
 30
0.0
  9
$PUCSBASE
  2

  9
$PUCSNAME
  2

  9
$PUCSORG
 10
0.0
 20
0.0
 30
0.0
  9
$PUCSXDIR
 10
1.0
 20
0.0
 30
0.0
  9
$PUCSYDIR
 10
0.0
 20
1.0
 30
0.0
  9
$PUCSORTHOREF
  2

  9
$PUCSORTHOVIEW
 70
     0
  9
$PUCSORGTOP
 10
0.0
 20
0.0
 30
0.0
  9
$PUCSORGBOTTOM
 10
0.0
 20
0.0
 30
0.0
  9
$PUCSORGLEFT
 10
0.0
 20
0.0
 30
0.0
  9
$PUCSORGRIGHT
 10
0.0
 20
0.0
 30
0.0
  9
$PUCSORGFRONT
 10
0.0
 20
0.0
 30
0.0
  9
$PUCSORGBACK
 10
0.0
 20
0.0
 30
0.0
  9
$USERI1
 70
     0
  9
$USERI2
 70
     0
  9
$USERI3
 70
     0
  9
$USERI4
 70
     0
  9
$USERI5
 70
     0
  9
$USERR1
 40
0.0
  9
$USERR2
 40
0.0
  9
$USERR3
 40
0.0
  9
$USERR4
 40
0.0
  9
$USERR5
 40
0.0
  9
$WORLDVIEW
 70
     1
  9
$SHADEDGE
 70
     3
  9
$SHADEDIF
 70
    70
  9
$TILEMODE
 70
     1
  9
$MAXACTVP
 70
    64
  9
$PINSBASE
 10
0.0
 20
0.0
 30
0.0
  9
$PLIMCHECK
 70
     0
  9
$PEXTMIN
 10
1.000000000000000E+20
 20
1.000000000000000E+20
 30
1.000000000000000E+20
  9
$PEXTMAX
 10
-1.000000000000000E+20
 20
-1.000000000000000E+20
 30
-1.000000000000000E+20
  9
$PLIMMIN
 10
0.0
 20
0.0
  9
$PLIMMAX
 10
0.0
 20
0.0
  9
$UNITMODE
 70
     0
  9
$VISRETAIN
 70
     1
  9
$PLINEGEN
 70
     0
  9
$PSLTSCALE
 70
     1
  9
$TREEDEPTH
 70
  3020
  9
$CMLSTYLE
  2
Standard
  9
$CMLJUST
 70
     0
  9
$CMLSCALE
 40
1.0
  9
$PROXYGRAPHICS
 70
     1
  9
$MEASUREMENT
 70
     0
  9
$CELWEIGHT
370
    -1
  9
$ENDCAPS
280
     0
  9
$JOINSTYLE
280
     0
  9
$LWDISPLAY
290
     0
  9
$INSUNITS
 70
     0
  9
$HYPERLINKBASE
  1

  9
$STYLESHEET
  1

  9
$XEDIT
290
     1
  9
$CEPSNTYPE
380
     0
  9
$PSTYLEMODE
290
     1
  9
$FINGERPRINTGUID
  2
{AA052459-C429-4A94-8E88-773FD3620872}
  9
$VERSIONGUID
  2
{FAEB1C32-E019-11D5-929B-00C0DF256EC4}
  9
$EXTNAMES
290
     1
  9
$PSVPSCALE
 40
0.0
  9
$OLESTARTUP
290
     0
  9
$SORTENTS
280
   127
  9
$INDEXCTL
280
     0
  9
$HIDETEXT
280
     1
  9
$XCLIPFRAME
280
     2
  9
$HALOGAP
280
     0
  9
$OBSCOLOR
 70
   257
  9
$OBSLTYPE
280
     0
  9
$INTERSECTIONDISPLAY
280
     0
  9
$INTERSECTIONCOLOR
 70
   257
  9
$DIMASSOC
280
     2
  9
$PROJECTNAME
  1

  9
$CAMERADISPLAY
290
     0
  9
$LENSLENGTH
 40
50.0
  9
$CAMERAHEIGHT
 40
0.0
  9
$STEPSPERSEC
 40
2.0
  9
$STEPSIZE
 40
6.0
  9
$3DDWFPREC
 40
2.0
  9
$PSOLWIDTH
 40
0.25
  9
$PSOLHEIGHT
 40
4.0
  9
$LOFTANG1
 40
1.570796326794897
  9
$LOFTANG2
 40
1.570796326794897
  9
$LOFTMAG1
 40
0.0
  9
$LOFTMAG2
 40
0.0
  9
$LOFTPARAM
 70
     7
  9
$LOFTNORMALS
280
     1
  9
$LATITUDE
 40
37.795
  9
$LONGITUDE
 40
-122.394
  9
$NORTHDIRECTION
 40
0.0
  9
$TIMEZONE
 70
 -8000
  9
$LIGHTGLYPHDISPLAY
280
     1
  9
$TILEMODELIGHTSYNCH
280
     1
  9
$SOLIDHIST
280
     0
  9
$SHOWHIST
280
     1
  9
$DWFFRAME
280
     2
  9
$DGNFRAME
280
     2
  9
$REALWORLDSCALE
290
     1
  9
$INTERFERECOLOR
 62
   256
  9
$CSHADOW
280
     0
  9
$SHADOWPLANELOCATION
 40
0.0
  0
ENDSEC
  0
SECTION
  2
CLASSES
  0
CLASS
  1
ACDBDICTIONARYWDFLT
  2
AcDbDictionaryWithDefault
  3
ObjectDBX Classes
 90
        0
 91
        5
280
     0
281
     0
  0
CLASS
  1
SCALE
  2
AcDbScale
  3
ObjectDBX Classes
 90
     1153
 91
        5
280
     0
281
     0
  0
CLASS
  1
VISUALSTYLE
  2
AcDbVisualStyle
  3
ObjectDBX Classes
 90
     4095
 91
        5
280
     0
281
     0
  0
CLASS
  1
MATERIAL
  2
AcDbMaterial
  3
ObjectDBX Classes
 90
     1153
 91
        5
280
     0
281
     0
  0
CLASS
  1
DICTIONARYVAR
  2
AcDbDictionaryVar
  3
ObjectDBX Classes
 90
        0
 91
        4
280
     0
281
     0
  0
CLASS
  1
ACDBPLACEHOLDER
  2
AcDbPlaceHolder
  3
ObjectDBX Classes
 90
        0
 91
        1
280
     0
281
     0
  0
CLASS
  1
LAYOUT
  2
AcDbLayout
  3
ObjectDBX Classes
 90
        0
 91
        1
280
     0
281
     0
  0
CLASS
  1
TABLESTYLE
  2
AcDbTableStyle
  3
ObjectDBX Classes
 90
     4095
 91
        5
280
     0
281
     0
  0
CLASS
  1
MLEADERSTYLE
  2
AcDbMLeaderStyle
  3
ACDB_MLEADERSTYLE_CLASS
 90
     4095
 91
        5
280
     0
281
     0
  0
CLASS
  1
SUN
  2
AcDbSun
  3
SCENEOE
 90
     1153
 91
        5
280
     0
281
     0
  0
CLASS
  1
CELLSTYLEMAP
  2
AcDbCellStyleMap
  3
ObjectDBX Classes
 90
     1152
 91
        4
280
     0
281
     0
  0
ENDSEC
  0
SECTION
  2
TABLES
  0
TABLE
  2
VPORT
  5
8
330
0
100
AcDbSymbolTable
 70
     1
  0
VPORT
  5
185
330
8
100
AcDbSymbolTableRecord
100
AcDbViewportTableRecord
  2
*Active
 70
     0
 10
0.0
 20
0.0
 11
1.0
 21
1.0
 12
-19.79019033775027
 22
-20.1106370896736
 13
0.0
 23
0.0
 14
0.5
 24
0.5
 15
0.5
 25
0.5
 16
0.0
 26
0.0
 36
1.0
 17
0.0
 27
0.0
 37
0.0
 40
363.5461177279422
 41
1.978589420654912
 42
50.0
 43
0.0
 44
0.0
 50
0.0
 51
0.0
 71
    16
 72
   100
 73
     1
 74
     3
 75
     0
 76
     0
 77
     0
 78
     0
281
     0
 65
     1
110
0.0
120
0.0
130
0.0
111
1.0
121
0.0
131
0.0
112
0.0
122
1.0
132
0.0
 79
     0
146
0.0
348
1B6
 60
     3
 61
     5
292
     1
282
     1
141
0.0
142
0.0
 63
   256
361
23C
  0
ENDTAB
  0
TABLE
  2
LTYPE
  5
5
330
0
100
AcDbSymbolTable
 70
     8
  0
LTYPE
  5
14
330
5
100
AcDbSymbolTableRecord
100
AcDbLinetypeTableRecord
  2
ByBlock
 70
     0
  3

 72
    65
 73
     0
 40
0.0
  0
LTYPE
  5
15
330
5
100
AcDbSymbolTableRecord
100
AcDbLinetypeTableRecord
  2
ByLayer
 70
     0
  3

 72
    65
 73
     0
 40
0.0
  0
LTYPE
  5
16
330
5
100
AcDbSymbolTableRecord
100
AcDbLinetypeTableRecord
  2
Continuous
 70
     0
  3
Solid line
 72
    65
 73
     0
 40
0.0
  0
LTYPE
  5
20
330
5
100
AcDbSymbolTableRecord
100
AcDbLinetypeTableRecord
  2
PUNKT
 70
     0
  3
..............
 72
    65
 73
     2
 40
1.5
 49
0.7
 74
     0
 49
-0.8
 74
     0
  0
LTYPE
  5
21
330
5
100
AcDbSymbolTableRecord
100
AcDbLinetypeTableRecord
  2
GESTRICHELT
 70
     0
  3
-- -- -- -- --
 72
    65
 73
     7
 40
2.8
 49
0.9
 74
     0
 49
0.0
 74
     0
 49
0.9
 74
     0
 49
0.0
 74
     0
 49
0.2
 74
     0
 49
0.0
 74
     0
 49
-0.8
 74
     0
  0
LTYPE
  5
22
330
5
100
AcDbSymbolTableRecord
100
AcDbLinetypeTableRecord
  2
STRICHPUNKT
 70
     0
  3
--.--.--.--.--
 72
    65
 73
     4
 40
8.8
 49
5.5
 74
     0
 49
-1.3
 74
     0
 49
0.7
 74
     0
 49
-1.3
 74
     0
  0
LTYPE
  5
25
330
5
100
AcDbSymbolTableRecord
100
AcDbLinetypeTableRecord
  2
PHANTOM
 70
     0
  3
--..--..--..--
 72
    65
 73
     6
 40
14.2
 49
7.0
 74
     0
 49
-1.8
 74
     0
 49
0.9
 74
     0
 49
-1.8
 74
     0
 49
0.9
 74
     0
 49
-1.8
 74
     0
  0
LTYPE
  5
1FD
330
5
100
AcDbSymbolTableRecord
100
AcDbLinetypeTableRecord
  2
DASH
 70
     0
  3
DASH _ _ _ _ _
 72
    65
 73
     2
 40
0.75
 49
0.4
 74
     0
 49
-0.35
 74
     0
  0
LTYPE
  5
1FE
330
5
100
AcDbSymbolTableRecord
100
AcDbLinetypeTableRecord
  2
LONGDASH_DASH
 70
     0
  3
LONGDASH_DASH __ . __ . __
 72
    65
 73
     4
 40
0.85
 49
0.4
 74
     0
 49
-0.2
 74
     0
 49
0.05
 74
     0
 49
-0.2
 74
     0
  0
LTYPE
  5
1FF
330
5
100
AcDbSymbolTableRecord
100
AcDbLinetypeTableRecord
  2
LONGDASH_DASH_DASH
 70
     0
  3
LONGDASH_DASH_DASH __ . . __ . . __
 72
    65
 73
     6
 40
1.1
 49
0.4
 74
     0
 49
-0.2
 74
     0
 49
0.05
 74
     0
 49
-0.2
 74
     0
 49
0.05
 74
     0
 49
-0.2
 74
     0
  0
ENDTAB
  0
TABLE
  2
LAYER
  5
2
102
{ACAD_XDICTIONARY
360
21C
102
}
330
0
100
AcDbSymbolTable
 70
    15
  0
LAYER
  5
1C7
330
2
100
AcDbSymbolTableRecord
100
AcDbLayerTableRecord
  2
200
 70
     0
 62
    -2
  6
Continuous
370
    50
390
F
347
1C5
348
0
  0
LAYER
  5
200
330
2
100
AcDbSymbolTableRecord
100
AcDbLayerTableRecord
  2
0
 70
     0
 62
     1
  6
Continuous
370
    -3
390
F
347
1C5
348
0
  0
LAYER
  5
201
330
2
100
AcDbSymbolTableRecord
100
AcDbLayerTableRecord
  2
1
 70
     0
 62
     4
  6
Continuous
370
    50
390
F
347
1C5
348
0
  0
LAYER
  5
202
330
2
100
AcDbSymbolTableRecord
100
AcDbLayerTableRecord
  2
2
 70
     0
 62
     7
  6
Continuous
370
    25
390
F
347
1C5
348
0
  0
LAYER
  5
203
330
2
100
AcDbSymbolTableRecord
100
AcDbLayerTableRecord
  2
3
 70
     0
 62
     1
  6
DASH
370
    35
390
F
347
1C5
348
0
  0
LAYER
  5
204
330
2
100
AcDbSymbolTableRecord
100
AcDbLayerTableRecord
  2
4
 70
     0
 62
     2
  6
LONGDASH_DASH
370
    25
390
F
347
1C5
348
0
  0
LAYER
  5
205
330
2
100
AcDbSymbolTableRecord
100
AcDbLayerTableRecord
  2
6
 70
     0
 62
     5
  6
Continuous
370
    -3
390
F
347
1C5
348
0
  0
LAYER
  5
206
330
2
100
AcDbSymbolTableRecord
100
AcDbLayerTableRecord
  2
CUT
 70
     0
 62
     1
  6
Continuous
370
    25
390
F
347
1C5
348
0
  0
LAYER
  5
207
330
2
100
AcDbSymbolTableRecord
100
AcDbLayerTableRecord
  2
NOCUT
 70
     0
 62
     7
  6
Continuous
370
    25
390
F
347
1C5
348
0
  0
LAYER
  5
208
330
2
100
AcDbSymbolTableRecord
100
AcDbLayerTableRecord
  2
SK1
 70
     0
 62
     4
  6
Continuous
370
    50
390
F
347
1C5
348
0
  0
LAYER
  5
209
330
2
100
AcDbSymbolTableRecord
100
AcDbLayerTableRecord
  2
SK2
 70
     0
 62
     7
  6
Continuous
370
    25
390
F
347
1C5
348
0
  0
LAYER
  5
20A
330
2
100
AcDbSymbolTableRecord
100
AcDbLayerTableRecord
  2
SK3
 70
     0
 62
     1
  6
DASH
370
    35
390
F
347
1C5
348
0
  0
LAYER
  5
20B
330
2
100
AcDbSymbolTableRecord
100
AcDbLayerTableRecord
  2
SK4
 70
     0
 62
     2
  6
LONGDASH_DASH
370
    25
390
F
347
1C5
348
0
  0
LAYER
  5
20C
330
2
100
AcDbSymbolTableRecord
100
AcDbLayerTableRecord
  2
SK6
 70
     0
 62
     5
  6
Continuous
370
    -3
390
F
347
1C5
348
0
  0
LAYER
  5
20D
330
2
100
AcDbSymbolTableRecord
100
AcDbLayerTableRecord
  2
INFTOTAL
 70
     0
 62
     9
  6
Continuous
370
    18
390
F
347
1C5
348
0
  0
ENDTAB
  0
TABLE
  2
STYLE
  5
3
330
0
100
AcDbSymbolTable
 70
     2
  0
STYLE
  5
11
330
3
100
AcDbSymbolTableRecord
100
AcDbTextStyleTableRecord
  2
Standard
 70
     0
 40
0.0
 41
1.0
 50
0.0
 71
     0
 42
0.2
  3
txt
  4

  0
STYLE
  5
1C6
330
3
100
AcDbSymbolTableRecord
100
AcDbTextStyleTableRecord
  2
BMG_Text
 70
     0
 40
3.5
 41
1.0
 50
0.0
 71
     0
 42
0.2
  3
monos.ttf
  4

1001
ACAD
1000
Monospac821 BT
1071
       49
  0
ENDTAB
  0
TABLE
  2
VIEW
  5
6
330
0
100
AcDbSymbolTable
 70
     0
  0
ENDTAB
  0
TABLE
  2
UCS
  5
7
330
0
100
AcDbSymbolTable
 70
     0
  0
ENDTAB
  0
TABLE
  2
APPID
  5
9
330
0
100
AcDbSymbolTable
 70
     1
  0
APPID
  5
12
330
9
100
AcDbSymbolTableRecord
100
AcDbRegAppTableRecord
  2
ACAD
 70
     0
  0
ENDTAB
  0
TABLE
  2
DIMSTYLE
  5
A
330
0
100
AcDbSymbolTable
 70
     1
100
AcDbDimStyleTable
  0
DIMSTYLE
105
28
330
A
100
AcDbSymbolTableRecord
100
AcDbDimStyleTableRecord
  2
Standard
 70
     0
178
     0
340
11
  0
ENDTAB
  0
TABLE
  2
BLOCK_RECORD
  5
1
330
0
100
AcDbSymbolTable
 70
     0
  0
BLOCK_RECORD
  5
1D
330
1
100
AcDbSymbolTableRecord
100
AcDbBlockTableRecord
  2
*Model_Space
340
1E
 70
     0
280
     1
281
     0
  0
BLOCK_RECORD
  5
1B
330
1
100
AcDbSymbolTableRecord
100
AcDbBlockTableRecord
  2
*Paper_Space
340
1C
 70
     0
280
     1
281
     0
  0
ENDTAB
  0
ENDSEC
  0
SECTION
  2
BLOCKS
  0
BLOCK
  5
1AF
330
1D
100
AcDbEntity
  8
0
100
AcDbBlockBegin
  2
*Model_Space
 70
     0
 10
0.0
 20
0.0
 30
0.0
  3
*Model_Space
  1

  0
ENDBLK
  5
1B0
330
1D
100
AcDbEntity
  8
0
100
AcDbBlockEnd
  0
BLOCK
  5
1AD
330
1B
100
AcDbEntity
 67
     1
  8
0
100
AcDbBlockBegin
  2
*Paper_Space
 70
     0
 10
0.0
 20
0.0
 30
0.0
  3
*Paper_Space
  1

  0
ENDBLK
  5
1AE
330
1B
100
AcDbEntity
 67
     1
  8
0
100
AcDbBlockEnd
  0
ENDSEC
  0
SECTION
  2
ENTITIES
  0
ARC
  5
29
330
1D
100
AcDbEntity
  8
SK3
100
AcDbCircle
 10
-67.25
 20
-9.5045
 30
0.0
 40
1.0
100
AcDbArc
 50
90.0
 51
180.0
  0
LINE
  5
2A
330
1D
100
AcDbEntity
  8
SK3
100
AcDbLine
 10
-67.25
 20
-8.5045
 30
0.0
 11
-59.8
 21
-8.5045
 31
0.0
  0
LINE
  5
2B
330
1D
100
AcDbEntity
  8
SK3
100
AcDbLine
 10
-59.8
 20
-8.5045
 30
0.0
 11
-58.793209345
 21
-6.75
 31
0.0
  0
LINE
  5
2C
330
1D
100
AcDbEntity
  8
SK3
100
AcDbLine
 10
-58.793209345
 20
-6.75
 30
0.0
 11
-17.442924671
 21
-6.75
 31
0.0
  0
LINE
  5
2D
330
1D
100
AcDbEntity
  8
SK3
100
AcDbLine
 10
-17.442924671
 20
-6.75
 30
0.0
 11
-17.442924671
 21
6.75
 31
0.0
  0
LINE
  5
2E
330
1D
100
AcDbEntity
  8
SK3
100
AcDbLine
 10
-17.442924671
 20
6.75
 30
0.0
 11
-58.793209345
 21
6.75
 31
0.0
  0
LINE
  5
2F
330
1D
100
AcDbEntity
  8
SK3
100
AcDbLine
 10
-58.793209345
 20
6.75
 30
0.0
 11
-59.8
 21
8.5045
 31
0.0
  0
LINE
  5
30
330
1D
100
AcDbEntity
  8
SK3
100
AcDbLine
 10
-59.8
 20
8.5045
 30
0.0
 11
-67.25
 21
8.5045
 31
0.0
  0
ARC
  5
31
330
1D
100
AcDbEntity
  8
SK3
100
AcDbCircle
 10
-67.25
 20
9.5045
 30
0.0
 40
1.0
100
AcDbArc
 50
180.0
 51
270.0
  0
LINE
  5
32
330
1D
100
AcDbEntity
  8
SK1
100
AcDbLine
 10
-68.25
 20
9.5045
 30
0.0
 11
-68.25
 21
11.450296123
 31
0.0
  0
ARC
  5
33
330
1D
100
AcDbEntity
  8
SK1
100
AcDbCircle
 10
-67.3
 20
11.450296123
 30
0.0
 40
0.95
100
AcDbArc
 50
98.297209692
 51
180.0
  0
LINE
  5
34
330
1D
100
AcDbEntity
  8
SK1
100
AcDbLine
 10
-67.43709261
 20
12.3903523
 30
0.0
 11
0.0
 21
22.225006104
 31
0.0
  0
LINE
  5
35
330
1D
100
AcDbEntity
  8
1
100
AcDbLine
 10
0.0
 20
22.225006104
 30
0.0
 11
0.153559494
 21
22.071446609
 31
0.0
  0
ARC
  5
36
330
1D
100
AcDbEntity
  8
1
100
AcDbCircle
 10
0.507112885
 20
22.425
 30
0.0
 40
0.5
100
AcDbArc
 50
225.0
 51
270.0
  0
LINE
  5
37
330
1D
100
AcDbEntity
  8
1
100
AcDbLine
 10
0.507112885
 20
21.925
 30
0.0
 11
0.797
 21
21.925
 31
0.0
  0
ARC
  5
38
330
1D
100
AcDbEntity
  8
1
100
AcDbCircle
 10
0.797
 20
22.425
 30
0.0
 40
0.5
100
AcDbArc
 50
270.0
 51
293.578178478
  0
ARC
  5
39
330
1D
100
AcDbEntity
  8
1
100
AcDbCircle
 10
0.797
 20
-22.425
 30
0.0
 40
0.5
100
AcDbArc
 50
66.421821522
 51
90.0
  0
LINE
  5
3A
330
1D
100
AcDbEntity
  8
1
100
AcDbLine
 10
0.797
 20
-21.925
 30
0.0
 11
0.507112885
 21
-21.925
 31
0.0
  0
ARC
  5
3B
330
1D
100
AcDbEntity
  8
1
100
AcDbCircle
 10
0.507112885
 20
-22.425
 30
0.0
 40
0.5
100
AcDbArc
 50
90.0
 51
135.0
  0
LINE
  5
3C
330
1D
100
AcDbEntity
  8
1
100
AcDbLine
 10
0.153559494
 20
-22.071446609
 30
0.0
 11
0.0
 21
-22.225006104
 31
0.0
  0
LINE
  5
3D
330
1D
100
AcDbEntity
  8
SK1
100
AcDbLine
 10
0.0
 20
-22.225006104
 30
0.0
 11
0.0
 21
22.225006104
 31
0.0
  0
LINE
  5
3E
330
1D
100
AcDbEntity
  8
1
100
AcDbLine
 10
9.175006104
 20
18.5
 30
0.0
 11
9.175006104
 21
-28.98426054
 31
0.0
  0
LINE
  5
3F
330
1D
100
AcDbEntity
  8
1
100
AcDbLine
 10
9.175006104
 20
-28.98426054
 30
0.0
 11
7.578181671
 21
-31.75
 31
0.0
  0
LINE
  5
40
330
1D
100
AcDbEntity
  8
1
100
AcDbLine
 10
7.578181671
 20
-31.75
 30
0.0
 11
1.497
 21
-31.75
 31
0.0
  0
LINE
  5
41
330
1D
100
AcDbEntity
  8
1
100
AcDbLine
 10
1.497
 20
-31.75
 30
0.0
 11
0.997
 21
-31.25
 31
0.0
  0
LINE
  5
42
330
1D
100
AcDbEntity
  8
1
100
AcDbLine
 10
0.997
 20
-31.25
 30
0.0
 11
0.997
 21
31.25
 31
0.0
  0
LINE
  5
43
330
1D
100
AcDbEntity
  8
1
100
AcDbLine
 10
0.997
 20
31.25
 30
0.0
 11
1.497
 21
31.75
 31
0.0
  0
LINE
  5
44
330
1D
100
AcDbEntity
  8
1
100
AcDbLine
 10
1.497
 20
31.75
 30
0.0
 11
7.578181671
 21
31.75
 31
0.0
  0
LINE
  5
45
330
1D
100
AcDbEntity
  8
1
100
AcDbLine
 10
7.578181671
 20
31.75
 30
0.0
 11
9.175006104
 21
28.98426054
 31
0.0
  0
LINE
  5
46
330
1D
100
AcDbEntity
  8
1
100
AcDbLine
 10
9.175006104
 20
28.98426054
 30
0.0
 11
9.175006104
 21
21.324036749
 31
0.0
  0
LINE
  5
47
330
1D
100
AcDbEntity
  8
1
100
AcDbLine
 10
9.175006104
 20
21.324036749
 30
0.0
 11
13.025006104
 21
21.324035463
 31
0.0
  0
LINE
  5
48
330
1D
100
AcDbEntity
  8
1
100
AcDbLine
 10
13.025006104
 20
21.324035463
 30
0.0
 11
13.025006104
 21
28.984200546
 31
0.0
  0
LINE
  5
49
330
1D
100
AcDbEntity
  8
1
100
AcDbLine
 10
13.025006104
 20
28.984200546
 30
0.0
 11
14.621845969
 21
31.75
 31
0.0
  0
LINE
  5
4A
330
1D
100
AcDbEntity
  8
1
100
AcDbLine
 10
14.621845969
 20
31.75
 30
0.0
 11
18.550006104
 21
31.75
 31
0.0
  0
LINE
  5
4B
330
1D
100
AcDbEntity
  8
1
100
AcDbLine
 10
18.550006104
 20
31.75
 30
0.0
 11
19.050006104
 21
31.25
 31
0.0
  0
LINE
  5
4C
330
1D
100
AcDbEntity
  8
1
100
AcDbLine
 10
19.050006104
 20
31.25
 30
0.0
 11
19.050006104
 21
-8.095
 31
0.0
  0
LINE
  5
4D
330
1D
100
AcDbEntity
  8
1
100
AcDbLine
 10
19.050006104
 20
-8.095
 30
0.0
 11
19.050006104
 21
-31.25
 31
0.0
  0
LINE
  5
4E
330
1D
100
AcDbEntity
  8
1
100
AcDbLine
 10
19.050006104
 20
-31.25
 30
0.0
 11
18.550006104
 21
-31.75
 31
0.0
  0
LINE
  5
4F
330
1D
100
AcDbEntity
  8
1
100
AcDbLine
 10
18.550006104
 20
-31.75
 30
0.0
 11
14.621845969
 21
-31.75
 31
0.0
  0
LINE
  5
50
330
1D
100
AcDbEntity
  8
1
100
AcDbLine
 10
14.621845969
 20
-31.75
 30
0.0
 11
13.025006104
 21
-28.984200546
 31
0.0
  0
LINE
  5
51
330
1D
100
AcDbEntity
  8
1
100
AcDbLine
 10
13.025006104
 20
-28.984200546
 30
0.0
 11
13.025006104
 21
18.5
 31
0.0
  0
LINE
  5
52
330
1D
100
AcDbEntity
  8
1
100
AcDbLine
 10
56.798109455
 20
31.75
 30
0.0
 11
56.798109455
 21
-31.75
 31
0.0
  0
LINE
  5
53
330
1D
100
AcDbEntity
  8
1
100
AcDbLine
 10
56.798109455
 20
-31.75
 30
0.0
 11
36.000001524
 21
-31.75
 31
0.0
  0
LINE
  5
54
330
1D
100
AcDbEntity
  8
1
100
AcDbLine
 10
36.000001524
 20
-31.75
 30
0.0
 11
35.000001524
 21
-30.75
 31
0.0
  0
LINE
  5
55
330
1D
100
AcDbEntity
  8
1
100
AcDbLine
 10
35.000001524
 20
-30.75
 30
0.0
 11
35.000001524
 21
30.75
 31
0.0
  0
LINE
  5
56
330
1D
100
AcDbEntity
  8
1
100
AcDbLine
 10
35.000001524
 20
30.75
 30
0.0
 11
36.000001524
 21
31.75
 31
0.0
  0
LINE
  5
57
330
1D
100
AcDbEntity
  8
1
100
AcDbLine
 10
36.000001524
 20
31.75
 30
0.0
 11
36.000001524
 21
-31.75
 31
0.0
  0
ARC
  5
58
330
1D
100
AcDbEntity
  8
1
100
AcDbCircle
 10
12.525006104
 20
-28.500015259
 30
0.0
 40
0.5
100
AcDbArc
 50
0.0
 51
90.0
  0
LINE
  5
59
330
1D
100
AcDbEntity
  8
1
100
AcDbLine
 10
12.525006104
 20
-28.0
 30
0.0
 11
9.675006104
 21
-28.000015259
 31
0.0
  0
ARC
  5
5A
330
1D
100
AcDbEntity
  8
1
100
AcDbCircle
 10
9.675006104
 20
-28.500015259
 30
0.0
 40
0.5
100
AcDbArc
 50
90.0
 51
180.0
  0
ARC
  5
5B
330
1D
100
AcDbEntity
  8
1
100
AcDbCircle
 10
9.675006104
 20
28.5
 30
0.0
 40
0.5
100
AcDbArc
 50
180.0
 51
270.0
  0
LINE
  5
5C
330
1D
100
AcDbEntity
  8
1
100
AcDbLine
 10
9.675006104
 20
28.0
 30
0.0
 11
12.525006104
 21
28.0
 31
0.0
  0
ARC
  5
5D
330
1D
100
AcDbEntity
  8
1
100
AcDbCircle
 10
12.525006104
 20
28.5
 30
0.0
 40
0.5
100
AcDbArc
 50
270.0
 51
0.0
  0
ARC
  5
5E
330
1D
100
AcDbEntity
  8
1
100
AcDbCircle
 10
20.050030254
 20
25.624938526
 30
0.0
 40
1.0
100
AcDbArc
 50
180.000251586
 51
270.0
  0
LINE
  5
5F
330
1D
100
AcDbEntity
  8
1
100
AcDbLine
 10
20.050030254
 20
24.625
 30
0.0
 11
34.000001512
 21
24.625
 31
0.0
  0
ARC
  5
60
330
1D
100
AcDbEntity
  8
1
100
AcDbCircle
 10
34.000001524
 20
25.625
 30
0.0
 40
1.0
100
AcDbArc
 50
269.999999317
 51
0.0
  0
LINE
  5
61
330
1D
100
AcDbEntity
  8
SK6
100
AcDbLine
 10
-24.788359327
 20
-34.419986589
 30
0.0
 11
-24.788359327
 21
-50.169986589
 31
0.0
  0
LINE
  5
62
330
1D
100
AcDbEntity
  8
SK6
100
AcDbLine
 10
-24.788359327
 20
-50.169986589
 30
0.0
 11
-22.088366197
 21
-50.169986589
 31
0.0
  0
LINE
  5
63
330
1D
100
AcDbEntity
  8
SK6
100
AcDbLine
 10
-22.088366197
 20
-50.169986589
 30
0.0
 11
-22.088354747
 21
-43.329974999
 31
0.0
  0
LINE
  5
64
330
1D
100
AcDbEntity
  8
SK6
100
AcDbLine
 10
-22.088354747
 20
-43.329974999
 30
0.0
 11
-20.738352611
 21
-43.329976789
 31
0.0
  0
ARC
  5
65
330
1D
100
AcDbEntity
  8
SK6
100
AcDbCircle
 10
-20.738352467
 20
-44.409976829
 30
0.0
 40
1.08000004
100
AcDbArc
 50
359.999190416
 51
90.00000763
  0
LINE
  5
66
330
1D
100
AcDbEntity
  8
SK6
100
AcDbLine
 10
-19.658373517
 20
-44.409992089
 30
0.0
 11
-19.658384487
 21
-48.639980179
 31
0.0
  0
ARC
  5
67
330
1D
100
AcDbEntity
  8
SK6
100
AcDbCircle
 10
-17.138384507
 20
-48.639980179
 30
0.0
 40
2.51999998
100
AcDbArc
 50
180.0
 51
217.383168056
  0
LINE
  5
68
330
1D
100
AcDbEntity
  8
SK6
100
AcDbLine
 10
-19.140768687
 20
-50.169986589
 30
0.0
 11
-16.620768237
 21
-50.169986589
 31
0.0
  0
LINE
  5
69
330
1D
100
AcDbEntity
  8
SK6
100
AcDbLine
 10
-16.620768237
 20
-50.169986589
 30
0.0
 11
-16.530749961
 21
-50.169980011
 31
0.0
  0
ARC
  5
6A
330
1D
100
AcDbEntity
  8
SK6
100
AcDbCircle
 10
-14.528376267
 20
-48.639980179
 30
0.0
 40
2.51999998
100
AcDbArc
 50
180.009193697
 51
217.38319397
  0
LINE
  5
6B
330
1D
100
AcDbEntity
  8
SK6
100
AcDbLine
 10
-17.048376727
 20
-48.640384539
 30
0.0
 11
-17.048994159
 21
-44.646768496
 31
0.0
  0
ARC
  5
6C
330
1D
100
AcDbEntity
  8
SK6
100
AcDbCircle
 10
-19.568354297
 20
-44.589984759
 30
0.0
 40
2.51999998
100
AcDbArc
 50
358.70883179
 51
93.066711104
  0
ARC
  5
6D
330
1D
100
AcDbEntity
  8
SK6
100
AcDbCircle
 10
-19.838366197
 20
-39.549983849
 30
0.0
 40
2.51999998
100
AcDbArc
 50
273.06652832
 51
359.999826522
  0
LINE
  5
6E
330
1D
100
AcDbEntity
  8
SK6
100
AcDbLine
 10
-17.318354297
 20
-39.549991479
 30
0.0
 11
-17.318366217
 21
-36.939990869
 31
0.0
  0
ARC
  5
6F
330
1D
100
AcDbEntity
  8
SK6
100
AcDbCircle
 10
-19.838366197
 20
-36.939990869
 30
0.0
 40
2.51999998
100
AcDbArc
 50
0.0
 51
90.0
  0
LINE
  5
70
330
1D
100
AcDbEntity
  8
SK6
100
AcDbLine
 10
-19.838366197
 20
-34.419971329
 30
0.0
 11
-24.788370777
 21
-34.419971329
 31
0.0
  0
LINE
  5
71
330
1D
100
AcDbEntity
  8
SK1
100
AcDbLine
 10
0.0
 20
-22.225006104
 30
0.0
 11
-67.437092443
 21
-12.390364576
 31
0.0
  0
ARC
  5
72
330
1D
100
AcDbEntity
  8
SK1
100
AcDbCircle
 10
-67.3
 20
-11.450308374
 30
0.0
 40
0.95
100
AcDbArc
 50
180.0
 51
261.7028005
  0
LINE
  5
73
330
1D
100
AcDbEntity
  8
SK1
100
AcDbLine
 10
-68.25
 20
-11.450308374
 30
0.0
 11
-68.25
 21
9.5045
 31
0.0
  0
LINE
  5
74
330
1D
100
AcDbEntity
  8
1
100
AcDbLine
 10
57.000123594
 20
31.4
 30
0.0
 11
57.000123594
 21
-31.4
 31
0.0
  0
LINE
  5
75
330
1D
100
AcDbEntity
  8
1
100
AcDbLine
 10
57.000123594
 20
-31.4
 30
0.0
 11
58.59997711
 21
-31.4
 31
0.0
  0
LINE
  5
76
330
1D
100
AcDbEntity
  8
1
100
AcDbLine
 10
58.59997711
 20
-31.4
 30
0.0
 11
59.000001524
 21
-31.000006104
 31
0.0
  0
LINE
  5
77
330
1D
100
AcDbEntity
  8
1
100
AcDbLine
 10
59.000001524
 20
-31.000006104
 30
0.0
 11
59.000001524
 21
-30.25
 31
0.0
  0
LINE
  5
78
330
1D
100
AcDbEntity
  8
1
100
AcDbLine
 10
59.000001524
 20
-30.25
 30
0.0
 11
59.000001524
 21
31.000006104
 31
0.0
  0
LINE
  5
79
330
1D
100
AcDbEntity
  8
1
100
AcDbLine
 10
59.000001524
 20
31.000006104
 30
0.0
 11
58.59997711
 21
31.4
 31
0.0
  0
LINE
  5
7A
330
1D
100
AcDbEntity
  8
1
100
AcDbLine
 10
58.59997711
 20
31.4
 30
0.0
 11
57.000123594
 21
31.4
 31
0.0
  0
LINE
  5
7B
330
1D
100
AcDbEntity
  8
1
100
AcDbLine
 10
57.000123594
 20
31.4
 30
0.0
 11
56.798109455
 21
31.75
 31
0.0
  0
LINE
  5
7C
330
1D
100
AcDbEntity
  8
1
100
AcDbLine
 10
56.798109455
 20
31.75
 30
0.0
 11
36.000001524
 21
31.75
 31
0.0
  0
LINE
  5
7D
330
1D
100
AcDbEntity
  8
SK6
100
AcDbLine
 10
-22.088366197
 20
-41.169986589
 30
0.0
 11
-20.468363447
 21
-41.169977479
 31
0.0
  0
ARC
  5
7E
330
1D
100
AcDbEntity
  8
SK6
100
AcDbCircle
 10
-20.468363447
 20
-40.269977439
 30
0.0
 40
0.90000004
100
AcDbArc
 50
270.0
 51
359.9995142640001
  0
LINE
  5
7F
330
1D
100
AcDbEntity
  8
SK6
100
AcDbLine
 10
-19.568354297
 20
-40.269985069
 30
0.0
 11
-19.568363407
 21
-37.389987809
 31
0.0
  0
ARC
  5
80
330
1D
100
AcDbEntity
  8
SK6
100
AcDbCircle
 10
-20.468363447
 20
-37.389987809
 30
0.0
 40
0.90000004
100
AcDbArc
 50
0.0
 51
90.0
  0
LINE
  5
81
330
1D
100
AcDbEntity
  8
SK6
100
AcDbLine
 10
-20.468363447
 20
-36.489993919
 30
0.0
 11
-22.088366197
 21
-36.489993919
 31
0.0
  0
LINE
  5
82
330
1D
100
AcDbEntity
  8
SK6
100
AcDbLine
 10
-22.088366197
 20
-36.489993919
 30
0.0
 11
-22.088366197
 21
-41.169986589
 31
0.0
  0
LINE
  5
83
330
1D
100
AcDbEntity
  8
3
100
AcDbLine
 10
17.000001524
 20
16.5
 30
0.0
 11
14.39999542
 21
16.5
 31
0.0
  0
ARC
  5
84
330
1D
100
AcDbEntity
  8
3
100
AcDbCircle
 10
14.39999542
 20
16.100006104
 30
0.0
 40
0.399993896
100
AcDbArc
 50
90.0
 51
180.000000029
  0
LINE
  5
85
330
1D
100
AcDbEntity
  8
3
100
AcDbLine
 10
14.000001516
 20
16.100006103
 30
0.0
 11
14.000001516
 21
-16.100006104
 31
0.0
  0
ARC
  5
86
330
1D
100
AcDbEntity
  8
3
100
AcDbCircle
 10
14.39999542
 20
-16.100006104
 30
0.0
 40
0.399993905
100
AcDbArc
 50
180.0
 51
270.0
  0
LINE
  5
87
330
1D
100
AcDbEntity
  8
3
100
AcDbLine
 10
14.39999542
 20
-16.5
 30
0.0
 11
17.000001524
 21
-16.5
 31
0.0
  0
LINE
  5
88
330
1D
100
AcDbEntity
  8
SK3
100
AcDbLine
 10
-59.513925332
 20
-8.0
 30
0.0
 11
-36.250007629
 21
-8.0
 31
0.0
  0
LINE
  5
89
330
1D
100
AcDbEntity
  8
SK3
100
AcDbLine
 10
-36.250007629
 20
-8.0
 30
0.0
 11
-31.584938514
 21
-6.75
 31
0.0
  0
LINE
  5
8A
330
1D
100
AcDbEntity
  8
SK3
100
AcDbLine
 10
-5.732023623
 20
-13.0
 30
0.0
 11
-1.999998476
 21
-14.0
 31
0.0
  0
LINE
  5
8B
330
1D
100
AcDbEntity
  8
SK3
100
AcDbLine
 10
-1.999998476
 20
-14.0
 30
0.0
 11
-1.999998476
 21
14.0
 31
0.0
  0
LINE
  5
8C
330
1D
100
AcDbEntity
  8
3
100
AcDbLine
 10
0.0
 20
14.0
 30
0.0
 11
14.000001524
 21
14.0
 31
0.0
  0
LINE
  5
8D
330
1D
100
AcDbEntity
  8
SK3
100
AcDbLine
 10
-36.250007629
 20
-8.0
 30
0.0
 11
-36.250007629
 21
8.0
 31
0.0
  0
LINE
  5
8E
330
1D
100
AcDbEntity
  8
SK3
100
AcDbLine
 10
-36.250007629
 20
8.0
 30
0.0
 11
-31.584938514
 21
6.75
 31
0.0
  0
ARC
  5
8F
330
1D
100
AcDbEntity
  8
1
100
AcDbCircle
 10
20.050030254
 20
-25.624938526
 30
0.0
 40
1.0
100
AcDbArc
 50
90.0
 51
179.999748414
  0
LINE
  5
90
330
1D
100
AcDbEntity
  8
1
100
AcDbLine
 10
20.050030254
 20
-24.625
 30
0.0
 11
34.000001512
 21
-24.625
 31
0.0
  0
ARC
  5
91
330
1D
100
AcDbEntity
  8
1
100
AcDbCircle
 10
34.000001524
 20
-25.625
 30
0.0
 40
1.0
100
AcDbArc
 50
0.0
 51
90.000000683
  0
LINE
  5
92
330
1D
100
AcDbEntity
  8
SK6
100
AcDbLine
 10
-35.768370317
 20
-34.419971329
 30
0.0
 11
-35.768358867
 21
-36.489993919
 31
0.0
  0
LINE
  5
93
330
1D
100
AcDbEntity
  8
SK6
100
AcDbLine
 10
-35.768358867
 20
-36.489993919
 30
0.0
 11
-38.648356271
 21
-36.489972819
 31
0.0
  0
ARC
  5
94
330
1D
100
AcDbEntity
  8
SK6
100
AcDbCircle
 10
-38.648356127
 20
-37.569972859
 30
0.0
 40
1.08000004
100
AcDbArc
 50
90.00000763
 51
206.543420561
  0
LINE
  5
95
330
1D
100
AcDbEntity
  8
SK6
100
AcDbLine
 10
-39.614523577
 20
-38.052600729
 30
0.0
 11
-35.512958019
 21
-46.263407824
 31
0.0
  0
ARC
  5
96
330
1D
100
AcDbEntity
  8
SK6
100
AcDbCircle
 10
-37.928362537
 20
-47.469982019
 30
0.0
 40
2.70000005
100
AcDbArc
 50
269.999919149
 51
26.54364014
  0
LINE
  5
97
330
1D
100
AcDbEntity
  8
SK6
100
AcDbLine
 10
-37.928366347
 20
-50.169986589
 30
0.0
 11
-42.518370317
 21
-50.169986589
 31
0.0
  0
LINE
  5
98
330
1D
100
AcDbEntity
  8
SK6
100
AcDbLine
 10
-42.518370317
 20
-50.169986589
 30
0.0
 11
-42.518347427
 21
-48.099979269
 31
0.0
  0
LINE
  5
99
330
1D
100
AcDbEntity
  8
SK6
100
AcDbLine
 10
-42.518347427
 20
-48.099979269
 30
0.0
 11
-39.098349257
 21
-48.099977479
 31
0.0
  0
ARC
  5
9A
330
1D
100
AcDbEntity
  8
SK6
100
AcDbCircle
 10
-39.098349257
 20
-47.019977439
 30
0.0
 40
1.08000004
100
AcDbArc
 50
270.0
 51
26.544596906
  0
LINE
  5
9B
330
1D
100
AcDbEntity
  8
SK6
100
AcDbLine
 10
-38.132200877
 20
-46.537334309
 30
0.0
 11
-42.233769933
 21
-38.326543116
 31
0.0
  0
ARC
  5
9C
330
1D
100
AcDbEntity
  8
SK6
100
AcDbCircle
 10
-39.818365737
 20
-37.119968279
 30
0.0
 40
2.70000005
100
AcDbArc
 50
90.0
 51
206.5436554
  0
LINE
  5
9D
330
1D
100
AcDbEntity
  8
SK6
100
AcDbLine
 10
-39.818365737
 20
-34.419971329
 30
0.0
 11
-35.768362687
 21
-34.419971329
 31
0.0
  0
LINE
  5
9E
330
1D
100
AcDbEntity
  8
3
100
AcDbLine
 10
14.000001524
 20
13.0
 30
0.0
 11
0.0
 21
13.0
 31
0.0
  0
LINE
  5
9F
330
1D
100
AcDbEntity
  8
SK3
100
AcDbLine
 10
-15.999998476
 20
13.0
 30
0.0
 11
-17.442924671
 21
6.75
 31
0.0
  0
LINE
  5
A0
330
1D
100
AcDbEntity
  8
3
100
AcDbLine
 10
14.000001524
 20
-13.0
 30
0.0
 11
0.0
 21
-13.0
 31
0.0
  0
LINE
  5
A1
330
1D
100
AcDbEntity
  8
SK3
100
AcDbLine
 10
-15.999998476
 20
-13.0
 30
0.0
 11
-17.442924671
 21
-6.75
 31
0.0
  0
LINE
  5
A2
330
1D
100
AcDbEntity
  8
3
100
AcDbLine
 10
0.0
 20
-14.0
 30
0.0
 11
14.000001524
 21
-14.0
 31
0.0
  0
LINE
  5
A3
330
1D
100
AcDbEntity
  8
3
100
AcDbLine
 10
17.000001524
 20
18.25
 30
0.0
 11
22.000001524
 21
18.25
 31
0.0
  0
LINE
  5
A4
330
1D
100
AcDbEntity
  8
3
100
AcDbLine
 10
22.000001524
 20
18.25
 30
0.0
 11
22.000001524
 21
-18.25
 31
0.0
  0
LINE
  5
A5
330
1D
100
AcDbEntity
  8
3
100
AcDbLine
 10
22.000001524
 20
-18.25
 30
0.0
 11
17.000001524
 21
-18.25
 31
0.0
  0
LINE
  5
A6
330
1D
100
AcDbEntity
  8
3
100
AcDbLine
 10
17.000001524
 20
-18.25
 30
0.0
 11
17.000001524
 21
18.25
 31
0.0
  0
LINE
  5
A7
330
1D
100
AcDbEntity
  8
3
100
AcDbLine
 10
59.000001524
 20
-18.0
 30
0.0
 11
22.000001524
 21
-18.0
 31
0.0
  0
LINE
  5
A8
330
1D
100
AcDbEntity
  8
1
100
AcDbLine
 10
18.550006104
 20
31.75
 30
0.0
 11
18.550006104
 21
25.834091187
 31
0.0
  0
LINE
  5
A9
330
1D
100
AcDbEntity
  8
1
100
AcDbLine
 10
14.621845969
 20
31.75
 30
0.0
 11
14.621845969
 21
25.834091187
 31
0.0
  0
LINE
  5
AA
330
1D
100
AcDbEntity
  8
1
100
AcDbLine
 10
1.497
 20
31.75
 30
0.0
 11
1.497
 21
25.834091187
 31
0.0
  0
LINE
  5
AB
330
1D
100
AcDbEntity
  8
1
100
AcDbLine
 10
7.578181671
 20
31.75
 30
0.0
 11
7.578181671
 21
25.834091187
 31
0.0
  0
LINE
  5
AC
330
1D
100
AcDbEntity
  8
1
100
AcDbLine
 10
9.175006104
 20
21.324036749
 30
0.0
 11
7.563751221
 21
25.834091187
 31
0.0
  0
LINE
  5
AD
330
1D
100
AcDbEntity
  8
1
100
AcDbLine
 10
7.563751221
 20
25.834091187
 30
0.0
 11
0.997
 21
25.834091187
 31
0.0
  0
LINE
  5
AE
330
1D
100
AcDbEntity
  8
1
100
AcDbLine
 10
19.050006104
 20
25.834091187
 30
0.0
 11
14.636276245
 21
25.834091187
 31
0.0
  0
LINE
  5
AF
330
1D
100
AcDbEntity
  8
1
100
AcDbLine
 10
14.636276245
 20
25.834091187
 30
0.0
 11
13.025006104
 21
21.324035463
 31
0.0
  0
LINE
  5
B0
330
1D
100
AcDbEntity
  8
1
100
AcDbLine
 10
0.997
 20
18.5
 30
0.0
 11
19.050006104
 21
18.5
 31
0.0
  0
LINE
  5
B1
330
1D
100
AcDbEntity
  8
SK3
100
AcDbLine
 10
-1.999998476
 20
14.0
 30
0.0
 11
-5.732023623
 21
13.0
 31
0.0
  0
LINE
  5
B2
330
1D
100
AcDbEntity
  8
1
100
AcDbLine
 10
57.000123594
 20
-31.4
 30
0.0
 11
56.798109455
 21
-31.75
 31
0.0
  0
LINE
  5
B3
330
1D
100
AcDbEntity
  8
1
100
AcDbLine
 10
14.621845969
 20
-31.75
 30
0.0
 11
14.621845969
 21
18.5
 31
0.0
  0
LINE
  5
B4
330
1D
100
AcDbEntity
  8
1
100
AcDbLine
 10
7.578181671
 20
-31.75
 30
0.0
 11
7.578181671
 21
18.5
 31
0.0
  0
LINE
  5
B5
330
1D
100
AcDbEntity
  8
SK4
100
AcDbLine
 10
-71.919621961
 20
0.0
 30
0.0
 11
-14.485389138
 21
0.0
 31
0.0
  0
LINE
  5
B6
330
1D
100
AcDbEntity
  8
SK4
100
AcDbLine
 10
-6.111195685
 20
0.0
 30
0.0
 11
61.981985247
 21
0.0
 31
0.0
  0
LINE
  5
B7
330
1D
100
AcDbEntity
  8
1
100
AcDbLine
 10
18.550006104
 20
-31.75
 30
0.0
 11
18.550006104
 21
18.5
 31
0.0
  0
LINE
  5
B8
330
1D
100
AcDbEntity
  8
1
100
AcDbLine
 10
1.497
 20
-31.75
 30
0.0
 11
1.497
 21
18.5
 31
0.0
  0
LINE
  5
B9
330
1D
100
AcDbEntity
  8
SK3
100
AcDbLine
 10
-59.8
 20
-8.5045
 30
0.0
 11
-59.8
 21
8.5045
 31
0.0
  0
LINE
  5
BA
330
1D
100
AcDbEntity
  8
SK3
100
AcDbLine
 10
-58.793209345
 20
-6.75
 30
0.0
 11
-58.793209345
 21
6.75
 31
0.0
  0
LINE
  5
BB
330
1D
100
AcDbEntity
  8
SK3
100
AcDbLine
 10
-59.513925332
 20
8.0
 30
0.0
 11
-36.250007629
 21
8.0
 31
0.0
  0
LINE
  5
BC
330
1D
100
AcDbEntity
  8
SK3
100
AcDbLine
 10
-15.999998476
 20
-13.0
 30
0.0
 11
-15.999998476
 21
13.0
 31
0.0
  0
LINE
  5
BD
330
1D
100
AcDbEntity
  8
1
100
AcDbLine
 10
58.59997711
 20
-31.4
 30
0.0
 11
58.600001524
 21
-30.25
 31
0.0
  0
LINE
  5
BE
330
1D
100
AcDbEntity
  8
1
100
AcDbLine
 10
58.600001524
 20
-30.25
 30
0.0
 11
58.600001524
 21
31.4
 31
0.0
  0
LINE
  5
BF
330
1D
100
AcDbEntity
  8
3
100
AcDbLine
 10
59.000001524
 20
18.0
 30
0.0
 11
22.000001524
 21
18.0
 31
0.0
  0
LINE
  5
C0
330
1D
100
AcDbEntity
  8
SK6
100
AcDbLine
 10
-33.068377177
 20
-34.419986589
 30
0.0
 11
-27.218374897
 21
-34.419986589
 31
0.0
  0
LINE
  5
C1
330
1D
100
AcDbEntity
  8
SK6
100
AcDbLine
 10
-27.218374897
 20
-34.419986589
 30
0.0
 11
-27.218386337
 21
-36.489978659
 31
0.0
  0
LINE
  5
C2
330
1D
100
AcDbEntity
  8
SK6
100
AcDbLine
 10
-27.218386337
 20
-36.489978659
 30
0.0
 11
-30.188391367
 21
-36.489993919
 31
0.0
  0
LINE
  5
C3
330
1D
100
AcDbEntity
  8
SK6
100
AcDbLine
 10
-30.188391367
 20
-36.489993919
 30
0.0
 11
-30.188379927
 21
-41.169986589
 31
0.0
  0
LINE
  5
C4
330
1D
100
AcDbEntity
  8
SK6
100
AcDbLine
 10
-30.188379927
 20
-41.169986589
 30
0.0
 11
-27.218374897
 21
-41.169963709
 31
0.0
  0
LINE
  5
C5
330
1D
100
AcDbEntity
  8
SK6
100
AcDbLine
 10
-27.218374897
 20
-41.169963709
 30
0.0
 11
-27.218386337
 21
-43.329967369
 31
0.0
  0
LINE
  5
C6
330
1D
100
AcDbEntity
  8
SK6
100
AcDbLine
 10
-27.218386337
 20
-43.329967369
 30
0.0
 11
-30.188391367
 21
-43.329967369
 31
0.0
  0
LINE
  5
C7
330
1D
100
AcDbEntity
  8
SK6
100
AcDbLine
 10
-30.188391367
 20
-43.329967369
 30
0.0
 11
-30.188379927
 21
-48.099979269
 31
0.0
  0
LINE
  5
C8
330
1D
100
AcDbEntity
  8
SK6
100
AcDbLine
 10
-30.188379927
 20
-48.099979269
 30
0.0
 11
-27.218363447
 21
-48.099979269
 31
0.0
  0
LINE
  5
C9
330
1D
100
AcDbEntity
  8
SK6
100
AcDbLine
 10
-27.218363447
 20
-48.099979269
 30
0.0
 11
-27.218363447
 21
-50.169986589
 31
0.0
  0
LINE
  5
CA
330
1D
100
AcDbEntity
  8
SK6
100
AcDbLine
 10
-27.218363447
 20
-50.169986589
 30
0.0
 11
-33.068365737
 21
-50.169986589
 31
0.0
  0
LINE
  5
CB
330
1D
100
AcDbEntity
  8
SK6
100
AcDbLine
 10
-33.068365737
 20
-50.169986589
 30
0.0
 11
-33.068365737
 21
-34.419986589
 31
0.0
  0
LINE
  5
CC
330
1D
100
AcDbEntity
  8
SK6
100
AcDbLine
 10
-66.818365737
 20
-34.419986589
 30
0.0
 11
-66.818365737
 21
-41.529994829
 31
0.0
  0
LINE
  5
CD
330
1D
100
AcDbEntity
  8
SK6
100
AcDbLine
 10
-66.818365737
 20
-41.529994829
 30
0.0
 11
-63.848372147
 21
-34.419986589
 31
0.0
  0
LINE
  5
CE
330
1D
100
AcDbEntity
  8
SK6
100
AcDbLine
 10
-63.848372147
 20
-34.419986589
 30
0.0
 11
-61.058371227
 21
-34.419986589
 31
0.0
  0
LINE
  5
CF
330
1D
100
AcDbEntity
  8
SK6
100
AcDbLine
 10
-61.058371227
 20
-34.419986589
 30
0.0
 11
-64.118376417
 21
-41.169986589
 31
0.0
  0
LINE
  5
D0
330
1D
100
AcDbEntity
  8
SK6
100
AcDbLine
 10
-64.118376417
 20
-41.169986589
 30
0.0
 11
-60.518370317
 21
-50.169986589
 31
0.0
  0
LINE
  5
D1
330
1D
100
AcDbEntity
  8
SK6
100
AcDbLine
 10
-60.518370317
 20
-50.169986589
 30
0.0
 11
-63.308371227
 21
-50.169986589
 31
0.0
  0
LINE
  5
D2
330
1D
100
AcDbEntity
  8
SK6
100
AcDbLine
 10
-63.308371227
 20
-50.169986589
 30
0.0
 11
-65.738363907
 21
-44.679981099
 31
0.0
  0
LINE
  5
D3
330
1D
100
AcDbEntity
  8
SK6
100
AcDbLine
 10
-65.738363907
 20
-44.679981099
 30
0.0
 11
-66.818365737
 21
-46.749988419
 31
0.0
  0
LINE
  5
D4
330
1D
100
AcDbEntity
  8
SK6
100
AcDbLine
 10
-66.818365737
 20
-46.749988419
 30
0.0
 11
-66.818365737
 21
-50.169986589
 31
0.0
  0
LINE
  5
D5
330
1D
100
AcDbEntity
  8
SK6
100
AcDbLine
 10
-66.818365737
 20
-50.169986589
 30
0.0
 11
-69.608366657
 21
-50.169986589
 31
0.0
  0
LINE
  5
D6
330
1D
100
AcDbEntity
  8
SK6
100
AcDbLine
 10
-69.608366657
 20
-50.169986589
 30
0.0
 11
-69.608366657
 21
-34.419986589
 31
0.0
  0
LINE
  5
D7
330
1D
100
AcDbEntity
  8
SK6
100
AcDbLine
 10
-69.608366657
 20
-34.419986589
 30
0.0
 11
-66.818365737
 21
-34.419986589
 31
0.0
  0
LINE
  5
D8
330
1D
100
AcDbEntity
  8
SK6
100
AcDbLine
 10
-47.558359787
 20
-34.419986589
 30
0.0
 11
-47.558359787
 21
-50.169986589
 31
0.0
  0
LINE
  5
D9
330
1D
100
AcDbEntity
  8
SK6
100
AcDbLine
 10
-47.558359787
 20
-50.169986589
 30
0.0
 11
-44.678362537
 21
-50.169986589
 31
0.0
  0
LINE
  5
DA
330
1D
100
AcDbEntity
  8
SK6
100
AcDbLine
 10
-44.678362537
 20
-50.169986589
 30
0.0
 11
-44.678362537
 21
-34.419986589
 31
0.0
  0
LINE
  5
DB
330
1D
100
AcDbEntity
  8
SK6
100
AcDbLine
 10
-44.678362537
 20
-34.419986589
 30
0.0
 11
-47.558371227
 21
-34.419986589
 31
0.0
  0
LINE
  5
DC
330
1D
100
AcDbEntity
  8
SK6
100
AcDbLine
 10
-56.378370927
 20
-33.969982019
 30
0.0
 11
-53.318365737
 21
-33.969982019
 31
0.0
  0
LINE
  5
DD
330
1D
100
AcDbEntity
  8
SK6
100
AcDbLine
 10
-53.318365737
 20
-33.969982019
 30
0.0
 11
-48.908362077
 21
-50.169986589
 31
0.0
  0
LINE
  5
DE
330
1D
100
AcDbEntity
  8
SK6
100
AcDbLine
 10
-48.908362077
 20
-50.169986589
 30
0.0
 11
-51.878370927
 21
-50.169986589
 31
0.0
  0
LINE
  5
DF
330
1D
100
AcDbEntity
  8
SK6
100
AcDbLine
 10
-51.878370927
 20
-50.169986589
 30
0.0
 11
-54.938368487
 21
-38.289989339
 31
0.0
  0
LINE
  5
E0
330
1D
100
AcDbEntity
  8
SK6
100
AcDbLine
 10
-54.938368487
 20
-38.289989339
 30
0.0
 11
-56.468374897
 21
-47.649974689
 31
0.0
  0
LINE
  5
E1
330
1D
100
AcDbEntity
  8
SK6
100
AcDbLine
 10
-56.468374897
 20
-47.649974689
 30
0.0
 11
-53.588354747
 21
-47.649974689
 31
0.0
  0
LINE
  5
E2
330
1D
100
AcDbEntity
  8
SK6
100
AcDbLine
 10
-53.588354747
 20
-47.649974689
 30
0.0
 11
-53.138365437
 21
-50.169986589
 31
0.0
  0
LINE
  5
E3
330
1D
100
AcDbEntity
  8
SK6
100
AcDbLine
 10
-53.138365437
 20
-50.169986589
 30
0.0
 11
-59.438368487
 21
-50.169986589
 31
0.0
  0
LINE
  5
E4
330
1D
100
AcDbEntity
  8
SK6
100
AcDbLine
 10
-59.438368487
 20
-50.169986589
 30
0.0
 11
-56.378370927
 21
-33.969982019
 31
0.0
  0
LINE
  5
E5
330
1D
100
AcDbEntity
  8
SK2
100
AcDbLine
 10
-8.86516571
 20
-22.225006104
 30
0.0
 11
0.0
 21
-22.225006104
 31
0.0
  0
LINE
  5
E6
330
1D
100
AcDbEntity
  8
SK2
100
AcDbLine
 10
-8.86516571
 20
22.225006104
 30
0.0
 11
0.0
 21
22.225006104
 31
0.0
  0
LINE
  5
E7
330
1D
100
AcDbEntity
  8
200
100
AcDbLine
 10
71.530109976
 20
-18.0
 30
0.0
 11
59.000001524
 21
-18.0
 31
0.0
  0
LINE
  5
E8
330
1D
100
AcDbEntity
  8
200
100
AcDbLine
 10
71.530109976
 20
18.0
 30
0.0
 11
59.000001524
 21
18.0
 31
0.0
  0
LINE
  5
E9
330
1D
100
AcDbEntity
  8
200
100
AcDbLine
 10
79.648828906
 20
-31.75
 30
0.0
 11
56.798109455
 21
-31.75
 31
0.0
  0
LINE
  5
EA
330
1D
100
AcDbEntity
  8
200
100
AcDbLine
 10
79.648828906
 20
31.75
 30
0.0
 11
56.798109455
 21
31.75
 31
0.0
  0
LINE
  5
EB
330
1D
100
AcDbEntity
  8
200
100
AcDbLine
 10
0.0
 20
43.229038239
 30
0.0
 11
0.0
 21
22.225006104
 31
0.0
  0
LINE
  5
EC
330
1D
100
AcDbEntity
  8
200
100
AcDbLine
 10
59.000001524
 20
43.22903862
 30
0.0
 11
59.000001524
 21
31.000006104
 31
0.0
  0
LINE
  5
ED
330
1D
100
AcDbEntity
  8
200
100
AcDbLine
 10
0.0
 20
-44.101902008
 30
0.0
 11
0.0
 21
-22.225006104
 31
0.0
  0
LINE
  5
EE
330
1D
100
AcDbEntity
  8
200
100
AcDbLine
 10
40.000001524
 20
-44.101902962
 30
0.0
 11
40.000001524
 21
-31.75
 31
0.0
  0
LINE
  5
EF
330
1D
100
AcDbEntity
  8
200
100
AcDbLine
 10
40.000001524
 20
-44.101902962
 30
0.0
 11
40.000001524
 21
-31.75
 31
0.0
  0
LINE
  5
F0
330
1D
100
AcDbEntity
  8
SK4
100
AcDbLine
 10
42.950001524
 20
-7.871675226
 30
0.0
 11
42.950001524
 21
8.040226813
 31
0.0
  0
CIRCLE
  5
F1
330
1D
100
AcDbEntity
  8
1
100
AcDbCircle
 10
42.950001524
 20
0.0
 30
0.0
 40
6.0
  0
LINE
  5
F2
330
1D
100
AcDbEntity
  8
1
100
AcDbLine
 10
42.950001524
 20
2.886751346
 30
0.0
 11
40.450001524
 21
1.443375673
 31
0.0
  0
LINE
  5
F3
330
1D
100
AcDbEntity
  8
1
100
AcDbLine
 10
40.450001524
 20
1.443375673
 30
0.0
 11
40.450001524
 21
-1.443375673
 31
0.0
  0
LINE
  5
F4
330
1D
100
AcDbEntity
  8
1
100
AcDbLine
 10
40.450001524
 20
-1.443375673
 30
0.0
 11
42.950001524
 21
-2.886751346
 31
0.0
  0
LINE
  5
F5
330
1D
100
AcDbEntity
  8
1
100
AcDbLine
 10
42.950001524
 20
-2.886751346
 30
0.0
 11
45.450001524
 21
-1.443375673
 31
0.0
  0
LINE
  5
F6
330
1D
100
AcDbEntity
  8
1
100
AcDbLine
 10
45.450001524
 20
-1.443375673
 30
0.0
 11
45.450001524
 21
1.443375673
 31
0.0
  0
LINE
  5
F7
330
1D
100
AcDbEntity
  8
1
100
AcDbLine
 10
45.450001524
 20
1.443375673
 30
0.0
 11
42.950001524
 21
2.886751346
 31
0.0
  0
LINE
  5
F8
330
1D
100
AcDbEntity
  8
SK2
100
AcDbLine
 10
-10.0
 20
-22.225006104
 30
0.0
 11
0.0
 21
-22.225006104
 31
0.0
  0
LINE
  5
F9
330
1D
100
AcDbEntity
  8
SK2
100
AcDbLine
 10
-8.0
 20
-22.225006104
 30
0.0
 11
-8.45
 21
-18.725006104
 31
0.0
  0
LINE
  5
FA
330
1D
100
AcDbEntity
  8
SK2
100
AcDbLine
 10
-8.45
 20
-18.725006104
 30
0.0
 11
-7.55
 21
-18.725006104
 31
0.0
  0
LINE
  5
FB
330
1D
100
AcDbEntity
  8
SK2
100
AcDbLine
 10
-7.55
 20
-18.725006104
 30
0.0
 11
-8.0
 21
-22.225006104
 31
0.0
  0
LINE
  5
FC
330
1D
100
AcDbEntity
  8
SK2
100
AcDbLine
 10
-8.0
 20
-18.825006104
 30
0.0
 11
-8.0
 21
-22.125006104
 31
0.0
  0
LINE
  5
FD
330
1D
100
AcDbEntity
  8
SK2
100
AcDbLine
 10
-7.8
 20
-18.825006104
 30
0.0
 11
-7.8
 21
-20.569450548
 31
0.0
  0
LINE
  5
FE
330
1D
100
AcDbEntity
  8
SK2
100
AcDbLine
 10
-8.2
 20
-18.825006104
 30
0.0
 11
-8.2
 21
-20.569450548
 31
0.0
  0
LINE
  5
FF
330
1D
100
AcDbEntity
  8
SK2
100
AcDbLine
 10
-7.6
 20
-18.825006104
 30
0.0
 11
-7.6
 21
-19.013894993
 31
0.0
  0
LINE
  5
100
330
1D
100
AcDbEntity
  8
SK2
100
AcDbLine
 10
-8.4
 20
-18.825006104
 30
0.0
 11
-8.4
 21
-19.013894993
 31
0.0
  0
LINE
  5
101
330
1D
100
AcDbEntity
  8
SK2
100
AcDbLine
 10
-10.0
 20
22.225006104
 30
0.0
 11
0.0
 21
22.225006104
 31
0.0
  0
LINE
  5
102
330
1D
100
AcDbEntity
  8
SK2
100
AcDbLine
 10
-8.0
 20
22.225006104
 30
0.0
 11
-7.55
 21
18.725006104
 31
0.0
  0
LINE
  5
103
330
1D
100
AcDbEntity
  8
SK2
100
AcDbLine
 10
-7.55
 20
18.725006104
 30
0.0
 11
-8.45
 21
18.725006104
 31
0.0
  0
LINE
  5
104
330
1D
100
AcDbEntity
  8
SK2
100
AcDbLine
 10
-8.45
 20
18.725006104
 30
0.0
 11
-8.0
 21
22.225006104
 31
0.0
  0
LINE
  5
105
330
1D
100
AcDbEntity
  8
SK2
100
AcDbLine
 10
-8.0
 20
18.825006104
 30
0.0
 11
-8.0
 21
22.125006104
 31
0.0
  0
LINE
  5
106
330
1D
100
AcDbEntity
  8
SK2
100
AcDbLine
 10
-8.2
 20
18.825006104
 30
0.0
 11
-8.2
 21
20.569450548
 31
0.0
  0
LINE
  5
107
330
1D
100
AcDbEntity
  8
SK2
100
AcDbLine
 10
-7.8
 20
18.825006104
 30
0.0
 11
-7.8
 21
20.569450548
 31
0.0
  0
LINE
  5
108
330
1D
100
AcDbEntity
  8
SK2
100
AcDbLine
 10
-8.4
 20
18.825006104
 30
0.0
 11
-8.4
 21
19.013894993
 31
0.0
  0
LINE
  5
109
330
1D
100
AcDbEntity
  8
SK2
100
AcDbLine
 10
-7.6
 20
18.825006104
 30
0.0
 11
-7.6
 21
19.013894993
 31
0.0
  0
LINE
  5
10A
330
1D
100
AcDbEntity
  8
SK2
100
AcDbLine
 10
-8.0
 20
-18.725006104
 30
0.0
 11
-8.0
 21
18.725006104
 31
0.0
  0
TEXT
  5
10B
330
1D
100
AcDbEntity
  8
SK2
100
AcDbText
 10
-9.5
 20
-2.539687997
 30
0.0
 40
3.5
  1
44.45
 50
90.0
  7
BMG_Text
100
AcDbText
  0
CIRCLE
  5
10C
330
1D
100
AcDbEntity
  8
SK2
100
AcDbCircle
 10
-10.75
 20
-4.789687997
 30
0.0
 40
1.25
  0
LINE
  5
10D
330
1D
100
AcDbEntity
  8
SK2
100
AcDbLine
 10
-9.5
 20
-6.039687997
 30
0.0
 11
-12.0
 21
-3.539687997
 31
0.0
  0
LINE
  5
10E
330
1D
100
AcDbEntity
  8
2
100
AcDbLine
 10
0.0
 20
42.0
 30
0.0
 11
0.0
 21
22.225006104
 31
0.0
  0
LINE
  5
10F
330
1D
100
AcDbEntity
  8
2
100
AcDbLine
 10
0.0
 20
40.0
 30
0.0
 11
3.499999997
 21
40.450000023
 31
0.0
  0
LINE
  5
110
330
1D
100
AcDbEntity
  8
2
100
AcDbLine
 10
3.499999997
 20
40.450000023
 30
0.0
 11
3.500000003
 21
39.550000023
 31
0.0
  0
LINE
  5
111
330
1D
100
AcDbEntity
  8
2
100
AcDbLine
 10
3.500000003
 20
39.550000023
 30
0.0
 11
0.0
 21
40.0
 31
0.0
  0
LINE
  5
112
330
1D
100
AcDbEntity
  8
2
100
AcDbLine
 10
3.4
 20
40.000000022
 30
0.0
 11
0.1
 21
40.000000001
 31
0.0
  0
LINE
  5
113
330
1D
100
AcDbEntity
  8
2
100
AcDbLine
 10
3.400000001
 20
39.800000022
 30
0.0
 11
1.655555557
 21
39.800000011
 31
0.0
  0
LINE
  5
114
330
1D
100
AcDbEntity
  8
2
100
AcDbLine
 10
3.399999999
 20
40.200000022
 30
0.0
 11
1.655555554
 21
40.200000011
 31
0.0
  0
LINE
  5
115
330
1D
100
AcDbEntity
  8
2
100
AcDbLine
 10
3.400000003
 20
39.600000022
 30
0.0
 11
3.211111114
 21
39.600000021
 31
0.0
  0
LINE
  5
116
330
1D
100
AcDbEntity
  8
2
100
AcDbLine
 10
3.399999997
 20
40.400000022
 30
0.0
 11
3.211111109
 21
40.400000021
 31
0.0
  0
LINE
  5
117
330
1D
100
AcDbEntity
  8
2
100
AcDbLine
 10
59.000001524
 20
42.000000382
 30
0.0
 11
59.000001524
 21
31.000006104
 31
0.0
  0
LINE
  5
118
330
1D
100
AcDbEntity
  8
2
100
AcDbLine
 10
59.000001524
 20
40.000000382
 30
0.0
 11
55.500001527
 21
39.550000359
 31
0.0
  0
LINE
  5
119
330
1D
100
AcDbEntity
  8
2
100
AcDbLine
 10
55.500001527
 20
39.550000359
 30
0.0
 11
55.500001521
 21
40.450000359
 31
0.0
  0
LINE
  5
11A
330
1D
100
AcDbEntity
  8
2
100
AcDbLine
 10
55.500001521
 20
40.450000359
 30
0.0
 11
59.000001524
 21
40.000000382
 31
0.0
  0
LINE
  5
11B
330
1D
100
AcDbEntity
  8
2
100
AcDbLine
 10
55.600001524
 20
40.00000036
 30
0.0
 11
58.900001524
 21
40.000000381
 31
0.0
  0
LINE
  5
11C
330
1D
100
AcDbEntity
  8
2
100
AcDbLine
 10
55.600001523
 20
40.20000036
 30
0.0
 11
57.344445967
 21
40.200000371
 31
0.0
  0
LINE
  5
11D
330
1D
100
AcDbEntity
  8
2
100
AcDbLine
 10
55.600001525
 20
39.80000036
 30
0.0
 11
57.34444597
 21
39.800000371
 31
0.0
  0
LINE
  5
11E
330
1D
100
AcDbEntity
  8
2
100
AcDbLine
 10
55.600001521
 20
40.40000036
 30
0.0
 11
55.78889041
 21
40.400000361
 31
0.0
  0
LINE
  5
11F
330
1D
100
AcDbEntity
  8
2
100
AcDbLine
 10
55.600001527
 20
39.60000036
 30
0.0
 11
55.788890415
 21
39.600000361
 31
0.0
  0
LINE
  5
120
330
1D
100
AcDbEntity
  8
2
100
AcDbLine
 10
3.5
 20
40.000000023
 30
0.0
 11
55.500001524
 21
40.000000359
 31
0.0
  0
TEXT
  5
121
330
1D
100
AcDbEntity
  8
2
100
AcDbText
 10
27.999375093
 20
41.500000182
 30
0.0
 40
3.5
  1
59
 50
0.00000037
  7
BMG_Text
100
AcDbText
  0
LINE
  5
122
330
1D
100
AcDbEntity
  8
2
100
AcDbLine
 10
90.0000004
 20
-31.75
 30
0.0
 11
56.798109455
 21
-31.75
 31
0.0
  0
LINE
  5
123
330
1D
100
AcDbEntity
  8
2
100
AcDbLine
 10
88.0000004
 20
-31.75
 30
0.0
 11
87.5500004
 21
-28.25
 31
0.0
  0
LINE
  5
124
330
1D
100
AcDbEntity
  8
2
100
AcDbLine
 10
87.5500004
 20
-28.25
 30
0.0
 11
88.4500004
 21
-28.25
 31
0.0
  0
LINE
  5
125
330
1D
100
AcDbEntity
  8
2
100
AcDbLine
 10
88.4500004
 20
-28.25
 30
0.0
 11
88.0000004
 21
-31.75
 31
0.0
  0
LINE
  5
126
330
1D
100
AcDbEntity
  8
2
100
AcDbLine
 10
88.0000004
 20
-28.35
 30
0.0
 11
88.0000004
 21
-31.65
 31
0.0
  0
LINE
  5
127
330
1D
100
AcDbEntity
  8
2
100
AcDbLine
 10
88.2000004
 20
-28.35
 30
0.0
 11
88.2000004
 21
-30.094444444
 31
0.0
  0
LINE
  5
128
330
1D
100
AcDbEntity
  8
2
100
AcDbLine
 10
87.8000004
 20
-28.35
 30
0.0
 11
87.8000004
 21
-30.094444444
 31
0.0
  0
LINE
  5
129
330
1D
100
AcDbEntity
  8
2
100
AcDbLine
 10
88.4000004
 20
-28.35
 30
0.0
 11
88.4000004
 21
-28.538888889
 31
0.0
  0
LINE
  5
12A
330
1D
100
AcDbEntity
  8
2
100
AcDbLine
 10
87.6000004
 20
-28.35
 30
0.0
 11
87.6000004
 21
-28.538888889
 31
0.0
  0
LINE
  5
12B
330
1D
100
AcDbEntity
  8
2
100
AcDbLine
 10
90.0000004
 20
31.75
 30
0.0
 11
56.798109455
 21
31.75
 31
0.0
  0
LINE
  5
12C
330
1D
100
AcDbEntity
  8
2
100
AcDbLine
 10
88.0000004
 20
31.75
 30
0.0
 11
88.4500004
 21
28.25
 31
0.0
  0
LINE
  5
12D
330
1D
100
AcDbEntity
  8
2
100
AcDbLine
 10
88.4500004
 20
28.25
 30
0.0
 11
87.5500004
 21
28.25
 31
0.0
  0
LINE
  5
12E
330
1D
100
AcDbEntity
  8
2
100
AcDbLine
 10
87.5500004
 20
28.25
 30
0.0
 11
88.0000004
 21
31.75
 31
0.0
  0
LINE
  5
12F
330
1D
100
AcDbEntity
  8
2
100
AcDbLine
 10
88.0000004
 20
28.35
 30
0.0
 11
88.0000004
 21
31.65
 31
0.0
  0
LINE
  5
130
330
1D
100
AcDbEntity
  8
2
100
AcDbLine
 10
87.8000004
 20
28.35
 30
0.0
 11
87.8000004
 21
30.094444444
 31
0.0
  0
LINE
  5
131
330
1D
100
AcDbEntity
  8
2
100
AcDbLine
 10
88.2000004
 20
28.35
 30
0.0
 11
88.2000004
 21
30.094444444
 31
0.0
  0
LINE
  5
132
330
1D
100
AcDbEntity
  8
2
100
AcDbLine
 10
87.6000004
 20
28.35
 30
0.0
 11
87.6000004
 21
28.538888889
 31
0.0
  0
LINE
  5
133
330
1D
100
AcDbEntity
  8
2
100
AcDbLine
 10
88.4000004
 20
28.35
 30
0.0
 11
88.4000004
 21
28.538888889
 31
0.0
  0
LINE
  5
134
330
1D
100
AcDbEntity
  8
2
100
AcDbLine
 10
88.0000004
 20
-28.25
 30
0.0
 11
88.0000004
 21
28.25
 31
0.0
  0
TEXT
  5
135
330
1D
100
AcDbEntity
  8
2
100
AcDbText
 10
86.5000004
 20
-1.17250071
 30
0.0
 40
3.5
  1
63.5
 50
90.0
  7
BMG_Text
100
AcDbText
  0
CIRCLE
  5
136
330
1D
100
AcDbEntity
  8
2
100
AcDbCircle
 10
85.2500004
 20
-3.42250071
 30
0.0
 40
1.25
  0
LINE
  5
137
330
1D
100
AcDbEntity
  8
2
100
AcDbLine
 10
86.5000004
 20
-4.67250071
 30
0.0
 11
84.0000004
 21
-2.17250071
 31
0.0
  0
LINE
  5
138
330
1D
100
AcDbEntity
  8
2
100
AcDbLine
 10
73.999999617
 20
-18.0
 30
0.0
 11
59.000001524
 21
-18.0
 31
0.0
  0
LINE
  5
139
330
1D
100
AcDbEntity
  8
2
100
AcDbLine
 10
71.999999617
 20
-18.0
 30
0.0
 11
71.549999617
 21
-14.5
 31
0.0
  0
LINE
  5
13A
330
1D
100
AcDbEntity
  8
2
100
AcDbLine
 10
71.549999617
 20
-14.5
 30
0.0
 11
72.449999617
 21
-14.5
 31
0.0
  0
LINE
  5
13B
330
1D
100
AcDbEntity
  8
2
100
AcDbLine
 10
72.449999617
 20
-14.5
 30
0.0
 11
71.999999617
 21
-18.0
 31
0.0
  0
LINE
  5
13C
330
1D
100
AcDbEntity
  8
2
100
AcDbLine
 10
71.999999617
 20
-14.6
 30
0.0
 11
71.999999617
 21
-17.9
 31
0.0
  0
LINE
  5
13D
330
1D
100
AcDbEntity
  8
2
100
AcDbLine
 10
72.199999617
 20
-14.6
 30
0.0
 11
72.199999617
 21
-16.344444444
 31
0.0
  0
LINE
  5
13E
330
1D
100
AcDbEntity
  8
2
100
AcDbLine
 10
71.799999617
 20
-14.6
 30
0.0
 11
71.799999617
 21
-16.344444444
 31
0.0
  0
LINE
  5
13F
330
1D
100
AcDbEntity
  8
2
100
AcDbLine
 10
72.399999617
 20
-14.6
 30
0.0
 11
72.399999617
 21
-14.788888889
 31
0.0
  0
LINE
  5
140
330
1D
100
AcDbEntity
  8
2
100
AcDbLine
 10
71.599999617
 20
-14.6
 30
0.0
 11
71.599999617
 21
-14.788888889
 31
0.0
  0
LINE
  5
141
330
1D
100
AcDbEntity
  8
2
100
AcDbLine
 10
73.999999617
 20
18.0
 30
0.0
 11
59.000001524
 21
18.0
 31
0.0
  0
LINE
  5
142
330
1D
100
AcDbEntity
  8
2
100
AcDbLine
 10
71.999999617
 20
18.0
 30
0.0
 11
72.449999617
 21
14.5
 31
0.0
  0
LINE
  5
143
330
1D
100
AcDbEntity
  8
2
100
AcDbLine
 10
72.449999617
 20
14.5
 30
0.0
 11
71.549999617
 21
14.5
 31
0.0
  0
LINE
  5
144
330
1D
100
AcDbEntity
  8
2
100
AcDbLine
 10
71.549999617
 20
14.5
 30
0.0
 11
71.999999617
 21
18.0
 31
0.0
  0
LINE
  5
145
330
1D
100
AcDbEntity
  8
2
100
AcDbLine
 10
71.999999617
 20
14.6
 30
0.0
 11
71.999999617
 21
17.9
 31
0.0
  0
LINE
  5
146
330
1D
100
AcDbEntity
  8
2
100
AcDbLine
 10
71.799999617
 20
14.6
 30
0.0
 11
71.799999617
 21
16.344444444
 31
0.0
  0
LINE
  5
147
330
1D
100
AcDbEntity
  8
2
100
AcDbLine
 10
72.199999617
 20
14.6
 30
0.0
 11
72.199999617
 21
16.344444444
 31
0.0
  0
LINE
  5
148
330
1D
100
AcDbEntity
  8
2
100
AcDbLine
 10
71.599999617
 20
14.6
 30
0.0
 11
71.599999617
 21
14.788888889
 31
0.0
  0
LINE
  5
149
330
1D
100
AcDbEntity
  8
2
100
AcDbLine
 10
72.399999617
 20
14.6
 30
0.0
 11
72.399999617
 21
14.788888889
 31
0.0
  0
LINE
  5
14A
330
1D
100
AcDbEntity
  8
2
100
AcDbLine
 10
71.999999617
 20
-14.5
 30
0.0
 11
71.999999617
 21
14.5
 31
0.0
  0
TEXT
  5
14B
330
1D
100
AcDbEntity
  8
2
100
AcDbText
 10
70.499999617
 20
0.331405848
 30
0.0
 40
3.5
  1
36
 50
90.0
  7
BMG_Text
100
AcDbText
  0
CIRCLE
  5
14C
330
1D
100
AcDbEntity
  8
2
100
AcDbCircle
 10
69.249999617
 20
-1.918594152
 30
0.0
 40
1.25
  0
LINE
  5
14D
330
1D
100
AcDbEntity
  8
2
100
AcDbLine
 10
70.499999617
 20
-3.168594152
 30
0.0
 11
67.999999617
 21
-0.668594152
 31
0.0
  0
LINE
  5
14E
330
1D
100
AcDbEntity
  8
2
100
AcDbLine
 10
0.0
 20
-46.0
 30
0.0
 11
0.0
 21
-22.225006104
 31
0.0
  0
LINE
  5
14F
330
1D
100
AcDbEntity
  8
2
100
AcDbLine
 10
0.0
 20
-44.0
 30
0.0
 11
3.5
 21
-43.55
 31
0.0
  0
LINE
  5
150
330
1D
100
AcDbEntity
  8
2
100
AcDbLine
 10
3.5
 20
-43.55
 30
0.0
 11
3.5
 21
-44.45
 31
0.0
  0
LINE
  5
151
330
1D
100
AcDbEntity
  8
2
100
AcDbLine
 10
3.5
 20
-44.45
 30
0.0
 11
0.0
 21
-44.0
 31
0.0
  0
LINE
  5
152
330
1D
100
AcDbEntity
  8
2
100
AcDbLine
 10
3.4
 20
-44.0
 30
0.0
 11
0.1
 21
-44.0
 31
0.0
  0
LINE
  5
153
330
1D
100
AcDbEntity
  8
2
100
AcDbLine
 10
3.4
 20
-44.2
 30
0.0
 11
1.655555556
 21
-44.2
 31
0.0
  0
LINE
  5
154
330
1D
100
AcDbEntity
  8
2
100
AcDbLine
 10
3.4
 20
-43.8
 30
0.0
 11
1.655555556
 21
-43.8
 31
0.0
  0
LINE
  5
155
330
1D
100
AcDbEntity
  8
2
100
AcDbLine
 10
3.4
 20
-44.4
 30
0.0
 11
3.211111111
 21
-44.4
 31
0.0
  0
LINE
  5
156
330
1D
100
AcDbEntity
  8
2
100
AcDbLine
 10
3.4
 20
-43.6
 30
0.0
 11
3.211111111
 21
-43.6
 31
0.0
  0
LINE
  5
157
330
1D
100
AcDbEntity
  8
2
100
AcDbLine
 10
40.000001524
 20
-46.0
 30
0.0
 11
40.000001524
 21
-31.75
 31
0.0
  0
LINE
  5
158
330
1D
100
AcDbEntity
  8
2
100
AcDbLine
 10
40.000001524
 20
-44.0
 30
0.0
 11
36.500001524
 21
-44.45
 31
0.0
  0
LINE
  5
159
330
1D
100
AcDbEntity
  8
2
100
AcDbLine
 10
36.500001524
 20
-44.45
 30
0.0
 11
36.500001524
 21
-43.55
 31
0.0
  0
LINE
  5
15A
330
1D
100
AcDbEntity
  8
2
100
AcDbLine
 10
36.500001524
 20
-43.55
 30
0.0
 11
40.000001524
 21
-44.0
 31
0.0
  0
LINE
  5
15B
330
1D
100
AcDbEntity
  8
2
100
AcDbLine
 10
36.600001524
 20
-44.0
 30
0.0
 11
39.900001524
 21
-44.0
 31
0.0
  0
LINE
  5
15C
330
1D
100
AcDbEntity
  8
2
100
AcDbLine
 10
36.600001524
 20
-43.8
 30
0.0
 11
38.344445968
 21
-43.8
 31
0.0
  0
LINE
  5
15D
330
1D
100
AcDbEntity
  8
2
100
AcDbLine
 10
36.600001524
 20
-44.2
 30
0.0
 11
38.344445968
 21
-44.2
 31
0.0
  0
LINE
  5
15E
330
1D
100
AcDbEntity
  8
2
100
AcDbLine
 10
36.600001524
 20
-43.6
 30
0.0
 11
36.788890413
 21
-43.6
 31
0.0
  0
LINE
  5
15F
330
1D
100
AcDbEntity
  8
2
100
AcDbLine
 10
36.600001524
 20
-44.4
 30
0.0
 11
36.788890413
 21
-44.4
 31
0.0
  0
LINE
  5
160
330
1D
100
AcDbEntity
  8
2
100
AcDbLine
 10
3.5
 20
-44.0
 30
0.0
 11
36.500001524
 21
-44.0
 31
0.0
  0
TEXT
  5
161
330
1D
100
AcDbEntity
  8
2
100
AcDbText
 10
18.335312815
 20
-42.5
 30
0.0
 40
3.5
  1
40
  7
BMG_Text
100
AcDbText
  0
LINE
  5
162
330
1D
100
AcDbEntity
  8
2
100
AcDbLine
 10
40.000001524
 20
-46.0
 30
0.0
 11
40.000001524
 21
-31.75
 31
0.0
  0
LINE
  5
163
330
1D
100
AcDbEntity
  8
2
100
AcDbLine
 10
40.000001524
 20
-44.0
 30
0.0
 11
43.500001524
 21
-43.55
 31
0.0
  0
LINE
  5
164
330
1D
100
AcDbEntity
  8
2
100
AcDbLine
 10
43.500001524
 20
-43.55
 30
0.0
 11
43.500001524
 21
-44.45
 31
0.0
  0
LINE
  5
165
330
1D
100
AcDbEntity
  8
2
100
AcDbLine
 10
43.500001524
 20
-44.45
 30
0.0
 11
40.000001524
 21
-44.0
 31
0.0
  0
LINE
  5
166
330
1D
100
AcDbEntity
  8
2
100
AcDbLine
 10
43.400001524
 20
-44.0
 30
0.0
 11
40.100001524
 21
-44.0
 31
0.0
  0
LINE
  5
167
330
1D
100
AcDbEntity
  8
2
100
AcDbLine
 10
43.400001524
 20
-44.2
 30
0.0
 11
41.65555708
 21
-44.2
 31
0.0
  0
LINE
  5
168
330
1D
100
AcDbEntity
  8
2
100
AcDbLine
 10
43.400001524
 20
-43.8
 30
0.0
 11
41.65555708
 21
-43.8
 31
0.0
  0
LINE
  5
169
330
1D
100
AcDbEntity
  8
2
100
AcDbLine
 10
43.400001524
 20
-44.4
 30
0.0
 11
43.211112635
 21
-44.4
 31
0.0
  0
LINE
  5
16A
330
1D
100
AcDbEntity
  8
2
100
AcDbLine
 10
43.400001524
 20
-43.6
 30
0.0
 11
43.211112635
 21
-43.6
 31
0.0
  0
LINE
  5
16B
330
1D
100
AcDbEntity
  8
2
100
AcDbLine
 10
43.500001524
 20
-44.0
 30
0.0
 11
71.834001524
 21
-44.0
 31
0.0
  0
TEXT
  5
16C
330
1D
100
AcDbEntity
  8
2
100
AcDbText
 10
70.989121854
 20
-42.122434378
 30
0.0
 40
3.5
  1
90
  7
BMG_Text
100
AcDbText
  0
TEXT
  5
16D
330
1D
100
AcDbEntity
  8
2
100
AcDbText
 10
45.269121854
 20
-42.122434378
 30
0.0
 40
3.5
  1
Ausdrehtiefe
  7
BMG_Text
100
AcDbText
  0
LINE
  5
16E
330
1D
100
AcDbEntity
  8
2
100
AcDbLine
 10
82.000001512
 20
-24.625
 30
0.0
 11
34.000001512
 21
-24.625
 31
0.0
  0
LINE
  5
16F
330
1D
100
AcDbEntity
  8
2
100
AcDbLine
 10
80.000001512
 20
-24.625
 30
0.0
 11
79.550001512
 21
-21.125
 31
0.0
  0
LINE
  5
170
330
1D
100
AcDbEntity
  8
2
100
AcDbLine
 10
79.550001512
 20
-21.125
 30
0.0
 11
80.450001512
 21
-21.125
 31
0.0
  0
LINE
  5
171
330
1D
100
AcDbEntity
  8
2
100
AcDbLine
 10
80.450001512
 20
-21.125
 30
0.0
 11
80.000001512
 21
-24.625
 31
0.0
  0
LINE
  5
172
330
1D
100
AcDbEntity
  8
2
100
AcDbLine
 10
80.000001512
 20
-21.225
 30
0.0
 11
80.000001512
 21
-24.525
 31
0.0
  0
LINE
  5
173
330
1D
100
AcDbEntity
  8
2
100
AcDbLine
 10
80.200001512
 20
-21.225
 30
0.0
 11
80.200001512
 21
-22.969444444
 31
0.0
  0
LINE
  5
174
330
1D
100
AcDbEntity
  8
2
100
AcDbLine
 10
79.800001512
 20
-21.225
 30
0.0
 11
79.800001512
 21
-22.969444444
 31
0.0
  0
LINE
  5
175
330
1D
100
AcDbEntity
  8
2
100
AcDbLine
 10
80.400001512
 20
-21.225
 30
0.0
 11
80.400001512
 21
-21.413888889
 31
0.0
  0
LINE
  5
176
330
1D
100
AcDbEntity
  8
2
100
AcDbLine
 10
79.600001512
 20
-21.225
 30
0.0
 11
79.600001512
 21
-21.413888889
 31
0.0
  0
LINE
  5
177
330
1D
100
AcDbEntity
  8
2
100
AcDbLine
 10
82.000001512
 20
24.625
 30
0.0
 11
34.000001512
 21
24.625
 31
0.0
  0
LINE
  5
178
330
1D
100
AcDbEntity
  8
2
100
AcDbLine
 10
80.000001512
 20
24.625
 30
0.0
 11
80.450001512
 21
21.125
 31
0.0
  0
LINE
  5
179
330
1D
100
AcDbEntity
  8
2
100
AcDbLine
 10
80.450001512
 20
21.125
 30
0.0
 11
79.550001512
 21
21.125
 31
0.0
  0
LINE
  5
17A
330
1D
100
AcDbEntity
  8
2
100
AcDbLine
 10
79.550001512
 20
21.125
 30
0.0
 11
80.000001512
 21
24.625
 31
0.0
  0
LINE
  5
17B
330
1D
100
AcDbEntity
  8
2
100
AcDbLine
 10
80.000001512
 20
21.225
 30
0.0
 11
80.000001512
 21
24.525
 31
0.0
  0
LINE
  5
17C
330
1D
100
AcDbEntity
  8
2
100
AcDbLine
 10
79.800001512
 20
21.225
 30
0.0
 11
79.800001512
 21
22.969444444
 31
0.0
  0
LINE
  5
17D
330
1D
100
AcDbEntity
  8
2
100
AcDbLine
 10
80.200001512
 20
21.225
 30
0.0
 11
80.200001512
 21
22.969444444
 31
0.0
  0
LINE
  5
17E
330
1D
100
AcDbEntity
  8
2
100
AcDbLine
 10
79.600001512
 20
21.225
 30
0.0
 11
79.600001512
 21
21.413888889
 31
0.0
  0
LINE
  5
17F
330
1D
100
AcDbEntity
  8
2
100
AcDbLine
 10
80.400001512
 20
21.225
 30
0.0
 11
80.400001512
 21
21.413888889
 31
0.0
  0
LINE
  5
180
330
1D
100
AcDbEntity
  8
2
100
AcDbLine
 10
80.000001512
 20
-21.125
 30
0.0
 11
80.000001512
 21
21.125
 31
0.0
  0
TEXT
  5
181
330
1D
100
AcDbEntity
  8
2
100
AcDbText
 10
78.500001512
 20
-1.3639068
 30
0.0
 40
3.5
  1
49.5
 50
90.0
  7
BMG_Text
100
AcDbText
  0
CIRCLE
  5
182
330
1D
100
AcDbEntity
  8
2
100
AcDbCircle
 10
77.250001512
 20
-3.6139068
 30
0.0
 40
1.25
  0
LINE
  5
183
330
1D
100
AcDbEntity
  8
2
100
AcDbLine
 10
78.500001512
 20
-4.8639068
 30
0.0
 11
76.000001512
 21
-2.3639068
 31
0.0
  0
TEXT
  5
184
330
1D
100
AcDbEntity
  8
SK6
100
AcDbText
 10
96.19897842845737
 20
-69.87469260168261
 30
0.0
 40
3.5
  1
323.821N
  7
BMG_Text
100
AcDbText
  0
LWPOLYLINE
  5
23B
330
1D
100
AcDbEntity
  8
INFTOTAL
100
AcDbPolyline
 90
        4
 70
     1
 43
0.0
 10
-109.2675769940976
 20
77.50275045185197
 10
-109.2675769940976
 20
-73.90008756524489
 10
126.2479488102752
 20
-73.90008756524489
 10
126.2479488102752
 20
77.50275045185197
  0
LINE
  5
23F
330
1D
100
AcDbEntity
  8
SK3
100
AcDbLine
 10
0.0
 20
13.0
 30
0.0
 11
-15.999998476
 21
13.0
 31
0.0
  0
LINE
  5
240
330
1D
100
AcDbEntity
  8
SK3
100
AcDbLine
 10
-1.999998476
 20
14.0
 30
0.0
 11
0.0
 21
14.0
 31
0.0
  0
LINE
  5
241
330
1D
100
AcDbEntity
  8
SK3
100
AcDbLine
 10
-1.999998476
 20
-14.0
 30
0.0
 11
0.0
 21
-14.0
 31
0.0
  0
LINE
  5
242
330
1D
100
AcDbEntity
  8
SK3
100
AcDbLine
 10
0.0
 20
-13.0
 30
0.0
 11
-15.999998476
 21
-13.0
 31
0.0
  0
LINE
  5
247
330
1D
100
AcDbEntity
  8
4
100
AcDbLine
 10
61.981985247
 20
0.0
 30
0.0
 11
0.0
 21
0.0
 31
0.0
  0
LINE
  5
248
330
1D
100
AcDbEntity
  8
4
100
AcDbLine
 10
42.950001524
 20
8.040226813
 30
0.0
 11
42.950001524
 21
-7.871675226
 31
0.0
  0
LINE
  5
269
330
1D
100
AcDbEntity
  8
1
100
AcDbLine
 10
0.0
 20
22.225006104
 30
0.0
 11
0.0
 21
-22.225006104
 31
0.0
  0
LINE
  5
27E
330
1D
100
AcDbEntity
  8
NOCUT
100
AcDbLine
 10
0.0
 20
0.0
 30
0.0
 11
59.000001524
 21
0.0
 31
0.0
  0
LINE
  5
27F
330
1D
100
AcDbEntity
  8
NOCUT
100
AcDbLine
 10
59.000001524
 20
0.0
 30
0.0
 11
59.000001524
 21
31.000006104
 31
0.0
  0
LINE
  5
280
330
1D
100
AcDbEntity
  8
NOCUT
100
AcDbLine
 10
59.000001524
 20
31.000006104
 30
0.0
 11
58.600001524
 21
31.4
 31
0.0
  0
LINE
  5
281
330
1D
100
AcDbEntity
  8
NOCUT
100
AcDbLine
 10
58.600001524
 20
31.4
 30
0.0
 11
57.000123594
 21
31.4
 31
0.0
  0
LINE
  5
282
330
1D
100
AcDbEntity
  8
NOCUT
100
AcDbLine
 10
57.000123594
 20
31.4
 30
0.0
 11
56.798109455
 21
31.75
 31
0.0
  0
LINE
  5
283
330
1D
100
AcDbEntity
  8
NOCUT
100
AcDbLine
 10
0.9969999999999999
 20
31.25
 30
0.0
 11
1.497
 21
31.75
 31
0.0
  0
LINE
  5
284
330
1D
100
AcDbEntity
  8
NOCUT
100
AcDbLine
 10
1.497
 20
31.75
 30
0.0
 11
7.578181670999996
 21
31.75
 31
0.0
  0
LINE
  5
285
330
1D
100
AcDbEntity
  8
NOCUT
100
AcDbLine
 10
7.578181670999996
 20
31.75
 30
0.0
 11
9.175006104000005
 21
28.98426054000001
 31
0.0
  0
LINE
  5
286
330
1D
100
AcDbEntity
  8
NOCUT
100
AcDbLine
 10
13.025006104
 20
28.984200546
 30
0.0
 11
14.62184596900001
 21
31.75
 31
0.0
  0
LINE
  5
287
330
1D
100
AcDbEntity
  8
NOCUT
100
AcDbLine
 10
14.62184596900001
 20
31.75
 30
0.0
 11
18.550006104
 21
31.75
 31
0.0
  0
LINE
  5
288
330
1D
100
AcDbEntity
  8
NOCUT
100
AcDbLine
 10
18.550006104
 20
31.75
 30
0.0
 11
19.050006104
 21
31.25
 31
0.0
  0
LINE
  5
289
330
1D
100
AcDbEntity
  8
NOCUT
100
AcDbLine
 10
35.000001524
 20
30.75
 30
0.0
 11
36.000001524
 21
31.75
 31
0.0
  0
ARC
  5
28A
330
1D
100
AcDbEntity
  8
NOCUT
100
AcDbCircle
 10
9.675006104000005
 20
28.5
 30
0.0
 40
0.5
100
AcDbArc
 50
180.0
 51
270.0
  0
LINE
  5
28B
330
1D
100
AcDbEntity
  8
NOCUT
100
AcDbLine
 10
9.675006104000005
 20
28.0
 30
0.0
 11
12.525006104
 21
28.0
 31
0.0
  0
ARC
  5
28C
330
1D
100
AcDbEntity
  8
NOCUT
100
AcDbCircle
 10
12.525006104
 20
28.5
 30
0.0
 40
0.5
100
AcDbArc
 50
270.0
 51
0.0
  0
ARC
  5
28D
330
1D
100
AcDbEntity
  8
NOCUT
100
AcDbCircle
 10
20.05003025399999
 20
25.62493852599999
 30
0.0
 40
1.0
100
AcDbArc
 50
180.0002515859994
 51
270.0
  0
LINE
  5
28E
330
1D
100
AcDbEntity
  8
NOCUT
100
AcDbLine
 10
20.05003025399999
 20
24.625
 30
0.0
 11
34.000001512
 21
24.625
 31
0.0
  0
ARC
  5
28F
330
1D
100
AcDbEntity
  8
NOCUT
100
AcDbCircle
 10
34.000001524
 20
25.625
 30
0.0
 40
1.0
100
AcDbArc
 50
269.9999993170005
 51
0.0
  0
LINE
  5
290
330
1D
100
AcDbEntity
  8
NOCUT
100
AcDbLine
 10
56.79810945500002
 20
31.75
 30
0.0
 11
36.000001524
 21
31.75
 31
0.0
  0
LINE
  5
292
330
1D
100
AcDbEntity
  8
NOCUT
100
AcDbLine
 10
9.175006104000005
 20
28.98426054000001
 30
0.0
 11
9.175006104
 21
28.5
 31
0.0
  0
LINE
  5
293
330
1D
100
AcDbEntity
  8
NOCUT
100
AcDbLine
 10
13.025006104
 20
28.984200546
 30
0.0
 11
13.025006104
 21
28.5
 31
0.0
  0
LINE
  5
294
330
1D
100
AcDbEntity
  8
NOCUT
100
AcDbLine
 10
19.050006104
 20
31.25
 30
0.0
 11
19.05003025400963
 21
25.62493413499595
 31
0.0
  0
LINE
  5
295
330
1D
100
AcDbEntity
  8
NOCUT
100
AcDbLine
 10
35.000001524
 20
25.625
 30
0.0
 11
35.000001524
 21
30.75
 31
0.0
  0
LINE
  5
296
330
1D
100
AcDbEntity
  8
NOCUT
100
AcDbLine
 10
0.0
 20
0.0
 30
0.0
 11
0.0
 21
22.225006104
 31
0.0
  0
LINE
  5
297
330
1D
100
AcDbEntity
  8
NOCUT
100
AcDbLine
 10
0.0
 20
22.225006104
 30
0.0
 11
0.153559494
 21
22.071446609
 31
0.0
  0
ARC
  5
298
330
1D
100
AcDbEntity
  8
NOCUT
100
AcDbCircle
 10
0.5071128849999997
 20
22.425
 30
0.0
 40
0.5
100
AcDbArc
 50
224.9999999999999
 51
270.0
  0
LINE
  5
299
330
1D
100
AcDbEntity
  8
NOCUT
100
AcDbLine
 10
0.5071128849999997
 20
21.925
 30
0.0
 11
0.7970000000000002
 21
21.925
 31
0.0
  0
ARC
  5
29A
330
1D
100
AcDbEntity
  8
NOCUT
100
AcDbCircle
 10
0.7970000000000002
 20
22.425
 30
0.0
 40
0.5
100
AcDbArc
 50
269.9999999999999
 51
293.5781784779999
  0
LINE
  5
29C
330
1D
100
AcDbEntity
  8
NOCUT
100
AcDbLine
 10
0.9969999999983845
 20
21.96674243050371
 30
0.0
 11
0.997
 21
31.25
 31
0.0
  0
ENDSEC
  0
SECTION
  2
OBJECTS
  0
DICTIONARY
  5
C
330
0
100
AcDbDictionary
281
     1
  3
ACAD_DETAILVIEWSTYLE
350
225
  3
ACAD_GROUP
350
D
  3
ACAD_LAYOUT
350
1A
  3
ACAD_MATERIAL
350
1C2
  3
ACAD_MLEADERSTYLE
350
1CF
  3
ACAD_MLINESTYLE
350
17
  3
ACAD_PLOTSETTINGS
350
19
  3
ACAD_PLOTSTYLENAME
350
E
  3
ACAD_SCALELIST
350
18B
  3
ACAD_SECTIONVIEWSTYLE
350
226
  3
ACAD_TABLESTYLE
350
218
  3
ACAD_VISUALSTYLE
350
1B1
  3
ACDB_RECOMPOSE_DATA
350
32E
  3
AcDbVariableDictionary
350
1CD
  3
APPDATA
350
21B
  0
SUN
  5
23C
330
185
100
AcDbSun
 90
        1
290
     0
 63
     7
421
 16777215
 40
1.0
291
     1
 91
  2455826
 92
 54000000
292
     0
 70
     2
 71
   256
280
     1
  0
DICTIONARY
  5
21C
330
2
100
AcDbDictionary
280
     1
281
     1
  3
ACAD_LAYERSTATES
360
21D
  0
DICTIONARY
  5
225
102
{ACAD_REACTORS
330
C
102
}
330
C
100
AcDbDictionary
281
     1
  0
DICTIONARY
  5
D
102
{ACAD_REACTORS
330
C
102
}
330
C
100
AcDbDictionary
281
     1
  0
DICTIONARY
  5
1A
102
{ACAD_REACTORS
330
C
102
}
330
C
100
AcDbDictionary
281
     1
  3
Layout1
350
1C
  3
Model
350
1E
  0
DICTIONARY
  5
1C2
102
{ACAD_REACTORS
330
C
102
}
330
C
100
AcDbDictionary
281
     1
  3
ByBlock
350
1C4
  3
ByLayer
350
1C3
  3
Global
350
1C5
  0
DICTIONARY
  5
1CF
102
{ACAD_REACTORS
330
C
102
}
330
C
100
AcDbDictionary
281
     1
  3
Standard
350
21A
  0
DICTIONARY
  5
17
102
{ACAD_REACTORS
330
C
102
}
330
C
100
AcDbDictionary
281
     1
  3
Standard
350
18
  0
DICTIONARY
  5
19
102
{ACAD_REACTORS
330
C
102
}
330
C
100
AcDbDictionary
281
     1
  0
ACDBDICTIONARYWDFLT
  5
E
102
{ACAD_REACTORS
330
C
102
}
330
C
100
AcDbDictionary
281
     1
  3
Normal
350
F
100
AcDbDictionaryWithDefault
340
F
  0
DICTIONARY
  5
18B
102
{ACAD_REACTORS
330
C
102
}
330
C
100
AcDbDictionary
281
     1
  3
A0
350
18C
  3
A1
350
18D
  3
A2
350
18E
  3
A3
350
18F
  3
A4
350
190
  3
A5
350
191
  3
A6
350
192
  3
A7
350
193
  3
A8
350
194
  3
A9
350
195
  3
B0
350
196
  3
B1
350
197
  3
B2
350
198
  3
B3
350
199
  3
B4
350
19A
  3
B5
350
19B
  3
B6
350
19C
  3
B7
350
19D
  3
B8
350
19E
  3
B9
350
19F
  3
C0
350
1A0
  3
C1
350
1A1
  3
C2
350
1A2
  3
C3
350
1A3
  3
C4
350
1A4
  3
C5
350
1A5
  3
C6
350
1A6
  3
C7
350
1A7
  3
C8
350
1A8
  3
C9
350
1A9
  3
D0
350
1AA
  3
D1
350
1AB
  3
D2
350
1AC
  0
DICTIONARY
  5
226
102
{ACAD_REACTORS
330
C
102
}
330
C
100
AcDbDictionary
281
     1
  0
DICTIONARY
  5
218
102
{ACAD_REACTORS
330
C
102
}
330
C
100
AcDbDictionary
281
     1
  3
Standard
350
219
  0
DICTIONARY
  5
1B1
102
{ACAD_REACTORS
330
C
102
}
330
C
100
AcDbDictionary
281
     1
  3
2dWireframe
350
1B6
  3
3D Hidden
350
1B8
  3
3dWireframe
350
1B7
  3
Basic
350
1B9
  3
Brighten
350
1BD
  3
ColorChange
350
1C1
  3
Conceptual
350
1BB
  3
Dim
350
1BC
  3
EdgeColorOff
350
212
  3
Facepattern
350
1C0
  3
Flat
350
1B2
  3
FlatWithEdges
350
1B3
  3
Gouraud
350
1B4
  3
GouraudWithEdges
350
1B5
  3
Hidden
350
20F
  3
JitterOff
350
210
  3
Linepattern
350
1BF
  3
OverhangOff
350
211
  3
Realistic
350
1BA
  3
Shaded
350
217
  3
Shaded with edges
350
216
  3
Shades of Gray
350
213
  3
Sketchy
350
214
  3
Thicken
350
1BE
  3
Wireframe
350
20E
  3
X-Ray
350
215
  0
XRECORD
  5
32E
102
{ACAD_REACTORS
330
C
102
}
330
C
100
AcDbXrecord
280
     1
 90
        1
330
219
  0
DICTIONARY
  5
1CD
102
{ACAD_REACTORS
330
C
102
}
330
C
100
AcDbDictionary
281
     1
  3
CANNOSCALE
350
222
  3
CMLEADERSTYLE
350
224
  3
CTABLESTYLE
350
223
  3
DIMASSOC
350
1D1
  3
HIDETEXT
350
1D2
  3
MSLTSCALE
350
1D0
  0
DICTIONARY
  5
21B
102
{ACAD_REACTORS
330
C
102
}
330
C
100
AcDbDictionary
281
     1
  0
DICTIONARY
  5
21D
102
{ACAD_REACTORS
330
21C
102
}
330
21C
100
AcDbDictionary
281
     1
  0
LAYOUT
  5
1C
102
{ACAD_REACTORS
330
1A
102
}
330
1A
100
AcDbPlotSettings
  1

  2
none_device
  4

  6

 40
0.0
 41
0.0
 42
0.0
 43
0.0
 44
0.0
 45
0.0
 46
0.0
 47
0.0
 48
0.0
 49
0.0
140
0.0
141
0.0
142
1.0
143
1.0
 70
   688
 72
     0
 73
     0
 74
     5
  7

 75
    16
 76
     0
 77
     2
 78
   300
147
1.0
148
0.0
149
0.0
100
AcDbLayout
  1
Layout1
 70
     1
 71
     1
 10
0.0
 20
0.0
 11
12.0
 21
9.0
 12
0.0
 22
0.0
 32
0.0
 14
1.000000000000000E+20
 24
1.000000000000000E+20
 34
1.000000000000000E+20
 15
-1.000000000000000E+20
 25
-1.000000000000000E+20
 35
-1.000000000000000E+20
146
0.0
 13
0.0
 23
0.0
 33
0.0
 16
1.0
 26
0.0
 36
0.0
 17
0.0
 27
1.0
 37
0.0
 76
     0
330
1B
  0
LAYOUT
  5
1E
102
{ACAD_REACTORS
330
1A
102
}
330
1A
100
AcDbPlotSettings
  1

  2
none_device
  4

  6

 40
0.0
 41
0.0
 42
0.0
 43
0.0
 44
0.0
 45
0.0
 46
0.0
 47
0.0
 48
0.0
 49
0.0
140
0.0
141
0.0
142
1.0
143
1.0
 70
  1712
 72
     0
 73
     0
 74
     0
  7

 75
     0
 76
     0
 77
     2
 78
   300
147
1.0
148
0.0
149
0.0
100
AcDbLayout
  1
Model
 70
     1
 71
     0
 10
0.0
 20
0.0
 11
12.0
 21
9.0
 12
0.0
 22
0.0
 32
0.0
 14
-109.2675769940976
 24
-73.90008756524489
 34
0.0
 15
126.2479488102752
 25
77.50275045185197
 35
0.0
146
0.0
 13
0.0
 23
0.0
 33
0.0
 16
1.0
 26
0.0
 36
0.0
 17
0.0
 27
1.0
 37
0.0
 76
     0
330
1D
331
185
  0
MATERIAL
  5
1C4
102
{ACAD_REACTORS
330
1C2
102
}
330
1C2
100
AcDbMaterial
  1
ByBlock
 72
     1
 94
      127
  0
MATERIAL
  5
1C3
102
{ACAD_REACTORS
330
1C2
102
}
330
1C2
100
AcDbMaterial
  1
ByLayer
 72
     1
 94
      127
  0
MATERIAL
  5
1C5
102
{ACAD_REACTORS
330
1C2
102
}
330
1C2
100
AcDbMaterial
  1
Global
 72
     1
 94
      127
  0
MLEADERSTYLE
  5
21A
102
{ACAD_REACTORS
330
1CF
102
}
330
1CF
100
AcDbMLeaderStyle
179
     2
170
     2
171
     1
172
     0
 90
        2
 40
0.0
 41
0.0
173
     1
 91
-1056964608
340
14
 92
       -2
290
     1
 42
0.09
291
     1
 43
0.36
  3
Standard
341
0
 44
0.18
300

342
11
174
     1
178
     1
175
     1
176
     0
 93
-1056964608
 45
0.18
292
     0
297
     0
 46
0.18
343
0
 94
-1056964608
 47
1.0
 49
1.0
140
1.0
293
     1
141
0.0
294
     1
177
     0
142
1.0
295
     0
296
     0
143
0.125
271
     0
272
     9
273
     9
298
     0
  0
MLINESTYLE
  5
18
102
{ACAD_REACTORS
330
17
102
}
330
17
100
AcDbMlineStyle
  2
Standard
 70
     0
  3

 62
   256
 51
90.0
 52
90.0
 71
     2
 49
0.5
 62
   256
  6
BYLAYER
 49
-0.5
 62
   256
  6
BYLAYER
  0
ACDBPLACEHOLDER
  5
F
102
{ACAD_REACTORS
330
E
102
}
330
E
  0
SCALE
  5
18C
102
{ACAD_REACTORS
330
18B
102
}
330
18B
100
AcDbScale
 70
     0
300
1:1
140
1.0
141
1.0
290
     1
  0
SCALE
  5
18D
102
{ACAD_REACTORS
330
18B
102
}
330
18B
100
AcDbScale
 70
     0
300
1:2
140
1.0
141
2.0
290
     0
  0
SCALE
  5
18E
102
{ACAD_REACTORS
330
18B
102
}
330
18B
100
AcDbScale
 70
     0
300
1:4
140
1.0
141
4.0
290
     0
  0
SCALE
  5
18F
102
{ACAD_REACTORS
330
18B
102
}
330
18B
100
AcDbScale
 70
     0
300
1:5
140
1.0
141
5.0
290
     0
  0
SCALE
  5
190
102
{ACAD_REACTORS
330
18B
102
}
330
18B
100
AcDbScale
 70
     0
300
1:8
140
1.0
141
8.0
290
     0
  0
SCALE
  5
191
102
{ACAD_REACTORS
330
18B
102
}
330
18B
100
AcDbScale
 70
     0
300
1:10
140
1.0
141
10.0
290
     0
  0
SCALE
  5
192
102
{ACAD_REACTORS
330
18B
102
}
330
18B
100
AcDbScale
 70
     0
300
1:16
140
1.0
141
16.0
290
     0
  0
SCALE
  5
193
102
{ACAD_REACTORS
330
18B
102
}
330
18B
100
AcDbScale
 70
     0
300
1:20
140
1.0
141
20.0
290
     0
  0
SCALE
  5
194
102
{ACAD_REACTORS
330
18B
102
}
330
18B
100
AcDbScale
 70
     0
300
1:30
140
1.0
141
30.0
290
     0
  0
SCALE
  5
195
102
{ACAD_REACTORS
330
18B
102
}
330
18B
100
AcDbScale
 70
     0
300
1:40
140
1.0
141
40.0
290
     0
  0
SCALE
  5
196
102
{ACAD_REACTORS
330
18B
102
}
330
18B
100
AcDbScale
 70
     0
300
1:50
140
1.0
141
50.0
290
     0
  0
SCALE
  5
197
102
{ACAD_REACTORS
330
18B
102
}
330
18B
100
AcDbScale
 70
     0
300
1:100
140
1.0
141
100.0
290
     0
  0
SCALE
  5
198
102
{ACAD_REACTORS
330
18B
102
}
330
18B
100
AcDbScale
 70
     0
300
2:1
140
2.0
141
1.0
290
     0
  0
SCALE
  5
199
102
{ACAD_REACTORS
330
18B
102
}
330
18B
100
AcDbScale
 70
     0
300
4:1
140
4.0
141
1.0
290
     0
  0
SCALE
  5
19A
102
{ACAD_REACTORS
330
18B
102
}
330
18B
100
AcDbScale
 70
     0
300
8:1
140
8.0
141
1.0
290
     0
  0
SCALE
  5
19B
102
{ACAD_REACTORS
330
18B
102
}
330
18B
100
AcDbScale
 70
     0
300
10:1
140
10.0
141
1.0
290
     0
  0
SCALE
  5
19C
102
{ACAD_REACTORS
330
18B
102
}
330
18B
100
AcDbScale
 70
     0
300
100:1
140
100.0
141
1.0
290
     0
  0
SCALE
  5
19D
102
{ACAD_REACTORS
330
18B
102
}
330
18B
100
AcDbScale
 70
     0
300
1/128" = 1'-0"
140
0.0078125
141
12.0
290
     0
  0
SCALE
  5
19E
102
{ACAD_REACTORS
330
18B
102
}
330
18B
100
AcDbScale
 70
     0
300
1/64" = 1'-0"
140
0.015625
141
12.0
290
     0
  0
SCALE
  5
19F
102
{ACAD_REACTORS
330
18B
102
}
330
18B
100
AcDbScale
 70
     0
300
1/32" = 1'-0"
140
0.03125
141
12.0
290
     0
  0
SCALE
  5
1A0
102
{ACAD_REACTORS
330
18B
102
}
330
18B
100
AcDbScale
 70
     0
300
1/16" = 1'-0"
140
0.0625
141
12.0
290
     0
  0
SCALE
  5
1A1
102
{ACAD_REACTORS
330
18B
102
}
330
18B
100
AcDbScale
 70
     0
300
3/32" = 1'-0"
140
0.09375
141
12.0
290
     0
  0
SCALE
  5
1A2
102
{ACAD_REACTORS
330
18B
102
}
330
18B
100
AcDbScale
 70
     0
300
1/8" = 1'-0"
140
0.125
141
12.0
290
     0
  0
SCALE
  5
1A3
102
{ACAD_REACTORS
330
18B
102
}
330
18B
100
AcDbScale
 70
     0
300
3/16" = 1'-0"
140
0.1875
141
12.0
290
     0
  0
SCALE
  5
1A4
102
{ACAD_REACTORS
330
18B
102
}
330
18B
100
AcDbScale
 70
     0
300
1/4" = 1'-0"
140
0.25
141
12.0
290
     0
  0
SCALE
  5
1A5
102
{ACAD_REACTORS
330
18B
102
}
330
18B
100
AcDbScale
 70
     0
300
3/8" = 1'-0"
140
0.375
141
12.0
290
     0
  0
SCALE
  5
1A6
102
{ACAD_REACTORS
330
18B
102
}
330
18B
100
AcDbScale
 70
     0
300
1/2" = 1'-0"
140
0.5
141
12.0
290
     0
  0
SCALE
  5
1A7
102
{ACAD_REACTORS
330
18B
102
}
330
18B
100
AcDbScale
 70
     0
300
3/4" = 1'-0"
140
0.75
141
12.0
290
     0
  0
SCALE
  5
1A8
102
{ACAD_REACTORS
330
18B
102
}
330
18B
100
AcDbScale
 70
     0
300
1" = 1'-0"
140
1.0
141
12.0
290
     0
  0
SCALE
  5
1A9
102
{ACAD_REACTORS
330
18B
102
}
330
18B
100
AcDbScale
 70
     0
300
1-1/2" = 1'-0"
140
1.5
141
12.0
290
     0
  0
SCALE
  5
1AA
102
{ACAD_REACTORS
330
18B
102
}
330
18B
100
AcDbScale
 70
     0
300
3" = 1'-0"
140
3.0
141
12.0
290
     0
  0
SCALE
  5
1AB
102
{ACAD_REACTORS
330
18B
102
}
330
18B
100
AcDbScale
 70
     0
300
6" = 1'-0"
140
6.0
141
12.0
290
     0
  0
SCALE
  5
1AC
102
{ACAD_REACTORS
330
18B
102
}
330
18B
100
AcDbScale
 70
     0
300
1'-0" = 1'-0"
140
12.0
141
12.0
290
     0
  0
TABLESTYLE
  5
219
102
{ACAD_REACTORS
330
218
102
}
102
{ACAD_XDICTIONARY
360
32C
102
}
330
218
100
AcDbTableStyle
  3
Standard
 70
     0
 71
     0
 40
0.06
 41
0.06
280
     0
281
     0
  7
Standard
140
0.18
170
     2
 62
     0
 63
   257
283
     0
 90
        4
 91
        0
  1

274
    -2
284
     1
 64
     0
275
    -2
285
     1
 65
     0
276
    -2
286
     1
 66
     0
277
    -2
287
     1
 67
     0
278
    -2
288
     1
 68
     0
279
    -2
289
     1
 69
     0
  7
Standard
140
0.25
170
     5
 62
     0
 63
   257
283
     0
 90
        4
 91
        0
  1

274
    -2
284
     1
 64
     0
275
    -2
285
     1
 65
     0
276
    -2
286
     1
 66
     0
277
    -2
287
     1
 67
     0
278
    -2
288
     1
 68
     0
279
    -2
289
     1
 69
     0
  7
Standard
140
0.18
170
     5
 62
     0
 63
   257
283
     0
 90
        4
 91
        0
  1

274
    -2
284
     1
 64
     0
275
    -2
285
     1
 65
     0
276
    -2
286
     1
 66
     0
277
    -2
287
     1
 67
     0
278
    -2
288
     1
 68
     0
279
    -2
289
     1
 69
     0
  0
VISUALSTYLE
  5
1B6
102
{ACAD_REACTORS
330
1B1
102
}
330
1B1
100
AcDbVisualStyle
  2
2dWireframe
 70
     4
177
     3
291
     0
 70
    58
 90
        0
176
     1
 90
        2
176
     1
 90
        0
176
     1
 90
        0
176
     1
 40
-0.6
176
     1
 40
-30.0
176
     1
 62
     7
176
     1
 90
        1
176
     1
 90
        4
176
     1
 62
     7
176
     1
 62
   257
176
     1
 90
        1
176
     1
 90
        1
176
     1
 40
1.0
176
     1
 90
        0
176
     1
 62
   257
176
     1
 40
1.0
176
     1
 90
        1
176
     1
 90
        6
176
     1
 90
        2
176
     1
 62
     7
176
     1
 90
        5
176
     1
 90
        0
176
     1
 90
        0
176
     1
290
     0
176
     1
 90
        1
176
     1
 40
0.0
176
     1
 90
        0
176
     1
290
     1
176
     1
290
     1
176
     1
290
     0
176
     1
290
     0
176
     1
290
     0
176
     1
290
     0
176
     1
290
     0
176
     1
290
     0
176
     1
290
     0
176
     1
 90
       50
176
     1
 40
0.0
176
     1
 40
1.0
176
     1
 90
        0
176
     1
 62
    18
420
        0
176
     1
 90
       50
176
     1
 90
        3
176
     1
 62
     5
420
      255
176
     1
290
     0
176
     1
 90
       50
176
     1
 90
       50
176
     1
 90
       50
176
     1
290
     0
176
     1
 90
       50
176
     1
 62
   256
176
     0
 40
1.0
176
     0
 90
        2
176
     1
  1
strokes_ogs.tif
176
     1
290
     0
176
     1
 40
1.0
176
     1
 40
1.0
176
     1
  0
VISUALSTYLE
  5
1B8
102
{ACAD_REACTORS
330
1B1
102
}
330
1B1
100
AcDbVisualStyle
  2
3D Hidden
 70
     6
177
     3
291
     0
 70
    58
 90
        1
176
     1
 90
        2
176
     1
 90
        2
176
     1
 90
        0
176
     1
 40
-0.6
176
     1
 40
-30.0
176
     1
 62
     7
176
     1
 90
        2
176
     1
 90
        2
176
     1
 62
     7
176
     1
 62
   257
176
     1
 90
        2
176
     1
 90
        1
176
     1
 40
40.0
176
     1
 90
        0
176
     1
 62
   257
176
     1
 40
1.0
176
     1
 90
        1
176
     1
 90
        6
176
     1
 90
        2
176
     1
 62
     7
176
     1
 90
        3
176
     1
 90
        0
176
     1
 90
        0
176
     1
290
     0
176
     1
 90
        1
176
     1
 40
0.0
176
     1
 90
        0
176
     1
290
     0
176
     1
290
     1
176
     1
290
     1
176
     1
290
     0
176
     1
290
     0
176
     1
290
     0
176
     1
290
     0
176
     1
290
     0
176
     1
290
     0
176
     1
 90
       50
176
     1
 40
0.0
176
     1
 40
1.0
176
     1
 90
        0
176
     1
 62
    18
420
        0
176
     1
 90
       50
176
     1
 90
        3
176
     1
 62
     5
420
      255
176
     1
290
     0
176
     1
 90
       50
176
     1
 90
       50
176
     1
 90
       50
176
     1
290
     0
176
     1
 90
       50
176
     1
 62
   256
176
     0
 40
1.0
176
     0
 90
        2
176
     1
  1
strokes_ogs.tif
176
     1
290
     0
176
     1
 40
1.0
176
     1
 40
1.0
176
     1
  0
VISUALSTYLE
  5
1B7
102
{ACAD_REACTORS
330
1B1
102
}
330
1B1
100
AcDbVisualStyle
  2
3dWireframe
 70
     5
177
     3
291
     0
 70
    58
 90
        0
176
     1
 90
        2
176
     1
 90
        0
176
     1
 90
        0
176
     1
 40
-0.6
176
     1
 40
-30.0
176
     1
 62
     7
176
     1
 90
        1
176
     1
 90
        4
176
     1
 62
     7
176
     1
 62
   257
176
     1
 90
        1
176
     1
 90
        1
176
     1
 40
1.0
176
     1
 90
        0
176
     1
 62
   257
176
     1
 40
1.0
176
     1
 90
        1
176
     1
 90
        6
176
     1
 90
        2
176
     1
 62
     7
176
     1
 90
        5
176
     1
 90
        0
176
     1
 90
        0
176
     1
290
     0
176
     1
 90
        1
176
     1
 40
0.0
176
     1
 90
        0
176
     1
290
     0
176
     1
290
     1
176
     1
290
     1
176
     1
290
     0
176
     1
290
     0
176
     1
290
     0
176
     1
290
     0
176
     1
290
     0
176
     1
290
     0
176
     1
 90
       50
176
     1
 40
0.0
176
     1
 40
1.0
176
     1
 90
        0
176
     1
 62
    18
420
        0
176
     1
 90
       50
176
     1
 90
        3
176
     1
 62
     5
420
      255
176
     1
290
     0
176
     1
 90
       50
176
     1
 90
       50
176
     1
 90
       50
176
     1
290
     0
176
     1
 90
       50
176
     1
 62
   256
176
     0
 40
1.0
176
     0
 90
        2
176
     1
  1
strokes_ogs.tif
176
     1
290
     0
176
     1
 40
1.0
176
     1
 40
1.0
176
     1
  0
VISUALSTYLE
  5
1B9
102
{ACAD_REACTORS
330
1B1
102
}
330
1B1
100
AcDbVisualStyle
  2
Basic
 70
     7
177
     3
291
     1
 70
    58
 90
        1
176
     1
 90
        0
176
     1
 90
        1
176
     1
 90
        0
176
     1
 40
-0.6
176
     1
 40
-30.0
176
     1
 62
     7
176
     1
 90
        0
176
     1
 90
        4
176
     1
 62
     7
176
     1
 62
   257
176
     1
 90
        1
176
     1
 90
        1
176
     1
 40
1.0
176
     1
 90
        8
176
     1
 62
     7
176
     1
 40
1.0
176
     1
 90
        1
176
     1
 90
        6
176
     1
 90
        2
176
     1
 62
     7
176
     1
 90
        5
176
     1
 90
        0
176
     1
 90
        0
176
     1
290
     0
176
     1
 90
        1
176
     1
 40
0.0
176
     1
 90
        0
176
     1
290
     0
176
     1
290
     1
176
     1
290
     1
176
     1
290
     0
176
     1
290
     0
176
     1
290
     0
176
     1
290
     0
176
     1
290
     0
176
     1
290
     0
176
     1
 90
       50
176
     1
 40
0.0
176
     1
 40
1.0
176
     1
 90
        0
176
     1
 62
    18
420
        0
176
     1
 90
       50
176
     1
 90
        3
176
     1
 62
     5
420
      255
176
     1
290
     0
176
     1
 90
       50
176
     1
 90
       50
176
     1
 90
       50
176
     1
290
     0
176
     1
 90
       50
176
     1
 62
   256
176
     0
 40
1.0
176
     0
 90
        2
176
     1
  1
strokes_ogs.tif
176
     1
290
     0
176
     1
 40
1.0
176
     1
 40
1.0
176
     1
  0
VISUALSTYLE
  5
1BD
102
{ACAD_REACTORS
330
1B1
102
}
330
1B1
100
AcDbVisualStyle
  2
Brighten
 70
    12
177
     3
291
     1
 70
    58
 90
        2
176
     1
 90
        2
176
     1
 90
        0
176
     1
 90
        0
176
     1
 40
-0.6
176
     1
 40
-30.0
176
     1
 62
     7
176
     1
 90
        1
176
     1
 90
        4
176
     1
 62
     7
176
     1
 62
   257
176
     1
 90
        1
176
     1
 90
        1
176
     1
 40
1.0
176
     1
 90
        8
176
     1
 62
     7
176
     1
 40
1.0
176
     1
 90
        1
176
     1
 90
        6
176
     1
 90
        2
176
     1
 62
     7
176
     1
 90
        5
176
     1
 90
        0
176
     1
 90
        0
176
     1
290
     0
176
     1
 90
        1
176
     1
 40
50.0
176
     1
 90
        0
176
     1
290
     0
176
     1
290
     1
176
     1
290
     1
176
     1
290
     0
176
     1
290
     0
176
     1
290
     0
176
     1
290
     0
176
     1
290
     0
176
     1
290
     0
176
     1
 90
       50
176
     1
 40
0.0
176
     1
 40
1.0
176
     1
 90
        0
176
     1
 62
    18
420
        0
176
     1
 90
       50
176
     1
 90
        3
176
     1
 62
     5
420
      255
176
     1
290
     0
176
     1
 90
       50
176
     1
 90
       50
176
     1
 90
       50
176
     1
290
     0
176
     1
 90
       50
176
     1
 62
   256
176
     0
 40
1.0
176
     0
 90
        2
176
     1
  1
strokes_ogs.tif
176
     1
290
     0
176
     1
 40
1.0
176
     1
 40
1.0
176
     1
  0
VISUALSTYLE
  5
1C1
102
{ACAD_REACTORS
330
1B1
102
}
330
1B1
100
AcDbVisualStyle
  2
ColorChange
 70
    16
177
     3
291
     1
 70
    58
 90
        2
176
     1
 90
        2
176
     1
 90
        3
176
     1
 90
        0
176
     1
 40
-0.6
176
     1
 40
-30.0
176
     1
 62
     8
176
     1
 90
        1
176
     1
 90
        4
176
     1
 62
     7
176
     1
 62
   257
176
     1
 90
        1
176
     1
 90
        1
176
     1
 40
1.0
176
     1
 90
        8
176
     1
 62
     8
176
     1
 40
1.0
176
     1
 90
        1
176
     1
 90
        6
176
     1
 90
        2
176
     1
 62
     7
176
     1
 90
        5
176
     1
 90
        0
176
     1
 90
        0
176
     1
290
     0
176
     1
 90
        1
176
     1
 40
0.0
176
     1
 90
        0
176
     1
290
     0
176
     1
290
     1
176
     1
290
     1
176
     1
290
     0
176
     1
290
     0
176
     1
290
     0
176
     1
290
     0
176
     1
290
     0
176
     1
290
     0
176
     1
 90
       50
176
     1
 40
0.0
176
     1
 40
1.0
176
     1
 90
        0
176
     1
 62
    18
420
        0
176
     1
 90
       50
176
     1
 90
        3
176
     1
 62
     5
420
      255
176
     1
290
     0
176
     1
 90
       50
176
     1
 90
       50
176
     1
 90
       50
176
     1
290
     0
176
     1
 90
       50
176
     1
 62
   256
176
     0
 40
1.0
176
     0
 90
        2
176
     1
  1
strokes_ogs.tif
176
     1
290
     0
176
     1
 40
1.0
176
     1
 40
1.0
176
     1
  0
VISUALSTYLE
  5
1BB
102
{ACAD_REACTORS
330
1B1
102
}
330
1B1
100
AcDbVisualStyle
  2
Conceptual
 70
     9
177
     3
291
     0
 70
    58
 90
        3
176
     1
 90
        2
176
     1
 90
        0
176
     1
 90
        0
176
     1
 40
-0.6
176
     1
 40
-30.0
176
     1
 62
     7
176
     1
 90
        2
176
     1
 90
        2
176
     1
 62
     7
176
     1
 62
   257
176
     1
 90
        1
176
     1
 90
        1
176
     1
 40
40.0
176
     1
 90
        8
176
     1
 62
     7
176
     1
 40
1.0
176
     1
 90
        1
176
     1
 90
        6
176
     1
 90
        2
176
     1
 62
     7
176
     1
 90
        3
176
     1
 90
        0
176
     1
 90
        0
176
     1
290
     0
176
     1
 90
        1
176
     1
 40
0.0
176
     1
 90
        0
176
     1
290
     0
176
     1
290
     1
176
     1
290
     1
176
     1
290
     0
176
     1
290
     0
176
     1
290
     0
176
     1
290
     0
176
     1
290
     0
176
     1
290
     0
176
     1
 90
       50
176
     1
 40
0.0
176
     1
 40
1.0
176
     1
 90
        0
176
     1
 62
    18
420
        0
176
     1
 90
       50
176
     1
 90
        3
176
     1
 62
     5
420
      255
176
     1
290
     0
176
     1
 90
       50
176
     1
 90
       50
176
     1
 90
       50
176
     1
290
     0
176
     1
 90
       50
176
     1
 62
   256
176
     0
 40
1.0
176
     0
 90
        2
176
     1
  1
strokes_ogs.tif
176
     1
290
     0
176
     1
 40
1.0
176
     1
 40
1.0
176
     1
  0
VISUALSTYLE
  5
1BC
102
{ACAD_REACTORS
330
1B1
102
}
330
1B1
100
AcDbVisualStyle
  2
Dim
 70
    11
177
     3
291
     1
 70
    58
 90
        2
176
     1
 90
        2
176
     1
 90
        0
176
     1
 90
        0
176
     1
 40
-0.6
176
     1
 40
-30.0
176
     1
 62
     7
176
     1
 90
        1
176
     1
 90
        4
176
     1
 62
     7
176
     1
 62
   257
176
     1
 90
        1
176
     1
 90
        1
176
     1
 40
1.0
176
     1
 90
        8
176
     1
 62
     7
176
     1
 40
1.0
176
     1
 90
        1
176
     1
 90
        6
176
     1
 90
        2
176
     1
 62
     7
176
     1
 90
        5
176
     1
 90
        0
176
     1
 90
        0
176
     1
290
     0
176
     1
 90
        1
176
     1
 40
-50.0
176
     1
 90
        0
176
     1
290
     0
176
     1
290
     1
176
     1
290
     1
176
     1
290
     0
176
     1
290
     0
176
     1
290
     0
176
     1
290
     0
176
     1
290
     0
176
     1
290
     0
176
     1
 90
       50
176
     1
 40
0.0
176
     1
 40
1.0
176
     1
 90
        0
176
     1
 62
    18
420
        0
176
     1
 90
       50
176
     1
 90
        3
176
     1
 62
     5
420
      255
176
     1
290
     0
176
     1
 90
       50
176
     1
 90
       50
176
     1
 90
       50
176
     1
290
     0
176
     1
 90
       50
176
     1
 62
   256
176
     0
 40
1.0
176
     0
 90
        2
176
     1
  1
strokes_ogs.tif
176
     1
290
     0
176
     1
 40
1.0
176
     1
 40
1.0
176
     1
  0
VISUALSTYLE
  5
212
102
{ACAD_REACTORS
330
1B1
102
}
330
1B1
100
AcDbVisualStyle
  2
EdgeColorOff
 70
    22
177
     3
291
     1
 70
    58
 90
        2
176
     0
 90
        2
176
     0
 90
        0
176
     0
 90
        0
176
     0
 40
0.6
176
     0
 40
30.0
176
     0
 62
     7
420
 16777215
176
     0
 90
        1
176
     0
 90
        4
176
     0
 62
     7
176
     0
 62
   257
176
     0
 90
        1
176
     0
 90
        1
176
     0
 40
1.0
176
     0
 90
        8
176
     2
 62
     7
176
     0
 40
1.0
176
     0
 90
        1
176
     0
 90
        6
176
     0
 90
        2
176
     0
 62
     7
176
     0
 90
        5
176
     0
 90
        0
176
     0
 90
        0
176
     0
290
     0
176
     0
 90
        1
176
     0
 40
0.0
176
     0
 90
        0
176
     0
290
     0
176
     0
290
     1
176
     0
290
     1
176
     0
290
     0
176
     0
290
     0
176
     0
290
     0
176
     0
290
     0
176
     0
290
     0
176
     0
290
     0
176
     0
 90
       50
176
     0
 40
0.0
176
     0
 40
1.0
176
     0
 90
        0
176
     0
 62
    18
420
        0
176
     0
 90
       50
176
     0
 90
        3
176
     0
 62
     5
420
      255
176
     0
290
     0
176
     0
 90
       50
176
     0
 90
       50
176
     0
 90
       50
176
     0
290
     0
176
     0
 90
       50
176
     0
 62
   256
176
     0
 40
1.0
176
     0
 90
        2
176
     0
  1
strokes_ogs.tif
176
     0
290
     0
176
     0
 40
1.0
176
     0
 40
1.0
176
     0
  0
VISUALSTYLE
  5
1C0
102
{ACAD_REACTORS
330
1B1
102
}
330
1B1
100
AcDbVisualStyle
  2
Facepattern
 70
    15
177
     3
291
     1
 70
    58
 90
        2
176
     1
 90
        2
176
     1
 90
        0
176
     1
 90
        0
176
     1
 40
-0.6
176
     1
 40
-30.0
176
     1
 62
     7
176
     1
 90
        1
176
     1
 90
        4
176
     1
 62
     7
176
     1
 62
   257
176
     1
 90
        1
176
     1
 90
        1
176
     1
 40
1.0
176
     1
 90
        8
176
     1
 62
     7
176
     1
 40
1.0
176
     1
 90
        1
176
     1
 90
        6
176
     1
 90
        2
176
     1
 62
     7
176
     1
 90
        5
176
     1
 90
        0
176
     1
 90
        0
176
     1
290
     0
176
     1
 90
        1
176
     1
 40
0.0
176
     1
 90
        0
176
     1
290
     0
176
     1
290
     1
176
     1
290
     1
176
     1
290
     0
176
     1
290
     0
176
     1
290
     0
176
     1
290
     0
176
     1
290
     0
176
     1
290
     0
176
     1
 90
       50
176
     1
 40
0.0
176
     1
 40
1.0
176
     1
 90
        0
176
     1
 62
    18
420
        0
176
     1
 90
       50
176
     1
 90
        3
176
     1
 62
     5
420
      255
176
     1
290
     0
176
     1
 90
       50
176
     1
 90
       50
176
     1
 90
       50
176
     1
290
     0
176
     1
 90
       50
176
     1
 62
   256
176
     0
 40
1.0
176
     0
 90
        2
176
     1
  1
strokes_ogs.tif
176
     1
290
     0
176
     1
 40
1.0
176
     1
 40
1.0
176
     1
  0
VISUALSTYLE
  5
1B2
102
{ACAD_REACTORS
330
1B1
102
}
330
1B1
100
AcDbVisualStyle
  2
Flat
 70
     0
177
     3
291
     1
 70
    58
 90
        2
176
     1
 90
        1
176
     1
 90
        1
176
     1
 90
        2
176
     1
 40
-0.6
176
     1
 40
30.0
176
     1
 62
     7
176
     1
 90
        0
176
     1
 90
        4
176
     1
 62
     7
176
     1
 62
   257
176
     1
 90
        1
176
     1
 90
        1
176
     1
 40
1.0
176
     1
 90
        8
176
     1
 62
     7
176
     1
 40
1.0
176
     1
 90
        1
176
     1
 90
        6
176
     1
 90
        2
176
     1
 62
     7
176
     1
 90
        5
176
     1
 90
        0
176
     1
 90
        0
176
     1
290
     0
176
     1
 90
       13
176
     1
 40
0.0
176
     1
 90
        0
176
     1
290
     0
176
     1
290
     1
176
     1
290
     1
176
     1
290
     0
176
     1
290
     0
176
     1
290
     0
176
     1
290
     0
176
     1
290
     0
176
     1
290
     0
176
     1
 90
       50
176
     1
 40
0.0
176
     1
 40
1.0
176
     1
 90
        0
176
     1
 62
    18
420
        0
176
     1
 90
       50
176
     1
 90
        3
176
     1
 62
     5
420
      255
176
     1
290
     0
176
     1
 90
       50
176
     1
 90
       50
176
     1
 90
       50
176
     1
290
     0
176
     1
 90
       50
176
     1
 62
   256
176
     0
 40
1.0
176
     0
 90
        2
176
     1
  1
strokes_ogs.tif
176
     1
290
     0
176
     1
 40
1.0
176
     1
 40
1.0
176
     1
  0
VISUALSTYLE
  5
1B3
102
{ACAD_REACTORS
330
1B1
102
}
330
1B1
100
AcDbVisualStyle
  2
FlatWithEdges
 70
     1
177
     3
291
     1
 70
    58
 90
        2
176
     1
 90
        1
176
     1
 90
        1
176
     1
 90
        2
176
     1
 40
-0.6
176
     1
 40
30.0
176
     1
 62
     7
176
     1
 90
        1
176
     1
 90
        4
176
     1
 62
     7
176
     1
 62
   257
176
     1
 90
        1
176
     1
 90
        1
176
     1
 40
1.0
176
     1
 90
        0
176
     1
 62
   257
176
     1
 40
1.0
176
     1
 90
        1
176
     1
 90
        6
176
     1
 90
        2
176
     1
 62
     7
176
     1
 90
        5
176
     1
 90
        0
176
     1
 90
        0
176
     1
290
     0
176
     1
 90
       13
176
     1
 40
0.0
176
     1
 90
        0
176
     1
290
     0
176
     1
290
     1
176
     1
290
     1
176
     1
290
     0
176
     1
290
     0
176
     1
290
     0
176
     1
290
     0
176
     1
290
     0
176
     1
290
     0
176
     1
 90
       50
176
     1
 40
0.0
176
     1
 40
1.0
176
     1
 90
        0
176
     1
 62
    18
420
        0
176
     1
 90
       50
176
     1
 90
        3
176
     1
 62
     5
420
      255
176
     1
290
     0
176
     1
 90
       50
176
     1
 90
       50
176
     1
 90
       50
176
     1
290
     0
176
     1
 90
       50
176
     1
 62
   256
176
     0
 40
1.0
176
     0
 90
        2
176
     1
  1
strokes_ogs.tif
176
     1
290
     0
176
     1
 40
1.0
176
     1
 40
1.0
176
     1
  0
VISUALSTYLE
  5
1B4
102
{ACAD_REACTORS
330
1B1
102
}
330
1B1
100
AcDbVisualStyle
  2
Gouraud
 70
     2
177
     3
291
     1
 70
    58
 90
        2
176
     1
 90
        2
176
     1
 90
        1
176
     1
 90
        2
176
     1
 40
-0.6
176
     1
 40
30.0
176
     1
 62
     7
176
     1
 90
        0
176
     1
 90
        4
176
     1
 62
     7
176
     1
 62
   257
176
     1
 90
        1
176
     1
 90
        1
176
     1
 40
1.0
176
     1
 90
        0
176
     1
 62
     7
176
     1
 40
1.0
176
     1
 90
        1
176
     1
 90
        6
176
     1
 90
        2
176
     1
 62
     7
176
     1
 90
        5
176
     1
 90
        0
176
     1
 90
        0
176
     1
290
     0
176
     1
 90
       13
176
     1
 40
0.0
176
     1
 90
        0
176
     1
290
     0
176
     1
290
     1
176
     1
290
     1
176
     1
290
     0
176
     1
290
     0
176
     1
290
     0
176
     1
290
     0
176
     1
290
     0
176
     1
290
     0
176
     1
 90
       50
176
     1
 40
0.0
176
     1
 40
1.0
176
     1
 90
        0
176
     1
 62
    18
420
        0
176
     1
 90
       50
176
     1
 90
        3
176
     1
 62
     5
420
      255
176
     1
290
     0
176
     1
 90
       50
176
     1
 90
       50
176
     1
 90
       50
176
     1
290
     0
176
     1
 90
       50
176
     1
 62
   256
176
     0
 40
1.0
176
     0
 90
        2
176
     1
  1
strokes_ogs.tif
176
     1
290
     0
176
     1
 40
1.0
176
     1
 40
1.0
176
     1
  0
VISUALSTYLE
  5
1B5
102
{ACAD_REACTORS
330
1B1
102
}
330
1B1
100
AcDbVisualStyle
  2
GouraudWithEdges
 70
     3
177
     3
291
     1
 70
    58
 90
        2
176
     1
 90
        2
176
     1
 90
        1
176
     1
 90
        2
176
     1
 40
-0.6
176
     1
 40
30.0
176
     1
 62
     7
176
     1
 90
        1
176
     1
 90
        4
176
     1
 62
     7
176
     1
 62
   257
176
     1
 90
        1
176
     1
 90
        1
176
     1
 40
1.0
176
     1
 90
        0
176
     1
 62
   257
176
     1
 40
1.0
176
     1
 90
        1
176
     1
 90
        6
176
     1
 90
        2
176
     1
 62
     7
176
     1
 90
        5
176
     1
 90
        0
176
     1
 90
        0
176
     1
290
     0
176
     1
 90
       13
176
     1
 40
0.0
176
     1
 90
        0
176
     1
290
     0
176
     1
290
     1
176
     1
290
     1
176
     1
290
     0
176
     1
290
     0
176
     1
290
     0
176
     1
290
     0
176
     1
290
     0
176
     1
290
     0
176
     1
 90
       50
176
     1
 40
0.0
176
     1
 40
1.0
176
     1
 90
        0
176
     1
 62
    18
420
        0
176
     1
 90
       50
176
     1
 90
        3
176
     1
 62
     5
420
      255
176
     1
290
     0
176
     1
 90
       50
176
     1
 90
       50
176
     1
 90
       50
176
     1
290
     0
176
     1
 90
       50
176
     1
 62
   256
176
     0
 40
1.0
176
     0
 90
        2
176
     1
  1
strokes_ogs.tif
176
     1
290
     0
176
     1
 40
1.0
176
     1
 40
1.0
176
     1
  0
VISUALSTYLE
  5
20F
102
{ACAD_REACTORS
330
1B1
102
}
330
1B1
100
AcDbVisualStyle
  2
Hidden
 70
     6
177
     3
291
     0
 70
    58
 90
        1
176
     1
 90
        2
176
     1
 90
        2
176
     1
 90
        0
176
     1
 40
0.6
176
     1
 40
30.0
176
     1
 62
     7
420
 16777215
176
     1
 90
        2
176
     1
 90
        2
176
     1
 62
     7
176
     1
 62
   257
176
     1
 90
        2
176
     1
 90
        1
176
     1
 40
40.0
176
     1
 90
        0
176
     1
 62
   257
176
     1
 40
1.0
176
     1
 90
        1
176
     1
 90
        6
176
     1
 90
        2
176
     1
 62
     7
176
     1
 90
        3
176
     1
 90
        0
176
     1
 90
        0
176
     1
290
     0
176
     1
 90
        1
176
     1
 40
0.0
176
     1
 90
        0
176
     1
290
     0
176
     1
290
     1
176
     1
290
     1
176
     1
290
     0
176
     1
290
     0
176
     1
290
     0
176
     1
290
     0
176
     1
290
     0
176
     1
290
     0
176
     1
 90
       50
176
     1
 40
0.0
176
     1
 40
1.0
176
     1
 90
        0
176
     1
 62
    18
420
        0
176
     1
 90
       50
176
     1
 90
        3
176
     1
 62
     5
420
      255
176
     1
290
     0
176
     1
 90
       50
176
     1
 90
       50
176
     1
 90
       50
176
     1
290
     0
176
     1
 90
       50
176
     1
 62
   256
176
     0
 40
1.0
176
     0
 90
        2
176
     1
  1
strokes_ogs.tif
176
     1
290
     0
176
     1
 40
1.0
176
     1
 40
1.0
176
     1
  0
VISUALSTYLE
  5
210
102
{ACAD_REACTORS
330
1B1
102
}
330
1B1
100
AcDbVisualStyle
  2
JitterOff
 70
    20
177
     3
291
     1
 70
    58
 90
        2
176
     0
 90
        2
176
     0
 90
        0
176
     0
 90
        0
176
     0
 40
0.6
176
     0
 40
30.0
176
     0
 62
     7
420
 16777215
176
     0
 90
        1
176
     0
 90
        4
176
     0
 62
     7
176
     0
 62
   257
176
     0
 90
        1
176
     0
 90
        1
176
     0
 40
1.0
176
     0
 90
       10
176
     2
 62
     7
176
     0
 40
1.0
176
     0
 90
        1
176
     0
 90
        6
176
     0
 90
        2
176
     0
 62
     7
176
     0
 90
        5
176
     0
 90
        0
176
     0
 90
        0
176
     0
290
     0
176
     0
 90
        1
176
     0
 40
0.0
176
     0
 90
        0
176
     0
290
     0
176
     0
290
     1
176
     0
290
     1
176
     0
290
     0
176
     0
290
     0
176
     0
290
     0
176
     0
290
     0
176
     0
290
     0
176
     0
290
     0
176
     0
 90
       50
176
     0
 40
0.0
176
     0
 40
1.0
176
     0
 90
        0
176
     0
 62
    18
420
        0
176
     0
 90
       50
176
     0
 90
        3
176
     0
 62
     5
420
      255
176
     0
290
     0
176
     0
 90
       50
176
     0
 90
       50
176
     0
 90
       50
176
     0
290
     0
176
     0
 90
       50
176
     0
 62
   256
176
     0
 40
1.0
176
     0
 90
        2
176
     0
  1
strokes_ogs.tif
176
     0
290
     0
176
     0
 40
1.0
176
     0
 40
1.0
176
     0
  0
VISUALSTYLE
  5
1BF
102
{ACAD_REACTORS
330
1B1
102
}
330
1B1
100
AcDbVisualStyle
  2
Linepattern
 70
    14
177
     3
291
     1
 70
    58
 90
        2
176
     1
 90
        2
176
     1
 90
        0
176
     1
 90
        0
176
     1
 40
-0.6
176
     1
 40
-30.0
176
     1
 62
     7
176
     1
 90
        1
176
     1
 90
        4
176
     1
 62
     7
176
     1
 62
   257
176
     1
 90
        7
176
     1
 90
        7
176
     1
 40
1.0
176
     1
 90
        8
176
     1
 62
     7
176
     1
 40
1.0
176
     1
 90
        1
176
     1
 90
        6
176
     1
 90
        2
176
     1
 62
     7
176
     1
 90
        5
176
     1
 90
        0
176
     1
 90
        0
176
     1
290
     0
176
     1
 90
        1
176
     1
 40
0.0
176
     1
 90
        0
176
     1
290
     0
176
     1
290
     1
176
     1
290
     1
176
     1
290
     0
176
     1
290
     0
176
     1
290
     0
176
     1
290
     0
176
     1
290
     0
176
     1
290
     0
176
     1
 90
       50
176
     1
 40
0.0
176
     1
 40
1.0
176
     1
 90
        0
176
     1
 62
    18
420
        0
176
     1
 90
       50
176
     1
 90
        3
176
     1
 62
     5
420
      255
176
     1
290
     0
176
     1
 90
       50
176
     1
 90
       50
176
     1
 90
       50
176
     1
290
     0
176
     1
 90
       50
176
     1
 62
   256
176
     0
 40
1.0
176
     0
 90
        2
176
     1
  1
strokes_ogs.tif
176
     1
290
     0
176
     1
 40
1.0
176
     1
 40
1.0
176
     1
  0
VISUALSTYLE
  5
211
102
{ACAD_REACTORS
330
1B1
102
}
330
1B1
100
AcDbVisualStyle
  2
OverhangOff
 70
    21
177
     3
291
     1
 70
    58
 90
        2
176
     0
 90
        2
176
     0
 90
        0
176
     0
 90
        0
176
     0
 40
0.6
176
     0
 40
30.0
176
     0
 62
     7
420
 16777215
176
     0
 90
        1
176
     0
 90
        4
176
     0
 62
     7
176
     0
 62
   257
176
     0
 90
        1
176
     0
 90
        1
176
     0
 40
1.0
176
     0
 90
        9
176
     2
 62
     7
176
     0
 40
1.0
176
     0
 90
        1
176
     0
 90
        6
176
     0
 90
        2
176
     0
 62
     7
176
     0
 90
        5
176
     0
 90
        0
176
     0
 90
        0
176
     0
290
     0
176
     0
 90
        1
176
     0
 40
0.0
176
     0
 90
        0
176
     0
290
     0
176
     0
290
     1
176
     0
290
     1
176
     0
290
     0
176
     0
290
     0
176
     0
290
     0
176
     0
290
     0
176
     0
290
     0
176
     0
290
     0
176
     0
 90
       50
176
     0
 40
0.0
176
     0
 40
1.0
176
     0
 90
        0
176
     0
 62
    18
420
        0
176
     0
 90
       50
176
     0
 90
        3
176
     0
 62
     5
420
      255
176
     0
290
     0
176
     0
 90
       50
176
     0
 90
       50
176
     0
 90
       50
176
     0
290
     0
176
     0
 90
       50
176
     0
 62
   256
176
     0
 40
1.0
176
     0
 90
        2
176
     0
  1
strokes_ogs.tif
176
     0
290
     0
176
     0
 40
1.0
176
     0
 40
1.0
176
     0
  0
VISUALSTYLE
  5
1BA
102
{ACAD_REACTORS
330
1B1
102
}
330
1B1
100
AcDbVisualStyle
  2
Realistic
 70
     8
177
     3
291
     0
 70
    58
 90
        2
176
     1
 90
        2
176
     1
 90
        0
176
     1
 90
        0
176
     1
 40
-0.6
176
     1
 40
-30.0
176
     1
 62
     7
176
     1
 90
        1
176
     1
 90
        0
176
     1
 62
     7
176
     1
 62
   257
176
     1
 90
        1
176
     1
 90
        1
176
     1
 40
1.0
176
     1
 90
        8
176
     1
 62
     8
176
     1
 40
1.0
176
     1
 90
        1
176
     1
 90
        6
176
     1
 90
        2
176
     1
 62
     7
176
     1
 90
        5
176
     1
 90
        0
176
     1
 90
        0
176
     1
290
     0
176
     1
 90
       13
176
     1
 40
0.0
176
     1
 90
        0
176
     1
290
     0
176
     1
290
     1
176
     1
290
     1
176
     1
290
     0
176
     1
290
     0
176
     1
290
     0
176
     1
290
     0
176
     1
290
     0
176
     1
290
     0
176
     1
 90
       50
176
     1
 40
0.0
176
     1
 40
1.0
176
     1
 90
        0
176
     1
 62
    18
420
        0
176
     1
 90
       50
176
     1
 90
        3
176
     1
 62
     5
420
      255
176
     1
290
     0
176
     1
 90
       50
176
     1
 90
       50
176
     1
 90
       50
176
     1
290
     0
176
     1
 90
       50
176
     1
 62
   256
176
     0
 40
1.0
176
     0
 90
        2
176
     1
  1
strokes_ogs.tif
176
     1
290
     0
176
     1
 40
1.0
176
     1
 40
1.0
176
     1
  0
VISUALSTYLE
  5
217
102
{ACAD_REACTORS
330
1B1
102
}
330
1B1
100
AcDbVisualStyle
  2
Shaded
 70
    27
177
     3
291
     0
 70
    58
 90
        2
176
     1
 90
        2
176
     1
 90
        1
176
     1
 90
        2
176
     1
 40
0.6
176
     1
 40
30.0
176
     1
 62
     7
420
 16777215
176
     1
 90
        0
176
     1
 90
        4
176
     1
 62
     7
176
     1
 62
   257
176
     1
 90
        1
176
     1
 90
        1
176
     1
 40
1.0
176
     1
 90
        8
176
     1
 62
   257
176
     1
 40
1.0
176
     1
 90
        1
176
     1
 90
        6
176
     1
 90
        2
176
     1
 62
     8
420
  7895160
176
     1
 90
        3
176
     1
 90
        0
176
     1
 90
        0
176
     1
290
     0
176
     1
 90
        5
176
     1
 40
0.0
176
     1
 90
        0
176
     1
290
     0
176
     1
290
     1
176
     1
290
     1
176
     1
290
     0
176
     1
290
     0
176
     1
290
     0
176
     1
290
     0
176
     1
290
     0
176
     1
290
     0
176
     1
 90
       50
176
     1
 40
0.0
176
     1
 40
1.0
176
     1
 90
        0
176
     1
 62
    18
420
        0
176
     1
 90
       50
176
     1
 90
        3
176
     1
 62
     5
420
      255
176
     1
290
     0
176
     1
 90
       50
176
     1
 90
       50
176
     1
 90
       50
176
     1
290
     0
176
     1
 90
       50
176
     1
 62
   256
176
     0
 40
1.0
176
     0
 90
        2
176
     1
  1
strokes_ogs.tif
176
     1
290
     0
176
     1
 40
1.0
176
     1
 40
1.0
176
     1
  0
VISUALSTYLE
  5
216
102
{ACAD_REACTORS
330
1B1
102
}
330
1B1
100
AcDbVisualStyle
  2
Shaded with edges
 70
    26
177
     3
291
     0
 70
    58
 90
        2
176
     1
 90
        2
176
     1
 90
        1
176
     1
 90
        2
176
     1
 40
0.6
176
     1
 40
30.0
176
     1
 62
     7
420
 16777215
176
     1
 90
        1
176
     1
 90
       10
176
     1
 62
     7
176
     1
 62
   257
176
     1
 90
        2
176
     1
 90
        1
176
     1
 40
1.0
176
     1
 90
        8
176
     1
 62
   257
176
     1
 40
1.0
176
     1
 90
        1
176
     1
 90
        6
176
     1
 90
        2
176
     1
 62
     7
176
     1
 90
        3
176
     1
 90
        0
176
     1
 90
        0
176
     1
290
     0
176
     1
 90
        5
176
     1
 40
0.0
176
     1
 90
        0
176
     1
290
     0
176
     1
290
     1
176
     1
290
     1
176
     1
290
     0
176
     1
290
     0
176
     1
290
     0
176
     1
290
     0
176
     1
290
     0
176
     1
290
     0
176
     1
 90
       50
176
     1
 40
0.0
176
     1
 40
1.0
176
     1
 90
        0
176
     1
 62
    18
420
        0
176
     1
 90
       50
176
     1
 90
        3
176
     1
 62
     5
420
      255
176
     1
290
     0
176
     1
 90
       50
176
     1
 90
       50
176
     1
 90
       50
176
     1
290
     0
176
     1
 90
       50
176
     1
 62
   256
176
     0
 40
1.0
176
     0
 90
        2
176
     1
  1
strokes_ogs.tif
176
     1
290
     0
176
     1
 40
1.0
176
     1
 40
1.0
176
     1
  0
VISUALSTYLE
  5
213
102
{ACAD_REACTORS
330
1B1
102
}
330
1B1
100
AcDbVisualStyle
  2
Shades of Gray
 70
    23
177
     3
291
     0
 70
    58
 90
        2
176
     1
 90
        2
176
     1
 90
        3
176
     1
 90
        0
176
     1
 40
0.6
176
     1
 40
30.0
176
     1
 62
     7
420
 16777215
176
     1
 90
        2
176
     1
 90
        2
176
     1
 62
     7
176
     1
 62
     7
176
     1
 90
        1
176
     1
 90
        1
176
     1
 40
40.0
176
     1
 90
        8
176
     1
 62
     7
176
     1
 40
1.0
176
     1
 90
        1
176
     1
 90
        6
176
     1
 90
        2
176
     1
 62
     7
176
     1
 90
        3
176
     1
 90
        0
176
     1
 90
        0
176
     1
290
     0
176
     1
 90
        1
176
     1
 40
0.0
176
     1
 90
        0
176
     1
290
     0
176
     1
290
     1
176
     1
290
     1
176
     1
290
     0
176
     1
290
     0
176
     1
290
     0
176
     1
290
     0
176
     1
290
     0
176
     1
290
     0
176
     1
 90
       50
176
     1
 40
0.0
176
     1
 40
1.0
176
     1
 90
        0
176
     1
 62
    18
420
        0
176
     1
 90
       50
176
     1
 90
        3
176
     1
 62
     5
420
      255
176
     1
290
     0
176
     1
 90
       50
176
     1
 90
       50
176
     1
 90
       50
176
     1
290
     0
176
     1
 90
       50
176
     1
 62
   256
176
     0
 40
1.0
176
     0
 90
        2
176
     1
  1
strokes_ogs.tif
176
     1
290
     0
176
     1
 40
1.0
176
     1
 40
1.0
176
     1
  0
VISUALSTYLE
  5
214
102
{ACAD_REACTORS
330
1B1
102
}
330
1B1
100
AcDbVisualStyle
  2
Sketchy
 70
    24
177
     3
291
     0
 70
    58
 90
        1
176
     1
 90
        2
176
     1
 90
        2
176
     1
 90
        0
176
     1
 40
0.6
176
     1
 40
30.0
176
     1
 62
     7
420
 16777215
176
     1
 90
        2
176
     1
 90
        2
176
     1
 62
     7
176
     1
 62
     7
176
     1
 90
        1
176
     1
 90
        1
176
     1
 40
40.0
176
     1
 90
       11
176
     1
 62
     7
176
     1
 40
1.0
176
     1
 90
        1
176
     1
 90
        6
176
     1
 90
        2
176
     1
 62
     7
176
     1
 90
        6
176
     1
 90
        0
176
     1
 90
        0
176
     1
290
     0
176
     1
 90
        1
176
     1
 40
0.0
176
     1
 90
        0
176
     1
290
     0
176
     1
290
     1
176
     1
290
     1
176
     1
290
     0
176
     1
290
     0
176
     1
290
     0
176
     1
290
     0
176
     1
290
     0
176
     1
290
     0
176
     1
 90
       50
176
     1
 40
0.0
176
     1
 40
1.0
176
     1
 90
        0
176
     1
 62
    18
420
        0
176
     1
 90
       50
176
     1
 90
        3
176
     1
 62
     5
420
      255
176
     1
290
     0
176
     1
 90
       50
176
     1
 90
       50
176
     1
 90
       50
176
     1
290
     0
176
     1
 90
       50
176
     1
 62
   256
176
     0
 40
1.0
176
     0
 90
        2
176
     1
  1
strokes_ogs.tif
176
     1
290
     0
176
     1
 40
1.0
176
     1
 40
1.0
176
     1
  0
VISUALSTYLE
  5
1BE
102
{ACAD_REACTORS
330
1B1
102
}
330
1B1
100
AcDbVisualStyle
  2
Thicken
 70
    13
177
     3
291
     1
 70
    58
 90
        2
176
     1
 90
        2
176
     1
 90
        0
176
     1
 90
        0
176
     1
 40
-0.6
176
     1
 40
-30.0
176
     1
 62
     7
176
     1
 90
        1
176
     1
 90
        4
176
     1
 62
     7
176
     1
 62
   257
176
     1
 90
        1
176
     1
 90
        1
176
     1
 40
1.0
176
     1
 90
       12
176
     1
 62
     7
176
     1
 40
1.0
176
     1
 90
        1
176
     1
 90
        6
176
     1
 90
        2
176
     1
 62
     7
176
     1
 90
        5
176
     1
 90
        0
176
     1
 90
        0
176
     1
290
     0
176
     1
 90
        1
176
     1
 40
0.0
176
     1
 90
        0
176
     1
290
     0
176
     1
290
     1
176
     1
290
     1
176
     1
290
     0
176
     1
290
     0
176
     1
290
     0
176
     1
290
     0
176
     1
290
     0
176
     1
290
     0
176
     1
 90
       50
176
     1
 40
0.0
176
     1
 40
1.0
176
     1
 90
        0
176
     1
 62
    18
420
        0
176
     1
 90
       50
176
     1
 90
        3
176
     1
 62
     5
420
      255
176
     1
290
     0
176
     1
 90
       50
176
     1
 90
       50
176
     1
 90
       50
176
     1
290
     0
176
     1
 90
       50
176
     1
 62
   256
176
     0
 40
1.0
176
     0
 90
        2
176
     1
  1
strokes_ogs.tif
176
     1
290
     0
176
     1
 40
1.0
176
     1
 40
1.0
176
     1
  0
VISUALSTYLE
  5
20E
102
{ACAD_REACTORS
330
1B1
102
}
330
1B1
100
AcDbVisualStyle
  2
Wireframe
 70
     5
177
     3
291
     0
 70
    58
 90
        0
176
     1
 90
        2
176
     1
 90
        0
176
     1
 90
        0
176
     1
 40
0.6
176
     1
 40
30.0
176
     1
 62
     7
420
 16777215
176
     1
 90
        1
176
     1
 90
        4
176
     1
 62
     7
176
     1
 62
   257
176
     1
 90
        1
176
     1
 90
        1
176
     1
 40
1.0
176
     1
 90
        0
176
     1
 62
   257
176
     1
 40
1.0
176
     1
 90
        1
176
     1
 90
        6
176
     1
 90
        2
176
     1
 62
     7
176
     1
 90
        3
176
     1
 90
        0
176
     1
 90
        0
176
     1
290
     0
176
     1
 90
        1
176
     1
 40
0.0
176
     1
 90
        0
176
     1
290
     0
176
     1
290
     1
176
     1
290
     1
176
     1
290
     0
176
     1
290
     0
176
     1
290
     0
176
     1
290
     0
176
     1
290
     0
176
     1
290
     0
176
     1
 90
       50
176
     1
 40
0.0
176
     1
 40
1.0
176
     1
 90
        0
176
     1
 62
    18
420
        0
176
     1
 90
       50
176
     1
 90
        3
176
     1
 62
     5
420
      255
176
     1
290
     0
176
     1
 90
       50
176
     1
 90
       50
176
     1
 90
       50
176
     1
290
     0
176
     1
 90
       50
176
     1
 62
   256
176
     0
 40
1.0
176
     0
 90
        2
176
     1
  1
strokes_ogs.tif
176
     1
290
     0
176
     1
 40
1.0
176
     1
 40
1.0
176
     1
  0
VISUALSTYLE
  5
215
102
{ACAD_REACTORS
330
1B1
102
}
330
1B1
100
AcDbVisualStyle
  2
X-Ray
 70
    25
177
     3
291
     0
 70
    58
 90
        2
176
     1
 90
        2
176
     1
 90
        1
176
     1
 90
        1
176
     1
 40
0.5
176
     1
 40
30.0
176
     1
 62
     7
420
 16777215
176
     1
 90
        1
176
     1
 90
        0
176
     1
 62
     7
176
     1
 62
   257
176
     1
 90
        1
176
     1
 90
        1
176
     1
 40
1.0
176
     1
 90
        8
176
     1
 62
     7
176
     1
 40
1.0
176
     1
 90
        1
176
     1
 90
        6
176
     1
 90
        2
176
     1
 62
     7
176
     1
 90
        3
176
     1
 90
        0
176
     1
 90
        0
176
     1
290
     0
176
     1
 90
       13
176
     1
 40
0.0
176
     1
 90
        0
176
     1
290
     0
176
     1
290
     1
176
     1
290
     1
176
     1
290
     0
176
     1
290
     0
176
     1
290
     0
176
     1
290
     0
176
     1
290
     0
176
     1
290
     0
176
     1
 90
       50
176
     1
 40
0.0
176
     1
 40
1.0
176
     1
 90
        0
176
     1
 62
    18
420
        0
176
     1
 90
       50
176
     1
 90
        3
176
     1
 62
     5
420
      255
176
     1
290
     0
176
     1
 90
       50
176
     1
 90
       50
176
     1
 90
       50
176
     1
290
     0
176
     1
 90
       50
176
     1
 62
   256
176
     0
 40
1.0
176
     0
 90
        2
176
     1
  1
strokes_ogs.tif
176
     1
290
     0
176
     1
 40
1.0
176
     1
 40
1.0
176
     1
  0
DICTIONARYVAR
  5
222
102
{ACAD_REACTORS
330
1CD
102
}
330
1CD
100
DictionaryVariables
280
     0
  1
1:1
  0
DICTIONARYVAR
  5
224
102
{ACAD_REACTORS
330
1CD
102
}
330
1CD
100
DictionaryVariables
280
     0
  1
Standard
  0
DICTIONARYVAR
  5
223
102
{ACAD_REACTORS
330
1CD
102
}
330
1CD
100
DictionaryVariables
280
     0
  1
Standard
  0
DICTIONARYVAR
  5
1D1
102
{ACAD_REACTORS
330
1CD
102
}
330
1CD
100
DictionaryVariables
280
     0
  1
2
  0
DICTIONARYVAR
  5
1D2
102
{ACAD_REACTORS
330
1CD
102
}
330
1CD
100
DictionaryVariables
280
     0
  1
1
  0
DICTIONARYVAR
  5
1D0
102
{ACAD_REACTORS
330
1CD
102
}
330
1CD
100
DictionaryVariables
280
     0
  1
0
  0
DICTIONARY
  5
32C
330
219
100
AcDbDictionary
280
     1
281
     1
  3
ACAD_ROUNDTRIP_2008_TABLESTYLE_CELLSTYLEMAP
360
32D
  0
CELLSTYLEMAP
  5
32D
102
{ACAD_REACTORS
330
32C
102
}
330
32C
100
AcDbCellStyleMap
 90
        3
300
CELLSTYLE
  1
TABLEFORMAT_BEGIN
 90
        5
170
     1
 91
        0
 92
    32768
 62
   257
 93
        1
300
CONTENTFORMAT
  1
CONTENTFORMAT_BEGIN
 90
        0
 91
        0
 92
        4
 93
        0
300

 40
0.0
140
1.0
 94
        5
 62
     0
340
11
144
0.25
309
CONTENTFORMAT_END
171
     1
301
MARGIN
  1
CELLMARGIN_BEGIN
 40
0.06
 40
0.06
 40
0.06
 40
0.06
 40
0.06
 40
0.06
309
CELLMARGIN_END
 94
        6
 95
        1
302
GRIDFORMAT
  1
GRIDFORMAT_BEGIN
 90
        0
 91
        1
 62
     0
 92
       -2
340
14
 93
        0
 40
0.045
309
GRIDFORMAT_END
 95
        2
302
GRIDFORMAT
  1
GRIDFORMAT_BEGIN
 90
        0
 91
        1
 62
     0
 92
       -2
340
14
 93
        0
 40
0.045
309
GRIDFORMAT_END
 95
        4
302
GRIDFORMAT
  1
GRIDFORMAT_BEGIN
 90
        0
 91
        1
 62
     0
 92
       -2
340
14
 93
        0
 40
0.045
309
GRIDFORMAT_END
 95
        8
302
GRIDFORMAT
  1
GRIDFORMAT_BEGIN
 90
        0
 91
        1
 62
     0
 92
       -2
340
14
 93
        0
 40
0.045
309
GRIDFORMAT_END
 95
       16
302
GRIDFORMAT
  1
GRIDFORMAT_BEGIN
 90
        0
 91
        1
 62
     0
 92
       -2
340
14
 93
        0
 40
0.045
309
GRIDFORMAT_END
 95
       32
302
GRIDFORMAT
  1
GRIDFORMAT_BEGIN
 90
        0
 91
        1
 62
     0
 92
       -2
340
14
 93
        0
 40
0.045
309
GRIDFORMAT_END
309
TABLEFORMAT_END
  1
CELLSTYLE_BEGIN
 90
        1
 91
        1
300
_TITLE
309
CELLSTYLE_END
300
CELLSTYLE
  1
TABLEFORMAT_BEGIN
 90
        5
170
     1
 91
        0
 92
        0
 62
   257
 93
        1
300
CONTENTFORMAT
  1
CONTENTFORMAT_BEGIN
 90
        0
 91
        0
 92
        4
 93
        0
300

 40
0.0
140
1.0
 94
        5
 62
     0
340
11
144
0.18
309
CONTENTFORMAT_END
171
     1
301
MARGIN
  1
CELLMARGIN_BEGIN
 40
0.06
 40
0.06
 40
0.06
 40
0.06
 40
0.06
 40
0.06
309
CELLMARGIN_END
 94
        6
 95
        1
302
GRIDFORMAT
  1
GRIDFORMAT_BEGIN
 90
        0
 91
        1
 62
     0
 92
       -2
340
14
 93
        0
 40
0.045
309
GRIDFORMAT_END
 95
        2
302
GRIDFORMAT
  1
GRIDFORMAT_BEGIN
 90
        0
 91
        1
 62
     0
 92
       -2
340
14
 93
        0
 40
0.045
309
GRIDFORMAT_END
 95
        4
302
GRIDFORMAT
  1
GRIDFORMAT_BEGIN
 90
        0
 91
        1
 62
     0
 92
       -2
340
14
 93
        0
 40
0.045
309
GRIDFORMAT_END
 95
        8
302
GRIDFORMAT
  1
GRIDFORMAT_BEGIN
 90
        0
 91
        1
 62
     0
 92
       -2
340
14
 93
        0
 40
0.045
309
GRIDFORMAT_END
 95
       16
302
GRIDFORMAT
  1
GRIDFORMAT_BEGIN
 90
        0
 91
        1
 62
     0
 92
       -2
340
14
 93
        0
 40
0.045
309
GRIDFORMAT_END
 95
       32
302
GRIDFORMAT
  1
GRIDFORMAT_BEGIN
 90
        0
 91
        1
 62
     0
 92
       -2
340
14
 93
        0
 40
0.045
309
GRIDFORMAT_END
309
TABLEFORMAT_END
  1
CELLSTYLE_BEGIN
 90
        2
 91
        1
300
_HEADER
309
CELLSTYLE_END
300
CELLSTYLE
  1
TABLEFORMAT_BEGIN
 90
        5
170
     1
 91
        0
 92
        0
 62
   257
 93
        1
300
CONTENTFORMAT
  1
CONTENTFORMAT_BEGIN
 90
        0
 91
        0
 92
        4
 93
        0
300

 40
0.0
140
1.0
 94
        2
 62
     0
340
11
144
0.18
309
CONTENTFORMAT_END
171
     1
301
MARGIN
  1
CELLMARGIN_BEGIN
 40
0.06
 40
0.06
 40
0.06
 40
0.06
 40
0.06
 40
0.06
309
CELLMARGIN_END
 94
        6
 95
        1
302
GRIDFORMAT
  1
GRIDFORMAT_BEGIN
 90
        0
 91
        1
 62
     0
 92
       -2
340
14
 93
        0
 40
0.045
309
GRIDFORMAT_END
 95
        2
302
GRIDFORMAT
  1
GRIDFORMAT_BEGIN
 90
        0
 91
        1
 62
     0
 92
       -2
340
14
 93
        0
 40
0.045
309
GRIDFORMAT_END
 95
        4
302
GRIDFORMAT
  1
GRIDFORMAT_BEGIN
 90
        0
 91
        1
 62
     0
 92
       -2
340
14
 93
        0
 40
0.045
309
GRIDFORMAT_END
 95
        8
302
GRIDFORMAT
  1
GRIDFORMAT_BEGIN
 90
        0
 91
        1
 62
     0
 92
       -2
340
14
 93
        0
 40
0.045
309
GRIDFORMAT_END
 95
       16
302
GRIDFORMAT
  1
GRIDFORMAT_BEGIN
 90
        0
 91
        1
 62
     0
 92
       -2
340
14
 93
        0
 40
0.045
309
GRIDFORMAT_END
 95
       32
302
GRIDFORMAT
  1
GRIDFORMAT_BEGIN
 90
        0
 91
        1
 62
     0
 92
       -2
340
14
 93
        0
 40
0.045
309
GRIDFORMAT_END
309
TABLEFORMAT_END
  1
CELLSTYLE_BEGIN
 90
        3
 91
        2
300
_DATA
309
CELLSTYLE_END
  0
ENDSEC
  0
EOF
